0
SECTION
2
HEADER
9
$MEASUREMENT
70
1
0
ENDSEC
0
SECTION
2
TABLES
0
TABLE
2
LTYPE
0
LTYPE
72
65
70
64
2
CONTINUOUS
3
______
73
0
40
0
0
ENDTAB
0
TABLE
2
LAYER
0
LAYER
2
DEFAULT_255_2_778
70
0
62
255
6
CONTINUOUS
0
ENDTAB
0
ENDSEC
0
SECTION
2
ENTITIES
0
ARC
8
DEFAULT_255_2_778
10
2.1157693
20
20.009632
40
0.3988264
50
315.6112663
51
359.4126791
0
LINE
8
DEFAULT_255_2_778
10
53.3143747
20
76.8060438
11
26.3143747
21
76.8060438
0
LINE
8
DEFAULT_255_2_778
10
26.3143747
20
76.8060438
11
24.6144747
21
78.5059438
0
LINE
8
DEFAULT_255_2_778
10
24.6144747
20
78.5059438
11
24.6144747
21
89.9060438
0
LINE
8
DEFAULT_255_2_778
10
0.3280747
20
17.5443438
11
2.4007747
21
19.7306438
0
LINE
8
DEFAULT_255_2_778
10
2.5145747
20
20.0055438
11
2.5145747
21
89.4813438
0
ARC
8
DEFAULT_255_2_778
10
3.0142954
20
89.4061331
40
0.4997474
50
134.9793514
51
180.0112208
0
ARC
8
DEFAULT_255_2_778
10
3.0146221
20
89.4062141
40
0.4999212
50
89.9970411
51
135.0124029
0
ARC
8
DEFAULT_255_2_778
10
3.0143595
20
0.4062468
40
0.5000116
50
179.9898688
51
269.9986732
0
ARC
8
DEFAULT_255_2_778
10
2.0141616
20
1.0274438
40
0.5001863
50
359.987564
51
39.3863545
0
LINE
8
DEFAULT_255_2_778
10
3.0146479
20
89.9061352
11
76.5145479
21
89.9061352
0
LINE
8
DEFAULT_255_2_778
10
76.5142479
20
-0.0937648
11
3.0143479
21
-0.0937648
0
LINE
8
DEFAULT_255_2_778
10
2.5143479
20
0.4063352
11
2.5143479
21
1.0273352
0
LINE
8
DEFAULT_255_2_778
10
2.4007479
20
1.3448352
11
0.3280479
21
3.8681352
0
ARC
8
DEFAULT_255_2_778
10
32.8147077
20
49.0060688
40
0.5000757
50
90.0086719
51
180.002778
0
ARC
8
DEFAULT_255_2_778
10
35.014635
20
49.0060477
40
0.5000969
50
359.9996485
51
90.0003515
0
ARC
8
DEFAULT_255_2_778
10
32.8146861
20
26.9061989
40
0.5000543
50
180.0062212
51
269.9937926
0
ARC
8
DEFAULT_255_2_778
10
35.0143779
20
26.9061988
40
0.5000541
50
270.0061976
51
359.9937909
0
ARC
8
DEFAULT_255_2_778
10
76.2411226
20
55.1297604
40
0.2737787
50
277.8722079
51
357.0236179
0
ARC
8
DEFAULT_255_2_778
10
76.2147657
20
55.1943513
40
0.3418069
50
269.9608185
51
280.7669792
0
LINE
8
DEFAULT_255_2_778
10
53.314332
20
54.4061446
11
26.314332
21
54.4061446
0
LINE
8
DEFAULT_255_2_778
10
26.314332
20
54.4061446
11
24.614432
21
52.7062446
0
LINE
8
DEFAULT_255_2_778
10
24.614432
20
52.7062446
11
24.614432
21
-0.0937554
0
LINE
8
DEFAULT_255_2_778
10
32.814632
20
49.5061446
11
35.014632
21
49.5061446
0
LINE
8
DEFAULT_255_2_778
10
35.514732
20
49.0060446
11
35.514732
21
45.9059446
0
LINE
8
DEFAULT_255_2_778
10
35.514732
20
45.9059446
11
32.314832
21
45.9059446
0
LINE
8
DEFAULT_255_2_778
10
32.314832
20
45.9059446
11
32.314832
21
49.0060446
0
LINE
8
DEFAULT_255_2_778
10
30.514632
20
49.0060446
11
30.514632
21
14.4059446
0
LINE
8
DEFAULT_255_2_778
10
32.314632
20
26.9061446
11
32.314632
21
35.9062446
0
LINE
8
DEFAULT_255_2_778
10
32.314632
20
35.9062446
11
35.514432
21
35.9062446
0
LINE
8
DEFAULT_255_2_778
10
35.514432
20
35.9062446
11
35.514432
21
26.9061446
0
LINE
8
DEFAULT_255_2_778
10
35.014432
20
26.4061446
11
32.814432
21
26.4061446
0
LINE
8
DEFAULT_255_2_778
10
40.514532
20
45.9061446
11
37.314732
21
45.9061446
0
LINE
8
DEFAULT_255_2_778
10
30.514332
20
45.9061446
11
27.314532
21
45.9061446
0
LINE
8
DEFAULT_255_2_778
10
76.514532
20
89.8783446
11
76.514532
21
55.1155446
0
LINE
8
DEFAULT_255_2_778
10
76.214532
20
54.8525446
11
75.514432
21
54.8525446
0
LINE
8
DEFAULT_255_2_778
10
75.514432
20
54.8525446
11
74.914332
21
55.5536446
0
LINE
8
DEFAULT_255_2_778
10
74.914332
20
55.5536446
11
74.764332
21
56.3424446
0
LINE
8
DEFAULT_255_2_778
10
24.9144813
20
89.60603
11
24.6144813
21
89.60603
0
LINE
8
DEFAULT_255_2_778
10
24.6144813
20
0.20593
11
24.9144813
21
0.20593
0
LINE
8
DEFAULT_255_2_778
10
24.9144736
20
89.9060675
11
24.9144736
21
78.2061675
0
LINE
8
DEFAULT_255_2_778
10
24.9144736
20
53.0059675
11
24.9144736
21
-0.0940325
0
LINE
8
DEFAULT_255_2_778
10
72.5145736
20
10.6061675
11
42.5145736
21
10.6061675
0
LINE
8
DEFAULT_255_2_778
10
42.5145736
20
10.6061675
11
42.5145736
21
50.6061675
0
LINE
8
DEFAULT_255_2_778
10
42.5145736
20
50.6061675
11
72.5145736
21
50.6061675
0
LINE
8
DEFAULT_255_2_778
10
73.6144736
20
27.2061675
11
73.6144736
21
27.7062675
0
LINE
8
DEFAULT_255_2_778
10
73.6144736
20
27.7062675
11
74.6145736
21
27.7062675
0
LINE
8
DEFAULT_255_2_778
10
74.6145736
20
27.7062675
11
74.8146736
21
29.0061675
0
LINE
8
DEFAULT_255_2_778
10
74.8146736
20
29.0061675
11
75.2146736
21
29.0061675
0
LINE
8
DEFAULT_255_2_778
10
75.2146736
20
29.0061675
11
76.2833736
21
27.1153675
0
ARC
8
DEFAULT_255_2_778
10
44.4395599
20
48.598937
40
1.4934862
50
150.1402842
51
180.0758155
0
ARC
8
DEFAULT_255_2_778
10
44.4465781
20
48.5960903
40
1.5009904
50
97.8783281
51
150.1794258
0
ARC
8
DEFAULT_255_2_778
10
44.4458445
20
48.5832338
40
1.5136271
50
89.9912778
51
97.7841148
0
ARC
8
DEFAULT_255_2_778
10
70.4482207
20
48.603688
40
1.4931744
50
60.1407646
51
90.0823389
0
ARC
8
DEFAULT_255_2_778
10
70.4450983
20
48.5962264
40
1.5012004
50
7.8853098
51
60.1791952
0
ARC
8
DEFAULT_255_2_778
10
70.4325273
20
48.5970074
40
1.5135476
50
359.9982366
51
7.7907399
0
ARC
8
DEFAULT_255_2_778
10
70.4526865
20
12.6396968
40
1.4933897
50
330.1376206
51
0.0753509
0
ARC
8
DEFAULT_255_2_778
10
70.4454814
20
12.6426329
40
1.5011006
50
277.8804145
51
330.1773667
0
ARC
8
DEFAULT_255_2_778
10
70.4463033
20
12.655109
40
1.5133483
50
269.9913538
51
277.7848279
0
ARC
8
DEFAULT_255_2_778
10
44.4439061
20
12.635014
40
1.4932547
50
240.1850302
51
270.0832178
0
ARC
8
DEFAULT_255_2_778
10
44.4469926
20
12.6423271
40
1.5011348
50
187.8886658
51
240.2216004
0
ARC
8
DEFAULT_255_2_778
10
44.4597922
20
12.6416127
40
1.5137174
50
179.9981772
51
187.7953851
0
ARC
8
DEFAULT_255_2_778
10
0.7146647
20
17.2271254
40
0.50009
50
140.6277071
51
179.980925
0
ARC
8
DEFAULT_255_2_778
10
0.4469039
20
17.2271841
40
0.2323292
50
179.9734255
51
180.0797256
0
ARC
8
DEFAULT_255_2_778
10
0.4469039
20
4.1847375
40
0.2323292
50
179.9202744
51
180.0265745
0
ARC
8
DEFAULT_255_2_778
10
0.7146647
20
4.1847963
40
0.50009
50
180.019075
51
219.3722929
0
LINE
8
DEFAULT_255_2_778
10
44.4460749
20
50.0968608
11
70.4460749
21
50.0968608
0
LINE
8
DEFAULT_255_2_778
10
71.9460749
20
48.5969608
11
71.9460749
21
12.6416608
0
LINE
8
DEFAULT_255_2_778
10
70.4460749
20
11.1417608
11
44.4460749
21
11.1417608
0
LINE
8
DEFAULT_255_2_778
10
42.9460749
20
12.6416608
11
42.9460749
21
48.5969608
0
LINE
8
DEFAULT_255_2_778
10
0.2145749
20
17.2268608
11
0.2145749
21
4.1850608
0
ARC
8
DEFAULT_255_2_778
10
52.6098743
20
6.1079013
40
1.0952808
50
141.7937994
51
180.0887261
0
ARC
8
DEFAULT_255_2_778
10
52.6136736
20
6.1079489
40
1.0982394
50
93.576878
51
141.9183419
0
ARC
8
DEFAULT_255_2_778
10
52.6145232
20
6.0894522
40
1.1167531
50
89.9963258
51
93.5611799
0
ARC
8
DEFAULT_255_2_778
10
52.6162909
20
6.1109257
40
1.0952808
50
51.7937994
51
90.0887261
0
ARC
8
DEFAULT_255_2_778
10
52.6163385
20
6.1071264
40
1.0982394
50
3.576878
51
51.9183419
0
ARC
8
DEFAULT_255_2_778
10
52.5978418
20
6.1062768
40
1.1167531
50
359.9963258
51
3.5611799
0
ARC
8
DEFAULT_255_2_778
10
52.6193153
20
6.1045091
40
1.0952808
50
321.7937994
51
0.0887261
0
ARC
8
DEFAULT_255_2_778
10
52.6155161
20
6.1044615
40
1.0982394
50
273.576878
51
321.9183419
0
ARC
8
DEFAULT_255_2_778
10
52.6146664
20
6.1229582
40
1.1167531
50
269.9963258
51
273.5611799
0
ARC
8
DEFAULT_255_2_778
10
52.6128987
20
6.1014847
40
1.0952808
50
231.7937994
51
270.0887261
0
ARC
8
DEFAULT_255_2_778
10
52.6128511
20
6.1052839
40
1.0982394
50
183.576878
51
231.9183419
0
ARC
8
DEFAULT_255_2_778
10
52.6313478
20
6.1061336
40
1.1167531
50
179.9963258
51
183.5611799
0
LINE
8
DEFAULT_255_2_778
10
51.5145948
20
6.1062052
11
51.5145948
21
6.1062052
0
ARC
8
DEFAULT_255_2_778
10
52.6098743
20
83.7078013
40
1.0952808
50
141.7937994
51
180.0887261
0
ARC
8
DEFAULT_255_2_778
10
52.6136736
20
83.7078489
40
1.0982394
50
93.576878
51
141.9183419
0
ARC
8
DEFAULT_255_2_778
10
52.6145232
20
83.6893522
40
1.1167531
50
89.9963258
51
93.5611799
0
ARC
8
DEFAULT_255_2_778
10
52.6162909
20
83.7108257
40
1.0952808
50
51.7937994
51
90.0887261
0
ARC
8
DEFAULT_255_2_778
10
52.6163385
20
83.7070264
40
1.0982394
50
3.576878
51
51.9183419
0
ARC
8
DEFAULT_255_2_778
10
52.5978418
20
83.7061768
40
1.1167531
50
359.9963258
51
3.5611799
0
ARC
8
DEFAULT_255_2_778
10
52.6193153
20
83.7044091
40
1.0952808
50
321.7937994
51
0.0887261
0
ARC
8
DEFAULT_255_2_778
10
52.6155161
20
83.7043615
40
1.0982394
50
273.576878
51
321.9183419
0
ARC
8
DEFAULT_255_2_778
10
52.6146664
20
83.7228582
40
1.1167531
50
269.9963258
51
273.5611799
0
ARC
8
DEFAULT_255_2_778
10
52.6128987
20
83.7013847
40
1.0952808
50
231.7937994
51
270.0887261
0
ARC
8
DEFAULT_255_2_778
10
52.6128511
20
83.7051839
40
1.0982394
50
183.576878
51
231.9183419
0
ARC
8
DEFAULT_255_2_778
10
52.6313478
20
83.7060336
40
1.1167531
50
179.9963258
51
183.5611799
0
LINE
8
DEFAULT_255_2_778
10
51.5145948
20
83.7061052
11
51.5145948
21
83.7061052
0
LINE
8
DEFAULT_255_2_778
10
15.5143646
20
0.1059364
11
12.3144646
21
0.1059364
0
LINE
8
DEFAULT_255_2_778
10
12.3144646
20
2.8060364
11
15.5143646
21
2.8060364
0
ARC
8
DEFAULT_255_2_778
10
12.5157547
20
4.7056996
40
0.2012227
50
135.1759923
51
179.9008381
0
ARC
8
DEFAULT_255_2_778
10
12.5139981
20
4.7069597
40
0.1990888
50
89.846247
51
135.0768473
0
ARC
8
DEFAULT_255_2_778
10
15.3142145
20
4.7044147
40
0.2016335
50
45.2240865
51
89.8812609
0
ARC
8
DEFAULT_255_2_778
10
15.3152221
20
4.7065487
40
0.1994108
50
359.8560922
51
44.9977457
0
LINE
8
DEFAULT_255_2_778
10
12.3145323
20
-0.0940522
11
12.3145323
21
4.7060478
0
LINE
8
DEFAULT_255_2_778
10
12.5145323
20
4.9060478
11
15.3146323
21
4.9060478
0
LINE
8
DEFAULT_255_2_778
10
15.5146323
20
4.7060478
11
15.5146323
21
-0.0940522
0
LINE
8
DEFAULT_255_2_778
10
20.5145323
20
0.1059364
11
17.3146323
21
0.1059364
0
LINE
8
DEFAULT_255_2_778
10
17.3146323
20
2.8060364
11
20.5147323
21
2.8060364
0
ARC
8
DEFAULT_255_2_778
10
17.5158547
20
4.7056996
40
0.2012227
50
135.1759923
51
179.9008381
0
ARC
8
DEFAULT_255_2_778
10
17.5140981
20
4.7069597
40
0.1990888
50
89.846247
51
135.0768473
0
ARC
8
DEFAULT_255_2_778
10
20.3143145
20
4.7044147
40
0.2016335
50
45.2240865
51
89.8812609
0
ARC
8
DEFAULT_255_2_778
10
20.3153221
20
4.7065487
40
0.1994108
50
359.8560922
51
44.9977457
0
LINE
8
DEFAULT_255_2_778
10
17.3146323
20
-0.0940522
11
17.3146323
21
4.7060478
0
LINE
8
DEFAULT_255_2_778
10
17.5146323
20
4.9060478
11
20.3147323
21
4.9060478
0
LINE
8
DEFAULT_255_2_778
10
20.5147323
20
4.7060478
11
20.5147323
21
-0.0940522
0
LINE
8
DEFAULT_255_2_778
10
15.5143491
20
22.7061927
11
12.3144491
21
22.7061927
0
LINE
8
DEFAULT_255_2_778
10
15.5143491
20
24.7061927
11
12.3144491
21
24.7061927
0
LINE
8
DEFAULT_255_2_778
10
10.5145491
20
22.7061927
11
7.3146491
21
22.7061927
0
LINE
8
DEFAULT_255_2_778
10
10.5146012
20
24.7061927
11
7.3147012
21
24.7061927
0
LINE
8
DEFAULT_255_2_778
10
20.5145012
20
22.7061927
11
17.3146012
21
22.7061927
0
LINE
8
DEFAULT_255_2_778
10
20.5145012
20
24.7061411
11
17.3146012
21
24.7061411
0
LINE
8
DEFAULT_255_2_778
10
15.5144012
20
64.1060411
11
12.3145012
21
64.1060411
0
LINE
8
DEFAULT_255_2_778
10
15.5144012
20
66.1060411
11
12.3145012
21
66.1060411
0
LINE
8
DEFAULT_255_2_778
10
10.5146012
20
64.1060411
11
7.3147012
21
64.1060411
0
LINE
8
DEFAULT_255_2_778
10
10.5146012
20
66.1059927
11
7.3147012
21
66.1059927
0
LINE
8
DEFAULT_255_2_778
10
20.5145012
20
64.1059927
11
17.3146012
21
64.1059927
0
LINE
8
DEFAULT_255_2_778
10
20.5145012
20
66.1060113
11
17.3146012
21
66.1060113
0
LINE
8
DEFAULT_255_2_778
10
15.5144012
20
54.7062113
11
12.3145012
21
54.7062113
0
LINE
8
DEFAULT_255_2_778
10
12.3145012
20
52.7062113
11
15.5144012
21
52.7062113
0
LINE
8
DEFAULT_255_2_778
10
10.5146012
20
54.7062113
11
7.3147012
21
54.7062113
0
LINE
8
DEFAULT_255_2_778
10
7.3147012
20
52.7062113
11
10.5146012
21
52.7062113
0
LINE
8
DEFAULT_255_2_778
10
20.5145012
20
54.7062113
11
17.3146012
21
54.7062113
0
LINE
8
DEFAULT_255_2_778
10
17.3146012
20
52.7062113
11
20.5145012
21
52.7062113
0
ARC
8
DEFAULT_255_2_778
10
37.8148293
20
72.3059393
40
0.5000969
50
89.9996485
51
180.0003515
0
ARC
8
DEFAULT_255_2_778
10
40.0147566
20
72.3059605
40
0.5000758
50
359.9972237
51
89.991324
0
ARC
8
DEFAULT_255_2_778
10
40.0147566
20
57.906012
40
0.5000757
50
270.008676
51
0.0027763
0
ARC
8
DEFAULT_255_2_778
10
37.8148293
20
57.9060332
40
0.5000969
50
179.9996485
51
270.0003515
0
LINE
8
DEFAULT_255_2_778
10
37.8148323
20
72.8060362
11
40.0148323
21
72.8060362
0
LINE
8
DEFAULT_255_2_778
10
40.5148323
20
72.3059362
11
40.5148323
21
57.9060362
0
LINE
8
DEFAULT_255_2_778
10
40.0148323
20
57.4059362
11
37.8148323
21
57.4059362
0
LINE
8
DEFAULT_255_2_778
10
37.3147323
20
57.9060362
11
37.3147323
21
72.3059362
0
LINE
8
DEFAULT_255_2_778
10
40.5145366
20
64.1059738
11
37.3147366
21
64.1059738
0
LINE
8
DEFAULT_255_2_778
10
40.5145366
20
66.1059738
11
37.3147366
21
66.1059738
0
LINE
8
DEFAULT_255_2_778
10
30.5146366
20
72.3059738
11
30.5146366
21
57.9060738
0
ARC
8
DEFAULT_255_2_778
10
32.8147293
20
72.3059393
40
0.5000969
50
89.9996485
51
180.0003515
0
ARC
8
DEFAULT_255_2_778
10
35.0146566
20
72.3059605
40
0.5000758
50
359.9972237
51
89.991324
0
ARC
8
DEFAULT_255_2_778
10
35.0146566
20
57.906012
40
0.5000757
50
270.008676
51
0.0027763
0
ARC
8
DEFAULT_255_2_778
10
32.8147293
20
57.9060332
40
0.5000969
50
179.9996485
51
270.0003515
0
LINE
8
DEFAULT_255_2_778
10
32.8147323
20
72.8060362
11
35.0147323
21
72.8060362
0
LINE
8
DEFAULT_255_2_778
10
35.5147323
20
72.3059362
11
35.5147323
21
57.9060362
0
LINE
8
DEFAULT_255_2_778
10
35.0147323
20
57.4059362
11
32.8147323
21
57.4059362
0
LINE
8
DEFAULT_255_2_778
10
32.3146323
20
57.9060362
11
32.3146323
21
72.3059362
0
ARC
8
DEFAULT_255_2_778
10
30.0143851
20
57.9059428
40
0.4999994
50
315.0075237
51
0.0107106
0
ARC
8
DEFAULT_255_2_778
10
30.0143381
20
57.9060319
40
0.5000956
50
270.0053149
51
315.0041129
0
ARC
8
DEFAULT_255_2_778
10
27.8142866
20
57.9056837
40
0.4997474
50
224.9793514
51
270.0112208
0
ARC
8
DEFAULT_255_2_778
10
27.8143801
20
57.9060826
40
0.5000956
50
180.0053149
51
225.0041129
0
ARC
8
DEFAULT_255_2_778
10
27.8140319
20
72.3060341
40
0.4997474
50
134.9793514
51
180.0112208
0
ARC
8
DEFAULT_255_2_778
10
27.8142866
20
72.3062888
40
0.4997474
50
89.9887792
51
135.0206486
0
ARC
8
DEFAULT_255_2_778
10
30.0143381
20
72.3059406
40
0.5000956
50
44.9958871
51
89.9946851
0
ARC
8
DEFAULT_255_2_778
10
30.0147331
20
72.3061738
40
0.4996515
50
359.9727611
51
45.0090046
0
LINE
8
DEFAULT_255_2_778
10
35.5144845
20
64.1060362
11
32.3146845
21
64.1060362
0
LINE
8
DEFAULT_255_2_778
10
35.5144845
20
66.1060362
11
32.3146845
21
66.1060362
0
LINE
8
DEFAULT_255_2_778
10
30.0143845
20
57.4059362
11
27.8143845
21
57.4059362
0
LINE
8
DEFAULT_255_2_778
10
27.3142845
20
57.9060362
11
27.3142845
21
72.3059362
0
LINE
8
DEFAULT_255_2_778
10
27.8143845
20
72.8060362
11
30.0143845
21
72.8060362
0
ARC
8
DEFAULT_255_2_778
10
12.8145503
20
9.406098
40
0.5000969
50
179.9996485
51
270.0003515
0
ARC
8
DEFAULT_255_2_778
10
12.8142008
20
80.405999
40
0.4997474
50
134.9793514
51
180.0112208
0
ARC
8
DEFAULT_255_2_778
10
12.8144555
20
80.4062537
40
0.4997474
50
89.9887792
51
135.0206486
0
ARC
8
DEFAULT_255_2_778
10
15.014507
20
80.4059055
40
0.5000956
50
44.9958871
51
89.9946851
0
ARC
8
DEFAULT_255_2_778
10
15.014902
20
80.4061386
40
0.4996515
50
359.9727611
51
45.0090046
0
ARC
8
DEFAULT_255_2_778
10
15.0144777
20
9.4060769
40
0.5000757
50
270.008676
51
0.0027763
0
LINE
8
DEFAULT_255_2_778
10
30.5143534
20
64.1060011
11
27.3144534
21
64.1060011
0
LINE
8
DEFAULT_255_2_778
10
30.5143534
20
66.1060011
11
27.3144534
21
66.1060011
0
LINE
8
DEFAULT_255_2_778
10
12.3144534
20
9.4061011
11
12.3144534
21
80.4059011
0
LINE
8
DEFAULT_255_2_778
10
12.8145534
20
80.9060011
11
15.0145534
21
80.9060011
0
LINE
8
DEFAULT_255_2_778
10
15.5145534
20
80.4059011
11
15.5145534
21
9.4061011
0
LINE
8
DEFAULT_255_2_778
10
15.0145534
20
8.9060011
11
12.8145534
21
8.9060011
0
ARC
8
DEFAULT_255_2_778
10
7.8147245
20
21.4062644
40
0.5000755
50
180.0086483
51
270.0028154
0
ARC
8
DEFAULT_255_2_778
10
7.8143965
20
68.4060868
40
0.4997474
50
134.9793514
51
180.0112208
0
ARC
8
DEFAULT_255_2_778
10
7.8147233
20
68.4061673
40
0.4999216
50
89.9970509
51
135.012375
0
ARC
8
DEFAULT_255_2_778
10
10.0147027
20
68.4059933
40
0.5000956
50
44.9958871
51
89.9946851
0
ARC
8
DEFAULT_255_2_778
10
10.0150977
20
68.4062265
40
0.4996515
50
359.9727611
51
45.0090046
0
ARC
8
DEFAULT_255_2_778
10
10.0146733
20
21.4059647
40
0.5000757
50
270.008676
51
0.0027763
0
LINE
8
DEFAULT_255_2_778
10
15.5143491
20
43.3060889
11
12.3144491
21
43.3060889
0
LINE
8
DEFAULT_255_2_778
10
12.3144491
20
38.5059889
11
15.5143491
21
38.5059889
0
LINE
8
DEFAULT_255_2_778
10
7.3146491
20
21.4061889
11
7.3146491
21
68.4059889
0
LINE
8
DEFAULT_255_2_778
10
7.8147491
20
68.9060889
11
10.0147491
21
68.9060889
0
LINE
8
DEFAULT_255_2_778
10
10.5147491
20
68.4059889
11
10.5147491
21
21.4059889
0
LINE
8
DEFAULT_255_2_778
10
10.0147491
20
20.9058889
11
7.8147491
21
20.9058889
0
ARC
8
DEFAULT_255_2_778
10
17.8146659
20
9.406098
40
0.5000969
50
179.9996485
51
270.0003515
0
ARC
8
DEFAULT_255_2_778
10
17.8143164
20
80.405999
40
0.4997474
50
134.9793514
51
180.0112208
0
ARC
8
DEFAULT_255_2_778
10
17.8147153
20
80.4059055
40
0.5000956
50
90.0053149
51
135.0041129
0
ARC
8
DEFAULT_255_2_778
10
20.0146225
20
80.4059055
40
0.5000956
50
44.9958871
51
89.9946851
0
ARC
8
DEFAULT_255_2_778
10
20.0150215
20
80.405999
40
0.4997474
50
359.9887792
51
45.0206486
0
ARC
8
DEFAULT_255_2_778
10
20.014672
20
9.406098
40
0.5000969
50
269.9996485
51
0.0003515
0
LINE
8
DEFAULT_255_2_778
10
10.5145689
20
43.3061011
11
7.3146689
21
43.3061011
0
LINE
8
DEFAULT_255_2_778
10
7.3146689
20
38.5060011
11
10.5145689
21
38.5060011
0
LINE
8
DEFAULT_255_2_778
10
17.3145689
20
9.4061011
11
17.3145689
21
80.4059011
0
LINE
8
DEFAULT_255_2_778
10
17.8146689
20
80.9060011
11
20.0146689
21
80.9060011
0
LINE
8
DEFAULT_255_2_778
10
20.5147689
20
80.4059011
11
20.5147689
21
9.4061011
0
LINE
8
DEFAULT_255_2_778
10
20.0146689
20
8.9060011
11
17.8146689
21
8.9060011
0
ARC
8
DEFAULT_255_2_778
10
15.3131951
20
85.1063846
40
0.201222
50
315.1759492
51
359.9009609
0
ARC
8
DEFAULT_255_2_778
10
15.314855
20
85.1053564
40
0.1993203
50
269.8452912
51
315.0492268
0
ARC
8
DEFAULT_255_2_778
10
12.514865
20
85.1072591
40
0.2012227
50
225.1759923
51
269.9008381
0
ARC
8
DEFAULT_255_2_778
10
12.5136052
20
85.1055027
40
0.1990892
50
179.8462956
51
225.0768099
0
LINE
8
DEFAULT_255_2_778
10
20.5145168
20
43.3061368
11
17.3146168
21
43.3061368
0
LINE
8
DEFAULT_255_2_778
10
17.3146168
20
38.5060368
11
20.5145168
21
38.5060368
0
LINE
8
DEFAULT_255_2_778
10
15.5144168
20
89.9061368
11
15.5144168
21
85.1060368
0
LINE
8
DEFAULT_255_2_778
10
15.3143168
20
84.9060368
11
12.5145168
21
84.9060368
0
LINE
8
DEFAULT_255_2_778
10
12.3145168
20
85.1060368
11
12.3145168
21
89.9061368
0
ARC
8
DEFAULT_255_2_778
10
20.3132951
20
85.1062957
40
0.201222
50
315.1759492
51
359.9009609
0
ARC
8
DEFAULT_255_2_778
10
20.314955
20
85.1052672
40
0.1993201
50
269.8452748
51
315.0492733
0
ARC
8
DEFAULT_255_2_778
10
17.5149648
20
85.1071706
40
0.2012231
50
225.1761234
51
269.9008998
0
ARC
8
DEFAULT_255_2_778
10
17.5137053
20
85.1054137
40
0.1990892
50
179.8462716
51
225.0767775
0
LINE
8
DEFAULT_255_2_778
10
12.3145168
20
89.7060478
11
15.5144168
21
89.7060478
0
LINE
8
DEFAULT_255_2_778
10
15.5144168
20
86.6061478
11
12.3145168
21
86.6061478
0
LINE
8
DEFAULT_255_2_778
10
20.5145168
20
89.9060478
11
20.5145168
21
85.1059478
0
LINE
8
DEFAULT_255_2_778
10
20.3144168
20
84.9059478
11
17.5146168
21
84.9059478
0
LINE
8
DEFAULT_255_2_778
10
17.3146168
20
85.1059478
11
17.3146168
21
89.9060478
0
LINE
8
DEFAULT_255_2_778
10
17.3146012
20
89.7060345
11
20.5145012
21
89.7060345
0
LINE
8
DEFAULT_255_2_778
10
20.5147012
20
86.6061345
11
17.3146012
21
86.6061345
0
LINE
8
DEFAULT_255_2_778
10
30.5144012
20
21.4059345
11
27.3145012
21
21.4059345
0
LINE
8
DEFAULT_255_2_778
10
30.5144689
20
26.4061645
11
27.3145689
21
26.4061645
0
LINE
8
DEFAULT_255_2_778
10
40.5146689
20
35.9062645
11
37.3147689
21
35.9062645
0
ARC
8
DEFAULT_255_2_778
10
37.8147736
20
49.0060325
40
0.5000116
50
90.0013268
51
180.0101312
0
ARC
8
DEFAULT_255_2_778
10
40.0147651
20
49.0059472
40
0.5000969
50
359.9996485
51
90.0003515
0
ARC
8
DEFAULT_255_2_778
10
40.0148504
20
26.9058557
40
0.5000116
50
269.9898688
51
359.9986732
0
ARC
8
DEFAULT_255_2_778
10
37.8146882
20
26.9057703
40
0.4999262
50
179.9915458
51
270.0084542
0
ARC
8
DEFAULT_255_2_778
10
30.0142863
20
14.4061199
40
0.5000757
50
270.008676
51
0.0027763
0
ARC
8
DEFAULT_255_2_778
10
27.8143589
20
14.406141
40
0.5000969
50
179.9996485
51
270.0003515
0
ARC
8
DEFAULT_255_2_778
10
27.8143589
20
49.0059472
40
0.5000969
50
89.9996485
51
180.0003515
0
ARC
8
DEFAULT_255_2_778
10
30.0142863
20
49.0059683
40
0.5000758
50
359.9972237
51
89.991324
0
LINE
8
DEFAULT_255_2_778
10
37.814762
20
49.5060441
11
40.014762
21
49.5060441
0
LINE
8
DEFAULT_255_2_778
10
40.514862
20
49.0059441
11
40.514862
21
26.9058441
0
LINE
8
DEFAULT_255_2_778
10
40.014762
20
26.4058441
11
37.814762
21
26.4058441
0
LINE
8
DEFAULT_255_2_778
10
37.314762
20
26.9058441
11
37.314762
21
49.0059441
0
LINE
8
DEFAULT_255_2_778
10
30.514362
20
35.9062441
11
27.314562
21
35.9062441
0
LINE
8
DEFAULT_255_2_778
10
30.014362
20
13.9060441
11
27.814362
21
13.9060441
0
LINE
8
DEFAULT_255_2_778
10
27.314262
20
14.4061441
11
27.314262
21
49.0059441
0
LINE
8
DEFAULT_255_2_778
10
27.814362
20
49.5060441
11
30.014362
21
49.5060441
0
LINE
8
DEFAULT_255_2_778
10
62.314662
20
3.5061441
11
65.514562
21
3.5061441
0
LINE
8
DEFAULT_255_2_778
10
65.514562
20
0.1059441
11
62.314662
21
0.1059441
0
ARC
8
DEFAULT_255_2_778
10
62.5158547
20
4.7056996
40
0.2012227
50
135.1759923
51
179.9008381
0
ARC
8
DEFAULT_255_2_778
10
62.5140981
20
4.7069597
40
0.1990888
50
89.846247
51
135.0768473
0
ARC
8
DEFAULT_255_2_778
10
65.3143145
20
4.7044147
40
0.2016335
50
45.2240865
51
89.8812609
0
ARC
8
DEFAULT_255_2_778
10
65.3153221
20
4.7065487
40
0.1994108
50
359.8560922
51
44.9977457
0
LINE
8
DEFAULT_255_2_778
10
62.3146323
20
-0.0940522
11
62.3146323
21
4.7060478
0
LINE
8
DEFAULT_255_2_778
10
62.5146323
20
4.9060478
11
65.3147323
21
4.9060478
0
LINE
8
DEFAULT_255_2_778
10
65.5147323
20
4.7060478
11
65.5147323
21
-0.0940522
0
ARC
8
DEFAULT_255_2_778
10
31.8145293
20
43.3060063
40
0.5000756
50
89.9972001
51
179.9913338
0
ARC
8
DEFAULT_255_2_778
10
32.8146633
20
43.3060916
40
0.4999904
50
359.9988949
51
90.0010993
0
ARC
8
DEFAULT_255_2_778
10
32.8146422
20
38.5058935
40
0.5000116
50
270.0013268
51
0.0101312
0
ARC
8
DEFAULT_255_2_778
10
31.8145507
20
38.5059789
40
0.5000969
50
179.9996485
51
270.0003515
0
LINE
8
DEFAULT_255_2_778
10
73.5144538
20
62.3060819
11
76.5145538
21
62.3060819
0
LINE
8
DEFAULT_255_2_778
10
73.5144538
20
62.6060819
11
76.5145538
21
62.6060819
0
LINE
8
DEFAULT_255_2_778
10
31.8145538
20
43.8060819
11
32.8146538
21
43.8060819
0
LINE
8
DEFAULT_255_2_778
10
33.3146538
20
43.3060819
11
33.3146538
21
38.5059819
0
LINE
8
DEFAULT_255_2_778
10
32.8146538
20
38.0058819
11
31.8145538
21
38.0058819
0
LINE
8
DEFAULT_255_2_778
10
33.3145073
20
43.3061353
11
31.3145073
21
43.3061353
0
LINE
8
DEFAULT_255_2_778
10
31.3145073
20
43.3061353
11
31.3145073
21
38.5060353
0
LINE
8
DEFAULT_255_2_778
10
31.3145073
20
38.5060353
11
33.3145073
21
38.5060353
0
LINE
8
DEFAULT_255_2_778
10
31.8145261
20
43.3061353
11
31.8145261
21
38.5060353
0
LINE
8
DEFAULT_255_2_778
10
31.4145261
20
43.3061353
11
31.4145261
21
38.5060353
0
LINE
8
DEFAULT_255_2_778
10
33.1144261
20
38.5060353
11
33.1144261
21
43.3061353
0
ARC
8
DEFAULT_255_2_778
10
57.5157547
20
4.7056996
40
0.2012227
50
135.1759923
51
179.9008381
0
ARC
8
DEFAULT_255_2_778
10
57.5139981
20
4.7069597
40
0.1990888
50
89.846247
51
135.0768473
0
ARC
8
DEFAULT_255_2_778
10
60.3142145
20
4.7044147
40
0.2016335
50
45.2240865
51
89.8812609
0
ARC
8
DEFAULT_255_2_778
10
60.3156394
20
4.7067207
40
0.1989941
50
359.8062727
51
45.0476882
0
LINE
8
DEFAULT_255_2_778
10
57.3145323
20
-0.0940522
11
57.3145323
21
4.7060478
0
LINE
8
DEFAULT_255_2_778
10
57.5145323
20
4.9060478
11
60.3146323
21
4.9060478
0
LINE
8
DEFAULT_255_2_778
10
60.5146323
20
4.7060478
11
60.5146323
21
-0.0940522
0
LINE
8
DEFAULT_255_2_778
10
57.3146316
20
3.5061843
11
60.5144316
21
3.5061843
0
LINE
8
DEFAULT_255_2_778
10
60.5144316
20
0.1059843
11
57.3146316
21
0.1059843
0
LINE
8
DEFAULT_255_2_778
10
41.6145316
20
81.9061843
11
35.6145316
21
81.9061843
0
LINE
8
DEFAULT_255_2_778
10
41.6145314
20
85.8060603
11
41.6145314
21
81.2060603
0
LINE
8
DEFAULT_255_2_778
10
41.6145314
20
81.2060603
11
35.6145314
21
81.2060603
0
LINE
8
DEFAULT_255_2_778
10
35.6145314
20
81.2060603
11
35.6145314
21
85.8060603
0
LINE
8
DEFAULT_255_2_778
10
35.6145314
20
85.8060603
11
41.6145314
21
85.8060603
0
LINE
8
DEFAULT_255_2_778
10
46.1126314
20
81.6060603
11
46.1126314
21
80.6059603
0
LINE
8
DEFAULT_255_2_778
10
47.6128334
20
81.6061625
11
45.6147334
21
81.6061625
0
LINE
8
DEFAULT_255_2_778
10
45.6147334
20
81.6061625
11
45.6147334
21
80.6060625
0
LINE
8
DEFAULT_255_2_778
10
45.6147334
20
80.6060625
11
47.6128334
21
80.6060625
0
LINE
8
DEFAULT_255_2_778
10
45.5147271
20
81.8061552
11
47.6128271
21
81.8061552
0
LINE
8
DEFAULT_255_2_778
10
47.6128271
20
81.8061552
11
47.6128271
21
80.4062552
0
LINE
8
DEFAULT_255_2_778
10
47.6128271
20
80.4062552
11
45.5147271
21
80.4062552
0
LINE
8
DEFAULT_255_2_778
10
45.5146857
20
81.9061707
11
54.1146857
21
81.9061707
0
LINE
8
DEFAULT_255_2_778
10
54.1146857
20
81.9061707
11
54.1146857
21
80.3062707
0
LINE
8
DEFAULT_255_2_778
10
54.1146857
20
80.3062707
11
45.5146857
21
80.3062707
0
LINE
8
DEFAULT_255_2_778
10
45.5146857
20
80.3062707
11
45.5146857
21
81.9061707
0
LINE
8
DEFAULT_255_2_778
10
34.1145857
20
-0.1937293
11
34.1145857
21
-0.0937293
0
LINE
8
DEFAULT_255_2_778
10
31.1144857
20
-0.0937293
11
31.1144857
21
-0.1937293
0
LINE
8
DEFAULT_255_2_778
10
35.6144857
20
7.9061707
11
41.6144857
21
7.9061707
0
LINE
8
DEFAULT_255_2_778
10
41.6145314
20
8.6059603
11
41.6145314
21
4.0059603
0
LINE
8
DEFAULT_255_2_778
10
41.6145314
20
4.0059603
11
35.6145314
21
4.0059603
0
LINE
8
DEFAULT_255_2_778
10
35.6145314
20
4.0059603
11
35.6145314
21
8.6059603
0
LINE
8
DEFAULT_255_2_778
10
35.6145314
20
8.6059603
11
41.6145314
21
8.6059603
0
LINE
8
DEFAULT_255_2_778
10
46.1126314
20
8.2059603
11
46.1126314
21
9.2060603
0
LINE
8
DEFAULT_255_2_778
10
47.6128334
20
9.2060625
11
45.6147334
21
9.2060625
0
LINE
8
DEFAULT_255_2_778
10
45.6147334
20
9.2060625
11
45.6147334
21
8.2059625
0
LINE
8
DEFAULT_255_2_778
10
45.6147334
20
8.2059625
11
47.6128334
21
8.2059625
0
LINE
8
DEFAULT_255_2_778
10
45.5147271
20
8.0061552
11
47.6128271
21
8.0061552
0
LINE
8
DEFAULT_255_2_778
10
47.6128271
20
8.0061552
11
47.6128271
21
9.4060552
0
LINE
8
DEFAULT_255_2_778
10
47.6128271
20
9.4060552
11
45.5147271
21
9.4060552
0
ARC
8
DEFAULT_255_2_778
10
70.2146249
20
52.3061578
40
0.5000754
50
269.9971846
51
359.9913517
0
ARC
8
DEFAULT_255_2_778
10
53.8146758
20
52.3061578
40
0.5000755
50
180.0086483
51
270.0028154
0
ARC
8
DEFAULT_255_2_778
10
53.8146973
20
78.9059854
40
0.5000969
50
89.9996485
51
180.0003515
0
ARC
8
DEFAULT_255_2_778
10
70.2146034
20
78.9059854
40
0.5000969
50
359.9996485
51
90.0003515
0
ARC
8
DEFAULT_255_2_778
10
53.4147098
20
79.3059729
40
0.3001094
50
90.0208901
51
179.9791099
0
ARC
8
DEFAULT_255_2_778
10
70.6145909
20
79.3059729
40
0.3001094
50
0.0208901
51
89.9791099
0
ARC
8
DEFAULT_255_2_778
10
70.6145694
20
51.9061132
40
0.3001309
50
270.0249951
51
359.9941098
0
ARC
8
DEFAULT_255_2_778
10
53.4147313
20
51.9061132
40
0.3001309
50
180.0058902
51
269.9750049
0
LINE
8
DEFAULT_255_2_778
10
54.1147004
20
9.5060823
11
54.1147004
21
7.9060823
0
LINE
8
DEFAULT_255_2_778
10
54.1147004
20
7.9060823
11
45.5147004
21
7.9060823
0
LINE
8
DEFAULT_255_2_778
10
45.5147004
20
7.9060823
11
45.5147004
21
9.5060823
0
LINE
8
DEFAULT_255_2_778
10
45.5147004
20
9.5060823
11
54.1147004
21
9.5060823
0
LINE
8
DEFAULT_255_2_778
10
70.2146004
20
51.8060823
11
53.8147004
21
51.8060823
0
LINE
8
DEFAULT_255_2_778
10
53.3146004
20
52.3060823
11
53.3146004
21
78.9059823
0
LINE
8
DEFAULT_255_2_778
10
53.8147004
20
79.4060823
11
70.2146004
21
79.4060823
0
LINE
8
DEFAULT_255_2_778
10
70.7147004
20
78.9059823
11
70.7147004
21
52.3060823
0
LINE
8
DEFAULT_255_2_778
10
53.4146004
20
79.6060823
11
70.6147004
21
79.6060823
0
LINE
8
DEFAULT_255_2_778
10
70.9147004
20
79.3060823
11
70.9147004
21
51.9060823
0
LINE
8
DEFAULT_255_2_778
10
70.6147004
20
51.6059823
11
53.4146004
21
51.6059823
0
LINE
8
DEFAULT_255_2_778
10
53.1146004
20
51.9060823
11
53.1146004
21
60.6060823
0
LINE
8
DEFAULT_255_2_778
10
53.1146004
20
60.6060823
11
51.1146004
21
60.6060823
0
LINE
8
DEFAULT_255_2_778
10
51.1146004
20
60.6060823
11
51.1146004
21
70.6059823
0
LINE
8
DEFAULT_255_2_778
10
51.1146004
20
70.6059823
11
53.1146004
21
70.6059823
0
LINE
8
DEFAULT_255_2_778
10
53.1146004
20
70.6059823
11
53.1146004
21
79.3060823
0
ARC
8
DEFAULT_255_2_778
10
8.9097743
20
72.4080013
40
1.0952808
50
141.7937994
51
180.0887261
0
ARC
8
DEFAULT_255_2_778
10
8.9135736
20
72.4080489
40
1.0982394
50
93.576878
51
141.9183419
0
ARC
8
DEFAULT_255_2_778
10
8.9144232
20
72.3895522
40
1.1167531
50
89.9963258
51
93.5611799
0
ARC
8
DEFAULT_255_2_778
10
8.9161909
20
72.4110257
40
1.0952808
50
51.7937994
51
90.0887261
0
ARC
8
DEFAULT_255_2_778
10
8.9162385
20
72.4072264
40
1.0982394
50
3.576878
51
51.9183419
0
ARC
8
DEFAULT_255_2_778
10
8.8977418
20
72.4063768
40
1.1167531
50
359.9963258
51
3.5611799
0
ARC
8
DEFAULT_255_2_778
10
8.9192153
20
72.4046091
40
1.0952808
50
321.7937994
51
0.0887261
0
ARC
8
DEFAULT_255_2_778
10
8.9154161
20
72.4045615
40
1.0982394
50
273.576878
51
321.9183419
0
ARC
8
DEFAULT_255_2_778
10
8.9145664
20
72.4230582
40
1.1167531
50
269.9963258
51
273.5611799
0
ARC
8
DEFAULT_255_2_778
10
8.9127987
20
72.4015847
40
1.0952808
50
231.7937994
51
270.0887261
0
ARC
8
DEFAULT_255_2_778
10
8.9127511
20
72.4053839
40
1.0982394
50
183.576878
51
231.9183419
0
ARC
8
DEFAULT_255_2_778
10
8.9312478
20
72.4062336
40
1.1167531
50
179.9963258
51
183.5611799
0
LINE
8
DEFAULT_255_2_778
10
7.8144948
20
72.4063052
11
7.8144948
21
72.4063052
0
ARC
8
DEFAULT_255_2_778
10
8.9112853
20
72.4091448
40
1.1968243
50
146.3618776
51
180.1377463
0
ARC
8
DEFAULT_255_2_778
10
8.9110735
20
72.4096086
40
1.1963911
50
95.8706904
51
146.3747523
0
ARC
8
DEFAULT_255_2_778
10
8.9141316
20
72.3819357
40
1.2242317
50
89.9891034
51
95.880592
0
ARC
8
DEFAULT_255_2_778
10
8.9171647
20
72.4095368
40
1.196634
50
56.099833
51
90.1340763
0
ARC
8
DEFAULT_255_2_778
10
8.9175853
20
72.4093854
40
1.1965252
50
5.850581
51
56.1205944
0
ARC
8
DEFAULT_255_2_778
10
8.8906407
20
72.4064992
40
1.2236237
50
359.9891518
51
5.8564152
0
ARC
8
DEFAULT_255_2_778
10
8.9176337
20
72.4034673
40
1.196634
50
326.099833
51
0.1340763
0
ARC
8
DEFAULT_255_2_778
10
8.9174824
20
72.4030467
40
1.1965252
50
275.850581
51
326.1205944
0
ARC
8
DEFAULT_255_2_778
10
8.9145961
20
72.4299913
40
1.2236237
50
269.9891518
51
275.8564152
0
ARC
8
DEFAULT_255_2_778
10
8.9115643
20
72.4029982
40
1.196634
50
236.099833
51
270.1340763
0
ARC
8
DEFAULT_255_2_778
10
8.9111436
20
72.4031496
40
1.1965252
50
185.850581
51
236.1205944
0
ARC
8
DEFAULT_255_2_778
10
8.9380883
20
72.4060358
40
1.2236237
50
179.9891518
51
185.8564152
0
ARC
8
DEFAULT_255_2_778
10
73.1649867
20
59.9061315
40
0.7495779
50
306.8442028
51
0.0103991
0
ARC
8
DEFAULT_255_2_778
10
73.1645133
20
59.9062667
40
0.7500512
50
0.0000623
51
53.1377081
0
LINE
8
DEFAULT_255_2_778
10
7.7144645
20
72.4062675
11
7.7144645
21
72.4062675
0
LINE
8
DEFAULT_255_2_778
10
73.5144938
20
60.5061427
11
73.6144938
21
60.5061427
0
LINE
8
DEFAULT_255_2_778
10
73.6144938
20
60.5061427
11
73.6144938
21
59.3062427
0
LINE
8
DEFAULT_255_2_778
10
73.6144938
20
59.3062427
11
73.5144938
21
59.3062427
0
ARC
8
DEFAULT_255_2_778
10
46.6099743
20
83.7075013
40
1.0952808
50
141.7937994
51
180.0887261
0
ARC
8
DEFAULT_255_2_778
10
46.6137736
20
83.7075489
40
1.0982394
50
93.576878
51
141.9183419
0
ARC
8
DEFAULT_255_2_778
10
46.6146232
20
83.6890522
40
1.1167531
50
89.9963258
51
93.5611799
0
ARC
8
DEFAULT_255_2_778
10
46.6163909
20
83.7105257
40
1.0952808
50
51.7937994
51
90.0887261
0
ARC
8
DEFAULT_255_2_778
10
46.6164385
20
83.7067264
40
1.0982394
50
3.576878
51
51.9183419
0
ARC
8
DEFAULT_255_2_778
10
46.5979418
20
83.7058768
40
1.1167531
50
359.9963258
51
3.5611799
0
ARC
8
DEFAULT_255_2_778
10
46.6194153
20
83.7041091
40
1.0952808
50
321.7937994
51
0.0887261
0
ARC
8
DEFAULT_255_2_778
10
46.6156161
20
83.7040615
40
1.0982394
50
273.576878
51
321.9183419
0
ARC
8
DEFAULT_255_2_778
10
46.6147664
20
83.7225582
40
1.1167531
50
269.9963258
51
273.5611799
0
ARC
8
DEFAULT_255_2_778
10
46.6129987
20
83.7010847
40
1.0952808
50
231.7937994
51
270.0887261
0
ARC
8
DEFAULT_255_2_778
10
46.6129511
20
83.7048839
40
1.0982394
50
183.576878
51
231.9183419
0
ARC
8
DEFAULT_255_2_778
10
46.6314478
20
83.7057336
40
1.1167531
50
179.9963258
51
183.5611799
0
ARC
8
DEFAULT_255_2_778
10
46.6109341
20
83.7072611
40
0.9962403
50
138.3561595
51
180.0837306
0
ARC
8
DEFAULT_255_2_778
10
46.6135259
20
83.7082703
40
0.9975096
50
91.7301295
51
138.4984071
0
ARC
8
DEFAULT_255_2_778
10
46.6146851
20
83.6870495
40
1.0187558
50
89.9994546
51
91.7592604
0
ARC
8
DEFAULT_255_2_778
10
46.6161507
20
83.7095659
40
0.9962403
50
48.3561595
51
90.0837306
0
ARC
8
DEFAULT_255_2_778
10
46.61716
20
83.7069741
40
0.9975096
50
1.7301295
51
48.4984071
0
ARC
8
DEFAULT_255_2_778
10
46.5959392
20
83.7058149
40
1.0187558
50
359.9994546
51
1.7592604
0
ARC
8
DEFAULT_255_2_778
10
46.6184556
20
83.7043493
40
0.9962403
50
318.3561595
51
0.0837306
0
ARC
8
DEFAULT_255_2_778
10
46.6158637
20
83.70334
40
0.9975096
50
271.7301295
51
318.4984071
0
ARC
8
DEFAULT_255_2_778
10
46.6147045
20
83.7245608
40
1.0187558
50
269.9994546
51
271.7592604
0
ARC
8
DEFAULT_255_2_778
10
46.6132389
20
83.7020444
40
0.9962403
50
228.3561595
51
270.0837306
0
ARC
8
DEFAULT_255_2_778
10
46.6122297
20
83.7046363
40
0.9975096
50
181.7301295
51
228.4984071
0
ARC
8
DEFAULT_255_2_778
10
46.6334505
20
83.7057955
40
1.0187558
50
179.9994546
51
181.7592604
0
LINE
8
DEFAULT_255_2_778
10
45.5146948
20
83.7058052
11
45.5146948
21
83.7058052
0
LINE
8
DEFAULT_255_2_778
10
45.6146948
20
83.7058052
11
45.6146948
21
83.7058052
0
ARC
8
DEFAULT_255_2_778
10
69.5115637
20
84.9091487
40
1.1969016
50
146.3652407
51
180.1384856
0
ARC
8
DEFAULT_255_2_778
10
69.5111941
20
84.9096782
40
1.1963006
50
96.3265234
51
146.3765467
0
ARC
8
DEFAULT_255_2_778
10
69.5142966
20
84.8825745
40
1.2235812
50
89.9874078
51
96.331065
0
ARC
8
DEFAULT_255_2_778
10
69.5173658
20
84.9095251
40
1.196634
50
56.099833
51
90.1340763
0
ARC
8
DEFAULT_255_2_778
10
69.5177864
20
84.9093737
40
1.1965252
50
5.850581
51
56.1205944
0
ARC
8
DEFAULT_255_2_778
10
69.4908418
20
84.9064875
40
1.2236237
50
359.9891518
51
5.8564152
0
ARC
8
DEFAULT_255_2_778
10
69.5178348
20
84.9034556
40
1.196634
50
326.099833
51
0.1340763
0
ARC
8
DEFAULT_255_2_778
10
69.5176835
20
84.9030349
40
1.1965252
50
275.850581
51
326.1205944
0
ARC
8
DEFAULT_255_2_778
10
69.5147972
20
84.9299796
40
1.2236237
50
269.9891518
51
275.8564152
0
ARC
8
DEFAULT_255_2_778
10
69.5117394
20
84.9030492
40
1.1966967
50
236.1871757
51
270.1353101
0
ARC
8
DEFAULT_255_2_778
10
69.5113055
20
84.9030805
40
1.1964813
50
185.8572949
51
236.2052768
0
ARC
8
DEFAULT_255_2_778
10
69.5384872
20
84.906025
40
1.2238218
50
179.9891959
51
185.8645601
0
ARC
8
DEFAULT_255_2_778
10
69.509945
20
84.9079519
40
1.0952808
50
141.7937994
51
180.0887261
0
ARC
8
DEFAULT_255_2_778
10
69.5137443
20
84.9079995
40
1.0982394
50
93.576878
51
141.9183419
0
ARC
8
DEFAULT_255_2_778
10
69.5145939
20
84.8895028
40
1.1167531
50
89.9963258
51
93.5611799
0
ARC
8
DEFAULT_255_2_778
10
69.5163617
20
84.9109763
40
1.0952808
50
51.7937994
51
90.0887261
0
ARC
8
DEFAULT_255_2_778
10
69.5164093
20
84.9071771
40
1.0982394
50
3.576878
51
51.9183419
0
ARC
8
DEFAULT_255_2_778
10
69.4979125
20
84.9063274
40
1.1167531
50
359.9963258
51
3.5611799
0
ARC
8
DEFAULT_255_2_778
10
69.5193861
20
84.9045597
40
1.0952808
50
321.7937994
51
0.0887261
0
ARC
8
DEFAULT_255_2_778
10
69.5155868
20
84.9045121
40
1.0982394
50
273.576878
51
321.9183419
0
ARC
8
DEFAULT_255_2_778
10
69.5147372
20
84.9230088
40
1.1167531
50
269.9963258
51
273.5611799
0
ARC
8
DEFAULT_255_2_778
10
69.5129694
20
84.9015353
40
1.0952808
50
231.7937994
51
270.0887261
0
ARC
8
DEFAULT_255_2_778
10
69.5129218
20
84.9053345
40
1.0982394
50
183.576878
51
231.9183419
0
ARC
8
DEFAULT_255_2_778
10
69.5314186
20
84.9061842
40
1.1167531
50
179.9963258
51
183.5611799
0
ARC
8
DEFAULT_255_2_778
10
8.8204866
20
17.5230401
40
1.1061514
50
180.0004748
51
180.879775
0
ARC
8
DEFAULT_255_2_778
10
8.8145633
20
17.523025
40
1.1002282
50
120.3001359
51
179.9996921
0
ARC
8
DEFAULT_255_2_778
10
8.8143125
20
17.5239692
40
1.0992864
50
90.0084753
51
120.3136795
0
LINE
8
DEFAULT_255_2_778
10
8.8141499
20
18.6232557
11
8.8145031
21
18.6232558
0
ARC
8
DEFAULT_255_2_778
10
8.8147273
20
17.5243716
40
1.0988842
50
59.6806259
51
90.0116944
0
ARC
8
DEFAULT_255_2_778
10
8.8147812
20
17.5232573
40
1.0998191
50
0.0022993
51
59.7123502
0
ARC
8
DEFAULT_255_2_778
10
8.8101593
20
17.5232981
40
1.1044409
50
359.1054764
51
0.0001772
0
ARC
8
DEFAULT_255_2_778
10
8.8191861
20
17.5043597
40
1.0952808
50
321.7937994
51
0.0887261
0
ARC
8
DEFAULT_255_2_778
10
8.8153868
20
17.5043121
40
1.0982394
50
273.576878
51
321.9183419
0
ARC
8
DEFAULT_255_2_778
10
8.8145372
20
17.5228088
40
1.1167531
50
269.9963258
51
273.5611799
0
ARC
8
DEFAULT_255_2_778
10
8.8127694
20
17.5013353
40
1.0952808
50
231.7937994
51
270.0887261
0
ARC
8
DEFAULT_255_2_778
10
8.8127218
20
17.5051345
40
1.0982394
50
183.576878
51
231.9183419
0
ARC
8
DEFAULT_255_2_778
10
8.8312186
20
17.5059842
40
1.1167531
50
179.9963258
51
183.5611799
0
ARC
8
DEFAULT_255_2_778
10
8.8193126
20
17.522195
40
1.0049766
50
180.0005128
51
180.9201664
0
ARC
8
DEFAULT_255_2_778
10
8.8147963
20
17.5221211
40
1.0004603
50
120.3179667
51
179.9962865
0
ARC
8
DEFAULT_255_2_778
10
8.8143289
20
17.52311
40
0.9993708
50
89.9893013
51
120.3234568
0
ARC
8
DEFAULT_255_2_778
10
8.8147022
20
17.52311
40
0.9993708
50
59.6765432
51
90.0106987
0
ARC
8
DEFAULT_255_2_778
10
8.8144319
20
17.522345
40
1.0001676
50
0.0063727
51
59.6853047
0
ARC
8
DEFAULT_255_2_778
10
8.812766
20
17.522441
40
1.0018335
50
359.062874
51
0.0008705
0
ARC
8
DEFAULT_255_2_778
10
8.812766
20
17.4896706
40
1.0018335
50
359.9991295
51
0.937126
0
ARC
8
DEFAULT_255_2_778
10
8.8144319
20
17.4897666
40
1.0001677
50
300.3146953
51
359.9936273
0
ARC
8
DEFAULT_255_2_778
10
8.8147022
20
17.4890016
40
0.9993708
50
269.9893013
51
300.3234568
0
ARC
8
DEFAULT_255_2_778
10
8.8143289
20
17.4890016
40
0.9993708
50
239.6765432
51
270.0106987
0
ARC
8
DEFAULT_255_2_778
10
8.8147963
20
17.4899905
40
1.0004603
50
180.0037135
51
239.6820333
0
ARC
8
DEFAULT_255_2_778
10
8.8193126
20
17.4899166
40
1.0049766
50
179.0798336
51
179.9994872
0
LINE
8
DEFAULT_255_2_778
10
68.3146656
20
84.9062558
11
68.3146656
21
84.9062558
0
LINE
8
DEFAULT_255_2_778
10
68.4146656
20
84.9062558
11
68.4146656
21
84.9062558
0
LINE
8
DEFAULT_255_2_778
10
7.7144656
20
17.5060558
11
7.7144656
21
17.5060558
0
LINE
8
DEFAULT_255_2_778
10
7.8144656
20
17.5060558
11
7.8144656
21
17.5060558
0
ARC
8
DEFAULT_255_2_778
10
46.6099743
20
6.1076013
40
1.0952808
50
141.7937994
51
180.0887261
0
ARC
8
DEFAULT_255_2_778
10
46.6137736
20
6.1076489
40
1.0982394
50
93.576878
51
141.9183419
0
ARC
8
DEFAULT_255_2_778
10
46.6146232
20
6.0891522
40
1.1167531
50
89.9963258
51
93.5611799
0
ARC
8
DEFAULT_255_2_778
10
46.6163909
20
6.1106257
40
1.0952808
50
51.7937994
51
90.0887261
0
ARC
8
DEFAULT_255_2_778
10
46.6164385
20
6.1068264
40
1.0982394
50
3.576878
51
51.9183419
0
ARC
8
DEFAULT_255_2_778
10
46.5979418
20
6.1059768
40
1.1167531
50
359.9963258
51
3.5611799
0
ARC
8
DEFAULT_255_2_778
10
46.6194153
20
6.1042091
40
1.0952808
50
321.7937994
51
0.0887261
0
ARC
8
DEFAULT_255_2_778
10
46.6156161
20
6.1041615
40
1.0982394
50
273.576878
51
321.9183419
0
ARC
8
DEFAULT_255_2_778
10
46.6147664
20
6.1226582
40
1.1167531
50
269.9963258
51
273.5611799
0
ARC
8
DEFAULT_255_2_778
10
46.6129987
20
6.1011847
40
1.0952808
50
231.7937994
51
270.0887261
0
ARC
8
DEFAULT_255_2_778
10
46.6129511
20
6.1049839
40
1.0982394
50
183.576878
51
231.9183419
0
ARC
8
DEFAULT_255_2_778
10
46.6314478
20
6.1058336
40
1.1167531
50
179.9963258
51
183.5611799
0
ARC
8
DEFAULT_255_2_778
10
46.6109341
20
6.1073611
40
0.9962403
50
138.3561595
51
180.0837306
0
ARC
8
DEFAULT_255_2_778
10
46.6135259
20
6.1083703
40
0.9975096
50
91.7301295
51
138.4984071
0
ARC
8
DEFAULT_255_2_778
10
46.6146851
20
6.0871495
40
1.0187558
50
89.9994546
51
91.7592604
0
ARC
8
DEFAULT_255_2_778
10
46.6161507
20
6.1096659
40
0.9962403
50
48.3561595
51
90.0837306
0
ARC
8
DEFAULT_255_2_778
10
46.61716
20
6.1070741
40
0.9975096
50
1.7301295
51
48.4984071
0
ARC
8
DEFAULT_255_2_778
10
46.5959392
20
6.1059149
40
1.0187558
50
359.9994546
51
1.7592604
0
ARC
8
DEFAULT_255_2_778
10
46.6184556
20
6.1044493
40
0.9962403
50
318.3561595
51
0.0837306
0
ARC
8
DEFAULT_255_2_778
10
46.6158637
20
6.10344
40
0.9975096
50
271.7301295
51
318.4984071
0
ARC
8
DEFAULT_255_2_778
10
46.6147045
20
6.1246608
40
1.0187558
50
269.9994546
51
271.7592604
0
ARC
8
DEFAULT_255_2_778
10
46.6132389
20
6.1021444
40
0.9962403
50
228.3561595
51
270.0837306
0
ARC
8
DEFAULT_255_2_778
10
46.6122297
20
6.1047363
40
0.9975096
50
181.7301295
51
228.4984071
0
ARC
8
DEFAULT_255_2_778
10
46.6334505
20
6.1058955
40
1.0187558
50
179.9994546
51
181.7592604
0
LINE
8
DEFAULT_255_2_778
10
45.5146948
20
6.1059052
11
45.5146948
21
6.1059052
0
LINE
8
DEFAULT_255_2_778
10
45.6146948
20
6.1059052
11
45.6146948
21
6.1059052
0
ARC
8
DEFAULT_255_2_778
10
69.5114379
20
4.9091796
40
1.1968243
50
146.3618776
51
180.1377463
0
ARC
8
DEFAULT_255_2_778
10
69.5112262
20
4.9096433
40
1.1963911
50
95.8706904
51
146.3747523
0
ARC
8
DEFAULT_255_2_778
10
69.5142843
20
4.8819704
40
1.2242317
50
89.9891034
51
95.880592
0
ARC
8
DEFAULT_255_2_778
10
69.5173301
20
4.9094813
40
1.1967242
50
56.1898327
51
90.1346751
0
ARC
8
DEFAULT_255_2_778
10
69.5178049
20
4.9094926
40
1.1964506
50
6.3145391
51
56.2084278
0
ARC
8
DEFAULT_255_2_778
10
69.491459
20
4.9065696
40
1.2229582
50
359.9874756
51
6.3148936
0
ARC
8
DEFAULT_255_2_778
10
69.5175042
20
4.903525
40
1.1969161
50
326.0607599
51
0.1329449
0
ARC
8
DEFAULT_255_2_778
10
69.5175244
20
4.9028946
40
1.1965474
50
275.851168
51
326.085266
0
ARC
8
DEFAULT_255_2_778
10
69.5147453
20
4.9294274
40
1.2232252
50
269.989312
51
275.8539654
0
ARC
8
DEFAULT_255_2_778
10
69.511698
20
4.9028515
40
1.1966525
50
236.187893
51
270.134981
0
ARC
8
DEFAULT_255_2_778
10
69.5113809
20
4.9029911
40
1.1965921
50
186.3098193
51
236.2042295
0
ARC
8
DEFAULT_255_2_778
10
69.5382447
20
4.9060335
40
1.2236275
50
179.9874164
51
186.313167
0
ARC
8
DEFAULT_255_2_778
10
69.5098966
20
4.9079984
40
1.0952808
50
141.7937994
51
180.0887261
0
ARC
8
DEFAULT_255_2_778
10
69.5136959
20
4.908046
40
1.0982394
50
93.576878
51
141.9183419
0
ARC
8
DEFAULT_255_2_778
10
69.5145455
20
4.8895492
40
1.1167531
50
89.9963258
51
93.5611799
0
ARC
8
DEFAULT_255_2_778
10
69.5163132
20
4.9110228
40
1.0952808
50
51.7937994
51
90.0887261
0
ARC
8
DEFAULT_255_2_778
10
69.5163608
20
4.9072235
40
1.0982394
50
3.576878
51
51.9183419
0
ARC
8
DEFAULT_255_2_778
10
69.4978641
20
4.9063739
40
1.1167531
50
359.9963258
51
3.5611799
0
ARC
8
DEFAULT_255_2_778
10
69.5193376
20
4.9046061
40
1.0952808
50
321.7937994
51
0.0887261
0
ARC
8
DEFAULT_255_2_778
10
69.5155384
20
4.9045585
40
1.0982394
50
273.576878
51
321.9183419
0
ARC
8
DEFAULT_255_2_778
10
69.5146887
20
4.9230553
40
1.1167531
50
269.9963258
51
273.5611799
0
ARC
8
DEFAULT_255_2_778
10
69.512921
20
4.9015817
40
1.0952808
50
231.7937994
51
270.0887261
0
ARC
8
DEFAULT_255_2_778
10
69.5128734
20
4.905381
40
1.0982394
50
183.576878
51
231.9183419
0
ARC
8
DEFAULT_255_2_778
10
69.5313702
20
4.9062306
40
1.1167531
50
179.9963258
51
183.5611799
0
ARC
8
DEFAULT_255_2_778
10
76.0145202
20
26.7061053
40
0.5000969
50
359.9996485
51
90.0003515
0
ARC
8
DEFAULT_255_2_778
10
46.8795819
20
23.4718281
40
0.2015627
50
108.1131708
51
159.3325213
0
ARC
8
DEFAULT_255_2_778
10
46.9482625
20
23.4258461
40
0.282677
50
155.5227016
51
161.7646422
0
ARC
8
DEFAULT_255_2_778
10
46.8833789
20
23.4446133
40
0.2151934
50
161.1046532
51
179.0177665
0
ARC
8
DEFAULT_255_2_778
10
46.4053491
20
23.5115516
40
0.3821723
50
141.7271467
51
180.8319989
0
ARC
8
DEFAULT_255_2_778
10
46.3460517
20
23.5628887
40
0.303842
50
91.6660963
51
142.4010956
0
LINE
8
DEFAULT_255_2_778
10
46.3372175
20
23.8666021
11
46.3375171
21
23.8666022
0
ARC
8
DEFAULT_255_2_778
10
46.3432326
20
23.615352
40
0.2513153
50
89.9996489
51
91.303147
0
ARC
8
DEFAULT_255_2_778
10
46.3288091
20
23.5371998
40
0.3297832
50
44.0280699
51
87.4930242
0
ARC
8
DEFAULT_255_2_778
10
46.2878399
20
23.4802884
40
0.3989883
50
42.5410485
51
45.8155281
0
ARC
8
DEFAULT_255_2_778
10
46.3406863
20
23.5261626
40
0.3290407
50
31.8988634
51
42.8772206
0
ARC
8
DEFAULT_255_2_778
10
46.442691
20
23.5913212
40
0.2080141
50
26.6433805
51
31.5085521
0
ARC
8
DEFAULT_255_2_778
10
47.2390984
20
23.1257525
40
0.8276475
50
132.3096099
51
137.5282396
0
ARC
8
DEFAULT_255_2_778
10
46.8763819
20
23.5294382
40
0.2849784
50
96.2497708
51
133.0133387
0
ARC
8
DEFAULT_255_2_778
10
46.9170656
20
23.3086741
40
0.5091238
50
95.6753944
51
98.0967127
0
ARC
8
DEFAULT_255_2_778
10
46.3459926
20
23.5112975
40
0.2116331
50
0.5156897
51
87.3392433
0
ARC
8
DEFAULT_255_2_778
10
46.3638654
20
23.5149484
40
0.2079096
50
92.2184913
51
163.8727397
0
ARC
8
DEFAULT_255_2_778
10
46.3177602
20
23.5263992
40
0.1604483
50
163.2275851
51
179.5346649
0
ARC
8
DEFAULT_255_2_778
10
45.3531402
20
23.419618
40
0.2162691
50
357.5842654
51
0.0006365
0
ARC
8
DEFAULT_255_2_778
10
45.318049
20
23.4094221
40
0.2515671
50
2.3233454
51
81.4543986
0
ARC
8
DEFAULT_255_2_778
10
45.3314402
20
23.4678464
40
0.1918558
50
82.8165893
51
89.9471684
0
ARC
8
DEFAULT_255_2_778
10
45.3415255
20
23.4152931
40
0.2446099
50
92.3215036
51
163.0163553
0
ARC
8
DEFAULT_255_2_778
10
45.3218901
20
23.4186708
40
0.2248581
50
162.3780179
51
164.0550387
0
ARC
8
DEFAULT_255_2_778
10
45.2908371
20
23.4262366
40
0.1929254
50
163.6820372
51
179.5647287
0
ARC
8
DEFAULT_255_2_778
10
44.7907759
20
23.4040739
40
0.2346091
50
357.8328699
51
359.998849
0
ARC
8
DEFAULT_255_2_778
10
44.7836205
20
23.4027067
40
0.2417682
50
0.3228928
51
62.1250096
0
ARC
8
DEFAULT_255_2_778
10
44.8177152
20
23.4615857
40
0.1737998
50
62.9855222
51
81.2106898
0
ARC
8
DEFAULT_255_2_778
10
44.8231431
20
23.4908246
40
0.1440777
50
81.5671821
51
89.9307873
0
ARC
8
DEFAULT_255_2_778
10
44.8432054
20
23.4199563
40
0.2158641
50
95.2863346
51
168.5721596
0
ARC
8
DEFAULT_255_2_778
10
44.8334999
20
23.4102527
40
0.2085872
50
165.429778
51
179.629285
0
ARC
8
DEFAULT_255_2_778
10
45.3484121
20
23.3978527
40
0.3134596
50
358.9305612
51
0.0023201
0
ARC
8
DEFAULT_255_2_778
10
45.3349297
20
23.3976859
40
0.3269421
50
0.0314497
51
5.4468532
0
ARC
8
DEFAULT_255_2_778
10
45.2797925
20
23.3942305
40
0.3821626
50
5.1779007
51
81.5402374
0
ARC
8
DEFAULT_255_2_778
10
45.3196682
20
23.5046494
40
0.2680844
50
86.5042946
51
89.9975755
0
ARC
8
DEFAULT_255_2_778
10
45.3201276
20
23.4997163
40
0.2730178
50
90.0940385
51
108.9690192
0
ARC
8
DEFAULT_255_2_778
10
45.3308151
20
23.4668604
40
0.3075639
50
108.8622853
51
117.1143485
0
ARC
8
DEFAULT_255_2_778
10
45.3580425
20
23.4155874
40
0.3656125
50
117.2501469
51
128.468317
0
ARC
8
DEFAULT_255_2_778
10
45.4231595
20
23.3330939
40
0.4707091
50
128.4276369
51
137.0937102
0
ARC
8
DEFAULT_255_2_778
10
45.496989
20
23.2624402
40
0.57289
50
136.9448494
51
140.5182324
0
ARC
8
DEFAULT_255_2_778
10
44.8076081
20
23.3824007
40
0.3475566
50
44.6610753
51
71.0716396
0
ARC
8
DEFAULT_255_2_778
10
44.8219169
20
23.419375
40
0.3079438
50
71.3583779
51
83.3844507
0
ARC
8
DEFAULT_255_2_778
10
44.8242296
20
23.4368415
40
0.2903274
50
83.4407161
51
89.9781321
0
ARC
8
DEFAULT_255_2_778
10
44.8228481
20
23.4609347
40
0.2662385
50
89.6788436
51
146.1536865
0
ARC
8
DEFAULT_255_2_778
10
44.9146506
20
23.3982888
40
0.3773763
50
146.0172531
51
168.4004164
0
ARC
8
DEFAULT_255_2_778
10
45.0747745
20
23.3589913
40
0.5421681
50
167.734759
51
176.1704075
0
ARC
8
DEFAULT_255_2_778
10
44.8609943
20
24.7560844
40
0.2291966
50
96.0552057
51
126.9994697
0
ARC
8
DEFAULT_255_2_778
10
44.9097065
20
24.726917
40
0.282614
50
131.3320714
51
178.9784857
0
ARC
8
DEFAULT_255_2_778
10
45.1017529
20
24.6954212
40
0.4760195
50
175.5982481
51
180.0297181
0
ARC
8
DEFAULT_255_2_778
10
45.1262741
20
24.6947908
40
0.5005407
50
179.9561035
51
193.6125008
0
ARC
8
DEFAULT_255_2_778
10
44.9357015
20
24.6463743
40
0.3039342
50
193.1969435
51
205.6480891
0
ARC
8
DEFAULT_255_2_778
10
44.8079241
20
24.5880786
40
0.1635371
50
206.613601
51
210.0841249
0
ARC
8
DEFAULT_255_2_778
10
44.9028641
20
24.6770681
40
0.2917815
50
215.8692657
51
231.386089
0
ARC
8
DEFAULT_255_2_778
10
44.8469533
20
24.6058546
40
0.2012467
50
231.1710738
51
255.4316293
0
ARC
8
DEFAULT_255_2_778
10
44.8383019
20
24.5798991
40
0.1739594
50
256.039168
51
257.7721221
0
ARC
8
DEFAULT_255_2_778
10
44.8372116
20
24.5741047
40
0.1680656
50
257.7169954
51
269.9611447
0
ARC
8
DEFAULT_255_2_778
10
44.830959
20
24.5974564
40
0.1915156
50
271.8367989
51
326.8844139
0
ARC
8
DEFAULT_255_2_778
10
44.7253611
20
24.676471
40
0.3232406
50
325.3795335
51
351.4698996
0
ARC
8
DEFAULT_255_2_778
10
44.6070887
20
24.700448
40
0.443804
50
350.6735073
51
0.1494852
0
ARC
8
DEFAULT_255_2_778
10
44.5458544
20
24.7014519
40
0.5050368
50
0.0174689
51
3.1725514
0
ARC
8
DEFAULT_255_2_778
10
45.4568623
20
24.7678323
40
0.4085566
50
180.0262214
51
185.3973889
0
ARC
8
DEFAULT_255_2_778
10
45.3911172
20
24.7734397
40
0.3428603
50
137.2076471
51
180.968349
0
ARC
8
DEFAULT_255_2_778
10
45.3457483
20
24.8152642
40
0.2811545
50
90.6177295
51
137.1812811
0
ARC
8
DEFAULT_255_2_778
10
45.3256214
20
24.7702882
40
0.3265618
50
30.4274358
51
86.9991508
0
ARC
8
DEFAULT_255_2_778
10
45.2169638
20
24.7046496
40
0.4534992
50
4.5270755
51
30.625671
0
ARC
8
DEFAULT_255_2_778
10
45.0591815
20
24.6825037
40
0.6126127
50
359.9377812
51
5.4271276
0
ARC
8
DEFAULT_255_2_778
10
44.9695949
20
24.6825169
40
0.7021991
50
355.1005729
51
359.9446434
0
ARC
8
DEFAULT_255_2_778
10
44.9102467
20
24.6868912
40
0.7617045
50
354.4786251
51
355.1540071
0
ARC
8
DEFAULT_255_2_778
10
45.1470663
20
24.6989887
40
0.5282968
50
331.3353212
51
350.6987142
0
ARC
8
DEFAULT_255_2_778
10
45.3399527
20
24.6083354
40
0.3158322
50
279.4900283
51
328.9797057
0
ARC
8
DEFAULT_255_2_778
10
45.2354028
20
24.9708284
40
0.6919615
50
278.2351913
51
283.0820736
0
ARC
8
DEFAULT_255_2_778
10
44.8556927
20
24.7412564
40
0.3373884
50
92.9350524
51
114.7153138
0
ARC
8
DEFAULT_255_2_778
10
44.8757506
20
24.7514723
40
0.3372457
50
118.539369
51
176.3279175
0
ARC
8
DEFAULT_255_2_778
10
45.1037705
20
24.6949703
40
0.5699498
50
172.123873
51
173.3675911
0
ARC
8
DEFAULT_255_2_778
10
45.1530037
20
24.6900075
40
0.6194271
50
173.4375967
51
180.0561009
0
ARC
8
DEFAULT_255_2_778
10
45.1728973
20
24.6886492
40
0.6393207
50
179.9326274
51
190.6574593
0
ARC
8
DEFAULT_255_2_778
10
44.9605542
20
24.6465408
40
0.4228584
50
190.3712881
51
200.5777996
0
ARC
8
DEFAULT_255_2_778
10
44.7132056
20
24.5510715
40
0.1577553
50
199.6915456
51
216.8516927
0
ARC
8
DEFAULT_255_2_778
10
45.0001513
20
24.7775828
40
0.5232942
50
217.8623625
51
224.2244583
0
ARC
8
DEFAULT_255_2_778
10
44.9155423
20
24.6949068
40
0.404998
50
224.1913016
51
232.206308
0
ARC
8
DEFAULT_255_2_778
10
44.8856673
20
24.6581402
40
0.3576379
50
232.3787862
51
232.654032
0
ARC
8
DEFAULT_255_2_778
10
44.8515613
20
24.6097493
40
0.2984867
50
232.2237827
51
247.8345081
0
ARC
8
DEFAULT_255_2_778
10
44.8275805
20
24.551927
40
0.2358904
50
247.9300336
51
269.8613274
0
ARC
8
DEFAULT_255_2_778
10
44.8102703
20
24.6204225
40
0.3048451
50
273.1477365
51
326.1067225
0
ARC
8
DEFAULT_255_2_778
10
44.8008383
20
24.6387936
40
0.3230735
50
324.3347996
51
329.4299644
0
ARC
8
DEFAULT_255_2_778
10
44.8352314
20
24.618586
40
0.2831834
50
329.4111271
51
334.7306258
0
ARC
8
DEFAULT_255_2_778
10
44.5368238
20
24.6866596
40
0.5858052
50
341.1821784
51
351.4033139
0
ARC
8
DEFAULT_255_2_778
10
44.4846929
20
24.6875404
40
0.6375196
50
352.02539
51
0.7136097
0
ARC
8
DEFAULT_255_2_778
10
42.0614916
20
24.6927236
40
3.0606728
50
0.0516064
51
0.3887263
0
ARC
8
DEFAULT_255_2_778
10
48.1327396
20
24.7341307
40
3.0107166
50
180.0583896
51
180.3928317
0
ARC
8
DEFAULT_255_2_778
10
45.8445061
20
24.7338567
40
0.7224871
50
177.5961066
51
180.2215916
0
ARC
8
DEFAULT_255_2_778
10
45.4729576
20
24.7501749
40
0.3505818
50
169.8921976
51
177.7137301
0
ARC
8
DEFAULT_255_2_778
10
45.4957547
20
24.7419949
40
0.3744826
50
150.878906
51
169.2722162
0
ARC
8
DEFAULT_255_2_778
10
45.3405933
20
24.8315149
40
0.1953877
50
114.1877607
51
151.6688147
0
ARC
8
DEFAULT_255_2_778
10
45.3262742
20
24.8531005
40
0.1698826
50
89.747942
51
112.7650978
0
ARC
8
DEFAULT_255_2_778
10
45.326925
20
24.8342913
40
0.1886902
50
84.1602826
51
89.9706927
0
ARC
8
DEFAULT_255_2_778
10
45.3194873
20
24.7920884
40
0.2314518
50
56.5940559
51
83.3915754
0
ARC
8
DEFAULT_255_2_778
10
45.2884198
20
24.7447086
40
0.2881088
50
357.3575889
51
56.6240734
0
ARC
8
DEFAULT_255_2_778
10
44.9779004
20
24.7138729
40
0.5985793
50
359.9835995
51
1.6804234
0
ARC
8
DEFAULT_255_2_778
10
44.7918761
20
24.7161341
40
0.7846073
50
355.0141718
51
359.8223637
0
ARC
8
DEFAULT_255_2_778
10
44.5672305
20
24.7328077
40
1.0098562
50
354.6074312
51
355.1794625
0
ARC
8
DEFAULT_255_2_778
10
45.2983759
20
24.6320344
40
0.274304
50
278.4220309
51
1.2257462
0
ARC
8
DEFAULT_255_2_778
10
45.2875999
20
24.697176
40
0.3403234
50
277.9240805
51
278.6104083
0
ARC
8
DEFAULT_255_2_778
10
46.59827
20
21.8257209
40
0.8256661
50
269.9989067
51
270.6139446
0
ARC
8
DEFAULT_255_2_778
10
46.5819478
20
21.6793573
40
0.6794982
50
233.1827713
51
271.3751064
0
ARC
8
DEFAULT_255_2_778
10
46.4586357
20
21.4961915
40
0.4591012
50
187.6466171
51
231.8039603
0
ARC
8
DEFAULT_255_2_778
10
46.8404785
20
21.528741
40
0.8420838
50
182.0953854
51
186.3844284
0
ARC
8
DEFAULT_255_2_778
10
46.7617076
20
21.5253413
40
0.7632415
50
180.0096604
51
182.0565527
0
ARC
8
DEFAULT_255_2_778
10
46.5985995
20
21.5318803
40
0.6001705
50
161.5795295
51
180.6365476
0
ARC
8
DEFAULT_255_2_778
10
46.4620493
20
21.5761328
40
0.4566349
50
131.5878736
51
161.4335917
0
ARC
8
DEFAULT_255_2_778
10
46.4702694
20
21.5633361
40
0.4716681
50
108.980456
51
131.3029088
0
ARC
8
DEFAULT_255_2_778
10
46.4730318
20
21.5584045
40
0.4772311
50
102.785821
51
109.1015024
0
ARC
8
DEFAULT_255_2_778
10
46.6584364
20
21.305858
40
0.6911956
50
114.9001053
51
129.352721
0
ARC
8
DEFAULT_255_2_778
10
46.4444434
20
21.5729714
40
0.3489787
50
129.9935479
51
181.6383329
0
ARC
8
DEFAULT_255_2_778
10
46.7345723
20
21.544883
40
0.6392216
50
178.3764331
51
180.013723
0
ARC
8
DEFAULT_255_2_778
10
46.8937524
20
21.5467346
40
0.7984044
50
180.1438662
51
184.9182645
0
ARC
8
DEFAULT_255_2_778
10
47.1637438
20
21.5682181
40
1.0692452
50
184.824855
51
187.1516053
0
ARC
8
DEFAULT_255_2_778
10
46.3488457
20
21.4502644
40
0.2464953
50
183.5265366
51
201.3331151
0
ARC
8
DEFAULT_255_2_778
10
46.37701
20
21.4587292
40
0.2758192
50
200.8426496
51
201.1093348
0
ARC
8
DEFAULT_255_2_778
10
46.4696363
20
21.5031477
40
0.3783135
50
202.3329254
51
232.896883
0
ARC
8
DEFAULT_255_2_778
10
46.528952
20
21.5743829
40
0.4709293
50
232.3695057
51
260.7767785
0
ARC
8
DEFAULT_255_2_778
10
46.5409406
20
21.6321196
40
0.5298475
50
260.4978383
51
270.0740321
0
ARC
8
DEFAULT_255_2_778
10
46.5413794
20
21.6748399
40
0.5725675
50
270.0245949
51
274.943263
0
ARC
8
DEFAULT_255_2_778
10
46.5784071
20
21.8006462
40
0.7986991
50
269.3263791
51
269.999747
0
ARC
8
DEFAULT_255_2_778
10
46.594119
20
21.6664169
40
0.6646556
50
268.6451501
51
308.6072898
0
ARC
8
DEFAULT_255_2_778
10
46.7083348
20
21.5043051
40
0.4668582
50
310.0680732
51
352.3309271
0
ARC
8
DEFAULT_255_2_778
10
46.3335067
20
21.5354816
40
0.8427111
50
353.6312474
51
357.9097372
0
ARC
8
DEFAULT_255_2_778
10
46.4116785
20
21.5321005
40
0.7644684
50
357.9492809
51
359.9895805
0
ARC
8
DEFAULT_255_2_778
10
46.5756667
20
21.5386452
40
0.6005173
50
359.362295
51
18.4266854
0
ARC
8
DEFAULT_255_2_778
10
46.7125325
20
21.5830229
40
0.456643
50
18.5721815
51
48.4412561
0
ARC
8
DEFAULT_255_2_778
10
46.7043345
20
21.5702265
40
0.4716625
50
48.72728
51
71.0689868
0
ARC
8
DEFAULT_255_2_778
10
46.701532
20
21.5651709
40
0.4773548
50
70.9476791
51
77.2211861
0
ARC
8
DEFAULT_255_2_778
10
46.5160803
20
21.3124436
40
0.6914881
50
50.663558
51
65.1095416
0
ARC
8
DEFAULT_255_2_778
10
46.7303937
20
21.5800147
40
0.3487124
50
358.3690775
51
50.03128
0
ARC
8
DEFAULT_255_2_778
10
46.4408888
20
21.5519776
40
0.6383332
50
359.987513
51
1.62595
0
ARC
8
DEFAULT_255_2_778
10
46.2819416
20
21.5538448
40
0.7972829
50
355.0658814
51
359.8558205
0
ARC
8
DEFAULT_255_2_778
10
46.0119698
20
21.5753858
40
1.0681083
50
352.8262703
51
355.1602428
0
ARC
8
DEFAULT_255_2_778
10
46.8306175
20
21.4571452
40
0.2415747
50
338.5157099
51
356.4060895
0
ARC
8
DEFAULT_255_2_778
10
46.7768673
20
21.4752995
40
0.2982523
50
336.8394442
51
339.0522547
0
ARC
8
DEFAULT_255_2_778
10
46.6880013
20
21.5223151
40
0.3985339
50
306.8812858
51
335.6497436
0
ARC
8
DEFAULT_255_2_778
10
46.6316956
20
21.5892959
40
0.4859271
50
278.8637682
51
307.4518211
0
ARC
8
DEFAULT_255_2_778
10
46.6238901
20
21.6286092
40
0.5259762
50
269.9489811
51
279.0440201
0
ARC
8
DEFAULT_255_2_778
10
46.6236149
20
21.6603452
40
0.557712
50
265.0629114
51
269.9801606
0
ARC
8
DEFAULT_255_2_778
10
44.860997
20
21.2243423
40
0.2292387
50
96.0547758
51
126.9935358
0
ARC
8
DEFAULT_255_2_778
10
44.9096172
20
21.1952649
40
0.2825257
50
131.3246617
51
178.9787304
0
ARC
8
DEFAULT_255_2_778
10
45.1015621
20
21.1637867
40
0.4758287
50
175.5989455
51
180.0294326
0
ARC
8
DEFAULT_255_2_778
10
45.12609
20
21.163161
40
0.5003566
50
179.9563386
51
193.6150122
0
ARC
8
DEFAULT_255_2_778
10
44.9356859
20
21.1147771
40
0.3039214
50
193.1995598
51
205.6498761
0
ARC
8
DEFAULT_255_2_778
10
44.8079111
20
21.0564751
40
0.1635239
50
206.6146013
51
210.0853382
0
ARC
8
DEFAULT_255_2_778
10
44.9030183
20
21.1454958
40
0.2919227
50
215.8559451
51
231.3695023
0
ARC
8
DEFAULT_255_2_778
10
44.8470107
20
21.0741993
40
0.201263
50
231.1538227
51
255.4159626
0
ARC
8
DEFAULT_255_2_778
10
44.8383459
20
21.0482598
40
0.1739874
50
256.0265286
51
257.7593056
0
ARC
8
DEFAULT_255_2_778
10
44.8372438
20
21.0423962
40
0.1680236
50
257.7026532
51
269.9608407
0
ARC
8
DEFAULT_255_2_778
10
44.8309845
20
21.0657435
40
0.1914695
50
271.838981
51
326.8970497
0
ARC
8
DEFAULT_255_2_778
10
44.7252409
20
21.1448392
40
0.3233596
50
325.3896404
51
351.4741788
0
ARC
8
DEFAULT_255_2_778
10
44.6068338
20
21.1688359
40
0.4440589
50
350.6771395
51
0.1497718
0
ARC
8
DEFAULT_255_2_778
10
44.5455197
20
21.1698425
40
0.5053715
50
0.0174746
51
3.1715107
0
ARC
8
DEFAULT_255_2_778
10
45.4568623
20
21.2362323
40
0.4085566
50
180.0262214
51
185.3973889
0
ARC
8
DEFAULT_255_2_778
10
45.3911172
20
21.2418397
40
0.3428603
50
137.2076471
51
180.968349
0
ARC
8
DEFAULT_255_2_778
10
45.3457483
20
21.2836642
40
0.2811545
50
90.6177295
51
137.1812811
0
ARC
8
DEFAULT_255_2_778
10
45.325599
20
21.2387292
40
0.3265221
50
30.4857953
51
86.9948603
0
ARC
8
DEFAULT_255_2_778
10
45.2170232
20
21.1730047
40
0.4534343
50
4.5348913
51
30.6823107
0
ARC
8
DEFAULT_255_2_778
10
45.0591621
20
21.150807
40
0.6126321
50
359.9376258
51
5.4371237
0
ARC
8
DEFAULT_255_2_778
10
44.9695694
20
21.1508179
40
0.7022246
50
355.1006697
51
359.944697
0
ARC
8
DEFAULT_255_2_778
10
44.9102444
20
21.1551915
40
0.7617069
50
354.4786254
51
355.1540074
0
ARC
8
DEFAULT_255_2_778
10
45.1501983
20
21.1664597
40
0.5250721
50
331.0539767
51
350.7327528
0
ARC
8
DEFAULT_255_2_778
10
45.3410096
20
21.0758863
40
0.3145341
50
279.7995345
51
328.668567
0
ARC
8
DEFAULT_255_2_778
10
45.2376421
20
21.4319838
40
0.6842737
50
278.1389089
51
283.2556668
0
ARC
8
DEFAULT_255_2_778
10
44.8556927
20
21.2098564
40
0.3373884
50
92.9350524
51
114.7153138
0
ARC
8
DEFAULT_255_2_778
10
44.8757506
20
21.2200723
40
0.3372457
50
118.539369
51
176.3279175
0
ARC
8
DEFAULT_255_2_778
10
45.1037705
20
21.1635703
40
0.5699498
50
172.123873
51
173.3675911
0
ARC
8
DEFAULT_255_2_778
10
45.1530037
20
21.1586075
40
0.6194271
50
173.4375967
51
180.0561009
0
ARC
8
DEFAULT_255_2_778
10
45.1728973
20
21.1572492
40
0.6393207
50
179.9326274
51
190.6574593
0
ARC
8
DEFAULT_255_2_778
10
44.9605542
20
21.1151408
40
0.4228584
50
190.3712881
51
200.5777996
0
ARC
8
DEFAULT_255_2_778
10
44.7132056
20
21.0196715
40
0.1577553
50
199.6915456
51
216.8516927
0
ARC
8
DEFAULT_255_2_778
10
45.0001513
20
21.2461828
40
0.5232942
50
217.8623625
51
224.2244583
0
ARC
8
DEFAULT_255_2_778
10
44.9155423
20
21.1635068
40
0.404998
50
224.1913016
51
232.206308
0
ARC
8
DEFAULT_255_2_778
10
44.8856673
20
21.1267402
40
0.3576379
50
232.3787862
51
232.654032
0
ARC
8
DEFAULT_255_2_778
10
44.8515613
20
21.0783493
40
0.2984867
50
232.2237827
51
247.8345081
0
ARC
8
DEFAULT_255_2_778
10
44.8275805
20
21.020527
40
0.2358904
50
247.9300336
51
269.8613274
0
ARC
8
DEFAULT_255_2_778
10
44.8102703
20
21.0890225
40
0.3048451
50
273.1477365
51
326.1067225
0
ARC
8
DEFAULT_255_2_778
10
44.8008383
20
21.1073936
40
0.3230735
50
324.3347996
51
329.4299644
0
ARC
8
DEFAULT_255_2_778
10
44.8352314
20
21.087186
40
0.2831834
50
329.4111271
51
334.7306258
0
ARC
8
DEFAULT_255_2_778
10
44.5368238
20
21.1552596
40
0.5858052
50
341.1821784
51
351.4033139
0
ARC
8
DEFAULT_255_2_778
10
44.4846929
20
21.1561404
40
0.6375196
50
352.02539
51
0.7136097
0
ARC
8
DEFAULT_255_2_778
10
42.0614916
20
21.1613236
40
3.0606728
50
0.0516064
51
0.3887263
0
ARC
8
DEFAULT_255_2_778
10
48.1327396
20
21.2027307
40
3.0107166
50
180.0583896
51
180.3928317
0
ARC
8
DEFAULT_255_2_778
10
45.8445061
20
21.2024567
40
0.7224871
50
177.5961066
51
180.2215916
0
ARC
8
DEFAULT_255_2_778
10
45.4729576
20
21.2187749
40
0.3505818
50
169.8921976
51
177.7137301
0
ARC
8
DEFAULT_255_2_778
10
45.4958827
20
21.2105648
40
0.3746139
50
150.8832674
51
169.2713297
0
ARC
8
DEFAULT_255_2_778
10
45.3408615
20
21.2999306
40
0.195716
50
114.4431713
51
151.6564006
0
ARC
8
DEFAULT_255_2_778
10
45.3262637
20
21.3219033
40
0.1697242
50
89.7451906
51
113.0260734
0
ARC
8
DEFAULT_255_2_778
10
45.3269238
20
21.3031031
40
0.1885228
50
84.1547126
51
89.9712283
0
ARC
8
DEFAULT_255_2_778
10
45.3194849
20
21.2609522
40
0.231233
50
56.5575655
51
83.3846976
0
ARC
8
DEFAULT_255_2_778
10
45.2884198
20
21.2133086
40
0.2881088
50
357.3575889
51
56.6240734
0
ARC
8
DEFAULT_255_2_778
10
44.9779004
20
21.1824729
40
0.5985793
50
359.9835995
51
1.6804234
0
ARC
8
DEFAULT_255_2_778
10
44.7918761
20
21.1847341
40
0.7846073
50
355.0141718
51
359.8223637
0
ARC
8
DEFAULT_255_2_778
10
44.5672305
20
21.2014077
40
1.0098562
50
354.6074312
51
355.1794625
0
ARC
8
DEFAULT_255_2_778
10
45.2983759
20
21.1006344
40
0.274304
50
278.4220309
51
1.2257462
0
ARC
8
DEFAULT_255_2_778
10
45.2875999
20
21.165776
40
0.3403234
50
277.9240805
51
278.6104083
0
ARC
8
DEFAULT_255_2_778
10
46.5974863
20
25.2482179
40
0.8238663
50
269.9989621
51
270.6350196
0
ARC
8
DEFAULT_255_2_778
10
46.5811241
20
25.1030403
40
0.6788855
50
233.1654809
51
271.3797837
0
ARC
8
DEFAULT_255_2_778
10
46.4582328
20
24.9204285
40
0.4591889
50
187.6372114
51
231.7780507
0
ARC
8
DEFAULT_255_2_778
10
46.8403371
20
24.9530786
40
0.8424444
50
182.0955562
51
186.3842557
0
ARC
8
DEFAULT_255_2_778
10
46.7616876
20
24.9496831
40
0.7637236
50
180.0105215
51
182.0567518
0
ARC
8
DEFAULT_255_2_778
10
46.5979886
20
24.9562251
40
0.6000617
50
161.567941
51
180.6380502
0
ARC
8
DEFAULT_255_2_778
10
46.4613654
20
25.0005184
40
0.4564443
50
131.5500401
51
161.420265
0
ARC
8
DEFAULT_255_2_778
10
46.4699417
20
24.9872897
40
0.4720389
50
108.9440699
51
131.2640773
0
ARC
8
DEFAULT_255_2_778
10
46.4729178
20
24.9818039
40
0.4781949
50
102.8070474
51
109.0679578
0
ARC
8
DEFAULT_255_2_778
10
46.6581652
20
24.7296034
40
0.6917042
50
114.9014482
51
129.3413019
0
ARC
8
DEFAULT_255_2_778
10
46.4437045
20
24.9972596
40
0.3487694
50
129.9683949
51
181.6231022
0
ARC
8
DEFAULT_255_2_778
10
46.7330392
20
24.9692701
40
0.6382212
50
178.3739052
51
180.0124879
0
ARC
8
DEFAULT_255_2_778
10
46.8911999
20
24.9711337
40
0.7963844
50
180.1440894
51
184.9348958
0
ARC
8
DEFAULT_255_2_778
10
47.160058
20
24.992584
40
1.0660925
50
184.8404459
51
187.176433
0
ARC
8
DEFAULT_255_2_778
10
46.3484523
20
24.8745369
40
0.2466
50
183.518649
51
201.2624524
0
ARC
8
DEFAULT_255_2_778
10
46.411162
20
24.8961772
40
0.3128992
50
200.7911322
51
201.0253965
0
ARC
8
DEFAULT_255_2_778
10
46.4689067
20
24.9271567
40
0.3780032
50
202.268284
51
232.8775219
0
ARC
8
DEFAULT_255_2_778
10
46.5284668
20
24.9986759
40
0.4709946
50
232.351168
51
260.7802525
0
ARC
8
DEFAULT_255_2_778
10
46.5405772
20
25.056968
40
0.5304805
50
260.4978849
51
270.0744657
0
ARC
8
DEFAULT_255_2_778
10
46.5410157
20
25.0999793
40
0.5734915
50
270.0250734
51
274.9216111
0
ARC
8
DEFAULT_255_2_778
10
46.5770839
20
25.2273534
40
0.8011969
50
269.387358
51
270.0011287
0
ARC
8
DEFAULT_255_2_778
10
46.5928812
20
25.0920562
40
0.6660869
50
268.6423657
51
308.5538408
0
ARC
8
DEFAULT_255_2_778
10
46.7079992
20
24.9285134
40
0.4665973
50
310.0156413
51
352.3255844
0
ARC
8
DEFAULT_255_2_778
10
46.3331904
20
24.9598783
40
0.8424511
50
353.6158106
51
357.9045408
0
ARC
8
DEFAULT_255_2_778
10
46.4117853
20
24.9564851
40
0.763785
50
357.9433395
51
359.9894812
0
ARC
8
DEFAULT_255_2_778
10
46.5754195
20
24.9630241
40
0.6001878
50
359.3623669
51
18.430092
0
ARC
8
DEFAULT_255_2_778
10
46.7121249
20
25.0073515
40
0.4564816
50
18.5763392
51
48.4467381
0
ARC
8
DEFAULT_255_2_778
10
46.7038514
20
24.9944722
40
0.4716138
50
48.7324412
51
71.0714511
0
ARC
8
DEFAULT_255_2_778
10
46.7010452
20
24.9894194
40
0.4773046
50
70.9495569
51
77.2214364
0
ARC
8
DEFAULT_255_2_778
10
46.5154027
20
24.7365675
40
0.6916319
50
50.6573943
51
65.0988502
0
ARC
8
DEFAULT_255_2_778
10
46.7297686
20
25.0041282
40
0.3488313
50
358.373177
51
50.0270118
0
ARC
8
DEFAULT_255_2_778
10
46.4401019
20
24.9761087
40
0.6386143
50
359.9875043
51
1.6255946
0
ARC
8
DEFAULT_255_2_778
10
46.2817769
20
24.9779736
40
0.7969419
50
355.0668379
51
359.8559159
0
ARC
8
DEFAULT_255_2_778
10
46.0126619
20
24.9994364
40
1.066907
50
352.8262402
51
355.1612934
0
ARC
8
DEFAULT_255_2_778
10
46.8301104
20
24.8813787
40
0.2415839
50
338.4573332
51
356.398274
0
ARC
8
DEFAULT_255_2_778
10
46.7765691
20
24.8994772
40
0.2980443
50
336.7789962
51
339.0005698
0
ARC
8
DEFAULT_255_2_778
10
46.6872189
20
24.9467885
40
0.3988953
50
306.8634388
51
335.5939487
0
ARC
8
DEFAULT_255_2_778
10
46.6311261
20
25.0135421
40
0.4859773
50
278.8626312
51
307.4331177
0
ARC
8
DEFAULT_255_2_778
10
46.6233667
20
25.0526646
40
0.5258309
50
269.9493281
51
279.041255
0
ARC
8
DEFAULT_255_2_778
10
46.6230967
20
25.0843893
40
0.5575552
50
265.0633927
51
269.9799581
0
ARC
8
DEFAULT_255_2_778
10
44.7600461
20
22.2397142
40
0.8139356
50
356.6817727
51
359.9431252
0
ARC
8
DEFAULT_255_2_778
10
45.1052644
20
22.2507316
40
0.4688661
50
358.5547694
51
19.5297309
0
ARC
8
DEFAULT_255_2_778
10
45.3061312
20
22.3156053
40
0.2579385
50
20.8643061
51
86.6470435
0
ARC
8
DEFAULT_255_2_778
10
45.3308694
20
22.3449989
40
0.3281421
50
8.2016486
51
85.9023781
0
ARC
8
DEFAULT_255_2_778
10
45.067195
20
22.2654695
40
0.6018703
50
359.6657635
51
12.1173444
0
ARC
8
DEFAULT_255_2_778
10
44.9483511
20
22.2619951
40
0.7207039
50
358.87955
51
359.9970906
0
ARC
8
DEFAULT_255_2_778
10
44.9329562
20
22.2150062
40
0.7366957
50
0.0159151
51
2.5593045
0
ARC
8
DEFAULT_255_2_778
10
45.1400635
20
22.2046548
40
0.5296936
50
336.8485578
51
1.1419089
0
ARC
8
DEFAULT_255_2_778
10
45.3374723
20
22.1177342
40
0.3140168
50
273.184633
51
337.2694942
0
ARC
8
DEFAULT_255_2_778
10
45.2982824
20
22.1799639
40
0.2775612
50
274.8640186
51
317.3739385
0
ARC
8
DEFAULT_255_2_778
10
45.2610638
20
22.1860471
40
0.30976
50
321.2109864
51
354.5867838
0
ARC
8
DEFAULT_255_2_778
10
44.9728843
20
22.2347085
40
0.6016206
50
352.5618266
51
0.2461342
0
ARC
8
DEFAULT_255_2_778
10
44.760245
20
22.2364678
40
0.8142548
50
0.0580605
51
3.3396556
0
LINE
8
DEFAULT_255_2_778
10
68.3146171
20
4.9063022
11
68.3146171
21
4.9063022
0
LINE
8
DEFAULT_255_2_778
10
68.4146171
20
4.9063022
11
68.4146171
21
4.9063022
0
LINE
8
DEFAULT_255_2_778
10
73.5145171
20
63.1062022
11
73.5145171
21
27.2062022
0
LINE
8
DEFAULT_255_2_778
10
73.5145171
20
27.2062022
11
76.0145171
21
27.2062022
0
LINE
8
DEFAULT_255_2_778
10
76.5146171
20
26.7061022
11
76.5146171
21
-0.0881978
0
LINE
8
DEFAULT_255_2_778
10
46.6682171
20
23.4483022
11
46.6698171
21
23.1737022
0
LINE
8
DEFAULT_255_2_778
10
46.6698171
20
23.1737022
11
47.1411171
21
23.1737022
0
LINE
8
DEFAULT_255_2_778
10
47.1411171
20
23.1737022
11
47.1411171
21
23.0364022
0
LINE
8
DEFAULT_255_2_778
10
47.1411171
20
23.0364022
11
46.0232171
21
23.0348022
0
LINE
8
DEFAULT_255_2_778
10
46.0232171
20
23.0348022
11
46.0232171
21
23.5060022
0
LINE
8
DEFAULT_255_2_778
10
46.8667171
20
23.8153022
11
47.1395171
21
23.8698022
0
LINE
8
DEFAULT_255_2_778
10
47.1395171
20
23.8698022
11
47.1395171
21
23.7243022
0
LINE
8
DEFAULT_255_2_778
10
47.1395171
20
23.7243022
11
46.8005171
21
23.6597022
0
LINE
8
DEFAULT_255_2_778
10
46.1573171
20
23.5277022
11
46.1573171
21
23.1737022
0
LINE
8
DEFAULT_255_2_778
10
46.1573171
20
23.1737022
11
46.5574171
21
23.1737022
0
LINE
8
DEFAULT_255_2_778
10
46.5574171
20
23.1737022
11
46.5576171
21
23.5132022
0
LINE
8
DEFAULT_255_2_778
10
45.0979171
20
23.4277022
11
45.0979171
21
23.0065022
0
LINE
8
DEFAULT_255_2_778
10
45.0979171
20
23.0065022
11
45.5689171
21
23.0065022
0
LINE
8
DEFAULT_255_2_778
10
45.5689171
20
23.0065022
11
45.5692171
21
23.4105022
0
LINE
8
DEFAULT_255_2_778
10
44.6249171
20
23.4116022
11
44.6249171
21
23.0065022
0
LINE
8
DEFAULT_255_2_778
10
44.6249171
20
23.0065022
11
45.0252171
21
23.0065022
0
LINE
8
DEFAULT_255_2_778
10
45.0252171
20
23.0065022
11
45.0252171
21
23.3952022
0
LINE
8
DEFAULT_255_2_778
10
44.5341171
20
23.3952022
11
44.5341171
21
22.9041022
0
LINE
8
DEFAULT_255_2_778
10
44.5341171
20
22.9041022
11
45.6618171
21
22.9041022
0
LINE
8
DEFAULT_255_2_778
10
45.6618171
20
22.9041022
11
45.6618171
21
23.3920022
0
LINE
8
DEFAULT_255_2_778
10
44.5338171
20
23.3952022
11
44.5341171
21
23.3952022
0
LINE
8
DEFAULT_255_2_778
10
44.8368171
20
24.9840022
11
44.8384171
21
25.0782022
0
LINE
8
DEFAULT_255_2_778
10
45.3345171
20
24.3601022
11
45.3345171
21
24.2908022
0
LINE
8
DEFAULT_255_2_778
10
46.3674171
20
22.0238022
11
46.3674171
21
21.9328022
0
LINE
8
DEFAULT_255_2_778
10
46.8071171
20
22.0307022
11
46.8071171
21
21.9397022
0
LINE
8
DEFAULT_255_2_778
10
44.8368171
20
21.4526022
11
44.8384171
21
21.5468022
0
LINE
8
DEFAULT_255_2_778
10
45.3345171
20
20.8287022
11
45.3345171
21
20.7594022
0
LINE
8
DEFAULT_255_2_778
10
45.8832171
20
15.1372022
11
45.8771171
21
16.6025022
0
LINE
8
DEFAULT_255_2_778
10
45.8771171
20
16.6025022
11
47.1461171
21
17.3349022
0
LINE
8
DEFAULT_255_2_778
10
47.1461171
20
17.3349022
11
47.1461171
21
15.8707022
0
LINE
8
DEFAULT_255_2_778
10
47.1461171
20
15.8707022
11
45.8832171
21
15.1372022
0
LINE
8
DEFAULT_255_2_778
10
45.8832171
20
15.1372022
11
45.8771171
21
13.6733022
0
LINE
8
DEFAULT_255_2_778
10
45.8771171
20
13.6733022
11
47.1461171
21
12.9409022
0
LINE
8
DEFAULT_255_2_778
10
47.1461171
20
12.9409022
11
47.1461171
21
14.4059022
0
LINE
8
DEFAULT_255_2_778
10
47.1461171
20
14.4059022
11
45.8832171
21
15.1372022
0
LINE
8
DEFAULT_255_2_778
10
45.8795171
20
15.1394022
11
45.8832171
21
15.1372022
0
LINE
8
DEFAULT_255_2_778
10
45.8832171
20
15.1372022
11
44.6148171
21
14.4054022
0
LINE
8
DEFAULT_255_2_778
10
44.6148171
20
14.4054022
11
43.3464171
21
15.1372022
0
LINE
8
DEFAULT_255_2_778
10
43.3464171
20
15.1372022
11
44.6148171
21
15.8699022
0
LINE
8
DEFAULT_255_2_778
10
44.6148171
20
15.8699022
11
45.8832171
21
15.1372022
0
LINE
8
DEFAULT_255_2_778
10
45.8832171
20
15.1372022
11
47.1461171
21
15.8707022
0
LINE
8
DEFAULT_255_2_778
10
47.1461171
20
15.8707022
11
47.1461171
21
17.3349022
0
LINE
8
DEFAULT_255_2_778
10
47.1461171
20
17.3349022
11
45.8771171
21
16.6025022
0
LINE
8
DEFAULT_255_2_778
10
45.8771171
20
16.6025022
11
45.8832171
21
15.1372022
0
LINE
8
DEFAULT_255_2_778
10
45.8832171
20
15.1372022
11
47.1461171
21
14.4059022
0
LINE
8
DEFAULT_255_2_778
10
47.1461171
20
14.4059022
11
47.1461171
21
12.9409022
0
LINE
8
DEFAULT_255_2_778
10
47.1461171
20
12.9409022
11
45.8771171
21
13.6733022
0
LINE
8
DEFAULT_255_2_778
10
45.8771171
20
13.6733022
11
45.8832171
21
15.1372022
0
LINE
8
DEFAULT_255_2_778
10
45.8832171
20
15.1372022
11
44.6148171
21
15.8699022
0
LINE
8
DEFAULT_255_2_778
10
44.6148171
20
15.8699022
11
43.3464171
21
15.1372022
0
LINE
8
DEFAULT_255_2_778
10
43.3464171
20
15.1372022
11
44.6148171
21
14.4054022
0
LINE
8
DEFAULT_255_2_778
10
44.6148171
20
14.4054022
11
45.8832171
21
15.1372022
0
LINE
8
DEFAULT_255_2_778
10
46.3669171
20
25.4481022
11
46.3669171
21
25.3570022
0
LINE
8
DEFAULT_255_2_778
10
46.8066171
20
25.4549022
11
46.8066171
21
25.3639022
0
LINE
8
DEFAULT_255_2_778
10
46.1528171
20
22.5366022
11
46.1528171
21
22.8409022
0
LINE
8
DEFAULT_255_2_778
10
46.1528171
20
22.8409022
11
46.0250171
21
22.8409022
0
LINE
8
DEFAULT_255_2_778
10
46.0250171
20
22.8409022
11
46.0250171
21
22.0871022
0
LINE
8
DEFAULT_255_2_778
10
46.0250171
20
22.0871022
11
46.1528171
21
22.0871022
0
LINE
8
DEFAULT_255_2_778
10
46.1528171
20
22.0871022
11
46.1528171
21
22.3913022
0
LINE
8
DEFAULT_255_2_778
10
46.1528171
20
22.3913022
11
47.1450171
21
22.3913022
0
LINE
8
DEFAULT_255_2_778
10
47.1450171
20
22.3913022
11
47.1450171
21
22.5363022
0
LINE
8
DEFAULT_255_2_778
10
47.1450171
20
22.5363022
11
46.1528171
21
22.5366022
0
LINE
8
DEFAULT_255_2_778
10
47.1450171
20
24.2082022
11
46.0250171
21
24.2082022
0
LINE
8
DEFAULT_255_2_778
10
46.0250171
20
24.2082022
11
46.0250171
21
24.0683022
0
LINE
8
DEFAULT_255_2_778
10
46.0250171
20
24.0683022
11
47.1450171
21
24.0683022
0
LINE
8
DEFAULT_255_2_778
10
47.1450171
20
24.0683022
11
47.1450171
21
24.2082022
0
LINE
8
DEFAULT_255_2_778
10
46.5079171
20
20.1350022
11
46.1065171
21
20.1350022
0
LINE
8
DEFAULT_255_2_778
10
46.1065171
20
20.1350022
11
46.1065171
21
20.8078022
0
LINE
8
DEFAULT_255_2_778
10
46.1065171
20
20.8078022
11
46.0250171
21
20.8078022
0
LINE
8
DEFAULT_255_2_778
10
46.0250171
20
20.8078022
11
46.0250171
21
20.0373022
0
LINE
8
DEFAULT_255_2_778
10
46.0250171
20
20.0373022
11
47.1450171
21
20.0373022
0
LINE
8
DEFAULT_255_2_778
10
47.1450171
20
20.0373022
11
47.1450171
21
20.8253022
0
LINE
8
DEFAULT_255_2_778
10
47.1450171
20
20.8253022
11
47.0522171
21
20.8253022
0
LINE
8
DEFAULT_255_2_778
10
47.0522171
20
20.8253022
11
47.0522171
21
20.1350022
0
LINE
8
DEFAULT_255_2_778
10
47.0522171
20
20.1350022
11
46.6026171
21
20.1350022
0
LINE
8
DEFAULT_255_2_778
10
46.6026171
20
20.1350022
11
46.6026171
21
20.7332022
0
LINE
8
DEFAULT_255_2_778
10
46.6026171
20
20.7332022
11
46.5079171
21
20.7332022
0
LINE
8
DEFAULT_255_2_778
10
46.5079171
20
20.7332022
11
46.5079171
21
20.1350022
0
LINE
8
DEFAULT_255_2_778
10
47.0522171
20
19.8344022
11
47.0522171
21
19.2370022
0
LINE
8
DEFAULT_255_2_778
10
47.0522171
20
19.2370022
11
46.0250171
21
19.2370022
0
LINE
8
DEFAULT_255_2_778
10
46.0250171
20
19.2370022
11
46.0250171
21
19.1396022
0
LINE
8
DEFAULT_255_2_778
10
46.0250171
20
19.1396022
11
47.1450171
21
19.1396022
0
LINE
8
DEFAULT_255_2_778
10
47.1450171
20
19.1396022
11
47.1450171
21
19.8344022
0
LINE
8
DEFAULT_255_2_778
10
47.1450171
20
19.8344022
11
47.0522171
21
19.8344022
0
LINE
8
DEFAULT_255_2_778
10
47.0522171
20
18.9171022
11
47.0522171
21
18.2673022
0
LINE
8
DEFAULT_255_2_778
10
47.0522171
20
18.2673022
11
46.6026171
21
18.2673022
0
LINE
8
DEFAULT_255_2_778
10
46.6026171
20
18.2673022
11
46.6026171
21
18.8398022
0
LINE
8
DEFAULT_255_2_778
10
46.6026171
20
18.8398022
11
46.5079171
21
18.8398022
0
LINE
8
DEFAULT_255_2_778
10
46.5079171
20
18.8398022
11
46.5079171
21
18.2673022
0
LINE
8
DEFAULT_255_2_778
10
46.5079171
20
18.2673022
11
46.1065171
21
18.2673022
0
LINE
8
DEFAULT_255_2_778
10
46.1065171
20
18.2673022
11
46.1065171
21
18.9144022
0
LINE
8
DEFAULT_255_2_778
10
46.1065171
20
18.9144022
11
46.0250171
21
18.9144022
0
LINE
8
DEFAULT_255_2_778
10
46.0250171
20
18.9144022
11
46.0250171
21
18.1440022
0
LINE
8
DEFAULT_255_2_778
10
46.0250171
20
18.1440022
11
47.1450171
21
18.1440022
0
LINE
8
DEFAULT_255_2_778
10
47.1450171
20
18.1440022
11
47.1450171
21
18.9171022
0
LINE
8
DEFAULT_255_2_778
10
47.1450171
20
18.9171022
11
47.0522171
21
18.9171022
0
LINE
8
DEFAULT_255_2_778
10
45.3212171
20
22.5731022
11
44.5341171
21
22.5731022
0
LINE
8
DEFAULT_255_2_778
10
44.5341171
20
22.5731022
11
44.5341171
21
22.6707022
0
LINE
8
DEFAULT_255_2_778
10
44.5341171
20
22.6707022
11
45.3543171
21
22.6723022
0
LINE
8
DEFAULT_255_2_778
10
45.3549171
20
21.8042022
11
44.5346171
21
21.8058022
0
LINE
8
DEFAULT_255_2_778
10
44.5346171
20
21.8058022
11
44.5346171
21
21.9034022
0
LINE
8
DEFAULT_255_2_778
10
44.5346171
20
21.9034022
11
45.3218171
21
21.9034022
0
LINE
8
DEFAULT_255_2_778
10
44.5341171
20
19.5407022
11
45.6647171
21
19.5407022
0
LINE
8
DEFAULT_255_2_778
10
45.6647171
20
19.5407022
11
45.6647171
21
19.6378022
0
LINE
8
DEFAULT_255_2_778
10
45.6647171
20
19.6378022
11
44.5341171
21
19.6378022
0
LINE
8
DEFAULT_255_2_778
10
44.5341171
20
19.6378022
11
44.5341171
21
19.5407022
0
LINE
8
DEFAULT_255_2_778
10
45.3845171
20
18.7250022
11
45.3988171
21
18.7038022
0
LINE
8
DEFAULT_255_2_778
10
45.3988171
20
18.7038022
11
45.3845171
21
18.6827022
0
LINE
8
DEFAULT_255_2_778
10
45.3845171
20
18.6827022
11
44.5341171
21
18.4199022
0
LINE
8
DEFAULT_255_2_778
10
44.5341171
20
18.4199022
11
44.5341171
21
18.1141022
0
LINE
8
DEFAULT_255_2_778
10
44.5341171
20
18.1141022
11
45.6647171
21
18.1141022
0
LINE
8
DEFAULT_255_2_778
10
45.6647171
20
18.1141022
11
45.6647171
21
18.2162022
0
LINE
8
DEFAULT_255_2_778
10
45.6647171
20
18.2162022
11
44.6471171
21
18.2162022
0
LINE
8
DEFAULT_255_2_778
10
44.6471171
20
18.2162022
11
44.6471171
21
18.3543022
0
LINE
8
DEFAULT_255_2_778
10
44.6471171
20
18.3543022
11
45.6647171
21
18.6689022
0
LINE
8
DEFAULT_255_2_778
10
45.6647171
20
18.6689022
11
45.6647171
21
18.7385022
0
LINE
8
DEFAULT_255_2_778
10
45.6647171
20
18.7385022
11
44.6471171
21
19.0531022
0
LINE
8
DEFAULT_255_2_778
10
44.6471171
20
19.0531022
11
44.6471171
21
19.1912022
0
LINE
8
DEFAULT_255_2_778
10
44.6471171
20
19.1912022
11
45.6647171
21
19.1912022
0
LINE
8
DEFAULT_255_2_778
10
45.6647171
20
19.1912022
11
45.6647171
21
19.2933022
0
LINE
8
DEFAULT_255_2_778
10
45.6647171
20
19.2933022
11
44.5341171
21
19.2933022
0
LINE
8
DEFAULT_255_2_778
10
44.5341171
20
19.2933022
11
44.5341171
21
18.9875022
0
LINE
8
DEFAULT_255_2_778
10
44.5341171
20
18.9875022
11
45.3845171
21
18.7250022
0
LINE
8
DEFAULT_255_2_778
10
44.5341171
20
19.8701022
11
44.6254171
21
19.8701022
0
LINE
8
DEFAULT_255_2_778
10
44.6254171
20
19.8701022
11
44.6254171
21
20.1942022
0
LINE
8
DEFAULT_255_2_778
10
44.6254171
20
20.1942022
11
45.6647171
21
20.1942022
0
LINE
8
DEFAULT_255_2_778
10
45.6647171
20
20.1942022
11
45.6647171
21
20.3183022
0
LINE
8
DEFAULT_255_2_778
10
45.6647171
20
20.3183022
11
44.6254171
21
20.3183022
0
LINE
8
DEFAULT_255_2_778
10
44.6254171
20
20.3183022
11
44.6254171
21
20.6424022
0
LINE
8
DEFAULT_255_2_778
10
44.6254171
20
20.6424022
11
44.5341171
21
20.6424022
0
LINE
8
DEFAULT_255_2_778
10
44.5341171
20
20.6424022
11
44.5341171
21
19.8701022
0
LINE
8
DEFAULT_255_2_778
10
44.5341171
20
23.9717022
11
45.6647171
21
23.9717022
0
LINE
8
DEFAULT_255_2_778
10
45.6647171
20
23.9717022
11
45.6647171
21
24.0817022
0
LINE
8
DEFAULT_255_2_778
10
45.6647171
20
24.0817022
11
44.5341171
21
24.0817022
0
LINE
8
DEFAULT_255_2_778
10
44.5341171
20
24.0817022
11
44.5341171
21
23.9717022
0
LINE
8
DEFAULT_255_2_778
10
45.0247171
20
25.4705022
11
44.5341171
21
25.4705022
0
LINE
8
DEFAULT_255_2_778
10
44.5341171
20
25.4705022
11
44.5341171
21
25.3973022
0
LINE
8
DEFAULT_255_2_778
10
44.5341171
20
25.3973022
11
45.6647171
21
25.3973022
0
LINE
8
DEFAULT_255_2_778
10
45.6647171
20
25.3973022
11
45.6647171
21
25.4705022
0
LINE
8
DEFAULT_255_2_778
10
45.6647171
20
25.4705022
11
45.0964171
21
25.4705022
0
LINE
8
DEFAULT_255_2_778
10
45.0964171
20
25.4705022
11
45.0964171
21
26.1611022
0
LINE
8
DEFAULT_255_2_778
10
45.0964171
20
26.1611022
11
45.6647171
21
26.1611022
0
LINE
8
DEFAULT_255_2_778
10
45.6647171
20
26.1611022
11
45.6647171
21
26.2344022
0
LINE
8
DEFAULT_255_2_778
10
45.6647171
20
26.2344022
11
44.5341171
21
26.2344022
0
LINE
8
DEFAULT_255_2_778
10
44.5341171
20
26.2344022
11
44.5341171
21
26.1611022
0
LINE
8
DEFAULT_255_2_778
10
44.5341171
20
26.1611022
11
45.0247171
21
26.1611022
0
LINE
8
DEFAULT_255_2_778
10
45.0247171
20
26.1611022
11
45.0247171
21
25.4705022
0
LINE
8
DEFAULT_255_2_778
10
45.6647171
20
26.5112022
11
45.6647171
21
26.6212022
0
LINE
8
DEFAULT_255_2_778
10
45.6647171
20
26.6212022
11
44.5341171
21
26.6212022
0
LINE
8
DEFAULT_255_2_778
10
44.5341171
20
26.6212022
11
44.5341171
21
26.5112022
0
LINE
8
DEFAULT_255_2_778
10
44.5341171
20
26.5112022
11
45.6647171
21
26.5112022
0
ENDSEC
0
EOF