0
SECTION
2
HEADER
9
$MEASUREMENT
70
1
0
ENDSEC
0
SECTION
2
TABLES
0
TABLE
2
LTYPE
0
LTYPE
72
65
70
64
2
CONTINUOUS
3
______
73
0
40
0
0
ENDTAB
0
TABLE
2
LAYER
0
LAYER
2
DEFAULT_255_2_778
70
0
62
255
6
CONTINUOUS
0
ENDTAB
0
ENDSEC
0
SECTION
2
ENTITIES
0
ARC
8
DEFAULT_255_2_778
10
26.8904378
20
97.0874684
40
0.7001699
50
0.0057163
51
89.9942837
0
ARC
8
DEFAULT_255_2_778
10
26.8903737
20
0.4877721
40
0.700234
50
270.0109655
51
359.9890444
0
ARC
8
DEFAULT_255_2_778
10
0.8908417
20
0.4877721
40
0.7002339
50
180.0109556
51
269.9890345
0
ARC
8
DEFAULT_255_2_778
10
0.8907775
20
97.0874684
40
0.7001699
50
90.0057163
51
179.9942837
0
LINE
8
DEFAULT_255_2_778
10
27.5906077
20
97.0875382
11
27.5906077
21
0.4876382
0
LINE
8
DEFAULT_255_2_778
10
26.8905077
20
-0.2124618
11
0.8907077
21
-0.2124618
0
LINE
8
DEFAULT_255_2_778
10
0.1906077
20
0.4876382
11
0.1906077
21
97.0875382
0
LINE
8
DEFAULT_255_2_778
10
0.8907077
20
97.7876382
11
26.8908077
21
97.7876382
0
LINE
8
DEFAULT_255_2_778
10
0.1906077
20
82.7876
11
27.5906077
21
82.7876
0
LINE
8
DEFAULT_255_2_778
10
0.1906077
20
82.2876
11
27.5906077
21
82.2876
0
LINE
8
DEFAULT_255_2_778
10
21.7656137
20
72.4775553
11
21.7656137
21
2.9974553
0
LINE
8
DEFAULT_255_2_778
10
21.7656137
20
2.9974553
11
13.5156137
21
2.9974553
0
LINE
8
DEFAULT_255_2_778
10
13.5156137
20
2.9974553
11
13.5156137
21
72.4775553
0
LINE
8
DEFAULT_255_2_778
10
13.5156137
20
72.4775553
11
21.7656137
21
72.4775553
0
LINE
8
DEFAULT_255_2_778
10
22.2656512
20
72.9776855
11
22.2656512
21
2.4976855
0
LINE
8
DEFAULT_255_2_778
10
22.2656512
20
2.4976855
11
13.0155512
21
2.4976855
0
LINE
8
DEFAULT_255_2_778
10
13.0155512
20
2.4976855
11
13.0155512
21
72.9776855
0
LINE
8
DEFAULT_255_2_778
10
13.0155512
20
72.9776855
11
22.2656512
21
72.9776855
0
LINE
8
DEFAULT_255_2_778
10
23.2906554
20
73.9875323
11
23.2906554
21
1.4874323
0
LINE
8
DEFAULT_255_2_778
10
23.2906554
20
1.4874323
11
11.9905554
21
1.4874323
0
LINE
8
DEFAULT_255_2_778
10
11.9905554
20
1.4874323
11
11.9905554
21
73.9875323
0
LINE
8
DEFAULT_255_2_778
10
11.9905554
20
73.9875323
11
23.2906554
21
73.9875323
0
ARC
8
DEFAULT_255_2_778
10
17.6376967
20
5.7505955
40
1.297198
50
148.2770855
51
180.1324007
0
ARC
8
DEFAULT_255_2_778
10
17.6368449
20
5.7511122
40
1.2962017
50
97.0226393
51
148.276717
0
ARC
8
DEFAULT_255_2_778
10
17.6400539
20
5.7233442
40
1.3241537
50
89.9849309
51
97.0135513
0
ARC
8
DEFAULT_255_2_778
10
17.6433997
20
5.7503033
40
1.297198
50
58.2770855
51
90.1324007
0
ARC
8
DEFAULT_255_2_778
10
17.6439165
20
5.7511551
40
1.2962017
50
7.0226393
51
58.276717
0
ARC
8
DEFAULT_255_2_778
10
17.6161484
20
5.7479461
40
1.3241537
50
359.9849309
51
7.0135513
0
ARC
8
DEFAULT_255_2_778
10
17.6431076
20
5.7446003
40
1.297198
50
328.2770855
51
0.1324007
0
ARC
8
DEFAULT_255_2_778
10
17.6439594
20
5.7440835
40
1.2962017
50
277.0226393
51
328.276717
0
ARC
8
DEFAULT_255_2_778
10
17.6407504
20
5.7718516
40
1.3241537
50
269.9849309
51
277.0135513
0
ARC
8
DEFAULT_255_2_778
10
17.6374045
20
5.7448924
40
1.297198
50
238.2770855
51
270.1324007
0
ARC
8
DEFAULT_255_2_778
10
17.6368878
20
5.7440406
40
1.2962017
50
187.0226393
51
238.276717
0
ARC
8
DEFAULT_255_2_778
10
17.6646558
20
5.7472496
40
1.3241537
50
179.9849309
51
187.0135513
0
LINE
8
DEFAULT_255_2_778
10
16.3405021
20
5.7475979
11
16.3405021
21
5.7475979
0
LINE
8
DEFAULT_255_2_778
10
13.5156137
20
8.4976
11
21.7656137
21
8.4976
0
ARC
8
DEFAULT_255_2_778
10
17.6376967
20
69.7307955
40
1.297198
50
148.2770855
51
180.1324007
0
ARC
8
DEFAULT_255_2_778
10
17.6368449
20
69.7313122
40
1.2962017
50
97.0226393
51
148.276717
0
ARC
8
DEFAULT_255_2_778
10
17.6400539
20
69.7035442
40
1.3241537
50
89.9849309
51
97.0135513
0
ARC
8
DEFAULT_255_2_778
10
17.6433997
20
69.7305033
40
1.297198
50
58.2770855
51
90.1324007
0
ARC
8
DEFAULT_255_2_778
10
17.6439165
20
69.7313551
40
1.2962017
50
7.0226393
51
58.276717
0
ARC
8
DEFAULT_255_2_778
10
17.6161484
20
69.7281461
40
1.3241537
50
359.9849309
51
7.0135513
0
ARC
8
DEFAULT_255_2_778
10
17.6431076
20
69.7248003
40
1.297198
50
328.2770855
51
0.1324007
0
ARC
8
DEFAULT_255_2_778
10
17.6439594
20
69.7242835
40
1.2962017
50
277.0226393
51
328.276717
0
ARC
8
DEFAULT_255_2_778
10
17.6407504
20
69.7520516
40
1.3241537
50
269.9849309
51
277.0135513
0
ARC
8
DEFAULT_255_2_778
10
17.6374045
20
69.7250924
40
1.297198
50
238.2770855
51
270.1324007
0
ARC
8
DEFAULT_255_2_778
10
17.6368878
20
69.7242406
40
1.2962017
50
187.0226393
51
238.276717
0
ARC
8
DEFAULT_255_2_778
10
17.6646558
20
69.7274496
40
1.3241537
50
179.9849309
51
187.0135513
0
LINE
8
DEFAULT_255_2_778
10
16.3405021
20
69.7277979
11
16.3405021
21
69.7277979
0
LINE
8
DEFAULT_255_2_778
10
13.5156137
20
66.9777
11
21.7656137
21
66.9777
0
ARC
8
DEFAULT_255_2_778
10
19.5422733
20
62.9891617
40
1.4957997
50
46.6632647
51
81.0451275
0
ARC
8
DEFAULT_255_2_778
10
19.541762
20
62.9858895
40
1.4985318
50
3.7765658
51
46.7349092
0
ARC
8
DEFAULT_255_2_778
10
19.5258609
20
62.9852091
40
1.5144432
50
0.004555
51
3.7626276
0
ARC
8
DEFAULT_255_2_778
10
19.5444474
20
12.4884729
40
1.4958573
50
325.6628842
51
0.0443
0
ARC
8
DEFAULT_255_2_778
10
19.5411821
20
12.4883591
40
1.4984907
50
282.4007583
51
325.7369018
0
ARC
8
DEFAULT_255_2_778
10
19.5380037
20
12.5043126
40
1.5147546
50
279.005391
51
282.3885888
0
ARC
8
DEFAULT_255_2_778
10
15.7403238
20
11.8894977
40
1.5016358
50
275.4594356
51
278.9950907
0
ARC
8
DEFAULT_255_2_778
10
15.740548
20
11.8871127
40
1.4992401
50
270.0002069
51
275.4595769
0
ARC
8
DEFAULT_255_2_778
10
15.7406713
20
11.8882386
40
1.500366
50
229.5071665
51
269.9954986
0
ARC
8
DEFAULT_255_2_778
10
15.7409843
20
11.8881214
40
1.5004801
50
180.0149647
51
229.4951722
0
ARC
8
DEFAULT_255_2_778
10
15.7409325
20
63.5868615
40
1.5004283
50
130.5039166
51
179.9821272
0
ARC
8
DEFAULT_255_2_778
10
15.7408646
20
63.5864268
40
1.5007148
50
90.0029861
51
130.4911656
0
ARC
8
DEFAULT_255_2_778
10
15.7407785
20
63.5872004
40
1.4999411
50
84.5518277
51
89.9997003
0
ARC
8
DEFAULT_255_2_778
10
15.7405752
20
63.5850038
40
1.502147
50
81.0177063
51
84.5520629
0
LINE
8
DEFAULT_255_2_778
10
21.0403043
20
62.9853295
11
21.0403043
21
12.4896295
0
LINE
8
DEFAULT_255_2_778
10
19.7751043
20
11.0082295
11
15.9751043
21
10.4063295
0
LINE
8
DEFAULT_255_2_778
10
14.2405043
20
11.8877295
11
14.2405043
21
63.5873295
0
LINE
8
DEFAULT_255_2_778
10
15.9751043
20
65.0687295
11
19.7751043
21
64.4667295
0
LINE
8
DEFAULT_255_2_778
10
19.1607688
20
54.8674504
11
19.1607688
21
53.6273504
0
LINE
8
DEFAULT_255_2_778
10
19.1607688
20
53.6273504
11
18.6606688
21
53.6273504
0
LINE
8
DEFAULT_255_2_778
10
18.6606688
20
53.6273504
11
18.6606688
21
54.8674504
0
LINE
8
DEFAULT_255_2_778
10
18.6606688
20
54.8674504
11
19.1607688
21
54.8674504
0
LINE
8
DEFAULT_255_2_778
10
19.1607688
20
57.4074504
11
19.1607688
21
56.1673504
0
LINE
8
DEFAULT_255_2_778
10
19.1607688
20
56.1673504
11
18.6606688
21
56.1673504
0
LINE
8
DEFAULT_255_2_778
10
18.6606688
20
56.1673504
11
18.6606688
21
57.4074504
0
LINE
8
DEFAULT_255_2_778
10
18.6606688
20
57.4074504
11
19.1607688
21
57.4074504
0
LINE
8
DEFAULT_255_2_778
10
19.1607688
20
59.9474504
11
19.1607688
21
58.7073504
0
LINE
8
DEFAULT_255_2_778
10
19.1607688
20
58.7073504
11
18.6606688
21
58.7073504
0
LINE
8
DEFAULT_255_2_778
10
18.6606688
20
58.7073504
11
18.6606688
21
59.9474504
0
LINE
8
DEFAULT_255_2_778
10
18.6606688
20
59.9474504
11
19.1607688
21
59.9474504
0
LINE
8
DEFAULT_255_2_778
10
19.1607688
20
62.4874504
11
19.1607688
21
61.2473504
0
LINE
8
DEFAULT_255_2_778
10
19.1607688
20
61.2473504
11
18.6606688
21
61.2473504
0
LINE
8
DEFAULT_255_2_778
10
18.6606688
20
61.2473504
11
18.6606688
21
62.4874504
0
LINE
8
DEFAULT_255_2_778
10
18.6606688
20
62.4874504
11
19.1607688
21
62.4874504
0
LINE
8
DEFAULT_255_2_778
10
16.6207688
20
53.6273504
11
16.6207688
21
54.8674504
0
LINE
8
DEFAULT_255_2_778
10
16.6207688
20
54.8674504
11
16.1206688
21
54.8674504
0
LINE
8
DEFAULT_255_2_778
10
16.1206688
20
54.8674504
11
16.1206688
21
53.6273504
0
LINE
8
DEFAULT_255_2_778
10
16.1206688
20
53.6273504
11
16.6207688
21
53.6273504
0
LINE
8
DEFAULT_255_2_778
10
16.6207688
20
56.1673504
11
16.6207688
21
57.4074504
0
LINE
8
DEFAULT_255_2_778
10
16.6207688
20
57.4074504
11
16.1206688
21
57.4074504
0
LINE
8
DEFAULT_255_2_778
10
16.1206688
20
57.4074504
11
16.1206688
21
56.1673504
0
LINE
8
DEFAULT_255_2_778
10
16.1206688
20
56.1673504
11
16.6207688
21
56.1673504
0
LINE
8
DEFAULT_255_2_778
10
16.6207688
20
58.7073504
11
16.6207688
21
59.9474504
0
LINE
8
DEFAULT_255_2_778
10
16.6207688
20
59.9474504
11
16.1206688
21
59.9474504
0
LINE
8
DEFAULT_255_2_778
10
16.1206688
20
59.9474504
11
16.1206688
21
58.7073504
0
LINE
8
DEFAULT_255_2_778
10
16.1206688
20
58.7073504
11
16.6207688
21
58.7073504
0
LINE
8
DEFAULT_255_2_778
10
16.6207688
20
61.2473504
11
16.6207688
21
62.4874504
0
LINE
8
DEFAULT_255_2_778
10
16.6207688
20
62.4874504
11
16.1206688
21
62.4874504
0
LINE
8
DEFAULT_255_2_778
10
16.1206688
20
62.4874504
11
16.1206688
21
61.2473504
0
LINE
8
DEFAULT_255_2_778
10
16.1206688
20
61.2473504
11
16.6207688
21
61.2473504
0
LINE
8
DEFAULT_255_2_778
10
19.1607688
20
44.7074504
11
19.1607688
21
43.4673504
0
LINE
8
DEFAULT_255_2_778
10
19.1607688
20
43.4673504
11
18.6606688
21
43.4673504
0
LINE
8
DEFAULT_255_2_778
10
18.6606688
20
43.4673504
11
18.6606688
21
44.7074504
0
LINE
8
DEFAULT_255_2_778
10
18.6606688
20
44.7074504
11
19.1607688
21
44.7074504
0
LINE
8
DEFAULT_255_2_778
10
19.1607688
20
47.2474504
11
19.1607688
21
46.0073504
0
LINE
8
DEFAULT_255_2_778
10
19.1607688
20
46.0073504
11
18.6606688
21
46.0073504
0
LINE
8
DEFAULT_255_2_778
10
18.6606688
20
46.0073504
11
18.6606688
21
47.2474504
0
LINE
8
DEFAULT_255_2_778
10
18.6606688
20
47.2474504
11
19.1607688
21
47.2474504
0
LINE
8
DEFAULT_255_2_778
10
19.1607688
20
49.7874504
11
19.1607688
21
48.5473504
0
LINE
8
DEFAULT_255_2_778
10
19.1607688
20
48.5473504
11
18.6606688
21
48.5473504
0
LINE
8
DEFAULT_255_2_778
10
18.6606688
20
48.5473504
11
18.6606688
21
49.7874504
0
LINE
8
DEFAULT_255_2_778
10
18.6606688
20
49.7874504
11
19.1607688
21
49.7874504
0
LINE
8
DEFAULT_255_2_778
10
19.1607688
20
52.3274504
11
19.1607688
21
51.0873504
0
LINE
8
DEFAULT_255_2_778
10
19.1607688
20
51.0873504
11
18.6606688
21
51.0873504
0
LINE
8
DEFAULT_255_2_778
10
18.6606688
20
51.0873504
11
18.6606688
21
52.3274504
0
LINE
8
DEFAULT_255_2_778
10
18.6606688
20
52.3274504
11
19.1607688
21
52.3274504
0
LINE
8
DEFAULT_255_2_778
10
16.6207688
20
43.4673504
11
16.6207688
21
44.7074504
0
LINE
8
DEFAULT_255_2_778
10
16.6207688
20
44.7074504
11
16.1206688
21
44.7074504
0
LINE
8
DEFAULT_255_2_778
10
16.1206688
20
44.7074504
11
16.1206688
21
43.4673504
0
LINE
8
DEFAULT_255_2_778
10
16.1206688
20
43.4673504
11
16.6207688
21
43.4673504
0
LINE
8
DEFAULT_255_2_778
10
16.6207688
20
46.0073504
11
16.6207688
21
47.2474504
0
LINE
8
DEFAULT_255_2_778
10
16.6207688
20
47.2474504
11
16.1206688
21
47.2474504
0
LINE
8
DEFAULT_255_2_778
10
16.1206688
20
47.2474504
11
16.1206688
21
46.0073504
0
LINE
8
DEFAULT_255_2_778
10
16.1206688
20
46.0073504
11
16.6207688
21
46.0073504
0
LINE
8
DEFAULT_255_2_778
10
16.6207688
20
48.5473504
11
16.6207688
21
49.7874504
0
LINE
8
DEFAULT_255_2_778
10
16.6207688
20
49.7874504
11
16.1206688
21
49.7874504
0
LINE
8
DEFAULT_255_2_778
10
16.1206688
20
49.7874504
11
16.1206688
21
48.5473504
0
LINE
8
DEFAULT_255_2_778
10
16.1206688
20
48.5473504
11
16.6207688
21
48.5473504
0
LINE
8
DEFAULT_255_2_778
10
16.6207688
20
51.0873504
11
16.6207688
21
52.3274504
0
LINE
8
DEFAULT_255_2_778
10
16.6207688
20
52.3274504
11
16.1206688
21
52.3274504
0
LINE
8
DEFAULT_255_2_778
10
16.1206688
20
52.3274504
11
16.1206688
21
51.0873504
0
LINE
8
DEFAULT_255_2_778
10
16.1206688
20
51.0873504
11
16.6207688
21
51.0873504
0
LINE
8
DEFAULT_255_2_778
10
19.1607688
20
34.5474504
11
19.1607688
21
33.3073504
0
LINE
8
DEFAULT_255_2_778
10
19.1607688
20
33.3073504
11
18.6606688
21
33.3073504
0
LINE
8
DEFAULT_255_2_778
10
18.6606688
20
33.3073504
11
18.6606688
21
34.5474504
0
LINE
8
DEFAULT_255_2_778
10
18.6606688
20
34.5474504
11
19.1607688
21
34.5474504
0
LINE
8
DEFAULT_255_2_778
10
19.1607688
20
37.0874504
11
19.1607688
21
35.8473504
0
LINE
8
DEFAULT_255_2_778
10
19.1607688
20
35.8473504
11
18.6606688
21
35.8473504
0
LINE
8
DEFAULT_255_2_778
10
18.6606688
20
35.8473504
11
18.6606688
21
37.0874504
0
LINE
8
DEFAULT_255_2_778
10
18.6606688
20
37.0874504
11
19.1607688
21
37.0874504
0
LINE
8
DEFAULT_255_2_778
10
19.1607688
20
39.6274504
11
19.1607688
21
38.3873504
0
LINE
8
DEFAULT_255_2_778
10
19.1607688
20
38.3873504
11
18.6606688
21
38.3873504
0
LINE
8
DEFAULT_255_2_778
10
18.6606688
20
38.3873504
11
18.6606688
21
39.6274504
0
LINE
8
DEFAULT_255_2_778
10
18.6606688
20
39.6274504
11
19.1607688
21
39.6274504
0
LINE
8
DEFAULT_255_2_778
10
19.1607688
20
42.1674504
11
19.1607688
21
40.9273504
0
LINE
8
DEFAULT_255_2_778
10
19.1607688
20
40.9273504
11
18.6606688
21
40.9273504
0
LINE
8
DEFAULT_255_2_778
10
18.6606688
20
40.9273504
11
18.6606688
21
42.1674504
0
LINE
8
DEFAULT_255_2_778
10
18.6606688
20
42.1674504
11
19.1607688
21
42.1674504
0
LINE
8
DEFAULT_255_2_778
10
16.6207688
20
33.3073504
11
16.6207688
21
34.5474504
0
LINE
8
DEFAULT_255_2_778
10
16.6207688
20
34.5474504
11
16.1206688
21
34.5474504
0
LINE
8
DEFAULT_255_2_778
10
16.1206688
20
34.5474504
11
16.1206688
21
33.3073504
0
LINE
8
DEFAULT_255_2_778
10
16.1206688
20
33.3073504
11
16.6207688
21
33.3073504
0
LINE
8
DEFAULT_255_2_778
10
16.6207688
20
35.8473504
11
16.6207688
21
37.0874504
0
LINE
8
DEFAULT_255_2_778
10
16.6207688
20
37.0874504
11
16.1206688
21
37.0874504
0
LINE
8
DEFAULT_255_2_778
10
16.1206688
20
37.0874504
11
16.1206688
21
35.8473504
0
LINE
8
DEFAULT_255_2_778
10
16.1206688
20
35.8473504
11
16.6207688
21
35.8473504
0
LINE
8
DEFAULT_255_2_778
10
16.6207688
20
39.6274504
11
16.6207688
21
38.3873504
0
LINE
8
DEFAULT_255_2_778
10
16.6207688
20
38.3873504
11
16.1206688
21
38.3873504
0
LINE
8
DEFAULT_255_2_778
10
16.1206688
20
38.3873504
11
16.1206688
21
39.6274504
0
LINE
8
DEFAULT_255_2_778
10
16.1206688
20
39.6274504
11
16.6207688
21
39.6274504
0
LINE
8
DEFAULT_255_2_778
10
16.6207688
20
40.9273504
11
16.6207688
21
42.1674504
0
LINE
8
DEFAULT_255_2_778
10
16.6207688
20
42.1674504
11
16.1206688
21
42.1674504
0
LINE
8
DEFAULT_255_2_778
10
16.1206688
20
42.1674504
11
16.1206688
21
40.9273504
0
LINE
8
DEFAULT_255_2_778
10
16.1206688
20
40.9273504
11
16.6207688
21
40.9273504
0
LINE
8
DEFAULT_255_2_778
10
19.1607688
20
24.3874504
11
19.1607688
21
23.1473504
0
LINE
8
DEFAULT_255_2_778
10
19.1607688
20
23.1473504
11
18.6606688
21
23.1473504
0
LINE
8
DEFAULT_255_2_778
10
18.6606688
20
23.1473504
11
18.6606688
21
24.3874504
0
LINE
8
DEFAULT_255_2_778
10
18.6606688
20
24.3874504
11
19.1607688
21
24.3874504
0
LINE
8
DEFAULT_255_2_778
10
19.1607688
20
26.9274504
11
19.1607688
21
25.6873504
0
LINE
8
DEFAULT_255_2_778
10
19.1607688
20
25.6873504
11
18.6606688
21
25.6873504
0
LINE
8
DEFAULT_255_2_778
10
18.6606688
20
25.6873504
11
18.6606688
21
26.9274504
0
LINE
8
DEFAULT_255_2_778
10
18.6606688
20
26.9274504
11
19.1607688
21
26.9274504
0
LINE
8
DEFAULT_255_2_778
10
19.1607688
20
29.4674504
11
19.1607688
21
28.2273504
0
LINE
8
DEFAULT_255_2_778
10
19.1607688
20
28.2273504
11
18.6606688
21
28.2273504
0
LINE
8
DEFAULT_255_2_778
10
18.6606688
20
28.2273504
11
18.6606688
21
29.4674504
0
LINE
8
DEFAULT_255_2_778
10
18.6606688
20
29.4674504
11
19.1607688
21
29.4674504
0
LINE
8
DEFAULT_255_2_778
10
19.1607688
20
32.0074504
11
19.1607688
21
30.7673504
0
LINE
8
DEFAULT_255_2_778
10
19.1607688
20
30.7673504
11
18.6606688
21
30.7673504
0
LINE
8
DEFAULT_255_2_778
10
18.6606688
20
30.7673504
11
18.6606688
21
32.0074504
0
LINE
8
DEFAULT_255_2_778
10
18.6606688
20
32.0074504
11
19.1607688
21
32.0074504
0
LINE
8
DEFAULT_255_2_778
10
16.6207688
20
23.1473504
11
16.6207688
21
24.3874504
0
LINE
8
DEFAULT_255_2_778
10
16.6207688
20
24.3874504
11
16.1206688
21
24.3874504
0
LINE
8
DEFAULT_255_2_778
10
16.1206688
20
24.3874504
11
16.1206688
21
23.1473504
0
LINE
8
DEFAULT_255_2_778
10
16.1206688
20
23.1473504
11
16.6207688
21
23.1473504
0
LINE
8
DEFAULT_255_2_778
10
16.6207688
20
25.6873504
11
16.6207688
21
26.9274504
0
LINE
8
DEFAULT_255_2_778
10
16.6207688
20
26.9274504
11
16.1206688
21
26.9274504
0
LINE
8
DEFAULT_255_2_778
10
16.1206688
20
26.9274504
11
16.1206688
21
25.6873504
0
LINE
8
DEFAULT_255_2_778
10
16.1206688
20
25.6873504
11
16.6207688
21
25.6873504
0
LINE
8
DEFAULT_255_2_778
10
16.6207688
20
28.2273504
11
16.6207688
21
29.4674504
0
LINE
8
DEFAULT_255_2_778
10
16.6207688
20
29.4674504
11
16.1206688
21
29.4674504
0
LINE
8
DEFAULT_255_2_778
10
16.1206688
20
29.4674504
11
16.1206688
21
28.2273504
0
LINE
8
DEFAULT_255_2_778
10
16.1206688
20
28.2273504
11
16.6207688
21
28.2273504
0
LINE
8
DEFAULT_255_2_778
10
16.6207688
20
30.7673504
11
16.6207688
21
32.0074504
0
LINE
8
DEFAULT_255_2_778
10
16.6207688
20
32.0074504
11
16.1206688
21
32.0074504
0
LINE
8
DEFAULT_255_2_778
10
16.1206688
20
32.0074504
11
16.1206688
21
30.7673504
0
LINE
8
DEFAULT_255_2_778
10
16.1206688
20
30.7673504
11
16.6207688
21
30.7673504
0
LINE
8
DEFAULT_255_2_778
10
19.1607688
20
14.2274504
11
19.1607688
21
12.9873504
0
LINE
8
DEFAULT_255_2_778
10
19.1607688
20
12.9873504
11
18.6606688
21
12.9873504
0
LINE
8
DEFAULT_255_2_778
10
18.6606688
20
12.9873504
11
18.6606688
21
14.2274504
0
LINE
8
DEFAULT_255_2_778
10
18.6606688
20
14.2274504
11
19.1607688
21
14.2274504
0
LINE
8
DEFAULT_255_2_778
10
19.1607688
20
16.7674504
11
19.1607688
21
15.5273504
0
LINE
8
DEFAULT_255_2_778
10
19.1607688
20
15.5273504
11
18.6606688
21
15.5273504
0
LINE
8
DEFAULT_255_2_778
10
18.6606688
20
15.5273504
11
18.6606688
21
16.7674504
0
LINE
8
DEFAULT_255_2_778
10
18.6606688
20
16.7674504
11
19.1607688
21
16.7674504
0
LINE
8
DEFAULT_255_2_778
10
19.1607688
20
19.3074504
11
19.1607688
21
18.0673504
0
LINE
8
DEFAULT_255_2_778
10
19.1607688
20
18.0673504
11
18.6606688
21
18.0673504
0
LINE
8
DEFAULT_255_2_778
10
18.6606688
20
18.0673504
11
18.6606688
21
19.3074504
0
LINE
8
DEFAULT_255_2_778
10
18.6606688
20
19.3074504
11
19.1607688
21
19.3074504
0
LINE
8
DEFAULT_255_2_778
10
19.1607688
20
20.6073504
11
19.1607688
21
21.8474504
0
LINE
8
DEFAULT_255_2_778
10
19.1607688
20
21.8474504
11
18.6606688
21
21.8474504
0
LINE
8
DEFAULT_255_2_778
10
18.6606688
20
21.8474504
11
18.6606688
21
20.6073504
0
LINE
8
DEFAULT_255_2_778
10
18.6606688
20
20.6073504
11
19.1607688
21
20.6073504
0
LINE
8
DEFAULT_255_2_778
10
16.6207688
20
12.9873504
11
16.6207688
21
14.2274504
0
LINE
8
DEFAULT_255_2_778
10
16.6207688
20
14.2274504
11
16.1206688
21
14.2274504
0
LINE
8
DEFAULT_255_2_778
10
16.1206688
20
14.2274504
11
16.1206688
21
12.9873504
0
LINE
8
DEFAULT_255_2_778
10
16.1206688
20
12.9873504
11
16.6207688
21
12.9873504
0
LINE
8
DEFAULT_255_2_778
10
16.6207688
20
15.5273504
11
16.6207688
21
16.7674504
0
LINE
8
DEFAULT_255_2_778
10
16.6207688
20
16.7674504
11
16.1206688
21
16.7674504
0
LINE
8
DEFAULT_255_2_778
10
16.1206688
20
16.7674504
11
16.1206688
21
15.5273504
0
LINE
8
DEFAULT_255_2_778
10
16.1206688
20
15.5273504
11
16.6207688
21
15.5273504
0
LINE
8
DEFAULT_255_2_778
10
16.6207688
20
18.0673504
11
16.6207688
21
19.3074504
0
LINE
8
DEFAULT_255_2_778
10
16.6207688
20
19.3074504
11
16.1206688
21
19.3074504
0
LINE
8
DEFAULT_255_2_778
10
16.1206688
20
19.3074504
11
16.1206688
21
18.0673504
0
LINE
8
DEFAULT_255_2_778
10
16.1206688
20
18.0673504
11
16.6207688
21
18.0673504
0
LINE
8
DEFAULT_255_2_778
10
16.6207688
20
20.6073504
11
16.6207688
21
21.8474504
0
LINE
8
DEFAULT_255_2_778
10
16.6207688
20
21.8474504
11
16.1206688
21
21.8474504
0
LINE
8
DEFAULT_255_2_778
10
16.1206688
20
21.8474504
11
16.1206688
21
20.6073504
0
LINE
8
DEFAULT_255_2_778
10
16.1206688
20
20.6073504
11
16.6207688
21
20.6073504
0
LINE
8
DEFAULT_255_2_778
10
16.2873271
20
75.2864677
11
16.2032271
21
75.5647677
0
LINE
8
DEFAULT_255_2_778
10
16.2032271
20
75.5647677
11
15.8428271
21
75.5647677
0
LINE
8
DEFAULT_255_2_778
10
15.8428271
20
75.5647677
11
15.7600271
21
75.2864677
0
LINE
8
DEFAULT_255_2_778
10
15.7600271
20
75.2864677
11
15.6224271
21
75.2864677
0
LINE
8
DEFAULT_255_2_778
10
15.6224271
20
75.2864677
11
15.9658271
21
76.3529677
0
LINE
8
DEFAULT_255_2_778
10
15.9658271
20
76.3529677
11
16.0809271
21
76.3529677
0
LINE
8
DEFAULT_255_2_778
10
16.0809271
20
76.3529677
11
16.4251271
21
75.2864677
0
LINE
8
DEFAULT_255_2_778
10
16.4251271
20
75.2864677
11
16.2876271
21
75.2864677
0
LINE
8
DEFAULT_255_2_778
10
16.2876271
20
75.2864677
11
16.2873271
21
75.2864677
0
LINE
8
DEFAULT_255_2_778
10
16.0230271
20
76.1653677
11
15.8780271
21
75.6803677
0
LINE
8
DEFAULT_255_2_778
10
15.8780271
20
75.6803677
11
16.1688271
21
75.6803677
0
LINE
8
DEFAULT_255_2_778
10
16.1688271
20
75.6803677
11
16.0230271
21
76.1653677
0
LINE
8
DEFAULT_255_2_778
10
16.0230271
20
76.1653677
11
16.0230271
21
76.1653677
0
LINE
8
DEFAULT_255_2_778
10
16.6675365
20
76.3529677
11
16.8696365
21
75.9441677
0
LINE
8
DEFAULT_255_2_778
10
16.8696365
20
75.9441677
11
17.0702365
21
76.3529677
0
LINE
8
DEFAULT_255_2_778
10
17.0702365
20
76.3529677
11
17.2276365
21
76.3529677
0
LINE
8
DEFAULT_255_2_778
10
17.2276365
20
76.3529677
11
16.9501365
21
75.8240677
0
LINE
8
DEFAULT_255_2_778
10
16.9501365
20
75.8240677
11
17.2334365
21
75.2864677
0
LINE
8
DEFAULT_255_2_778
10
17.2334365
20
75.2864677
11
17.0744365
21
75.2864677
0
LINE
8
DEFAULT_255_2_778
10
17.0744365
20
75.2864677
11
16.8694365
21
75.7023677
0
LINE
8
DEFAULT_255_2_778
10
16.8694365
20
75.7023677
11
16.6635365
21
75.2864677
0
LINE
8
DEFAULT_255_2_778
10
16.6635365
20
75.2864677
11
16.5045365
21
75.2864677
0
LINE
8
DEFAULT_255_2_778
10
16.5045365
20
75.2864677
11
16.7895365
21
75.8240677
0
LINE
8
DEFAULT_255_2_778
10
16.7895365
20
75.8240677
11
16.5103365
21
76.3529677
0
LINE
8
DEFAULT_255_2_778
10
16.5103365
20
76.3529677
11
16.6670365
21
76.3529677
0
LINE
8
DEFAULT_255_2_778
10
16.6670365
20
76.3529677
11
16.6675365
21
76.3529677
0
ARC
8
DEFAULT_255_2_778
10
16.7635358
20
76.471102
40
1.1364947
50
322.97483
51
330.0264606
0
ARC
8
DEFAULT_255_2_778
10
17.3428606
20
76.1317804
40
0.4651477
50
330.5818394
51
335.5753566
0
ARC
8
DEFAULT_255_2_778
10
17.4862794
20
76.0646316
40
0.3068036
50
335.9182928
51
0.245048
0
ARC
8
DEFAULT_255_2_778
10
17.5693613
20
76.0763255
40
0.2239596
50
357.3430629
51
34.6137125
0
ARC
8
DEFAULT_255_2_778
10
17.6524066
20
76.1324206
40
0.1237532
50
35.0798738
51
91.2623611
0
ARC
8
DEFAULT_255_2_778
10
17.6417076
20
76.1051332
40
0.1512209
50
86.9778708
51
141.1246111
0
ARC
8
DEFAULT_255_2_778
10
17.7168578
20
76.0633772
40
0.2363885
50
144.6798993
51
179.8005702
0
ARC
8
DEFAULT_255_2_778
10
17.9392027
20
76.0390164
40
0.4594226
50
176.8577155
51
180.0464763
0
ARC
8
DEFAULT_255_2_778
10
17.6980696
20
76.0537737
40
0.3482182
50
141.4038799
51
182.4902637
0
ARC
8
DEFAULT_255_2_778
10
17.656725
20
76.0764492
40
0.301867
50
138.4311983
51
139.8720584
0
ARC
8
DEFAULT_255_2_778
10
17.6368102
20
76.0895792
40
0.2782763
50
87.2873459
51
137.7331023
0
ARC
8
DEFAULT_255_2_778
10
17.6638922
20
76.1068449
40
0.2610698
50
44.3809247
51
93.0546428
0
ARC
8
DEFAULT_255_2_778
10
17.6332936
20
76.0960184
40
0.2908323
50
357.2064006
51
41.6881049
0
ARC
8
DEFAULT_255_2_778
10
17.4835224
20
76.0949424
40
0.4404527
50
333.7720166
51
358.2958216
0
ARC
8
DEFAULT_255_2_778
10
16.9714305
20
76.3310346
40
1.0042656
50
322.6569402
51
334.6010843
0
ARC
8
DEFAULT_255_2_778
10
16.5674955
20
76.6161861
40
1.498482
50
322.667327
51
323.3574708
0
LINE
8
DEFAULT_255_2_778
10
17.9629802
20
75.3970437
11
17.9629802
21
75.2864437
0
LINE
8
DEFAULT_255_2_778
10
17.9629802
20
75.2864437
11
17.3668802
21
75.2864437
0
LINE
8
DEFAULT_255_2_778
10
17.3668802
20
75.2864437
11
17.3668802
21
75.3838437
0
LINE
8
DEFAULT_255_2_778
10
17.3668802
20
75.3838437
11
17.6708802
21
75.7867437
0
LINE
8
DEFAULT_255_2_778
10
17.4797802
20
76.0386437
11
17.3501802
21
76.0386437
0
LINE
8
DEFAULT_255_2_778
10
17.7589802
20
75.7074437
11
17.5215802
21
75.3967437
0
LINE
8
DEFAULT_255_2_778
10
17.5215802
20
75.3967437
11
17.9631802
21
75.3967437
0
LINE
8
DEFAULT_255_2_778
10
17.9631802
20
75.3967437
11
17.9629802
21
75.3970437
0
LINE
8
DEFAULT_255_2_778
10
16.2873271
20
77.7864677
11
16.2032271
21
78.0647677
0
LINE
8
DEFAULT_255_2_778
10
16.2032271
20
78.0647677
11
15.8428271
21
78.0647677
0
LINE
8
DEFAULT_255_2_778
10
15.8428271
20
78.0647677
11
15.7600271
21
77.7864677
0
LINE
8
DEFAULT_255_2_778
10
15.7600271
20
77.7864677
11
15.6224271
21
77.7864677
0
LINE
8
DEFAULT_255_2_778
10
15.6224271
20
77.7864677
11
15.9658271
21
78.8529677
0
LINE
8
DEFAULT_255_2_778
10
15.9658271
20
78.8529677
11
16.0809271
21
78.8529677
0
LINE
8
DEFAULT_255_2_778
10
16.0809271
20
78.8529677
11
16.4251271
21
77.7864677
0
LINE
8
DEFAULT_255_2_778
10
16.4251271
20
77.7864677
11
16.2876271
21
77.7864677
0
LINE
8
DEFAULT_255_2_778
10
16.2876271
20
77.7864677
11
16.2873271
21
77.7864677
0
LINE
8
DEFAULT_255_2_778
10
16.0230271
20
78.6653677
11
15.8780271
21
78.1803677
0
LINE
8
DEFAULT_255_2_778
10
15.8780271
20
78.1803677
11
16.1688271
21
78.1803677
0
LINE
8
DEFAULT_255_2_778
10
16.1688271
20
78.1803677
11
16.0230271
21
78.6653677
0
LINE
8
DEFAULT_255_2_778
10
16.0230271
20
78.6653677
11
16.0230271
21
78.6653677
0
LINE
8
DEFAULT_255_2_778
10
16.6675365
20
78.8529677
11
16.8696365
21
78.4441677
0
LINE
8
DEFAULT_255_2_778
10
16.8696365
20
78.4441677
11
17.0702365
21
78.8529677
0
LINE
8
DEFAULT_255_2_778
10
17.0702365
20
78.8529677
11
17.2276365
21
78.8529677
0
LINE
8
DEFAULT_255_2_778
10
17.2276365
20
78.8529677
11
16.9501365
21
78.3240677
0
LINE
8
DEFAULT_255_2_778
10
16.9501365
20
78.3240677
11
17.2334365
21
77.7864677
0
LINE
8
DEFAULT_255_2_778
10
17.2334365
20
77.7864677
11
17.0744365
21
77.7864677
0
LINE
8
DEFAULT_255_2_778
10
17.0744365
20
77.7864677
11
16.8694365
21
78.2023677
0
LINE
8
DEFAULT_255_2_778
10
16.8694365
20
78.2023677
11
16.6635365
21
77.7864677
0
LINE
8
DEFAULT_255_2_778
10
16.6635365
20
77.7864677
11
16.5045365
21
77.7864677
0
LINE
8
DEFAULT_255_2_778
10
16.5045365
20
77.7864677
11
16.7895365
21
78.3240677
0
LINE
8
DEFAULT_255_2_778
10
16.7895365
20
78.3240677
11
16.5103365
21
78.8529677
0
LINE
8
DEFAULT_255_2_778
10
16.5103365
20
78.8529677
11
16.6670365
21
78.8529677
0
LINE
8
DEFAULT_255_2_778
10
16.6670365
20
78.8529677
11
16.6675365
21
78.8529677
0
ARC
8
DEFAULT_255_2_778
10
2.2637649
20
95.7700029
40
0.8635311
50
346.2410435
51
0.8054209
0
ARC
8
DEFAULT_255_2_778
10
2.569991
20
95.7027334
40
0.550144
50
338.9176387
51
345.4606544
0
ARC
8
DEFAULT_255_2_778
10
2.7060583
20
95.6396467
40
0.4006143
50
309.0069203
51
340.336434
0
ARC
8
DEFAULT_255_2_778
10
2.7076685
20
95.7661025
40
0.5147652
50
270.2273036
51
281.9222321
0
ARC
8
DEFAULT_255_2_778
10
2.693109
20
95.6248634
40
0.3738908
50
219.3805949
51
272.5449116
0
ARC
8
DEFAULT_255_2_778
10
2.8006795
20
95.6970413
40
0.5029862
50
188.7377129
51
217.9610676
0
ARC
8
DEFAULT_255_2_778
10
3.1827318
20
95.7748896
40
0.8926307
50
180.2662634
51
189.9513808
0
ARC
8
DEFAULT_255_2_778
10
3.1005361
20
96.0100272
40
0.8105263
50
164.0725689
51
180.9038609
0
ARC
8
DEFAULT_255_2_778
10
2.7770345
20
96.0999819
40
0.4747641
50
142.4936942
51
163.7981485
0
ARC
8
DEFAULT_255_2_778
10
2.6905969
20
96.1607101
40
0.3692468
50
87.2813847
51
141.8027815
0
ARC
8
DEFAULT_255_2_778
10
2.7276031
20
96.1577624
40
0.3722897
50
39.0771843
51
93.0012842
0
ARC
8
DEFAULT_255_2_778
10
2.6145158
20
96.0868703
40
0.5050287
50
9.0911532
51
37.2329427
0
ARC
8
DEFAULT_255_2_778
10
2.2072018
20
96.0033041
40
0.9206092
50
0.0458905
51
10.2213579
0
ARC
8
DEFAULT_255_2_778
10
2.1838389
20
96.011291
40
0.787167
50
359.1083485
51
12.3878951
0
ARC
8
DEFAULT_255_2_778
10
2.6178451
20
96.1076003
40
0.3426057
50
12.2273347
51
32.6506774
0
ARC
8
DEFAULT_255_2_778
10
2.7227699
20
96.1664155
40
0.2226426
50
34.4749466
51
93.9041751
0
ARC
8
DEFAULT_255_2_778
10
2.6962977
20
96.168232
40
0.2205996
50
87.0604208
51
146.1403589
0
ARC
8
DEFAULT_255_2_778
10
2.8444357
20
96.081691
40
0.3919768
50
147.700571
51
172.4288594
0
ARC
8
DEFAULT_255_2_778
10
3.2769084
20
96.005023
40
0.8309984
50
171.1174694
51
180.0676768
0
ARC
8
DEFAULT_255_2_778
10
3.1763564
20
95.7696168
40
0.7305481
50
179.0411988
51
193.7870657
0
ARC
8
DEFAULT_255_2_778
10
2.8099837
20
95.6811939
40
0.3536618
50
194.0198044
51
212.621124
0
ARC
8
DEFAULT_255_2_778
10
2.6969432
20
95.6106407
40
0.2204244
50
213.0147431
51
273.1122699
0
ARC
8
DEFAULT_255_2_778
10
2.7237392
20
95.6119379
40
0.2218925
50
266.1681998
51
323.8494179
0
ARC
8
DEFAULT_255_2_778
10
2.5982263
20
95.6801194
40
0.3639569
50
326.839766
51
351.7398333
0
ARC
8
DEFAULT_255_2_778
10
2.131623
20
95.7688812
40
0.83873
50
350.3184471
51
359.4234444
0
LINE
8
DEFAULT_255_2_778
10
17.7529106
20
78.8580414
11
17.7529106
21
77.7864414
0
LINE
8
DEFAULT_255_2_778
10
17.7529106
20
77.7864414
11
17.6224106
21
77.7864414
0
LINE
8
DEFAULT_255_2_778
10
17.6224106
20
77.7864414
11
17.6224106
21
78.6894414
0
LINE
8
DEFAULT_255_2_778
10
17.6224106
20
78.6894414
11
17.3983106
21
78.5892414
0
LINE
8
DEFAULT_255_2_778
10
17.3983106
20
78.5892414
11
17.3983106
21
78.7122414
0
LINE
8
DEFAULT_255_2_778
10
17.3983106
20
78.7122414
11
17.7322106
21
78.8580414
0
LINE
8
DEFAULT_255_2_778
10
17.7322106
20
78.8580414
11
17.7529106
21
78.8580414
0
LINE
8
DEFAULT_255_2_778
10
17.7529106
20
78.8580414
11
17.7529106
21
78.8580414
0
LINE
8
DEFAULT_255_2_778
10
3.1272106
20
96.0043414
11
3.1272106
21
95.7821414
0
LINE
8
DEFAULT_255_2_778
10
2.9582106
20
95.3283414
11
3.1436106
21
95.1616414
0
LINE
8
DEFAULT_255_2_778
10
3.1436106
20
95.1616414
11
3.0378106
21
95.0582414
0
LINE
8
DEFAULT_255_2_778
10
3.0378106
20
95.0582414
11
2.8140106
21
95.2624414
0
LINE
8
DEFAULT_255_2_778
10
2.2901106
20
95.7707414
11
2.2901106
21
95.9972414
0
LINE
8
DEFAULT_255_2_778
10
3.1278106
20
96.0040414
11
3.1272106
21
96.0043414
0
LINE
8
DEFAULT_255_2_778
10
2.9709106
20
95.7609414
11
2.9709106
21
95.9990414
0
LINE
8
DEFAULT_255_2_778
10
2.4459106
20
96.0040414
11
2.4459106
21
95.7818414
0
LINE
8
DEFAULT_255_2_778
10
2.9703106
20
95.7604414
11
2.9709106
21
95.7609414
0
ARC
8
DEFAULT_255_2_778
10
3.6861798
20
96.0314683
40
0.4813613
50
62.0539768
51
91.6276318
0
ARC
8
DEFAULT_255_2_778
10
3.7257713
20
96.1259019
40
0.379499
50
41.2926748
51
60.6526796
0
ARC
8
DEFAULT_255_2_778
10
3.6409432
20
96.0636007
40
0.4844342
50
7.4871943
51
40.2082005
0
ARC
8
DEFAULT_255_2_778
10
3.2955114
20
95.9973707
40
0.8358061
50
359.7165157
51
8.9031968
0
ARC
8
DEFAULT_255_2_778
10
3.4285598
20
95.7720512
40
0.702862
50
341.939392
51
1.0340419
0
ARC
8
DEFAULT_255_2_778
10
3.687023
20
95.6915169
40
0.4321805
50
318.1610287
51
341.4670042
0
ARC
8
DEFAULT_255_2_778
10
3.7053407
20
95.6894007
40
0.4172577
50
274.9093619
51
316.6995611
0
ARC
8
DEFAULT_255_2_778
10
3.6564252
20
95.9675871
40
0.6990543
50
269.8428094
51
276.9530212
0
ARC
8
DEFAULT_255_2_778
10
3.6708329
20
95.7591122
40
0.3566111
50
267.9228217
51
296.7042754
0
ARC
8
DEFAULT_255_2_778
10
3.7229406
20
95.6393694
40
0.2263403
50
298.54261
51
321.0672726
0
ARC
8
DEFAULT_255_2_778
10
3.6094625
20
95.7135968
40
0.3615131
50
323.218499
51
352.8913217
0
ARC
8
DEFAULT_255_2_778
10
3.2492999
20
95.7805093
40
0.7275151
50
351.1720398
51
359.7342866
0
ARC
8
DEFAULT_255_2_778
10
3.3168329
20
96.009828
40
0.6600889
50
358.9329393
51
14.6025691
0
ARC
8
DEFAULT_255_2_778
10
3.6667924
20
96.1011515
40
0.2984101
50
14.5748528
51
38.2597778
0
ARC
8
DEFAULT_255_2_778
10
3.700425
20
96.1101331
40
0.2667955
50
41.2190985
51
89.9844258
0
ARC
8
DEFAULT_255_2_778
10
3.6728288
20
95.9030743
40
0.4746614
50
86.6582488
51
90.0388092
0
LINE
8
DEFAULT_255_2_778
10
3.6545073
20
95.2685354
11
3.3759073
21
95.2685354
0
LINE
8
DEFAULT_255_2_778
10
3.3759073
20
95.2685354
11
3.3759073
21
96.5126354
0
LINE
8
DEFAULT_255_2_778
10
3.3759073
20
96.5126354
11
3.6725073
21
96.5126354
0
LINE
8
DEFAULT_255_2_778
10
4.1313073
20
95.9932354
11
4.1313073
21
95.7847354
0
LINE
8
DEFAULT_255_2_778
10
3.6545073
20
95.2685354
11
3.6545073
21
95.2685354
0
LINE
8
DEFAULT_255_2_778
10
3.6725073
20
96.3777354
11
3.5323073
21
96.3777354
0
LINE
8
DEFAULT_255_2_778
10
3.5323073
20
96.3777354
11
3.5323073
21
95.4027354
0
LINE
8
DEFAULT_255_2_778
10
3.5323073
20
95.4027354
11
3.6579073
21
95.4027354
0
LINE
8
DEFAULT_255_2_778
10
3.9768073
20
95.7771354
11
3.9768073
21
95.9975354
0
LINE
8
DEFAULT_255_2_778
10
3.6725073
20
96.3777354
11
3.6725073
21
96.3777354
0
ARC
8
DEFAULT_255_2_778
10
5.584088
20
95.796957
40
0.2844454
50
90.0867547
51
125.7856355
0
ARC
8
DEFAULT_255_2_778
10
5.5934764
20
95.8140931
40
0.2674892
50
35.3100425
51
92.1037027
0
ARC
8
DEFAULT_255_2_778
10
5.4449757
20
95.714046
40
0.4465182
50
4.6739537
51
34.7722011
0
ARC
8
DEFAULT_255_2_778
10
5.1343537
20
95.6673746
40
0.7602061
50
359.8513357
51
6.2723625
0
ARC
8
DEFAULT_255_2_778
10
5.3323697
20
95.6527529
40
0.5623299
50
339.5683102
51
1.2889287
0
ARC
8
DEFAULT_255_2_778
10
5.5283918
20
95.5863
40
0.3554951
50
320.9216562
51
338.5759023
0
ARC
8
DEFAULT_255_2_778
10
5.5705113
20
95.5541067
40
0.3025085
50
267.4319887
51
320.6261453
0
ARC
8
DEFAULT_255_2_778
10
5.5455797
20
95.5536036
40
0.301916
50
224.124936
51
272.1596882
0
ARC
8
DEFAULT_255_2_778
10
5.6091886
20
95.5988341
40
0.3792508
50
185.5840481
51
222.3391351
0
ARC
8
DEFAULT_255_2_778
10
5.835966
20
95.6438713
40
0.6097593
50
184.464947
51
187.7228682
0
ARC
8
DEFAULT_255_2_778
10
5.6900363
20
95.6219591
40
0.3211974
50
184.5637376
51
211.1135154
0
ARC
8
DEFAULT_255_2_778
10
5.567319
20
95.5566741
40
0.1825533
50
213.4740648
51
221.6714702
0
ARC
8
DEFAULT_255_2_778
10
5.5513748
20
95.5413861
40
0.1604811
50
221.3790247
51
271.9934929
0
ARC
8
DEFAULT_255_2_778
10
5.5606312
20
95.536394
40
0.1554354
50
268.6456407
51
329.4989156
0
ARC
8
DEFAULT_255_2_778
10
5.3992078
20
95.6331115
40
0.3436131
50
329.265052
51
358.4198536
0
ARC
8
DEFAULT_255_2_778
10
5.1244349
20
95.6632461
40
0.6195228
50
356.3342321
51
0.0606623
0
ARC
8
DEFAULT_255_2_778
10
5.3915339
20
95.6771429
40
0.352672
50
357.8483667
51
29.2159907
0
ARC
8
DEFAULT_255_2_778
10
5.482904
20
95.7182701
40
0.2530008
50
31.1872573
51
34.8389025
0
ARC
8
DEFAULT_255_2_778
10
5.5499857
20
95.7730599
40
0.1667753
50
32.5545174
51
91.1435624
0
ARC
8
DEFAULT_255_2_778
10
5.5377719
20
95.763293
40
0.1767326
50
87.1181828
51
129.1224116
0
LINE
8
DEFAULT_255_2_778
10
5.0269573
20
96.5126021
11
5.0269573
21
96.4237021
0
LINE
8
DEFAULT_255_2_778
10
5.0269573
20
96.4237021
11
4.5988573
21
95.2686021
0
LINE
8
DEFAULT_255_2_778
10
4.5988573
20
95.2686021
11
4.4409573
21
95.2686021
0
LINE
8
DEFAULT_255_2_778
10
4.4409573
20
95.2686021
11
4.8682573
21
96.3827021
0
LINE
8
DEFAULT_255_2_778
10
4.8682573
20
96.3827021
11
4.3136573
21
96.3827021
0
LINE
8
DEFAULT_255_2_778
10
4.3136573
20
96.3827021
11
4.3136573
21
96.5126021
0
LINE
8
DEFAULT_255_2_778
10
4.3136573
20
96.5126021
11
5.0272573
21
96.5126021
0
LINE
8
DEFAULT_255_2_778
10
5.0272573
20
96.5126021
11
5.0269573
21
96.5126021
0
LINE
8
DEFAULT_255_2_778
10
5.3862573
20
95.8599021
11
5.2658573
21
95.8925021
0
LINE
8
DEFAULT_255_2_778
10
5.2658573
20
95.8925021
11
5.3195573
21
96.5129021
0
LINE
8
DEFAULT_255_2_778
10
5.3195573
20
96.5129021
11
5.8604573
21
96.5129021
0
LINE
8
DEFAULT_255_2_778
10
5.8604573
20
96.5129021
11
5.8604573
21
96.3669021
0
LINE
8
DEFAULT_255_2_778
10
5.8604573
20
96.3669021
11
5.4468573
21
96.3669021
0
LINE
8
DEFAULT_255_2_778
10
5.4468573
20
96.3669021
11
5.4177573
21
96.0277021
0
LINE
8
DEFAULT_255_2_778
10
5.2280573
20
95.5964021
11
5.3698573
21
95.5964021
0
LINE
8
DEFAULT_255_2_778
10
5.4262573
20
95.9004021
11
5.3860573
21
95.8602021
0
LINE
8
DEFAULT_255_2_778
10
5.3860573
20
95.8602021
11
5.3862573
21
95.8599021
0
ARC
8
DEFAULT_255_2_778
10
6.4127798
20
96.0314683
40
0.4813613
50
62.0539768
51
91.6276318
0
ARC
8
DEFAULT_255_2_778
10
6.4523713
20
96.1259019
40
0.379499
50
41.2926748
51
60.6526796
0
ARC
8
DEFAULT_255_2_778
10
6.3675432
20
96.0636007
40
0.4844342
50
7.4871943
51
40.2082005
0
ARC
8
DEFAULT_255_2_778
10
6.0221114
20
95.9973707
40
0.8358061
50
359.7165157
51
8.9031968
0
ARC
8
DEFAULT_255_2_778
10
6.1551598
20
95.7720512
40
0.702862
50
341.939392
51
1.0340419
0
ARC
8
DEFAULT_255_2_778
10
6.413623
20
95.6915169
40
0.4321805
50
318.1610287
51
341.4670042
0
ARC
8
DEFAULT_255_2_778
10
6.4319407
20
95.6894007
40
0.4172577
50
274.9093619
51
316.6995611
0
ARC
8
DEFAULT_255_2_778
10
6.3830252
20
95.9675871
40
0.6990543
50
269.8428094
51
276.9530212
0
ARC
8
DEFAULT_255_2_778
10
6.3974329
20
95.7591122
40
0.3566111
50
267.9228217
51
296.7042754
0
ARC
8
DEFAULT_255_2_778
10
6.4495406
20
95.6393694
40
0.2263403
50
298.54261
51
321.0672726
0
ARC
8
DEFAULT_255_2_778
10
6.3360625
20
95.7135968
40
0.3615131
50
323.218499
51
352.8913217
0
ARC
8
DEFAULT_255_2_778
10
5.9758999
20
95.7805093
40
0.7275151
50
351.1720398
51
359.7342866
0
ARC
8
DEFAULT_255_2_778
10
6.0434329
20
96.009828
40
0.6600889
50
358.9329393
51
14.6025691
0
ARC
8
DEFAULT_255_2_778
10
6.3933924
20
96.1011515
40
0.2984101
50
14.5748528
51
38.2597778
0
ARC
8
DEFAULT_255_2_778
10
6.427025
20
96.1101331
40
0.2667955
50
41.2190985
51
89.9844258
0
ARC
8
DEFAULT_255_2_778
10
6.3994288
20
95.9030743
40
0.4746614
50
86.6582488
51
90.0388092
0
LINE
8
DEFAULT_255_2_778
10
6.3811073
20
95.2685354
11
6.1025073
21
95.2685354
0
LINE
8
DEFAULT_255_2_778
10
6.1025073
20
95.2685354
11
6.1025073
21
96.5126354
0
LINE
8
DEFAULT_255_2_778
10
6.1025073
20
96.5126354
11
6.3991073
21
96.5126354
0
LINE
8
DEFAULT_255_2_778
10
6.8579073
20
95.9932354
11
6.8579073
21
95.7847354
0
LINE
8
DEFAULT_255_2_778
10
6.3811073
20
95.2685354
11
6.3811073
21
95.2685354
0
LINE
8
DEFAULT_255_2_778
10
6.3991073
20
96.3777354
11
6.2589073
21
96.3777354
0
LINE
8
DEFAULT_255_2_778
10
6.2589073
20
96.3777354
11
6.2589073
21
95.4027354
0
LINE
8
DEFAULT_255_2_778
10
6.2589073
20
95.4027354
11
6.3845073
21
95.4027354
0
LINE
8
DEFAULT_255_2_778
10
6.7034073
20
95.7771354
11
6.7034073
21
95.9975354
0
LINE
8
DEFAULT_255_2_778
10
6.3991073
20
96.3777354
11
6.3991073
21
96.3777354
0
ARC
8
DEFAULT_255_2_778
10
6.3334251
20
96.6730157
40
1.3630993
50
322.9771853
51
329.3394473
0
ARC
8
DEFAULT_255_2_778
10
7.0172069
20
96.2641675
40
0.5664232
50
329.6426679
51
335.6192313
0
ARC
8
DEFAULT_255_2_778
10
7.2082879
20
96.176106
40
0.3560333
50
335.8333209
51
0.248255
0
ARC
8
DEFAULT_255_2_778
10
7.3038321
20
96.1899266
40
0.2607749
50
357.3013712
51
34.6647974
0
ARC
8
DEFAULT_255_2_778
10
7.3998662
20
96.2554724
40
0.1445084
50
34.9466031
51
91.2087519
0
ARC
8
DEFAULT_255_2_778
10
7.3874802
20
96.224081
40
0.1761154
50
86.9607656
51
141.1527687
0
ARC
8
DEFAULT_255_2_778
10
7.467339
20
96.1786329
40
0.2672227
50
144.3051799
51
178.2431409
0
ARC
8
DEFAULT_255_2_778
10
7.7180704
20
96.147057
40
0.5193531
50
175.6083903
51
180.0891728
0
ARC
8
DEFAULT_255_2_778
10
7.4708376
20
96.1605821
40
0.4237623
50
147.93901
51
181.9383571
0
ARC
8
DEFAULT_255_2_778
10
7.4012992
20
96.1935726
40
0.3474328
50
138.4426931
51
146.4622894
0
ARC
8
DEFAULT_255_2_778
10
7.3812733
20
96.2059797
40
0.3242418
50
87.2521313
51
137.7357844
0
ARC
8
DEFAULT_255_2_778
10
7.4129396
20
96.2244685
40
0.3058054
50
44.5100626
51
93.0219866
0
ARC
8
DEFAULT_255_2_778
10
7.3799878
20
96.2145142
40
0.3366631
50
358.1272892
51
41.7857525
0
ARC
8
DEFAULT_255_2_778
10
7.1859013
20
96.1964501
40
0.5306165
50
359.9998413
51
0.7625993
0
ARC
8
DEFAULT_255_2_778
10
7.2164569
20
96.2096022
40
0.5002338
50
335.0234417
51
358.4932505
0
ARC
8
DEFAULT_255_2_778
10
6.6859525
20
96.441687
40
1.079209
50
323.9965017
51
335.7467518
0
ARC
8
DEFAULT_255_2_778
10
6.2070053
20
96.7672886
40
1.6581673
50
322.5909035
51
324.6231871
0
ARC
8
DEFAULT_255_2_778
10
1.4846038
20
1.6466825
40
0.7088219
50
344.4035741
51
0.9996356
0
ARC
8
DEFAULT_255_2_778
10
1.7311292
20
1.5866022
40
0.4552982
50
338.7316186
51
343.3448479
0
ARC
8
DEFAULT_255_2_778
10
1.8302798
20
1.5383011
40
0.3454985
50
309.0659159
51
340.2318961
0
ARC
8
DEFAULT_255_2_778
10
1.8332382
20
1.6427407
40
0.4385957
50
270.2324847
51
282.0120846
0
ARC
8
DEFAULT_255_2_778
10
1.8208993
20
1.5241715
40
0.3203341
50
219.3298951
51
272.5260927
0
ARC
8
DEFAULT_255_2_778
10
1.9225778
20
1.591503
40
0.44183
50
187.1222219
51
217.7267732
0
ARC
8
DEFAULT_255_2_778
10
2.2636515
20
1.6552386
40
0.7884529
50
180.3989469
51
188.6451949
0
ARC
8
DEFAULT_255_2_778
10
2.1517328
20
1.8566515
40
0.6766343
50
162.5107685
51
181.0757052
0
ARC
8
DEFAULT_255_2_778
10
1.8849124
20
1.9364028
40
0.398202
50
142.3300776
51
161.9176695
0
ARC
8
DEFAULT_255_2_778
10
1.8182088
20
1.9842194
40
0.3161953
50
87.2429999
51
141.8019649
0
ARC
8
DEFAULT_255_2_778
10
1.8502661
20
1.9815616
40
0.3189324
50
39.0870673
51
93.0281736
0
ARC
8
DEFAULT_255_2_778
10
1.7445584
20
1.9164193
40
0.4423464
50
7.5857231
51
37.0030362
0
ARC
8
DEFAULT_255_2_778
10
1.382819
20
1.8479992
40
0.8102006
50
0.1237169
51
9.0050551
0
ARC
8
DEFAULT_255_2_778
10
1.4094347
20
1.8572307
40
0.6497973
50
358.9257863
51
13.7408467
0
ARC
8
DEFAULT_255_2_778
10
1.7643291
20
1.9424999
40
0.2848098
50
14.0364904
51
32.7676855
0
ARC
8
DEFAULT_255_2_778
10
1.8464586
20
1.9883948
40
0.1909995
50
34.525667
51
93.9149927
0
ARC
8
DEFAULT_255_2_778
10
1.8236779
20
1.9906816
40
0.1885188
50
87.0384593
51
146.3115355
0
ARC
8
DEFAULT_255_2_778
10
1.963174
20
1.9098885
40
0.3495503
50
147.9755032
51
174.5113715
0
ARC
8
DEFAULT_255_2_778
10
2.3484818
20
1.8500456
40
0.7391643
50
172.7503874
51
180.0617698
0
ARC
8
DEFAULT_255_2_778
10
2.2127984
20
1.6466179
40
0.6036025
50
178.8484365
51
195.2487186
0
ARC
8
DEFAULT_255_2_778
10
1.9125168
20
1.5681554
40
0.2932746
50
195.8889145
51
212.8784756
0
ARC
8
DEFAULT_255_2_778
10
1.824893
20
1.5123956
40
0.1894177
50
213.1019977
51
273.0640627
0
ARC
8
DEFAULT_255_2_778
10
1.8478166
20
1.5127608
40
0.1899439
50
266.1363829
51
323.8634286
0
ARC
8
DEFAULT_255_2_778
10
1.7294039
20
1.5766769
40
0.3237801
50
327.0875314
51
353.2923873
0
ARC
8
DEFAULT_255_2_778
10
1.3141364
20
1.6491111
40
0.7450343
50
351.489931
51
359.3184316
0
LINE
8
DEFAULT_255_2_778
10
7.7628178
20
95.3976487
11
7.7628178
21
95.2685487
0
LINE
8
DEFAULT_255_2_778
10
7.7628178
20
95.2685487
11
7.0672178
21
95.2685487
0
LINE
8
DEFAULT_255_2_778
10
7.0672178
20
95.2685487
11
7.0672178
21
95.3823487
0
LINE
8
DEFAULT_255_2_778
10
7.0672178
20
95.3823487
11
7.4217178
21
95.8522487
0
LINE
8
DEFAULT_255_2_778
10
7.1987178
20
96.1462487
11
7.0473178
21
96.1462487
0
LINE
8
DEFAULT_255_2_778
10
7.5241178
20
95.7599487
11
7.2473178
21
95.3976487
0
LINE
8
DEFAULT_255_2_778
10
7.2473178
20
95.3976487
11
7.7625178
21
95.3976487
0
LINE
8
DEFAULT_255_2_778
10
7.7625178
20
95.3976487
11
7.7628178
21
95.3976487
0
LINE
8
DEFAULT_255_2_778
10
8.7780178
20
96.5126487
11
8.7780178
21
95.2685487
0
LINE
8
DEFAULT_255_2_778
10
8.7780178
20
95.2685487
11
8.6208178
21
95.2685487
0
LINE
8
DEFAULT_255_2_778
10
8.6208178
20
95.2685487
11
8.1226178
21
96.2274487
0
LINE
8
DEFAULT_255_2_778
10
8.1226178
20
96.2274487
11
8.1226178
21
95.2685487
0
LINE
8
DEFAULT_255_2_778
10
8.1226178
20
95.2685487
11
7.9654178
21
95.2685487
0
LINE
8
DEFAULT_255_2_778
10
7.9654178
20
95.2685487
11
7.9654178
21
96.5126487
0
LINE
8
DEFAULT_255_2_778
10
7.9654178
20
96.5126487
11
8.1226178
21
96.5126487
0
LINE
8
DEFAULT_255_2_778
10
8.1226178
20
96.5126487
11
8.6224178
21
95.5495487
0
LINE
8
DEFAULT_255_2_778
10
8.6224178
20
95.5495487
11
8.6224178
21
96.5126487
0
LINE
8
DEFAULT_255_2_778
10
8.6224178
20
96.5126487
11
8.7780178
21
96.5126487
0
LINE
8
DEFAULT_255_2_778
10
8.7780178
20
96.5126487
11
8.7780178
21
96.5126487
0
LINE
8
DEFAULT_255_2_778
10
2.1933178
20
1.8495487
11
2.1933178
21
1.6590487
0
LINE
8
DEFAULT_255_2_778
10
2.0480178
20
1.2700487
11
2.2070178
21
1.1271487
0
LINE
8
DEFAULT_255_2_778
10
2.2070178
20
1.1271487
11
2.1163178
21
1.0385487
0
LINE
8
DEFAULT_255_2_778
10
2.1163178
20
1.0385487
11
1.9245178
21
1.2137487
0
LINE
8
DEFAULT_255_2_778
10
1.4752178
20
1.6497487
11
1.4752178
21
1.8439487
0
LINE
8
DEFAULT_255_2_778
10
2.1930178
20
1.8497487
11
2.1933178
21
1.8495487
0
LINE
8
DEFAULT_255_2_778
10
2.0591178
20
1.6407487
11
2.0591178
21
1.8450487
0
LINE
8
DEFAULT_255_2_778
10
1.6093178
20
1.8492487
11
1.6093178
21
1.6587487
0
LINE
8
DEFAULT_255_2_778
10
2.0591178
20
1.6402487
11
2.0591178
21
1.6407487
0
ARC
8
DEFAULT_255_2_778
10
2.6748257
20
1.8886139
40
0.3969095
50
57.373347
51
92.0565421
0
ARC
8
DEFAULT_255_2_778
10
2.7045524
20
1.9523845
40
0.3273077
50
41.2905995
51
55.7369456
0
ARC
8
DEFAULT_255_2_778
10
2.6256555
20
1.8961506
40
0.4238097
50
5.8842156
51
39.9642723
0
ARC
8
DEFAULT_255_2_778
10
2.3179934
20
1.8423562
40
0.7356939
50
359.7906184
51
7.5954841
0
ARC
8
DEFAULT_255_2_778
10
2.47028
20
1.6481571
40
0.5835452
50
339.7441822
51
1.2677398
0
ARC
8
DEFAULT_255_2_778
10
2.6781248
20
1.5773744
40
0.3640907
50
318.0671899
51
338.8702627
0
ARC
8
DEFAULT_255_2_778
10
2.6855006
20
1.5847396
40
0.3636743
50
273.0692236
51
316.4271844
0
ARC
8
DEFAULT_255_2_778
10
2.6460585
20
1.8355039
40
0.6167372
50
269.9000154
51
275.4815638
0
ARC
8
DEFAULT_255_2_778
10
2.6608641
20
1.6257843
40
0.2925049
50
267.4563017
51
300.2736415
0
ARC
8
DEFAULT_255_2_778
10
2.704489
20
1.5353737
40
0.1925933
50
302.6254293
51
321.151704
0
ARC
8
DEFAULT_255_2_778
10
2.6005676
20
1.6031984
40
0.3163135
50
323.3917052
51
354.1954631
0
ARC
8
DEFAULT_255_2_778
10
2.28191
20
1.6581043
40
0.6392827
50
352.1877267
51
359.6740659
0
ARC
8
DEFAULT_255_2_778
10
2.3754588
20
1.8556158
40
0.5458609
50
358.7142838
51
16.135812
0
ARC
8
DEFAULT_255_2_778
10
2.6630027
20
1.93672
40
0.2471128
50
16.6003901
51
38.5048383
0
ARC
8
DEFAULT_255_2_778
10
2.6817353
20
1.936238
40
0.2330648
50
41.4659472
51
91.9741317
0
ARC
8
DEFAULT_255_2_778
10
2.6606655
20
1.7507998
40
0.4185679
50
88.2145705
51
90.0113876
0
LINE
8
DEFAULT_255_2_778
10
2.6449823
20
1.2187677
11
2.4062823
21
1.2187677
0
LINE
8
DEFAULT_255_2_778
10
2.4062823
20
1.2187677
11
2.4062823
21
2.2852677
0
LINE
8
DEFAULT_255_2_778
10
2.4062823
20
2.2852677
11
2.6605823
21
2.2852677
0
LINE
8
DEFAULT_255_2_778
10
3.0536823
20
1.8396677
11
3.0536823
21
1.6610677
0
LINE
8
DEFAULT_255_2_778
10
2.6449823
20
1.2187677
11
2.6449823
21
1.2187677
0
LINE
8
DEFAULT_255_2_778
10
2.6602823
20
2.1693677
11
2.5401823
21
2.1693677
0
LINE
8
DEFAULT_255_2_778
10
2.5401823
20
2.1693677
11
2.5401823
21
1.3335677
0
LINE
8
DEFAULT_255_2_778
10
2.5401823
20
1.3335677
11
2.6478823
21
1.3335677
0
LINE
8
DEFAULT_255_2_778
10
2.9211823
20
1.6544677
11
2.9211823
21
1.8433677
0
LINE
8
DEFAULT_255_2_778
10
2.6605823
20
2.1693677
11
2.6602823
21
2.1693677
0
ARC
8
DEFAULT_255_2_778
10
4.299123
20
1.6718795
40
0.2434645
50
90.0747757
51
125.8003864
0
ARC
8
DEFAULT_255_2_778
10
4.3072735
20
1.6863546
40
0.2291457
50
35.2925158
51
92.1179041
0
ARC
8
DEFAULT_255_2_778
10
4.1737093
20
1.596937
40
0.3898461
50
3.053098
51
34.6777178
0
ARC
8
DEFAULT_255_2_778
10
3.8959948
20
1.5598493
40
0.6695114
50
359.9053909
51
4.9570268
0
ARC
8
DEFAULT_255_2_778
10
4.0993877
20
1.5459595
40
0.4662928
50
337.1123694
51
1.5710561
0
ARC
8
DEFAULT_255_2_778
10
4.2560307
20
1.4876991
40
0.2994111
50
320.8447147
51
335.725084
0
ARC
8
DEFAULT_255_2_778
10
4.2880222
20
1.462695
40
0.2588166
50
267.4052489
51
320.6651561
0
ARC
8
DEFAULT_255_2_778
10
4.2666462
20
1.4632399
40
0.2592761
50
224.2116752
51
272.1349849
0
ARC
8
DEFAULT_255_2_778
10
4.3268445
20
1.5048846
40
0.3316855
50
183.9426608
51
222.1163132
0
ARC
8
DEFAULT_255_2_778
10
4.5318974
20
1.5421577
40
0.5393104
50
184.5746214
51
186.3960306
0
ARC
8
DEFAULT_255_2_778
10
4.3803187
20
1.5187482
40
0.2650396
50
184.2419237
51
214.0690751
0
ARC
8
DEFAULT_255_2_778
10
4.2830602
20
1.462407
40
0.1531118
50
216.9938709
51
221.4542223
0
ARC
8
DEFAULT_255_2_778
10
4.2715233
20
1.4518114
40
0.1374508
50
221.3276628
51
271.9937307
0
ARC
8
DEFAULT_255_2_778
10
4.2792959
20
1.4478888
40
0.1334786
50
268.7161364
51
329.5002052
0
ARC
8
DEFAULT_255_2_778
10
4.1328668
20
1.5344894
40
0.3035994
50
329.4436288
51
0.0941073
0
ARC
8
DEFAULT_255_2_778
10
3.8899144
20
1.5569096
40
0.5469908
50
357.7031616
51
0.0245253
0
ARC
8
DEFAULT_255_2_778
10
4.1445
20
1.5700912
40
0.2926917
50
357.46464
51
32.5904199
0
ARC
8
DEFAULT_255_2_778
10
4.2708032
20
1.6509548
40
0.1427204
50
32.5501445
51
91.203631
0
ARC
8
DEFAULT_255_2_778
10
4.2601221
20
1.6419562
40
0.151882
50
87.1003834
51
128.9681877
0
LINE
8
DEFAULT_255_2_778
10
3.8212052
20
2.2852437
11
3.8212052
21
2.2090437
0
LINE
8
DEFAULT_255_2_778
10
3.8212052
20
2.2090437
11
3.4542052
21
1.2187437
0
LINE
8
DEFAULT_255_2_778
10
3.4542052
20
1.2187437
11
3.3188052
21
1.2187437
0
LINE
8
DEFAULT_255_2_778
10
3.3188052
20
1.2187437
11
3.6850052
21
2.1738437
0
LINE
8
DEFAULT_255_2_778
10
3.6850052
20
2.1738437
11
3.2095052
21
2.1738437
0
LINE
8
DEFAULT_255_2_778
10
3.2095052
20
2.1738437
11
3.2095052
21
2.2852437
0
LINE
8
DEFAULT_255_2_778
10
3.2095052
20
2.2852437
11
3.8210052
21
2.2852437
0
LINE
8
DEFAULT_255_2_778
10
3.8210052
20
2.2852437
11
3.8212052
21
2.2852437
0
LINE
8
DEFAULT_255_2_778
10
4.1297052
20
1.7256437
11
4.0265052
21
1.7534437
0
LINE
8
DEFAULT_255_2_778
10
4.0265052
20
1.7534437
11
4.0726052
21
2.2852437
0
LINE
8
DEFAULT_255_2_778
10
4.0726052
20
2.2852437
11
4.5361052
21
2.2852437
0
LINE
8
DEFAULT_255_2_778
10
4.5361052
20
2.2852437
11
4.5361052
21
2.1601437
0
LINE
8
DEFAULT_255_2_778
10
4.5361052
20
2.1601437
11
4.1816052
21
2.1601437
0
LINE
8
DEFAULT_255_2_778
10
4.1816052
20
2.1601437
11
4.1567052
21
1.8693437
0
LINE
8
DEFAULT_255_2_778
10
3.9943052
20
1.4991437
11
4.1160052
21
1.4991437
0
LINE
8
DEFAULT_255_2_778
10
4.1646052
20
1.7600437
11
4.1302052
21
1.7256437
0
LINE
8
DEFAULT_255_2_778
10
4.1302052
20
1.7256437
11
4.1297052
21
1.7256437
0
ARC
8
DEFAULT_255_2_778
10
5.0121257
20
1.8886139
40
0.3969095
50
57.373347
51
92.0565421
0
ARC
8
DEFAULT_255_2_778
10
5.0418524
20
1.9523845
40
0.3273077
50
41.2905995
51
55.7369456
0
ARC
8
DEFAULT_255_2_778
10
4.9629555
20
1.8961506
40
0.4238097
50
5.8842156
51
39.9642723
0
ARC
8
DEFAULT_255_2_778
10
4.6552934
20
1.8423562
40
0.7356939
50
359.7906184
51
7.5954841
0
ARC
8
DEFAULT_255_2_778
10
4.80758
20
1.6481571
40
0.5835452
50
339.7441822
51
1.2677398
0
ARC
8
DEFAULT_255_2_778
10
5.0154248
20
1.5773744
40
0.3640907
50
318.0671899
51
338.8702627
0
ARC
8
DEFAULT_255_2_778
10
5.0228006
20
1.5847396
40
0.3636743
50
273.0692236
51
316.4271844
0
ARC
8
DEFAULT_255_2_778
10
4.9833585
20
1.8355039
40
0.6167372
50
269.9000154
51
275.4815638
0
ARC
8
DEFAULT_255_2_778
10
4.9981641
20
1.6257843
40
0.2925049
50
267.4563017
51
300.2736415
0
ARC
8
DEFAULT_255_2_778
10
5.041789
20
1.5353737
40
0.1925933
50
302.6254293
51
321.151704
0
ARC
8
DEFAULT_255_2_778
10
4.9378676
20
1.6031984
40
0.3163135
50
323.3917052
51
354.1954631
0
ARC
8
DEFAULT_255_2_778
10
4.61921
20
1.6581043
40
0.6392827
50
352.1877267
51
359.6740659
0
ARC
8
DEFAULT_255_2_778
10
4.7127588
20
1.8556158
40
0.5458609
50
358.7142838
51
16.135812
0
ARC
8
DEFAULT_255_2_778
10
5.0003027
20
1.93672
40
0.2471128
50
16.6003901
51
38.5048383
0
ARC
8
DEFAULT_255_2_778
10
5.0190353
20
1.936238
40
0.2330648
50
41.4659472
51
91.9741317
0
ARC
8
DEFAULT_255_2_778
10
4.9979655
20
1.7507998
40
0.4185679
50
88.2145705
51
90.0113876
0
LINE
8
DEFAULT_255_2_778
10
4.9822823
20
1.2187677
11
4.7435823
21
1.2187677
0
LINE
8
DEFAULT_255_2_778
10
4.7435823
20
1.2187677
11
4.7435823
21
2.2852677
0
LINE
8
DEFAULT_255_2_778
10
4.7435823
20
2.2852677
11
4.9978823
21
2.2852677
0
LINE
8
DEFAULT_255_2_778
10
5.3909823
20
1.8396677
11
5.3909823
21
1.6610677
0
LINE
8
DEFAULT_255_2_778
10
4.9822823
20
1.2187677
11
4.9822823
21
1.2187677
0
LINE
8
DEFAULT_255_2_778
10
4.9975823
20
2.1693677
11
4.8774823
21
2.1693677
0
LINE
8
DEFAULT_255_2_778
10
4.8774823
20
2.1693677
11
4.8774823
21
1.3335677
0
LINE
8
DEFAULT_255_2_778
10
4.8774823
20
1.3335677
11
4.9851823
21
1.3335677
0
LINE
8
DEFAULT_255_2_778
10
5.2584823
20
1.6544677
11
5.2584823
21
1.8433677
0
LINE
8
DEFAULT_255_2_778
10
4.9978823
20
2.1693677
11
4.9975823
21
2.1693677
0
ARC
8
DEFAULT_255_2_778
10
4.9671358
20
2.403302
40
1.1364947
50
322.97483
51
330.0264606
0
ARC
8
DEFAULT_255_2_778
10
5.5464606
20
2.0639804
40
0.4651477
50
330.5818394
51
335.5753566
0
ARC
8
DEFAULT_255_2_778
10
5.6898794
20
1.9968316
40
0.3068036
50
335.9182928
51
0.245048
0
ARC
8
DEFAULT_255_2_778
10
5.7729613
20
2.0085255
40
0.2239596
50
357.3430629
51
34.6137125
0
ARC
8
DEFAULT_255_2_778
10
5.8560066
20
2.0646206
40
0.1237532
50
35.0798738
51
91.2623611
0
ARC
8
DEFAULT_255_2_778
10
5.8453076
20
2.0373332
40
0.1512209
50
86.9778708
51
141.1246111
0
ARC
8
DEFAULT_255_2_778
10
5.9204578
20
1.9955772
40
0.2363885
50
144.6798993
51
179.8005702
0
ARC
8
DEFAULT_255_2_778
10
6.1428027
20
1.9712164
40
0.4594226
50
176.8577155
51
180.0464763
0
ARC
8
DEFAULT_255_2_778
10
5.9016696
20
1.9859737
40
0.3482182
50
141.4038799
51
182.4902637
0
ARC
8
DEFAULT_255_2_778
10
5.860325
20
2.0086492
40
0.301867
50
138.4311983
51
139.8720584
0
ARC
8
DEFAULT_255_2_778
10
5.8404102
20
2.0217792
40
0.2782763
50
87.2873459
51
137.7331023
0
ARC
8
DEFAULT_255_2_778
10
5.8674922
20
2.0390449
40
0.2610698
50
44.3809247
51
93.0546428
0
ARC
8
DEFAULT_255_2_778
10
5.8368936
20
2.0282184
40
0.2908323
50
357.2064006
51
41.6881049
0
ARC
8
DEFAULT_255_2_778
10
5.6871224
20
2.0271424
40
0.4404527
50
333.7720166
51
358.2958216
0
ARC
8
DEFAULT_255_2_778
10
5.1750305
20
2.2632346
40
1.0042656
50
322.6569402
51
334.6010843
0
ARC
8
DEFAULT_255_2_778
10
4.7710955
20
2.5483861
40
1.498482
50
322.667327
51
323.3574708
0
LINE
8
DEFAULT_255_2_778
10
6.1665802
20
1.3292437
11
6.1665802
21
1.2186437
0
LINE
8
DEFAULT_255_2_778
10
6.1665802
20
1.2186437
11
5.5704802
21
1.2186437
0
LINE
8
DEFAULT_255_2_778
10
5.5704802
20
1.2186437
11
5.5704802
21
1.3160437
0
LINE
8
DEFAULT_255_2_778
10
5.5704802
20
1.3160437
11
5.8744802
21
1.7189437
0
LINE
8
DEFAULT_255_2_778
10
5.6833802
20
1.9708437
11
5.5537802
21
1.9708437
0
LINE
8
DEFAULT_255_2_778
10
5.9625802
20
1.6396437
11
5.7251802
21
1.3289437
0
LINE
8
DEFAULT_255_2_778
10
5.7251802
20
1.3289437
11
6.1667802
21
1.3289437
0
LINE
8
DEFAULT_255_2_778
10
6.1667802
20
1.3289437
11
6.1665802
21
1.3292437
0
LINE
8
DEFAULT_255_2_778
10
7.0367083
20
2.2852677
11
7.0367083
21
1.2187677
0
LINE
8
DEFAULT_255_2_778
10
7.0367083
20
1.2187677
11
6.9020083
21
1.2187677
0
LINE
8
DEFAULT_255_2_778
10
6.9020083
20
1.2187677
11
6.4750083
21
2.0405677
0
LINE
8
DEFAULT_255_2_778
10
6.4750083
20
2.0405677
11
6.4750083
21
1.2187677
0
LINE
8
DEFAULT_255_2_778
10
6.4750083
20
1.2187677
11
6.3403083
21
1.2187677
0
LINE
8
DEFAULT_255_2_778
10
6.3403083
20
1.2187677
11
6.3403083
21
2.2852677
0
LINE
8
DEFAULT_255_2_778
10
6.3403083
20
2.2852677
11
6.4750083
21
2.2852677
0
LINE
8
DEFAULT_255_2_778
10
6.4750083
20
2.2852677
11
6.9033083
21
1.4597677
0
LINE
8
DEFAULT_255_2_778
10
6.9033083
20
1.4597677
11
6.9033083
21
2.2852677
0
LINE
8
DEFAULT_255_2_778
10
6.9033083
20
2.2852677
11
7.0367083
21
2.2852677
0
LINE
8
DEFAULT_255_2_778
10
7.0367083
20
2.2852677
11
7.0367083
21
2.2852677
0
LINE
8
DEFAULT_255_2_778
10
7.416924
20
85.7742677
11
7.416924
21
85.6591677
0
LINE
8
DEFAULT_255_2_778
10
7.416924
20
85.6591677
11
7.039624
21
85.6591677
0
LINE
8
DEFAULT_255_2_778
10
7.039624
20
85.6591677
11
7.039624
21
85.2813677
0
LINE
8
DEFAULT_255_2_778
10
7.039624
20
85.2813677
11
7.479124
21
85.2813677
0
LINE
8
DEFAULT_255_2_778
10
7.479124
20
85.2813677
11
7.479124
21
85.1662677
0
LINE
8
DEFAULT_255_2_778
10
7.479124
20
85.1662677
11
6.905724
21
85.1662677
0
LINE
8
DEFAULT_255_2_778
10
6.905724
20
85.1662677
11
6.905724
21
86.2327677
0
LINE
8
DEFAULT_255_2_778
10
6.905724
20
86.2327677
11
7.471924
21
86.2327677
0
LINE
8
DEFAULT_255_2_778
10
7.471924
20
86.2327677
11
7.471924
21
86.1171677
0
LINE
8
DEFAULT_255_2_778
10
7.471924
20
86.1171677
11
7.039824
21
86.1171677
0
LINE
8
DEFAULT_255_2_778
10
7.039824
20
86.1171677
11
7.039824
21
85.7742677
0
LINE
8
DEFAULT_255_2_778
10
7.039824
20
85.7742677
11
7.417124
21
85.7742677
0
LINE
8
DEFAULT_255_2_778
10
7.417124
20
85.7742677
11
7.416924
21
85.7742677
0
ARC
8
DEFAULT_255_2_778
10
7.9621348
20
85.8559977
40
0.3769891
50
64.0502748
51
91.9534218
0
ARC
8
DEFAULT_255_2_778
10
8.0145973
20
85.9807114
40
0.2420057
50
44.7102527
51
62.2981741
0
ARC
8
DEFAULT_255_2_778
10
7.9678276
20
85.9494701
40
0.2974152
50
2.7496437
51
42.6482749
0
ARC
8
DEFAULT_255_2_778
10
7.7245243
20
85.9129117
40
0.5427611
50
359.8897927
51
5.3732456
0
ARC
8
DEFAULT_255_2_778
10
7.9355706
20
85.9039495
40
0.3318083
50
330.2633081
51
1.3674172
0
ARC
8
DEFAULT_255_2_778
10
7.9859886
20
85.8796476
40
0.2760031
50
294.4861165
51
329.4523558
0
ARC
8
DEFAULT_255_2_778
10
7.9557637
20
85.8867921
40
0.174398
50
267.4433763
51
316.5557993
0
ARC
8
DEFAULT_255_2_778
10
7.9282569
20
85.9015584
40
0.2046873
50
318.8500575
51
2.8869748
0
ARC
8
DEFAULT_255_2_778
10
7.8851432
20
85.9243711
40
0.2478567
50
357.1084327
51
29.3925054
0
ARC
8
DEFAULT_255_2_778
10
7.9645327
20
85.9508903
40
0.1664282
50
34.860151
51
94.3964462
0
ARC
8
DEFAULT_255_2_778
10
7.9466889
20
85.7852255
40
0.3316423
50
89.1213085
51
90.0007726
0
LINE
8
DEFAULT_255_2_778
10
8.1625844
20
85.1662677
11
7.9728844
21
85.5974677
0
LINE
8
DEFAULT_255_2_778
10
7.9728844
20
85.5974677
11
7.7852844
21
85.5974677
0
LINE
8
DEFAULT_255_2_778
10
7.7852844
20
85.5974677
11
7.7852844
21
85.1662677
0
LINE
8
DEFAULT_255_2_778
10
7.7852844
20
85.1662677
11
7.6505844
21
85.1662677
0
LINE
8
DEFAULT_255_2_778
10
7.6505844
20
85.1662677
11
7.6505844
21
86.2327677
0
LINE
8
DEFAULT_255_2_778
10
7.6505844
20
86.2327677
11
7.9492844
21
86.2327677
0
LINE
8
DEFAULT_255_2_778
10
8.1003844
20
85.6284677
11
8.3069844
21
85.1749677
0
LINE
8
DEFAULT_255_2_778
10
8.3069844
20
85.1749677
11
8.3069844
21
85.1662677
0
LINE
8
DEFAULT_255_2_778
10
8.3069844
20
85.1662677
11
8.1627844
21
85.1662677
0
LINE
8
DEFAULT_255_2_778
10
8.1627844
20
85.1662677
11
8.1625844
21
85.1662677
0
LINE
8
DEFAULT_255_2_778
10
7.7852844
20
86.1168677
11
7.7852844
21
85.7125677
0
LINE
8
DEFAULT_255_2_778
10
7.7852844
20
85.7125677
11
7.9479844
21
85.7125677
0
LINE
8
DEFAULT_255_2_778
10
7.9466844
20
86.1168677
11
7.7854844
21
86.1168677
0
LINE
8
DEFAULT_255_2_778
10
7.7854844
20
86.1168677
11
7.7852844
21
86.1168677
0
ARC
8
DEFAULT_255_2_778
10
8.7582348
20
85.8559977
40
0.3769891
50
64.0502748
51
91.9534218
0
ARC
8
DEFAULT_255_2_778
10
8.8106973
20
85.9807114
40
0.2420057
50
44.7102527
51
62.2981741
0
ARC
8
DEFAULT_255_2_778
10
8.7639276
20
85.9494701
40
0.2974152
50
2.7496437
51
42.6482749
0
ARC
8
DEFAULT_255_2_778
10
8.5206243
20
85.9129117
40
0.5427611
50
359.8897927
51
5.3732456
0
ARC
8
DEFAULT_255_2_778
10
8.7316706
20
85.9039495
40
0.3318083
50
330.2633081
51
1.3674172
0
ARC
8
DEFAULT_255_2_778
10
8.7820886
20
85.8796476
40
0.2760031
50
294.4861165
51
329.4523558
0
ARC
8
DEFAULT_255_2_778
10
8.7518637
20
85.8867921
40
0.174398
50
267.4433763
51
316.5557993
0
ARC
8
DEFAULT_255_2_778
10
8.7243569
20
85.9015584
40
0.2046873
50
318.8500575
51
2.8869748
0
ARC
8
DEFAULT_255_2_778
10
8.6812432
20
85.9243711
40
0.2478567
50
357.1084327
51
29.3925054
0
ARC
8
DEFAULT_255_2_778
10
8.7606327
20
85.9508903
40
0.1664282
50
34.860151
51
94.3964462
0
ARC
8
DEFAULT_255_2_778
10
8.7427889
20
85.7852255
40
0.3316423
50
89.1213085
51
90.0007726
0
LINE
8
DEFAULT_255_2_778
10
8.9586844
20
85.1662677
11
8.7689844
21
85.5974677
0
LINE
8
DEFAULT_255_2_778
10
8.7689844
20
85.5974677
11
8.5813844
21
85.5974677
0
LINE
8
DEFAULT_255_2_778
10
8.5813844
20
85.5974677
11
8.5813844
21
85.1662677
0
LINE
8
DEFAULT_255_2_778
10
8.5813844
20
85.1662677
11
8.4466844
21
85.1662677
0
LINE
8
DEFAULT_255_2_778
10
8.4466844
20
85.1662677
11
8.4466844
21
86.2327677
0
LINE
8
DEFAULT_255_2_778
10
8.4466844
20
86.2327677
11
8.7453844
21
86.2327677
0
LINE
8
DEFAULT_255_2_778
10
8.8964844
20
85.6284677
11
9.1030844
21
85.1749677
0
LINE
8
DEFAULT_255_2_778
10
9.1030844
20
85.1749677
11
9.1030844
21
85.1662677
0
LINE
8
DEFAULT_255_2_778
10
9.1030844
20
85.1662677
11
8.9588844
21
85.1662677
0
LINE
8
DEFAULT_255_2_778
10
8.9588844
20
85.1662677
11
8.9586844
21
85.1662677
0
LINE
8
DEFAULT_255_2_778
10
8.5813844
20
86.1168677
11
8.5813844
21
85.7125677
0
LINE
8
DEFAULT_255_2_778
10
8.5813844
20
85.7125677
11
8.7440844
21
85.7125677
0
LINE
8
DEFAULT_255_2_778
10
8.7427844
20
86.1168677
11
8.5815844
21
86.1168677
0
LINE
8
DEFAULT_255_2_778
10
8.5815844
20
86.1168677
11
8.5813844
21
86.1168677
0
ARC
8
DEFAULT_255_2_778
10
9.317622
20
85.2402346
40
0.0843406
50
138.730595
51
181.9493485
0
ARC
8
DEFAULT_255_2_778
10
9.3109168
20
85.2400155
40
0.0795777
50
85.6662119
51
135.4258486
0
ARC
8
DEFAULT_255_2_778
10
9.3227863
20
85.2383808
40
0.0811962
50
45.0702714
51
94.135892
0
ARC
8
DEFAULT_255_2_778
10
9.3186886
20
85.2397998
40
0.0831772
50
358.3230333
51
42.3806478
0
ARC
8
DEFAULT_255_2_778
10
9.3231998
20
85.2352442
40
0.078659
50
316.3659533
51
1.5454104
0
ARC
8
DEFAULT_255_2_778
10
9.3227308
20
85.2414447
40
0.0833811
50
266.0108533
51
313.5034107
0
ARC
8
DEFAULT_255_2_778
10
9.310751
20
85.2391402
40
0.0811103
50
225.8260961
51
274.3691907
0
ARC
8
DEFAULT_255_2_778
10
9.3136419
20
85.2350541
40
0.0803449
50
178.3513528
51
222.3147716
0
LINE
8
DEFAULT_255_2_778
10
9.2333302
20
85.2373656
11
9.2333302
21
85.2373656
0
LINE
8
DEFAULT_255_2_778
10
18.3873271
20
93.1063677
11
18.3031271
21
93.3846677
0
LINE
8
DEFAULT_255_2_778
10
18.3031271
20
93.3846677
11
17.9428271
21
93.3846677
0
LINE
8
DEFAULT_255_2_778
10
17.9428271
20
93.3846677
11
17.8600271
21
93.1063677
0
LINE
8
DEFAULT_255_2_778
10
17.8600271
20
93.1063677
11
17.7224271
21
93.1063677
0
LINE
8
DEFAULT_255_2_778
10
17.7224271
20
93.1063677
11
18.0658271
21
94.1728677
0
LINE
8
DEFAULT_255_2_778
10
18.0658271
20
94.1728677
11
18.1809271
21
94.1728677
0
LINE
8
DEFAULT_255_2_778
10
18.1809271
20
94.1728677
11
18.5251271
21
93.1063677
0
LINE
8
DEFAULT_255_2_778
10
18.5251271
20
93.1063677
11
18.3876271
21
93.1063677
0
LINE
8
DEFAULT_255_2_778
10
18.3876271
20
93.1063677
11
18.3873271
21
93.1063677
0
LINE
8
DEFAULT_255_2_778
10
18.1230271
20
93.9852677
11
17.9780271
21
93.5002677
0
LINE
8
DEFAULT_255_2_778
10
17.9780271
20
93.5002677
11
18.2688271
21
93.5002677
0
LINE
8
DEFAULT_255_2_778
10
18.2688271
20
93.5002677
11
18.1230271
21
93.9852677
0
LINE
8
DEFAULT_255_2_778
10
18.1230271
20
93.9852677
11
18.1230271
21
93.9852677
0
LINE
8
DEFAULT_255_2_778
10
18.7675365
20
94.1728677
11
18.9696365
21
93.7640677
0
LINE
8
DEFAULT_255_2_778
10
18.9696365
20
93.7640677
11
19.1702365
21
94.1728677
0
LINE
8
DEFAULT_255_2_778
10
19.1702365
20
94.1728677
11
19.3276365
21
94.1728677
0
LINE
8
DEFAULT_255_2_778
10
19.3276365
20
94.1728677
11
19.0501365
21
93.6439677
0
LINE
8
DEFAULT_255_2_778
10
19.0501365
20
93.6439677
11
19.3334365
21
93.1063677
0
LINE
8
DEFAULT_255_2_778
10
19.3334365
20
93.1063677
11
19.1744365
21
93.1063677
0
LINE
8
DEFAULT_255_2_778
10
19.1744365
20
93.1063677
11
18.9694365
21
93.5222677
0
LINE
8
DEFAULT_255_2_778
10
18.9694365
20
93.5222677
11
18.7635365
21
93.1063677
0
LINE
8
DEFAULT_255_2_778
10
18.7635365
20
93.1063677
11
18.6045365
21
93.1063677
0
LINE
8
DEFAULT_255_2_778
10
18.6045365
20
93.1063677
11
18.8895365
21
93.6439677
0
LINE
8
DEFAULT_255_2_778
10
18.8895365
20
93.6439677
11
18.6103365
21
94.1728677
0
LINE
8
DEFAULT_255_2_778
10
18.6103365
20
94.1728677
11
18.7670365
21
94.1728677
0
LINE
8
DEFAULT_255_2_778
10
18.7670365
20
94.1728677
11
18.7675365
21
94.1728677
0
LINE
8
DEFAULT_255_2_778
10
19.8528292
20
94.1778812
11
19.8528292
21
93.1062812
0
LINE
8
DEFAULT_255_2_778
10
19.8528292
20
93.1062812
11
19.7224292
21
93.1062812
0
LINE
8
DEFAULT_255_2_778
10
19.7224292
20
93.1062812
11
19.7224292
21
94.0093812
0
LINE
8
DEFAULT_255_2_778
10
19.7224292
20
94.0093812
11
19.4983292
21
93.9090812
0
LINE
8
DEFAULT_255_2_778
10
19.4983292
20
93.9090812
11
19.4983292
21
94.0320812
0
LINE
8
DEFAULT_255_2_778
10
19.4983292
20
94.0320812
11
19.8322292
21
94.1778812
0
LINE
8
DEFAULT_255_2_778
10
19.8322292
20
94.1778812
11
19.8528292
21
94.1778812
0
LINE
8
DEFAULT_255_2_778
10
19.8528292
20
94.1778812
11
19.8528292
21
94.1778812
0
LINE
8
DEFAULT_255_2_778
10
18.3873271
20
90.5663677
11
18.3031271
21
90.8446677
0
LINE
8
DEFAULT_255_2_778
10
18.3031271
20
90.8446677
11
17.9428271
21
90.8446677
0
LINE
8
DEFAULT_255_2_778
10
17.9428271
20
90.8446677
11
17.8600271
21
90.5663677
0
LINE
8
DEFAULT_255_2_778
10
17.8600271
20
90.5663677
11
17.7224271
21
90.5663677
0
LINE
8
DEFAULT_255_2_778
10
17.7224271
20
90.5663677
11
18.0658271
21
91.6328677
0
LINE
8
DEFAULT_255_2_778
10
18.0658271
20
91.6328677
11
18.1809271
21
91.6328677
0
LINE
8
DEFAULT_255_2_778
10
18.1809271
20
91.6328677
11
18.5251271
21
90.5663677
0
LINE
8
DEFAULT_255_2_778
10
18.5251271
20
90.5663677
11
18.3876271
21
90.5663677
0
LINE
8
DEFAULT_255_2_778
10
18.3876271
20
90.5663677
11
18.3873271
21
90.5663677
0
LINE
8
DEFAULT_255_2_778
10
18.1230271
20
91.4452677
11
17.9780271
21
90.9602677
0
LINE
8
DEFAULT_255_2_778
10
17.9780271
20
90.9602677
11
18.2688271
21
90.9602677
0
LINE
8
DEFAULT_255_2_778
10
18.2688271
20
90.9602677
11
18.1230271
21
91.4452677
0
LINE
8
DEFAULT_255_2_778
10
18.1230271
20
91.4452677
11
18.1230271
21
91.4452677
0
LINE
8
DEFAULT_255_2_778
10
18.7675365
20
91.6328677
11
18.9696365
21
91.2240677
0
LINE
8
DEFAULT_255_2_778
10
18.9696365
20
91.2240677
11
19.1702365
21
91.6328677
0
LINE
8
DEFAULT_255_2_778
10
19.1702365
20
91.6328677
11
19.3276365
21
91.6328677
0
LINE
8
DEFAULT_255_2_778
10
19.3276365
20
91.6328677
11
19.0501365
21
91.1039677
0
LINE
8
DEFAULT_255_2_778
10
19.0501365
20
91.1039677
11
19.3334365
21
90.5663677
0
LINE
8
DEFAULT_255_2_778
10
19.3334365
20
90.5663677
11
19.1744365
21
90.5663677
0
LINE
8
DEFAULT_255_2_778
10
19.1744365
20
90.5663677
11
18.9694365
21
90.9822677
0
LINE
8
DEFAULT_255_2_778
10
18.9694365
20
90.9822677
11
18.7635365
21
90.5663677
0
LINE
8
DEFAULT_255_2_778
10
18.7635365
20
90.5663677
11
18.6045365
21
90.5663677
0
LINE
8
DEFAULT_255_2_778
10
18.6045365
20
90.5663677
11
18.8895365
21
91.1039677
0
LINE
8
DEFAULT_255_2_778
10
18.8895365
20
91.1039677
11
18.6103365
21
91.6328677
0
LINE
8
DEFAULT_255_2_778
10
18.6103365
20
91.6328677
11
18.7670365
21
91.6328677
0
LINE
8
DEFAULT_255_2_778
10
18.7670365
20
91.6328677
11
18.7675365
21
91.6328677
0
ARC
8
DEFAULT_255_2_778
10
18.8635358
20
91.751002
40
1.1364947
50
322.97483
51
330.0264606
0
ARC
8
DEFAULT_255_2_778
10
19.4428606
20
91.4116804
40
0.4651477
50
330.5818394
51
335.5753566
0
ARC
8
DEFAULT_255_2_778
10
19.5862794
20
91.3445316
40
0.3068036
50
335.9182928
51
0.245048
0
ARC
8
DEFAULT_255_2_778
10
19.6693613
20
91.3562255
40
0.2239596
50
357.3430629
51
34.6137125
0
ARC
8
DEFAULT_255_2_778
10
19.7524066
20
91.4123206
40
0.1237532
50
35.0798738
51
91.2623611
0
ARC
8
DEFAULT_255_2_778
10
19.7417076
20
91.3850332
40
0.1512209
50
86.9778708
51
141.1246111
0
ARC
8
DEFAULT_255_2_778
10
19.8168578
20
91.3432772
40
0.2363885
50
144.6798993
51
179.8005702
0
ARC
8
DEFAULT_255_2_778
10
20.0392027
20
91.3189164
40
0.4594226
50
176.8577155
51
180.0464763
0
ARC
8
DEFAULT_255_2_778
10
19.7980696
20
91.3336737
40
0.3482182
50
141.4038799
51
182.4902637
0
ARC
8
DEFAULT_255_2_778
10
19.756725
20
91.3563492
40
0.301867
50
138.4311983
51
139.8720584
0
ARC
8
DEFAULT_255_2_778
10
19.7368102
20
91.3694792
40
0.2782763
50
87.2873459
51
137.7331023
0
ARC
8
DEFAULT_255_2_778
10
19.7638922
20
91.3867449
40
0.2610698
50
44.3809247
51
93.0546428
0
ARC
8
DEFAULT_255_2_778
10
19.7332936
20
91.3759184
40
0.2908323
50
357.2064006
51
41.6881049
0
ARC
8
DEFAULT_255_2_778
10
19.5835224
20
91.3748424
40
0.4404527
50
333.7720166
51
358.2958216
0
ARC
8
DEFAULT_255_2_778
10
19.0714305
20
91.6109346
40
1.0042656
50
322.6569402
51
334.6010843
0
ARC
8
DEFAULT_255_2_778
10
18.6674955
20
91.8960861
40
1.498482
50
322.667327
51
323.3574708
0
LINE
8
DEFAULT_255_2_778
10
20.0629802
20
90.6769437
11
20.0629802
21
90.5663437
0
LINE
8
DEFAULT_255_2_778
10
20.0629802
20
90.5663437
11
19.4668802
21
90.5663437
0
LINE
8
DEFAULT_255_2_778
10
19.4668802
20
90.5663437
11
19.4668802
21
90.6637437
0
LINE
8
DEFAULT_255_2_778
10
19.4668802
20
90.6637437
11
19.7708802
21
91.0666437
0
LINE
8
DEFAULT_255_2_778
10
19.5797802
20
91.3185437
11
19.4501802
21
91.3185437
0
LINE
8
DEFAULT_255_2_778
10
19.8589802
20
90.9873437
11
19.6215802
21
90.6766437
0
LINE
8
DEFAULT_255_2_778
10
19.6215802
20
90.6766437
11
20.0631802
21
90.6766437
0
LINE
8
DEFAULT_255_2_778
10
20.0631802
20
90.6766437
11
20.0629802
21
90.6769437
0
ARC
8
DEFAULT_255_2_778
10
7.2170348
20
93.7960977
40
0.3769891
50
64.0502748
51
91.9534218
0
ARC
8
DEFAULT_255_2_778
10
7.2694973
20
93.9208114
40
0.2420057
50
44.7102527
51
62.2981741
0
ARC
8
DEFAULT_255_2_778
10
7.2227276
20
93.8895701
40
0.2974152
50
2.7496437
51
42.6482749
0
ARC
8
DEFAULT_255_2_778
10
6.9794243
20
93.8530117
40
0.5427611
50
359.8897927
51
5.3732456
0
ARC
8
DEFAULT_255_2_778
10
7.1904706
20
93.8440495
40
0.3318083
50
330.2633081
51
1.3674172
0
ARC
8
DEFAULT_255_2_778
10
7.2408886
20
93.8197476
40
0.2760031
50
294.4861165
51
329.4523558
0
ARC
8
DEFAULT_255_2_778
10
7.2106637
20
93.8268921
40
0.174398
50
267.4433763
51
316.5557993
0
ARC
8
DEFAULT_255_2_778
10
7.1831569
20
93.8416584
40
0.2046873
50
318.8500575
51
2.8869748
0
ARC
8
DEFAULT_255_2_778
10
7.1400432
20
93.8644711
40
0.2478567
50
357.1084327
51
29.3925054
0
ARC
8
DEFAULT_255_2_778
10
7.2194327
20
93.8909903
40
0.1664282
50
34.860151
51
94.3964462
0
ARC
8
DEFAULT_255_2_778
10
7.2015889
20
93.7253255
40
0.3316423
50
89.1213085
51
90.0007726
0
LINE
8
DEFAULT_255_2_778
10
7.4174844
20
93.1063677
11
7.2277844
21
93.5375677
0
LINE
8
DEFAULT_255_2_778
10
7.2277844
20
93.5375677
11
7.0401844
21
93.5375677
0
LINE
8
DEFAULT_255_2_778
10
7.0401844
20
93.5375677
11
7.0401844
21
93.1063677
0
LINE
8
DEFAULT_255_2_778
10
7.0401844
20
93.1063677
11
6.9054844
21
93.1063677
0
LINE
8
DEFAULT_255_2_778
10
6.9054844
20
93.1063677
11
6.9054844
21
94.1728677
0
LINE
8
DEFAULT_255_2_778
10
6.9054844
20
94.1728677
11
7.2041844
21
94.1728677
0
LINE
8
DEFAULT_255_2_778
10
7.3552844
20
93.5685677
11
7.5618844
21
93.1150677
0
LINE
8
DEFAULT_255_2_778
10
7.5618844
20
93.1150677
11
7.5618844
21
93.1063677
0
LINE
8
DEFAULT_255_2_778
10
7.5618844
20
93.1063677
11
7.4176844
21
93.1063677
0
LINE
8
DEFAULT_255_2_778
10
7.4176844
20
93.1063677
11
7.4174844
21
93.1063677
0
LINE
8
DEFAULT_255_2_778
10
7.0401844
20
94.0569677
11
7.0401844
21
93.6526677
0
LINE
8
DEFAULT_255_2_778
10
7.0401844
20
93.6526677
11
7.2028844
21
93.6526677
0
LINE
8
DEFAULT_255_2_778
10
7.2015844
20
94.0569677
11
7.0403844
21
94.0569677
0
LINE
8
DEFAULT_255_2_778
10
7.0403844
20
94.0569677
11
7.0401844
21
94.0569677
0
ARC
8
DEFAULT_255_2_778
10
7.9919335
20
93.4045903
40
0.3453031
50
325.8002891
51
1.7181952
0
ARC
8
DEFAULT_255_2_778
10
8.0567852
20
93.3711005
40
0.2729817
50
314.8425653
51
323.9628122
0
ARC
8
DEFAULT_255_2_778
10
8.0338118
20
93.4078931
40
0.3154171
50
270.0948108
51
313.0883655
0
ARC
8
DEFAULT_255_2_778
10
8.0085232
20
93.6184888
40
0.5266451
50
269.9736768
51
272.8091546
0
ARC
8
DEFAULT_255_2_778
10
7.9952489
20
93.4704322
40
0.3788127
50
243.1676212
51
271.9715422
0
ARC
8
DEFAULT_255_2_778
10
7.9453148
20
93.3543965
40
0.2528519
50
224.9550124
51
241.3956463
0
ARC
8
DEFAULT_255_2_778
10
7.9922124
20
93.3870538
40
0.309276
50
181.8194349
51
223.0974302
0
ARC
8
DEFAULT_255_2_778
10
8.2161066
20
93.4188946
40
0.53464
50
180.4234065
51
184.4691344
0
ARC
8
DEFAULT_255_2_778
10
8.0963909
20
93.4077245
40
0.2818747
50
177.5154551
51
205.5961653
0
ARC
8
DEFAULT_255_2_778
10
7.9755705
20
93.3574418
40
0.151343
50
208.1901338
51
220.5541074
0
ARC
8
DEFAULT_255_2_778
10
7.9853606
20
93.3801328
40
0.1738748
50
224.1400865
51
271.4195462
0
ARC
8
DEFAULT_255_2_778
10
8.0080401
20
93.5670903
40
0.3612465
50
267.0848328
51
270.0382489
0
ARC
8
DEFAULT_255_2_778
10
8.020904
20
93.415121
40
0.2096576
50
266.5483308
51
303.5006805
0
ARC
8
DEFAULT_255_2_778
10
8.0599939
20
93.3423601
40
0.1276325
50
306.8982099
51
319.248233
0
ARC
8
DEFAULT_255_2_778
10
7.9849879
20
93.3907614
40
0.2163982
50
322.5057322
51
359.1676989
0
ARC
8
DEFAULT_255_2_778
10
7.752857
20
93.4193148
40
0.4496247
50
355.9575184
51
0.0801408
0
LINE
8
DEFAULT_255_2_778
10
8.2024813
20
94.1729437
11
8.3370813
21
94.1729437
0
LINE
8
DEFAULT_255_2_778
10
8.3370813
20
94.1729437
11
8.3370813
21
93.4149437
0
LINE
8
DEFAULT_255_2_778
10
7.6814813
20
93.4149437
11
7.6814813
21
94.1729437
0
LINE
8
DEFAULT_255_2_778
10
7.6814813
20
94.1729437
11
7.8147813
21
94.1729437
0
LINE
8
DEFAULT_255_2_778
10
7.8147813
20
94.1729437
11
7.8147813
21
93.4199437
0
LINE
8
DEFAULT_255_2_778
10
8.2024813
20
93.4199437
11
8.2024813
21
94.1729437
0
LINE
8
DEFAULT_255_2_778
10
8.2024813
20
94.1729437
11
8.2024813
21
94.1729437
0
LINE
8
DEFAULT_255_2_778
10
9.2404083
20
94.1728677
11
9.2404083
21
93.1063677
0
LINE
8
DEFAULT_255_2_778
10
9.2404083
20
93.1063677
11
9.1057083
21
93.1063677
0
LINE
8
DEFAULT_255_2_778
10
9.1057083
20
93.1063677
11
8.6787083
21
93.9281677
0
LINE
8
DEFAULT_255_2_778
10
8.6787083
20
93.9281677
11
8.6787083
21
93.1063677
0
LINE
8
DEFAULT_255_2_778
10
8.6787083
20
93.1063677
11
8.5440083
21
93.1063677
0
LINE
8
DEFAULT_255_2_778
10
8.5440083
20
93.1063677
11
8.5440083
21
94.1728677
0
LINE
8
DEFAULT_255_2_778
10
8.5440083
20
94.1728677
11
8.6787083
21
94.1728677
0
LINE
8
DEFAULT_255_2_778
10
8.6787083
20
94.1728677
11
9.1070083
21
93.3473677
0
LINE
8
DEFAULT_255_2_778
10
9.1070083
20
93.3473677
11
9.1070083
21
94.1728677
0
LINE
8
DEFAULT_255_2_778
10
9.1070083
20
94.1728677
11
9.2404083
21
94.1728677
0
LINE
8
DEFAULT_255_2_778
10
9.2404083
20
94.1728677
11
9.2404083
21
94.1728677
0
ENDSEC
0
EOF