0
SECTION
2
HEADER
9
$MEASUREMENT
70
1
0
ENDSEC
0
SECTION
2
TABLES
0
TABLE
2
LTYPE
0
LTYPE
72
65
70
64
2
CONTINUOUS
3
______
73
0
40
0
0
ENDTAB
0
TABLE
2
LAYER
0
LAYER
2
DEFAULT_255_2_778
70
0
62
255
6
CONTINUOUS
0
ENDTAB
0
ENDSEC
0
SECTION
2
ENTITIES
0
ARC
8
DEFAULT_255_2_778
10
0.8906452
20
97.0878007
40
0.7001699
50
90.0057163
51
179.9942837
0
ARC
8
DEFAULT_255_2_778
10
26.8905268
20
97.087822
40
0.7001485
50
0.0039666
51
89.9878448
0
ARC
8
DEFAULT_255_2_778
10
26.8905484
20
0.4877976
40
0.700127
50
270.0103953
51
359.9895965
0
ARC
8
DEFAULT_255_2_778
10
0.8906237
20
0.4878189
40
0.7001484
50
180.0121453
51
269.9960433
0
LINE
8
DEFAULT_255_2_778
10
0.8905754
20
97.7879705
11
26.8906754
21
97.7879705
0
LINE
8
DEFAULT_255_2_778
10
27.5906754
20
97.0878705
11
27.5906754
21
0.4876705
0
LINE
8
DEFAULT_255_2_778
10
26.8906754
20
-0.2123295
11
0.8905754
21
-0.2123295
0
LINE
8
DEFAULT_255_2_778
10
0.1904754
20
0.4876705
11
0.1904754
21
97.0878705
0
LINE
8
DEFAULT_255_2_778
10
0.1905077
20
82.7879
11
27.5905077
21
82.7879
0
LINE
8
DEFAULT_255_2_778
10
0.1905077
20
82.2879
11
27.5905077
21
82.2879
0
LINE
8
DEFAULT_255_2_778
10
16.2872271
20
75.2867677
11
16.2031271
21
75.5650677
0
LINE
8
DEFAULT_255_2_778
10
16.2031271
20
75.5650677
11
15.8427271
21
75.5650677
0
LINE
8
DEFAULT_255_2_778
10
15.8427271
20
75.5650677
11
15.7599271
21
75.2867677
0
LINE
8
DEFAULT_255_2_778
10
15.7599271
20
75.2867677
11
15.6223271
21
75.2867677
0
LINE
8
DEFAULT_255_2_778
10
15.6223271
20
75.2867677
11
15.9657271
21
76.3532677
0
LINE
8
DEFAULT_255_2_778
10
15.9657271
20
76.3532677
11
16.0808271
21
76.3532677
0
LINE
8
DEFAULT_255_2_778
10
16.0808271
20
76.3532677
11
16.4250271
21
75.2867677
0
LINE
8
DEFAULT_255_2_778
10
16.4250271
20
75.2867677
11
16.2875271
21
75.2867677
0
LINE
8
DEFAULT_255_2_778
10
16.2875271
20
75.2867677
11
16.2872271
21
75.2867677
0
LINE
8
DEFAULT_255_2_778
10
16.0229271
20
76.1656677
11
15.8779271
21
75.6806677
0
LINE
8
DEFAULT_255_2_778
10
15.8779271
20
75.6806677
11
16.1687271
21
75.6806677
0
LINE
8
DEFAULT_255_2_778
10
16.1687271
20
75.6806677
11
16.0229271
21
76.1656677
0
LINE
8
DEFAULT_255_2_778
10
16.0229271
20
76.1656677
11
16.0229271
21
76.1656677
0
LINE
8
DEFAULT_255_2_778
10
16.6674365
20
76.3532677
11
16.8695365
21
75.9444677
0
LINE
8
DEFAULT_255_2_778
10
16.8695365
20
75.9444677
11
17.0701365
21
76.3532677
0
LINE
8
DEFAULT_255_2_778
10
17.0701365
20
76.3532677
11
17.2275365
21
76.3532677
0
LINE
8
DEFAULT_255_2_778
10
17.2275365
20
76.3532677
11
16.9500365
21
75.8243677
0
LINE
8
DEFAULT_255_2_778
10
16.9500365
20
75.8243677
11
17.2333365
21
75.2867677
0
LINE
8
DEFAULT_255_2_778
10
17.2333365
20
75.2867677
11
17.0743365
21
75.2867677
0
LINE
8
DEFAULT_255_2_778
10
17.0743365
20
75.2867677
11
16.8693365
21
75.7026677
0
LINE
8
DEFAULT_255_2_778
10
16.8693365
20
75.7026677
11
16.6634365
21
75.2867677
0
LINE
8
DEFAULT_255_2_778
10
16.6634365
20
75.2867677
11
16.5044365
21
75.2867677
0
LINE
8
DEFAULT_255_2_778
10
16.5044365
20
75.2867677
11
16.7894365
21
75.8243677
0
LINE
8
DEFAULT_255_2_778
10
16.7894365
20
75.8243677
11
16.5102365
21
76.3532677
0
LINE
8
DEFAULT_255_2_778
10
16.5102365
20
76.3532677
11
16.6669365
21
76.3532677
0
LINE
8
DEFAULT_255_2_778
10
16.6669365
20
76.3532677
11
16.6674365
21
76.3532677
0
ARC
8
DEFAULT_255_2_778
10
16.7634358
20
76.471402
40
1.1364947
50
322.97483
51
330.0264606
0
ARC
8
DEFAULT_255_2_778
10
17.3427606
20
76.1320804
40
0.4651477
50
330.5818394
51
335.5753566
0
ARC
8
DEFAULT_255_2_778
10
17.4861794
20
76.0649316
40
0.3068036
50
335.9182928
51
0.245048
0
ARC
8
DEFAULT_255_2_778
10
17.5692613
20
76.0766255
40
0.2239596
50
357.3430629
51
34.6137125
0
ARC
8
DEFAULT_255_2_778
10
17.6523066
20
76.1327206
40
0.1237532
50
35.0798738
51
91.2623611
0
ARC
8
DEFAULT_255_2_778
10
17.6416076
20
76.1054332
40
0.1512209
50
86.9778708
51
141.1246111
0
ARC
8
DEFAULT_255_2_778
10
17.7167578
20
76.0636772
40
0.2363885
50
144.6798993
51
179.8005702
0
ARC
8
DEFAULT_255_2_778
10
17.9391027
20
76.0393164
40
0.4594226
50
176.8577155
51
180.0464763
0
ARC
8
DEFAULT_255_2_778
10
17.6979696
20
76.0540737
40
0.3482182
50
141.4038799
51
182.4902637
0
ARC
8
DEFAULT_255_2_778
10
17.656625
20
76.0767492
40
0.301867
50
138.4311983
51
139.8720584
0
ARC
8
DEFAULT_255_2_778
10
17.6367102
20
76.0898792
40
0.2782763
50
87.2873459
51
137.7331023
0
ARC
8
DEFAULT_255_2_778
10
17.6637922
20
76.1071449
40
0.2610698
50
44.3809247
51
93.0546428
0
ARC
8
DEFAULT_255_2_778
10
17.6331936
20
76.0963184
40
0.2908323
50
357.2064006
51
41.6881049
0
ARC
8
DEFAULT_255_2_778
10
17.4834224
20
76.0952424
40
0.4404527
50
333.7720166
51
358.2958216
0
ARC
8
DEFAULT_255_2_778
10
16.9713305
20
76.3313346
40
1.0042656
50
322.6569402
51
334.6010843
0
ARC
8
DEFAULT_255_2_778
10
16.5673955
20
76.6164861
40
1.498482
50
322.667327
51
323.3574708
0
LINE
8
DEFAULT_255_2_778
10
17.9628802
20
75.3973437
11
17.9628802
21
75.2867437
0
LINE
8
DEFAULT_255_2_778
10
17.9628802
20
75.2867437
11
17.3667802
21
75.2867437
0
LINE
8
DEFAULT_255_2_778
10
17.3667802
20
75.2867437
11
17.3667802
21
75.3841437
0
LINE
8
DEFAULT_255_2_778
10
17.3667802
20
75.3841437
11
17.6707802
21
75.7870437
0
LINE
8
DEFAULT_255_2_778
10
17.4796802
20
76.0389437
11
17.3500802
21
76.0389437
0
LINE
8
DEFAULT_255_2_778
10
17.7588802
20
75.7077437
11
17.5214802
21
75.3970437
0
LINE
8
DEFAULT_255_2_778
10
17.5214802
20
75.3970437
11
17.9630802
21
75.3970437
0
LINE
8
DEFAULT_255_2_778
10
17.9630802
20
75.3970437
11
17.9628802
21
75.3973437
0
LINE
8
DEFAULT_255_2_778
10
4.5370271
20
75.2865677
11
4.4529271
21
75.5648677
0
LINE
8
DEFAULT_255_2_778
10
4.4529271
20
75.5648677
11
4.0925271
21
75.5648677
0
LINE
8
DEFAULT_255_2_778
10
4.0925271
20
75.5648677
11
4.0097271
21
75.2865677
0
LINE
8
DEFAULT_255_2_778
10
4.0097271
20
75.2865677
11
3.8721271
21
75.2865677
0
LINE
8
DEFAULT_255_2_778
10
3.8721271
20
75.2865677
11
4.2155271
21
76.3530677
0
LINE
8
DEFAULT_255_2_778
10
4.2155271
20
76.3530677
11
4.3306271
21
76.3530677
0
LINE
8
DEFAULT_255_2_778
10
4.3306271
20
76.3530677
11
4.6748271
21
75.2865677
0
LINE
8
DEFAULT_255_2_778
10
4.6748271
20
75.2865677
11
4.5373271
21
75.2865677
0
LINE
8
DEFAULT_255_2_778
10
4.5373271
20
75.2865677
11
4.5370271
21
75.2865677
0
LINE
8
DEFAULT_255_2_778
10
4.2727271
20
76.1654677
11
4.1277271
21
75.6804677
0
LINE
8
DEFAULT_255_2_778
10
4.1277271
20
75.6804677
11
4.4185271
21
75.6804677
0
LINE
8
DEFAULT_255_2_778
10
4.4185271
20
75.6804677
11
4.2727271
21
76.1654677
0
LINE
8
DEFAULT_255_2_778
10
4.2727271
20
76.1654677
11
4.2727271
21
76.1654677
0
LINE
8
DEFAULT_255_2_778
10
4.9173365
20
76.3530677
11
5.1194365
21
75.9442677
0
LINE
8
DEFAULT_255_2_778
10
5.1194365
20
75.9442677
11
5.3200365
21
76.3530677
0
LINE
8
DEFAULT_255_2_778
10
5.3200365
20
76.3530677
11
5.4774365
21
76.3530677
0
LINE
8
DEFAULT_255_2_778
10
5.4774365
20
76.3530677
11
5.1999365
21
75.8241677
0
LINE
8
DEFAULT_255_2_778
10
5.1999365
20
75.8241677
11
5.4832365
21
75.2865677
0
LINE
8
DEFAULT_255_2_778
10
5.4832365
20
75.2865677
11
5.3242365
21
75.2865677
0
LINE
8
DEFAULT_255_2_778
10
5.3242365
20
75.2865677
11
5.1192365
21
75.7024677
0
LINE
8
DEFAULT_255_2_778
10
5.1192365
20
75.7024677
11
4.9133365
21
75.2865677
0
LINE
8
DEFAULT_255_2_778
10
4.9133365
20
75.2865677
11
4.7543365
21
75.2865677
0
LINE
8
DEFAULT_255_2_778
10
4.7543365
20
75.2865677
11
5.0393365
21
75.8241677
0
LINE
8
DEFAULT_255_2_778
10
5.0393365
20
75.8241677
11
4.7601365
21
76.3530677
0
LINE
8
DEFAULT_255_2_778
10
4.7601365
20
76.3530677
11
4.9168365
21
76.3530677
0
LINE
8
DEFAULT_255_2_778
10
4.9168365
20
76.3530677
11
4.9173365
21
76.3530677
0
LINE
8
DEFAULT_255_2_778
10
6.1070625
20
76.3530677
11
6.1070625
21
75.6447677
0
LINE
8
DEFAULT_255_2_778
10
6.1070625
20
75.6447677
11
6.2256625
21
75.6447677
0
LINE
8
DEFAULT_255_2_778
10
6.2256625
20
75.6447677
11
6.2256625
21
75.5341677
0
LINE
8
DEFAULT_255_2_778
10
6.2256625
20
75.5341677
11
6.1070625
21
75.5341677
0
LINE
8
DEFAULT_255_2_778
10
6.1070625
20
75.5341677
11
6.1070625
21
75.2865677
0
LINE
8
DEFAULT_255_2_778
10
6.1070625
20
75.2865677
11
5.9774625
21
75.2865677
0
LINE
8
DEFAULT_255_2_778
10
5.9774625
20
75.2865677
11
5.9774625
21
75.5341677
0
LINE
8
DEFAULT_255_2_778
10
5.9774625
20
75.5341677
11
5.5747625
21
75.5341677
0
LINE
8
DEFAULT_255_2_778
10
5.5747625
20
75.5341677
11
5.5747625
21
75.6140677
0
LINE
8
DEFAULT_255_2_778
10
5.5747625
20
75.6140677
11
5.9710625
21
76.3530677
0
LINE
8
DEFAULT_255_2_778
10
5.9710625
20
76.3530677
11
6.1073625
21
76.3530677
0
LINE
8
DEFAULT_255_2_778
10
6.1073625
20
76.3530677
11
6.1070625
21
76.3530677
0
LINE
8
DEFAULT_255_2_778
10
5.9774625
20
76.1517677
11
5.7181625
21
75.6447677
0
LINE
8
DEFAULT_255_2_778
10
5.7181625
20
75.6447677
11
5.9774625
21
75.6447677
0
LINE
8
DEFAULT_255_2_778
10
5.9774625
20
75.6447677
11
5.9774625
21
76.1517677
0
LINE
8
DEFAULT_255_2_778
10
5.9774625
20
76.1517677
11
5.9774625
21
76.1517677
0
LINE
8
DEFAULT_255_2_778
10
4.5370271
20
77.7865677
11
4.4529271
21
78.0648677
0
LINE
8
DEFAULT_255_2_778
10
4.4529271
20
78.0648677
11
4.0925271
21
78.0648677
0
LINE
8
DEFAULT_255_2_778
10
4.0925271
20
78.0648677
11
4.0097271
21
77.7865677
0
LINE
8
DEFAULT_255_2_778
10
4.0097271
20
77.7865677
11
3.8721271
21
77.7865677
0
LINE
8
DEFAULT_255_2_778
10
3.8721271
20
77.7865677
11
4.2155271
21
78.8530677
0
LINE
8
DEFAULT_255_2_778
10
4.2155271
20
78.8530677
11
4.3306271
21
78.8530677
0
LINE
8
DEFAULT_255_2_778
10
4.3306271
20
78.8530677
11
4.6748271
21
77.7865677
0
LINE
8
DEFAULT_255_2_778
10
4.6748271
20
77.7865677
11
4.5373271
21
77.7865677
0
LINE
8
DEFAULT_255_2_778
10
4.5373271
20
77.7865677
11
4.5370271
21
77.7865677
0
LINE
8
DEFAULT_255_2_778
10
4.2727271
20
78.6654677
11
4.1277271
21
78.1804677
0
LINE
8
DEFAULT_255_2_778
10
4.1277271
20
78.1804677
11
4.4185271
21
78.1804677
0
LINE
8
DEFAULT_255_2_778
10
4.4185271
20
78.1804677
11
4.2727271
21
78.6654677
0
LINE
8
DEFAULT_255_2_778
10
4.2727271
20
78.6654677
11
4.2727271
21
78.6654677
0
LINE
8
DEFAULT_255_2_778
10
4.9173365
20
78.8530677
11
5.1194365
21
78.4442677
0
LINE
8
DEFAULT_255_2_778
10
5.1194365
20
78.4442677
11
5.3200365
21
78.8530677
0
LINE
8
DEFAULT_255_2_778
10
5.3200365
20
78.8530677
11
5.4774365
21
78.8530677
0
LINE
8
DEFAULT_255_2_778
10
5.4774365
20
78.8530677
11
5.1999365
21
78.3241677
0
LINE
8
DEFAULT_255_2_778
10
5.1999365
20
78.3241677
11
5.4832365
21
77.7865677
0
LINE
8
DEFAULT_255_2_778
10
5.4832365
20
77.7865677
11
5.3242365
21
77.7865677
0
LINE
8
DEFAULT_255_2_778
10
5.3242365
20
77.7865677
11
5.1192365
21
78.2024677
0
LINE
8
DEFAULT_255_2_778
10
5.1192365
20
78.2024677
11
4.9133365
21
77.7865677
0
LINE
8
DEFAULT_255_2_778
10
4.9133365
20
77.7865677
11
4.7543365
21
77.7865677
0
LINE
8
DEFAULT_255_2_778
10
4.7543365
20
77.7865677
11
5.0393365
21
78.3241677
0
LINE
8
DEFAULT_255_2_778
10
5.0393365
20
78.3241677
11
4.7601365
21
78.8530677
0
LINE
8
DEFAULT_255_2_778
10
4.7601365
20
78.8530677
11
4.9168365
21
78.8530677
0
LINE
8
DEFAULT_255_2_778
10
4.9168365
20
78.8530677
11
4.9173365
21
78.8530677
0
ARC
8
DEFAULT_255_2_778
10
5.8742986
20
78.5409088
40
0.1554184
50
266.4753201
51
316.9347733
0
ARC
8
DEFAULT_255_2_778
10
5.8355059
20
78.5577223
40
0.1957564
50
321.0961876
51
3.2688007
0
ARC
8
DEFAULT_255_2_778
10
5.7732021
20
78.5809773
40
0.2580252
50
357.3137163
51
25.5041692
0
ARC
8
DEFAULT_255_2_778
10
5.8962107
20
78.6313821
40
0.1255228
50
28.916628
51
94.6916408
0
ARC
8
DEFAULT_255_2_778
10
5.880171
20
78.6260606
40
0.1305514
50
87.4656749
51
142.2511636
0
ARC
8
DEFAULT_255_2_778
10
5.9470707
20
78.5832803
40
0.2097605
50
144.1989673
51
182.7040585
0
ARC
8
DEFAULT_255_2_778
10
5.905287
20
78.5839187
40
0.2968302
50
137.4135099
51
182.0338139
0
ARC
8
DEFAULT_255_2_778
10
5.8780707
20
78.6064836
40
0.2615285
50
88.209152
51
137.0183418
0
ARC
8
DEFAULT_255_2_778
10
5.8989001
20
78.6067999
40
0.261391
50
44.2158206
51
92.7752989
0
ARC
8
DEFAULT_255_2_778
10
5.8648335
20
78.5950315
40
0.294413
50
1.1643506
51
41.2326359
0
ARC
8
DEFAULT_255_2_778
10
5.644618
20
78.5664726
40
0.515726
50
359.9457543
51
3.8403337
0
ARC
8
DEFAULT_255_2_778
10
5.8966302
20
78.5649237
40
0.2637157
50
328.6913701
51
0.2304527
0
ARC
8
DEFAULT_255_2_778
10
5.9157731
20
78.5465706
40
0.2378923
50
296.5063552
51
330.0722569
0
ARC
8
DEFAULT_255_2_778
10
5.9446418
20
78.1199576
40
0.2272768
50
358.3421244
51
70.1156544
0
ARC
8
DEFAULT_255_2_778
10
5.712538
20
78.084285
40
0.4602061
50
359.9501196
51
3.6250213
0
ARC
8
DEFAULT_255_2_778
10
5.8458473
20
78.0693193
40
0.3272208
50
322.7756536
51
2.5511597
0
ARC
8
DEFAULT_255_2_778
10
5.8942091
20
78.0431042
40
0.2729817
50
316.8428474
51
321.0161949
0
ARC
8
DEFAULT_255_2_778
10
5.8961971
20
78.0428149
40
0.2713359
50
267.7709711
51
316.6002705
0
ARC
8
DEFAULT_255_2_778
10
5.8743222
20
78.0441225
40
0.2726732
50
224.8305701
51
272.3796466
0
ARC
8
DEFAULT_255_2_778
10
5.8982567
20
78.0525505
40
0.2957901
50
177.1060209
51
222.7193009
0
ARC
8
DEFAULT_255_2_778
10
5.9394266
20
78.0565589
40
0.207271
50
176.9784695
51
216.8394535
0
ARC
8
DEFAULT_255_2_778
10
5.8796287
20
78.0189158
40
0.1369636
50
219.2358696
51
272.5170806
0
ARC
8
DEFAULT_255_2_778
10
5.8919937
20
78.0277164
40
0.1457704
50
267.5033481
51
318.4256249
0
ARC
8
DEFAULT_255_2_778
10
5.8407005
20
78.0547144
40
0.2025317
50
322.3441527
51
0.2024205
0
ARC
8
DEFAULT_255_2_778
10
5.6176782
20
78.0800743
40
0.4262657
50
356.6856196
51
0.055111
0
ARC
8
DEFAULT_255_2_778
10
5.8232306
20
78.0931098
40
0.2210739
50
356.726079
51
32.6504463
0
ARC
8
DEFAULT_255_2_778
10
5.8790661
20
78.10761
40
0.1672011
50
38.8013195
51
93.2183191
0
ARC
8
DEFAULT_255_2_778
10
5.8601072
20
77.9397403
40
0.3349439
50
88.3623618
51
90.0108521
0
LINE
8
DEFAULT_255_2_778
10
5.7819438
20
78.2751844
11
5.7819438
21
78.3857844
0
LINE
8
DEFAULT_255_2_778
10
5.7819438
20
78.3857844
11
5.8647438
21
78.3857844
0
LINE
8
DEFAULT_255_2_778
10
5.7375438
20
78.5733844
11
5.6086438
21
78.5733844
0
LINE
8
DEFAULT_255_2_778
10
5.6028438
20
78.0674844
11
5.7324438
21
78.0674844
0
LINE
8
DEFAULT_255_2_778
10
5.8600438
20
78.2746844
11
5.7825438
21
78.2746844
0
LINE
8
DEFAULT_255_2_778
10
5.7825438
20
78.2746844
11
5.7819438
21
78.2751844
0
LINE
8
DEFAULT_255_2_778
10
16.2872271
20
77.7865677
11
16.2031271
21
78.0648677
0
LINE
8
DEFAULT_255_2_778
10
16.2031271
20
78.0648677
11
15.8427271
21
78.0648677
0
LINE
8
DEFAULT_255_2_778
10
15.8427271
20
78.0648677
11
15.7599271
21
77.7865677
0
LINE
8
DEFAULT_255_2_778
10
15.7599271
20
77.7865677
11
15.6223271
21
77.7865677
0
LINE
8
DEFAULT_255_2_778
10
15.6223271
20
77.7865677
11
15.9657271
21
78.8530677
0
LINE
8
DEFAULT_255_2_778
10
15.9657271
20
78.8530677
11
16.0808271
21
78.8530677
0
LINE
8
DEFAULT_255_2_778
10
16.0808271
20
78.8530677
11
16.4250271
21
77.7865677
0
LINE
8
DEFAULT_255_2_778
10
16.4250271
20
77.7865677
11
16.2875271
21
77.7865677
0
LINE
8
DEFAULT_255_2_778
10
16.2875271
20
77.7865677
11
16.2872271
21
77.7865677
0
LINE
8
DEFAULT_255_2_778
10
16.0229271
20
78.6654677
11
15.8779271
21
78.1804677
0
LINE
8
DEFAULT_255_2_778
10
15.8779271
20
78.1804677
11
16.1687271
21
78.1804677
0
LINE
8
DEFAULT_255_2_778
10
16.1687271
20
78.1804677
11
16.0229271
21
78.6654677
0
LINE
8
DEFAULT_255_2_778
10
16.0229271
20
78.6654677
11
16.0229271
21
78.6654677
0
LINE
8
DEFAULT_255_2_778
10
16.6674365
20
78.8530677
11
16.8695365
21
78.4442677
0
LINE
8
DEFAULT_255_2_778
10
16.8695365
20
78.4442677
11
17.0701365
21
78.8530677
0
LINE
8
DEFAULT_255_2_778
10
17.0701365
20
78.8530677
11
17.2275365
21
78.8530677
0
LINE
8
DEFAULT_255_2_778
10
17.2275365
20
78.8530677
11
16.9500365
21
78.3241677
0
LINE
8
DEFAULT_255_2_778
10
16.9500365
20
78.3241677
11
17.2333365
21
77.7865677
0
LINE
8
DEFAULT_255_2_778
10
17.2333365
20
77.7865677
11
17.0743365
21
77.7865677
0
LINE
8
DEFAULT_255_2_778
10
17.0743365
20
77.7865677
11
16.8693365
21
78.2024677
0
LINE
8
DEFAULT_255_2_778
10
16.8693365
20
78.2024677
11
16.6634365
21
77.7865677
0
LINE
8
DEFAULT_255_2_778
10
16.6634365
20
77.7865677
11
16.5044365
21
77.7865677
0
LINE
8
DEFAULT_255_2_778
10
16.5044365
20
77.7865677
11
16.7894365
21
78.3241677
0
LINE
8
DEFAULT_255_2_778
10
16.7894365
20
78.3241677
11
16.5102365
21
78.8530677
0
LINE
8
DEFAULT_255_2_778
10
16.5102365
20
78.8530677
11
16.6669365
21
78.8530677
0
LINE
8
DEFAULT_255_2_778
10
16.6669365
20
78.8530677
11
16.6674365
21
78.8530677
0
ARC
8
DEFAULT_255_2_778
10
2.2636649
20
95.7703352
40
0.8635311
50
346.2410435
51
0.8054209
0
ARC
8
DEFAULT_255_2_778
10
2.569891
20
95.7030657
40
0.550144
50
338.9176387
51
345.4606544
0
ARC
8
DEFAULT_255_2_778
10
2.7059583
20
95.639979
40
0.4006143
50
309.0069203
51
340.336434
0
ARC
8
DEFAULT_255_2_778
10
2.7075685
20
95.7664348
40
0.5147652
50
270.2273036
51
281.9222321
0
ARC
8
DEFAULT_255_2_778
10
2.693009
20
95.6251957
40
0.3738908
50
219.3805949
51
272.5449116
0
ARC
8
DEFAULT_255_2_778
10
2.8005795
20
95.6973735
40
0.5029862
50
188.7377129
51
217.9610676
0
ARC
8
DEFAULT_255_2_778
10
3.1826318
20
95.7752219
40
0.8926307
50
180.2662634
51
189.9513808
0
ARC
8
DEFAULT_255_2_778
10
3.1004361
20
96.0103595
40
0.8105263
50
164.0725689
51
180.9038609
0
ARC
8
DEFAULT_255_2_778
10
2.7769345
20
96.1003141
40
0.4747641
50
142.4936942
51
163.7981485
0
ARC
8
DEFAULT_255_2_778
10
2.6904969
20
96.1610424
40
0.3692468
50
87.2813847
51
141.8027815
0
ARC
8
DEFAULT_255_2_778
10
2.7275031
20
96.1580947
40
0.3722897
50
39.0771843
51
93.0012842
0
ARC
8
DEFAULT_255_2_778
10
2.6144158
20
96.0872025
40
0.5050287
50
9.0911532
51
37.2329427
0
ARC
8
DEFAULT_255_2_778
10
2.2071018
20
96.0036363
40
0.9206092
50
0.0458905
51
10.2213579
0
ARC
8
DEFAULT_255_2_778
10
2.1837389
20
96.0116233
40
0.787167
50
359.1083485
51
12.3878951
0
ARC
8
DEFAULT_255_2_778
10
2.6177451
20
96.1079326
40
0.3426057
50
12.2273347
51
32.6506774
0
ARC
8
DEFAULT_255_2_778
10
2.7226699
20
96.1667478
40
0.2226426
50
34.4749466
51
93.9041751
0
ARC
8
DEFAULT_255_2_778
10
2.6961977
20
96.1685643
40
0.2205996
50
87.0604208
51
146.1403589
0
ARC
8
DEFAULT_255_2_778
10
2.8443357
20
96.0820233
40
0.3919768
50
147.700571
51
172.4288594
0
ARC
8
DEFAULT_255_2_778
10
3.2768084
20
96.0053553
40
0.8309984
50
171.1174694
51
180.0676768
0
ARC
8
DEFAULT_255_2_778
10
3.1762564
20
95.7699491
40
0.7305481
50
179.0411988
51
193.7870657
0
ARC
8
DEFAULT_255_2_778
10
2.8098837
20
95.6815262
40
0.3536618
50
194.0198044
51
212.621124
0
ARC
8
DEFAULT_255_2_778
10
2.6968432
20
95.610973
40
0.2204244
50
213.0147431
51
273.1122699
0
ARC
8
DEFAULT_255_2_778
10
2.7236392
20
95.6122702
40
0.2218925
50
266.1681998
51
323.8494179
0
ARC
8
DEFAULT_255_2_778
10
2.5981263
20
95.6804517
40
0.3639569
50
326.839766
51
351.7398333
0
ARC
8
DEFAULT_255_2_778
10
2.131523
20
95.7692135
40
0.83873
50
350.3184471
51
359.4234444
0
LINE
8
DEFAULT_255_2_778
10
17.7528106
20
78.8580737
11
17.7528106
21
77.7865737
0
LINE
8
DEFAULT_255_2_778
10
17.7528106
20
77.7865737
11
17.6223106
21
77.7865737
0
LINE
8
DEFAULT_255_2_778
10
17.6223106
20
77.7865737
11
17.6223106
21
78.6895737
0
LINE
8
DEFAULT_255_2_778
10
17.6223106
20
78.6895737
11
17.3982106
21
78.5892737
0
LINE
8
DEFAULT_255_2_778
10
17.3982106
20
78.5892737
11
17.3982106
21
78.7122737
0
LINE
8
DEFAULT_255_2_778
10
17.3982106
20
78.7122737
11
17.7321106
21
78.8580737
0
LINE
8
DEFAULT_255_2_778
10
17.7321106
20
78.8580737
11
17.7528106
21
78.8580737
0
LINE
8
DEFAULT_255_2_778
10
17.7528106
20
78.8580737
11
17.7528106
21
78.8580737
0
LINE
8
DEFAULT_255_2_778
10
3.1271106
20
96.0046737
11
3.1271106
21
95.7824737
0
LINE
8
DEFAULT_255_2_778
10
2.9581106
20
95.3286737
11
3.1435106
21
95.1619737
0
LINE
8
DEFAULT_255_2_778
10
3.1435106
20
95.1619737
11
3.0377106
21
95.0585737
0
LINE
8
DEFAULT_255_2_778
10
3.0377106
20
95.0585737
11
2.8139106
21
95.2627737
0
LINE
8
DEFAULT_255_2_778
10
2.2900106
20
95.7710737
11
2.2900106
21
95.9975737
0
LINE
8
DEFAULT_255_2_778
10
3.1277106
20
96.0043737
11
3.1271106
21
96.0046737
0
LINE
8
DEFAULT_255_2_778
10
2.9708106
20
95.7612737
11
2.9708106
21
95.9993737
0
LINE
8
DEFAULT_255_2_778
10
2.4458106
20
96.0043737
11
2.4458106
21
95.7821737
0
LINE
8
DEFAULT_255_2_778
10
2.9702106
20
95.7607737
11
2.9708106
21
95.7612737
0
ARC
8
DEFAULT_255_2_778
10
3.6860798
20
96.0317683
40
0.4813613
50
62.0539768
51
91.6276318
0
ARC
8
DEFAULT_255_2_778
10
3.7256713
20
96.1262019
40
0.379499
50
41.2926748
51
60.6526796
0
ARC
8
DEFAULT_255_2_778
10
3.6408432
20
96.0639007
40
0.4844342
50
7.4871943
51
40.2082005
0
ARC
8
DEFAULT_255_2_778
10
3.2954114
20
95.9976707
40
0.8358061
50
359.7165157
51
8.9031968
0
ARC
8
DEFAULT_255_2_778
10
3.4284598
20
95.7723512
40
0.702862
50
341.939392
51
1.0340419
0
ARC
8
DEFAULT_255_2_778
10
3.686923
20
95.6918169
40
0.4321805
50
318.1610287
51
341.4670042
0
ARC
8
DEFAULT_255_2_778
10
3.7052407
20
95.6897007
40
0.4172577
50
274.9093619
51
316.6995611
0
ARC
8
DEFAULT_255_2_778
10
3.6563252
20
95.9678871
40
0.6990543
50
269.8428094
51
276.9530212
0
ARC
8
DEFAULT_255_2_778
10
3.6707329
20
95.7594122
40
0.3566111
50
267.9228217
51
296.7042754
0
ARC
8
DEFAULT_255_2_778
10
3.7228406
20
95.6396694
40
0.2263403
50
298.54261
51
321.0672726
0
ARC
8
DEFAULT_255_2_778
10
3.6093625
20
95.7138968
40
0.3615131
50
323.218499
51
352.8913217
0
ARC
8
DEFAULT_255_2_778
10
3.2491999
20
95.7808093
40
0.7275151
50
351.1720398
51
359.7342866
0
ARC
8
DEFAULT_255_2_778
10
3.3167329
20
96.010128
40
0.6600889
50
358.9329393
51
14.6025691
0
ARC
8
DEFAULT_255_2_778
10
3.6666924
20
96.1014515
40
0.2984101
50
14.5748528
51
38.2597778
0
ARC
8
DEFAULT_255_2_778
10
3.700325
20
96.1104331
40
0.2667955
50
41.2190985
51
89.9844258
0
ARC
8
DEFAULT_255_2_778
10
3.6727288
20
95.9033743
40
0.4746614
50
86.6582488
51
90.0388092
0
LINE
8
DEFAULT_255_2_778
10
3.6544073
20
95.2688354
11
3.3758073
21
95.2688354
0
LINE
8
DEFAULT_255_2_778
10
3.3758073
20
95.2688354
11
3.3758073
21
96.5129354
0
LINE
8
DEFAULT_255_2_778
10
3.3758073
20
96.5129354
11
3.6724073
21
96.5129354
0
LINE
8
DEFAULT_255_2_778
10
4.1312073
20
95.9935354
11
4.1312073
21
95.7850354
0
LINE
8
DEFAULT_255_2_778
10
3.6544073
20
95.2688354
11
3.6544073
21
95.2688354
0
LINE
8
DEFAULT_255_2_778
10
3.6724073
20
96.3780354
11
3.5322073
21
96.3780354
0
LINE
8
DEFAULT_255_2_778
10
3.5322073
20
96.3780354
11
3.5322073
21
95.4030354
0
LINE
8
DEFAULT_255_2_778
10
3.5322073
20
95.4030354
11
3.6578073
21
95.4030354
0
LINE
8
DEFAULT_255_2_778
10
3.9767073
20
95.7774354
11
3.9767073
21
95.9978354
0
LINE
8
DEFAULT_255_2_778
10
3.6724073
20
96.3780354
11
3.6724073
21
96.3780354
0
ARC
8
DEFAULT_255_2_778
10
5.5842557
20
95.7972215
40
0.2844454
50
90.0867547
51
125.7856355
0
ARC
8
DEFAULT_255_2_778
10
5.5935955
20
95.8144529
40
0.2673923
50
35.2997486
51
92.0940385
0
ARC
8
DEFAULT_255_2_778
10
5.4448771
20
95.7142706
40
0.4466776
50
4.6623388
51
34.7642453
0
ARC
8
DEFAULT_255_2_778
10
5.1330041
20
95.6674443
40
0.7616234
50
359.8512208
51
6.2665133
0
ARC
8
DEFAULT_255_2_778
10
5.3339226
20
95.652559
40
0.560851
50
339.2817742
51
1.3187468
0
ARC
8
DEFAULT_255_2_778
10
5.5282101
20
95.5859689
40
0.3556286
50
320.9589551
51
338.2425853
0
ARC
8
DEFAULT_255_2_778
10
5.5706597
20
95.5536903
40
0.3023312
50
267.4151719
51
320.6429621
0
ARC
8
DEFAULT_255_2_778
10
5.545694
20
95.5532475
40
0.3017936
50
224.1155434
51
272.1517153
0
ARC
8
DEFAULT_255_2_778
10
5.6093563
20
95.5985987
40
0.3792508
50
185.5840481
51
222.3391351
0
ARC
8
DEFAULT_255_2_778
10
5.8361337
20
95.6436359
40
0.6097593
50
184.464947
51
187.7228682
0
ARC
8
DEFAULT_255_2_778
10
5.6907166
20
95.6218082
40
0.3217151
50
184.5714825
51
211.0895926
0
ARC
8
DEFAULT_255_2_778
10
5.5680388
20
95.5566073
40
0.1831443
50
213.4405249
51
221.6194024
0
ARC
8
DEFAULT_255_2_778
10
5.5514639
20
95.5411741
40
0.1605038
50
221.4306461
51
271.9855597
0
ARC
8
DEFAULT_255_2_778
10
5.5607314
20
95.5362033
40
0.1554809
50
268.6340419
51
329.446879
0
ARC
8
DEFAULT_255_2_778
10
5.3989313
20
95.6331306
40
0.3440902
50
329.2436018
51
358.4859843
0
ARC
8
DEFAULT_255_2_778
10
5.1254323
20
95.6629393
40
0.6186932
50
356.3951789
51
0.0580999
0
ARC
8
DEFAULT_255_2_778
10
5.391467
20
95.6768432
40
0.3529078
50
357.8439998
51
29.2064013
0
ARC
8
DEFAULT_255_2_778
10
5.4832302
20
95.7181454
40
0.2528076
50
31.1842436
51
34.8388214
0
ARC
8
DEFAULT_255_2_778
10
5.5501049
20
95.772738
40
0.1668629
50
32.5705733
51
91.1606147
0
ARC
8
DEFAULT_255_2_778
10
5.5379179
20
95.7628184
40
0.1769676
50
87.1473894
51
129.0932049
0
LINE
8
DEFAULT_255_2_778
10
5.026825
20
96.5128666
11
5.026825
21
96.4239666
0
LINE
8
DEFAULT_255_2_778
10
5.026825
20
96.4239666
11
4.598725
21
95.2688666
0
LINE
8
DEFAULT_255_2_778
10
4.598725
20
95.2688666
11
4.440825
21
95.2688666
0
LINE
8
DEFAULT_255_2_778
10
4.440825
20
95.2688666
11
4.868125
21
96.3829666
0
LINE
8
DEFAULT_255_2_778
10
4.868125
20
96.3829666
11
4.313525
21
96.3829666
0
LINE
8
DEFAULT_255_2_778
10
4.313525
20
96.3829666
11
4.313525
21
96.5128666
0
LINE
8
DEFAULT_255_2_778
10
4.313525
20
96.5128666
11
5.027125
21
96.5128666
0
LINE
8
DEFAULT_255_2_778
10
5.027125
20
96.5128666
11
5.026825
21
96.5128666
0
LINE
8
DEFAULT_255_2_778
10
5.386425
20
95.8601666
11
5.266025
21
95.8927666
0
LINE
8
DEFAULT_255_2_778
10
5.266025
20
95.8927666
11
5.319725
21
96.5131666
0
LINE
8
DEFAULT_255_2_778
10
5.319725
20
96.5131666
11
5.860525
21
96.5131666
0
LINE
8
DEFAULT_255_2_778
10
5.860525
20
96.5131666
11
5.860525
21
96.3671666
0
LINE
8
DEFAULT_255_2_778
10
5.860525
20
96.3671666
11
5.447025
21
96.3671666
0
LINE
8
DEFAULT_255_2_778
10
5.447025
20
96.3671666
11
5.417925
21
96.0279666
0
LINE
8
DEFAULT_255_2_778
10
5.228225
20
95.5961666
11
5.370025
21
95.5961666
0
LINE
8
DEFAULT_255_2_778
10
5.426325
20
95.9001666
11
5.386125
21
95.8598666
0
LINE
8
DEFAULT_255_2_778
10
5.386125
20
95.8598666
11
5.386425
21
95.8601666
0
ARC
8
DEFAULT_255_2_778
10
6.4125798
20
96.0317683
40
0.4813613
50
62.0539768
51
91.6276318
0
ARC
8
DEFAULT_255_2_778
10
6.4521713
20
96.1262019
40
0.379499
50
41.2926748
51
60.6526796
0
ARC
8
DEFAULT_255_2_778
10
6.3673432
20
96.0639007
40
0.4844342
50
7.4871943
51
40.2082005
0
ARC
8
DEFAULT_255_2_778
10
6.0219114
20
95.9976707
40
0.8358061
50
359.7165157
51
8.9031968
0
ARC
8
DEFAULT_255_2_778
10
6.1549598
20
95.7723512
40
0.702862
50
341.939392
51
1.0340419
0
ARC
8
DEFAULT_255_2_778
10
6.413423
20
95.6918169
40
0.4321805
50
318.1610287
51
341.4670042
0
ARC
8
DEFAULT_255_2_778
10
6.4317407
20
95.6897007
40
0.4172577
50
274.9093619
51
316.6995611
0
ARC
8
DEFAULT_255_2_778
10
6.3828252
20
95.9678871
40
0.6990543
50
269.8428094
51
276.9530212
0
ARC
8
DEFAULT_255_2_778
10
6.3972329
20
95.7594122
40
0.3566111
50
267.9228217
51
296.7042754
0
ARC
8
DEFAULT_255_2_778
10
6.4493406
20
95.6396694
40
0.2263403
50
298.54261
51
321.0672726
0
ARC
8
DEFAULT_255_2_778
10
6.3358625
20
95.7138968
40
0.3615131
50
323.218499
51
352.8913217
0
ARC
8
DEFAULT_255_2_778
10
5.9756999
20
95.7808093
40
0.7275151
50
351.1720398
51
359.7342866
0
ARC
8
DEFAULT_255_2_778
10
6.0432329
20
96.010128
40
0.6600889
50
358.9329393
51
14.6025691
0
ARC
8
DEFAULT_255_2_778
10
6.3931924
20
96.1014515
40
0.2984101
50
14.5748528
51
38.2597778
0
ARC
8
DEFAULT_255_2_778
10
6.426825
20
96.1104331
40
0.2667955
50
41.2190985
51
89.9844258
0
ARC
8
DEFAULT_255_2_778
10
6.3992288
20
95.9033743
40
0.4746614
50
86.6582488
51
90.0388092
0
LINE
8
DEFAULT_255_2_778
10
6.3809073
20
95.2688354
11
6.1023073
21
95.2688354
0
LINE
8
DEFAULT_255_2_778
10
6.1023073
20
95.2688354
11
6.1023073
21
96.5129354
0
LINE
8
DEFAULT_255_2_778
10
6.1023073
20
96.5129354
11
6.3989073
21
96.5129354
0
LINE
8
DEFAULT_255_2_778
10
6.8577073
20
95.9935354
11
6.8577073
21
95.7850354
0
LINE
8
DEFAULT_255_2_778
10
6.3809073
20
95.2688354
11
6.3809073
21
95.2688354
0
LINE
8
DEFAULT_255_2_778
10
6.3989073
20
96.3780354
11
6.2587073
21
96.3780354
0
LINE
8
DEFAULT_255_2_778
10
6.2587073
20
96.3780354
11
6.2587073
21
95.4030354
0
LINE
8
DEFAULT_255_2_778
10
6.2587073
20
95.4030354
11
6.3843073
21
95.4030354
0
LINE
8
DEFAULT_255_2_778
10
6.7032073
20
95.7774354
11
6.7032073
21
95.9978354
0
LINE
8
DEFAULT_255_2_778
10
6.3989073
20
96.3780354
11
6.3989073
21
96.3780354
0
ARC
8
DEFAULT_255_2_778
10
17.6827899
20
80.946751
40
0.7105877
50
344.4436958
51
0.9975159
0
ARC
8
DEFAULT_255_2_778
10
17.9303099
20
80.8865787
40
0.4560754
50
338.7826324
51
343.3867135
0
ARC
8
DEFAULT_255_2_778
10
18.0304417
20
80.8386173
40
0.3454776
50
309.0239424
51
340.1877903
0
ARC
8
DEFAULT_255_2_778
10
18.0332452
20
80.9468941
40
0.4425762
50
270.2362328
51
281.8951964
0
ARC
8
DEFAULT_255_2_778
10
18.0208783
20
80.8245662
40
0.3205588
50
219.3713364
51
272.5374113
0
ARC
8
DEFAULT_255_2_778
10
18.1229471
20
80.8917377
40
0.4422589
50
187.1310686
51
217.7102745
0
ARC
8
DEFAULT_255_2_778
10
18.4631442
20
80.955318
40
0.7879935
50
180.3996487
51
188.6477503
0
ARC
8
DEFAULT_255_2_778
10
18.351685
20
81.1567244
40
0.6766343
50
162.5107685
51
181.0757052
0
ARC
8
DEFAULT_255_2_778
10
18.0848646
20
81.2364758
40
0.398202
50
142.3300776
51
161.9176695
0
ARC
8
DEFAULT_255_2_778
10
18.018241
20
81.2843919
40
0.3161967
50
87.2394031
51
141.825113
0
ARC
8
DEFAULT_255_2_778
10
18.0502466
20
81.2819553
40
0.3187083
50
39.0455376
51
93.0174167
0
ARC
8
DEFAULT_255_2_778
10
17.9445652
20
81.2165012
40
0.4422974
50
7.5915777
51
37.0063694
0
ARC
8
DEFAULT_255_2_778
10
17.5834048
20
81.1481694
40
0.8095668
50
0.1240099
51
9.0085827
0
ARC
8
DEFAULT_255_2_778
10
17.608797
20
81.1572937
40
0.6504869
50
358.9278105
51
13.7102423
0
ARC
8
DEFAULT_255_2_778
10
17.9647431
20
81.2426761
40
0.2844498
50
13.9950306
51
32.7896449
0
ARC
8
DEFAULT_255_2_778
10
18.0465107
20
81.2884678
40
0.1909995
50
34.525667
51
93.9149927
0
ARC
8
DEFAULT_255_2_778
10
18.0237334
20
81.2904351
40
0.1888377
50
87.044482
51
146.2230202
0
ARC
8
DEFAULT_255_2_778
10
18.1626261
20
81.2103722
40
0.3489615
50
147.9752136
51
174.5167379
0
ARC
8
DEFAULT_255_2_778
10
18.5480256
20
81.150604
40
0.7386566
50
172.7581709
51
180.0994703
0
ARC
8
DEFAULT_255_2_778
10
18.412342
20
80.9467068
40
0.6030937
50
178.8489754
51
195.2551162
0
ARC
8
DEFAULT_255_2_778
10
18.1125991
20
80.8683578
40
0.2933159
50
195.8956888
51
212.8800954
0
ARC
8
DEFAULT_255_2_778
10
18.0248952
20
80.8122499
40
0.189202
50
213.0294058
51
273.0826938
0
ARC
8
DEFAULT_255_2_778
10
18.0477977
20
80.8126439
40
0.1897496
50
266.1539097
51
323.9289658
0
ARC
8
DEFAULT_255_2_778
10
17.9291083
20
80.8770513
40
0.3240975
50
327.0814398
51
353.2554704
0
ARC
8
DEFAULT_255_2_778
10
17.5141773
20
80.9496598
40
0.7450511
50
351.4575594
51
359.2818601
0
LINE
8
DEFAULT_255_2_778
10
7.63977
20
96.5129217
11
7.63977
21
95.6866217
0
LINE
8
DEFAULT_255_2_778
10
7.63977
20
95.6866217
11
7.77817
21
95.6866217
0
LINE
8
DEFAULT_255_2_778
10
7.77817
20
95.6866217
11
7.77817
21
95.5575217
0
LINE
8
DEFAULT_255_2_778
10
7.77817
20
95.5575217
11
7.63977
21
95.5575217
0
LINE
8
DEFAULT_255_2_778
10
7.63977
20
95.5575217
11
7.63977
21
95.2686217
0
LINE
8
DEFAULT_255_2_778
10
7.63977
20
95.2686217
11
7.48847
21
95.2686217
0
LINE
8
DEFAULT_255_2_778
10
7.48847
20
95.2686217
11
7.48847
21
95.5575217
0
LINE
8
DEFAULT_255_2_778
10
7.48847
20
95.5575217
11
7.01857
21
95.5575217
0
LINE
8
DEFAULT_255_2_778
10
7.01857
20
95.5575217
11
7.01857
21
95.6506217
0
LINE
8
DEFAULT_255_2_778
10
7.01857
20
95.6506217
11
7.48077
21
96.5129217
0
LINE
8
DEFAULT_255_2_778
10
7.48077
20
96.5129217
11
7.63977
21
96.5129217
0
LINE
8
DEFAULT_255_2_778
10
7.63977
20
96.5129217
11
7.63977
21
96.5129217
0
LINE
8
DEFAULT_255_2_778
10
7.48847
20
96.2780217
11
7.18607
21
95.6866217
0
LINE
8
DEFAULT_255_2_778
10
7.18607
20
95.6866217
11
7.48847
21
95.6866217
0
LINE
8
DEFAULT_255_2_778
10
7.48847
20
95.6866217
11
7.48847
21
96.2780217
0
LINE
8
DEFAULT_255_2_778
10
7.48847
20
96.2780217
11
7.48847
21
96.2780217
0
LINE
8
DEFAULT_255_2_778
10
8.77777
20
96.5129217
11
8.77777
21
95.2688217
0
LINE
8
DEFAULT_255_2_778
10
8.77777
20
95.2688217
11
8.62067
21
95.2688217
0
LINE
8
DEFAULT_255_2_778
10
8.62067
20
95.2688217
11
8.12237
21
96.2277217
0
LINE
8
DEFAULT_255_2_778
10
8.12237
20
96.2277217
11
8.12237
21
95.2688217
0
LINE
8
DEFAULT_255_2_778
10
8.12237
20
95.2688217
11
7.96527
21
95.2688217
0
LINE
8
DEFAULT_255_2_778
10
7.96527
20
95.2688217
11
7.96527
21
96.5129217
0
LINE
8
DEFAULT_255_2_778
10
7.96527
20
96.5129217
11
8.12237
21
96.5129217
0
LINE
8
DEFAULT_255_2_778
10
8.12237
20
96.5129217
11
8.62217
21
95.5498217
0
LINE
8
DEFAULT_255_2_778
10
8.62217
20
95.5498217
11
8.62217
21
96.5129217
0
LINE
8
DEFAULT_255_2_778
10
8.62217
20
96.5129217
11
8.77777
21
96.5129217
0
LINE
8
DEFAULT_255_2_778
10
8.77777
20
96.5129217
11
8.77777
21
96.5129217
0
LINE
8
DEFAULT_255_2_778
10
18.39327
20
81.1496217
11
18.39327
21
80.9591217
0
LINE
8
DEFAULT_255_2_778
10
18.24797
20
80.5702217
11
18.40707
21
80.4273217
0
LINE
8
DEFAULT_255_2_778
10
18.40707
20
80.4273217
11
18.31627
21
80.3387217
0
LINE
8
DEFAULT_255_2_778
10
18.31627
20
80.3387217
11
18.12447
21
80.5138217
0
LINE
8
DEFAULT_255_2_778
10
17.67517
20
80.9498217
11
17.67517
21
81.1440217
0
LINE
8
DEFAULT_255_2_778
10
18.39297
20
81.1499217
11
18.39327
21
81.1496217
0
LINE
8
DEFAULT_255_2_778
10
18.25917
20
80.9408217
11
18.25917
21
81.1451217
0
LINE
8
DEFAULT_255_2_778
10
17.80937
20
81.1493217
11
17.80937
21
80.9588217
0
LINE
8
DEFAULT_255_2_778
10
18.25917
20
80.9403217
11
18.25917
21
80.9408217
0
ARC
8
DEFAULT_255_2_778
10
18.8748257
20
81.1888139
40
0.3969095
50
57.373347
51
92.0565421
0
ARC
8
DEFAULT_255_2_778
10
18.9045524
20
81.2525845
40
0.3273077
50
41.2905995
51
55.7369456
0
ARC
8
DEFAULT_255_2_778
10
18.8256555
20
81.1963506
40
0.4238097
50
5.8842156
51
39.9642723
0
ARC
8
DEFAULT_255_2_778
10
18.5179934
20
81.1425562
40
0.7356939
50
359.7906184
51
7.5954841
0
ARC
8
DEFAULT_255_2_778
10
18.67028
20
80.9483571
40
0.5835452
50
339.7441822
51
1.2677398
0
ARC
8
DEFAULT_255_2_778
10
18.8781248
20
80.8775744
40
0.3640907
50
318.0671899
51
338.8702627
0
ARC
8
DEFAULT_255_2_778
10
18.8855006
20
80.8849396
40
0.3636743
50
273.0692236
51
316.4271844
0
ARC
8
DEFAULT_255_2_778
10
18.8460585
20
81.1357039
40
0.6167372
50
269.9000154
51
275.4815638
0
ARC
8
DEFAULT_255_2_778
10
18.8608641
20
80.9259843
40
0.2925049
50
267.4563017
51
300.2736415
0
ARC
8
DEFAULT_255_2_778
10
18.904489
20
80.8355737
40
0.1925933
50
302.6254293
51
321.151704
0
ARC
8
DEFAULT_255_2_778
10
18.8005676
20
80.9033984
40
0.3163135
50
323.3917052
51
354.1954631
0
ARC
8
DEFAULT_255_2_778
10
18.48191
20
80.9583043
40
0.6392827
50
352.1877267
51
359.6740659
0
ARC
8
DEFAULT_255_2_778
10
18.5754588
20
81.1558158
40
0.5458609
50
358.7142838
51
16.135812
0
ARC
8
DEFAULT_255_2_778
10
18.8630027
20
81.23692
40
0.2471128
50
16.6003901
51
38.5048383
0
ARC
8
DEFAULT_255_2_778
10
18.8817353
20
81.236438
40
0.2330648
50
41.4659472
51
91.9741317
0
ARC
8
DEFAULT_255_2_778
10
18.8606655
20
81.0509998
40
0.4185679
50
88.2145705
51
90.0113876
0
LINE
8
DEFAULT_255_2_778
10
18.8449823
20
80.5189677
11
18.6062823
21
80.5189677
0
LINE
8
DEFAULT_255_2_778
10
18.6062823
20
80.5189677
11
18.6062823
21
81.5854677
0
LINE
8
DEFAULT_255_2_778
10
18.6062823
20
81.5854677
11
18.8605823
21
81.5854677
0
LINE
8
DEFAULT_255_2_778
10
19.2536823
20
81.1398677
11
19.2536823
21
80.9612677
0
LINE
8
DEFAULT_255_2_778
10
18.8449823
20
80.5189677
11
18.8449823
21
80.5189677
0
LINE
8
DEFAULT_255_2_778
10
18.8602823
20
81.4695677
11
18.7401823
21
81.4695677
0
LINE
8
DEFAULT_255_2_778
10
18.7401823
20
81.4695677
11
18.7401823
21
80.6337677
0
LINE
8
DEFAULT_255_2_778
10
18.7401823
20
80.6337677
11
18.8478823
21
80.6337677
0
LINE
8
DEFAULT_255_2_778
10
19.1211823
20
80.9546677
11
19.1211823
21
81.1435677
0
LINE
8
DEFAULT_255_2_778
10
18.8605823
20
81.4695677
11
18.8602823
21
81.4695677
0
ARC
8
DEFAULT_255_2_778
10
20.4991553
20
80.9720795
40
0.2434645
50
90.0747757
51
125.8003864
0
ARC
8
DEFAULT_255_2_778
10
20.507272
20
80.9862924
40
0.2294065
50
35.3266547
51
92.1070345
0
ARC
8
DEFAULT_255_2_778
10
20.3734737
20
80.8972085
40
0.3901081
50
3.0622144
51
34.6383447
0
ARC
8
DEFAULT_255_2_778
10
20.0952083
20
80.8600528
40
0.6703301
50
359.9052033
51
4.9632977
0
ARC
8
DEFAULT_255_2_778
10
20.2988945
20
80.8461539
40
0.4668182
50
337.1403513
51
1.5699845
0
ARC
8
DEFAULT_255_2_778
10
20.4559845
20
80.7877916
40
0.2994816
50
320.8822232
51
335.7537201
0
ARC
8
DEFAULT_255_2_778
10
20.4880205
20
80.7631832
40
0.259103
50
267.4156459
51
320.6346508
0
ARC
8
DEFAULT_255_2_778
10
20.4666785
20
80.7634399
40
0.2592761
50
224.2116752
51
272.1349849
0
ARC
8
DEFAULT_255_2_778
10
20.5268768
20
80.8050846
40
0.3316855
50
183.9426608
51
222.1163132
0
ARC
8
DEFAULT_255_2_778
10
20.7319297
20
80.8423577
40
0.5393104
50
184.5746214
51
186.3960306
0
ARC
8
DEFAULT_255_2_778
10
20.5796448
20
80.8188552
40
0.2643284
50
184.2331483
51
214.1748256
0
ARC
8
DEFAULT_255_2_778
10
20.4829603
20
80.7626524
40
0.152968
50
217.1019633
51
221.5245268
0
ARC
8
DEFAULT_255_2_778
10
20.4716032
20
80.7519002
40
0.1373381
50
221.3072761
51
271.9754913
0
ARC
8
DEFAULT_255_2_778
10
20.4793282
20
80.7480888
40
0.1334786
50
268.7161364
51
329.5002052
0
ARC
8
DEFAULT_255_2_778
10
20.3328991
20
80.8346894
40
0.3035994
50
329.4436288
51
0.0941073
0
ARC
8
DEFAULT_255_2_778
10
20.0899467
20
80.8571096
40
0.5469908
50
357.7031616
51
0.0245253
0
ARC
8
DEFAULT_255_2_778
10
20.3440538
20
80.8703076
40
0.2931705
50
357.4655779
51
32.5268187
0
ARC
8
DEFAULT_255_2_778
10
20.4708495
20
80.950994
40
0.1428794
50
32.5859532
51
91.1678223
0
ARC
8
DEFAULT_255_2_778
10
20.4601764
20
80.9423958
40
0.1516466
50
87.0663694
51
129.0022017
0
LINE
8
DEFAULT_255_2_778
10
20.0213375
20
81.5854437
11
20.0213375
21
81.5092437
0
LINE
8
DEFAULT_255_2_778
10
20.0213375
20
81.5092437
11
19.6543375
21
80.5189437
0
LINE
8
DEFAULT_255_2_778
10
19.6543375
20
80.5189437
11
19.5188375
21
80.5189437
0
LINE
8
DEFAULT_255_2_778
10
19.5188375
20
80.5189437
11
19.8850375
21
81.4740437
0
LINE
8
DEFAULT_255_2_778
10
19.8850375
20
81.4740437
11
19.4098375
21
81.4740437
0
LINE
8
DEFAULT_255_2_778
10
19.4098375
20
81.4740437
11
19.4098375
21
81.5854437
0
LINE
8
DEFAULT_255_2_778
10
19.4098375
20
81.5854437
11
20.0213375
21
81.5854437
0
LINE
8
DEFAULT_255_2_778
10
20.0213375
20
81.5854437
11
20.0213375
21
81.5854437
0
LINE
8
DEFAULT_255_2_778
10
20.3298375
20
81.0258437
11
20.2266375
21
81.0536437
0
LINE
8
DEFAULT_255_2_778
10
20.2266375
20
81.0536437
11
20.2726375
21
81.5854437
0
LINE
8
DEFAULT_255_2_778
10
20.2726375
20
81.5854437
11
20.7362375
21
81.5854437
0
LINE
8
DEFAULT_255_2_778
10
20.7362375
20
81.5854437
11
20.7362375
21
81.4603437
0
LINE
8
DEFAULT_255_2_778
10
20.7362375
20
81.4603437
11
20.3816375
21
81.4603437
0
LINE
8
DEFAULT_255_2_778
10
20.3816375
20
81.4603437
11
20.3567375
21
81.1695437
0
LINE
8
DEFAULT_255_2_778
10
20.1943375
20
80.7993437
11
20.3160375
21
80.7993437
0
LINE
8
DEFAULT_255_2_778
10
20.3647375
20
81.0602437
11
20.3303375
21
81.0258437
0
LINE
8
DEFAULT_255_2_778
10
20.3303375
20
81.0258437
11
20.3298375
21
81.0258437
0
ARC
8
DEFAULT_255_2_778
10
21.2121257
20
81.1888139
40
0.3969095
50
57.373347
51
92.0565421
0
ARC
8
DEFAULT_255_2_778
10
21.2418524
20
81.2525845
40
0.3273077
50
41.2905995
51
55.7369456
0
ARC
8
DEFAULT_255_2_778
10
21.1629555
20
81.1963506
40
0.4238097
50
5.8842156
51
39.9642723
0
ARC
8
DEFAULT_255_2_778
10
20.8552934
20
81.1425562
40
0.7356939
50
359.7906184
51
7.5954841
0
ARC
8
DEFAULT_255_2_778
10
21.00758
20
80.9483571
40
0.5835452
50
339.7441822
51
1.2677398
0
ARC
8
DEFAULT_255_2_778
10
21.2154248
20
80.8775744
40
0.3640907
50
318.0671899
51
338.8702627
0
ARC
8
DEFAULT_255_2_778
10
21.2228006
20
80.8849396
40
0.3636743
50
273.0692236
51
316.4271844
0
ARC
8
DEFAULT_255_2_778
10
21.1833585
20
81.1357039
40
0.6167372
50
269.9000154
51
275.4815638
0
ARC
8
DEFAULT_255_2_778
10
21.1981641
20
80.9259843
40
0.2925049
50
267.4563017
51
300.2736415
0
ARC
8
DEFAULT_255_2_778
10
21.241789
20
80.8355737
40
0.1925933
50
302.6254293
51
321.151704
0
ARC
8
DEFAULT_255_2_778
10
21.1378676
20
80.9033984
40
0.3163135
50
323.3917052
51
354.1954631
0
ARC
8
DEFAULT_255_2_778
10
20.81921
20
80.9583043
40
0.6392827
50
352.1877267
51
359.6740659
0
ARC
8
DEFAULT_255_2_778
10
20.9127588
20
81.1558158
40
0.5458609
50
358.7142838
51
16.135812
0
ARC
8
DEFAULT_255_2_778
10
21.2003027
20
81.23692
40
0.2471128
50
16.6003901
51
38.5048383
0
ARC
8
DEFAULT_255_2_778
10
21.2190353
20
81.236438
40
0.2330648
50
41.4659472
51
91.9741317
0
ARC
8
DEFAULT_255_2_778
10
21.1979655
20
81.0509998
40
0.4185679
50
88.2145705
51
90.0113876
0
LINE
8
DEFAULT_255_2_778
10
21.1822823
20
80.5189677
11
20.9435823
21
80.5189677
0
LINE
8
DEFAULT_255_2_778
10
20.9435823
20
80.5189677
11
20.9435823
21
81.5854677
0
LINE
8
DEFAULT_255_2_778
10
20.9435823
20
81.5854677
11
21.1978823
21
81.5854677
0
LINE
8
DEFAULT_255_2_778
10
21.5909823
20
81.1398677
11
21.5909823
21
80.9612677
0
LINE
8
DEFAULT_255_2_778
10
21.1822823
20
80.5189677
11
21.1822823
21
80.5189677
0
LINE
8
DEFAULT_255_2_778
10
21.1975823
20
81.4695677
11
21.0774823
21
81.4695677
0
LINE
8
DEFAULT_255_2_778
10
21.0774823
20
81.4695677
11
21.0774823
21
80.6337677
0
LINE
8
DEFAULT_255_2_778
10
21.0774823
20
80.6337677
11
21.1851823
21
80.6337677
0
LINE
8
DEFAULT_255_2_778
10
21.4584823
20
80.9546677
11
21.4584823
21
81.1435677
0
LINE
8
DEFAULT_255_2_778
10
21.1978823
20
81.4695677
11
21.1975823
21
81.4695677
0
LINE
8
DEFAULT_255_2_778
10
22.2609302
20
81.5854677
11
22.2609302
21
80.8771677
0
LINE
8
DEFAULT_255_2_778
10
22.2609302
20
80.8771677
11
22.3794302
21
80.8771677
0
LINE
8
DEFAULT_255_2_778
10
22.3794302
20
80.8771677
11
22.3794302
21
80.7665677
0
LINE
8
DEFAULT_255_2_778
10
22.3794302
20
80.7665677
11
22.2609302
21
80.7665677
0
LINE
8
DEFAULT_255_2_778
10
22.2609302
20
80.7665677
11
22.2609302
21
80.5189677
0
LINE
8
DEFAULT_255_2_778
10
22.2609302
20
80.5189677
11
22.1313302
21
80.5189677
0
LINE
8
DEFAULT_255_2_778
10
22.1313302
20
80.5189677
11
22.1313302
21
80.7665677
0
LINE
8
DEFAULT_255_2_778
10
22.1313302
20
80.7665677
11
21.7283302
21
80.7665677
0
LINE
8
DEFAULT_255_2_778
10
21.7283302
20
80.7665677
11
21.7283302
21
80.8464677
0
LINE
8
DEFAULT_255_2_778
10
21.7283302
20
80.8464677
11
22.1246302
21
81.5854677
0
LINE
8
DEFAULT_255_2_778
10
22.1246302
20
81.5854677
11
22.2609302
21
81.5854677
0
LINE
8
DEFAULT_255_2_778
10
22.2609302
20
81.5854677
11
22.2609302
21
81.5854677
0
LINE
8
DEFAULT_255_2_778
10
22.1313302
20
81.3841677
11
21.8720302
21
80.8771677
0
LINE
8
DEFAULT_255_2_778
10
21.8720302
20
80.8771677
11
22.1313302
21
80.8771677
0
LINE
8
DEFAULT_255_2_778
10
22.1313302
20
80.8771677
11
22.1313302
21
81.3841677
0
LINE
8
DEFAULT_255_2_778
10
22.1313302
20
81.3841677
11
22.1313302
21
81.3841677
0
LINE
8
DEFAULT_255_2_778
10
23.2368083
20
81.5854677
11
23.2368083
21
80.5189677
0
LINE
8
DEFAULT_255_2_778
10
23.2368083
20
80.5189677
11
23.1021083
21
80.5189677
0
LINE
8
DEFAULT_255_2_778
10
23.1021083
20
80.5189677
11
22.6751083
21
81.3407677
0
LINE
8
DEFAULT_255_2_778
10
22.6751083
20
81.3407677
11
22.6751083
21
80.5189677
0
LINE
8
DEFAULT_255_2_778
10
22.6751083
20
80.5189677
11
22.5404083
21
80.5189677
0
LINE
8
DEFAULT_255_2_778
10
22.5404083
20
80.5189677
11
22.5404083
21
81.5854677
0
LINE
8
DEFAULT_255_2_778
10
22.5404083
20
81.5854677
11
22.6751083
21
81.5854677
0
LINE
8
DEFAULT_255_2_778
10
22.6751083
20
81.5854677
11
23.1034083
21
80.7599677
0
LINE
8
DEFAULT_255_2_778
10
23.1034083
20
80.7599677
11
23.1034083
21
81.5854677
0
LINE
8
DEFAULT_255_2_778
10
23.1034083
20
81.5854677
11
23.2368083
21
81.5854677
0
LINE
8
DEFAULT_255_2_778
10
23.2368083
20
81.5854677
11
23.2368083
21
81.5854677
0
LINE
8
DEFAULT_255_2_778
10
7.416824
20
85.7745677
11
7.416824
21
85.6594677
0
LINE
8
DEFAULT_255_2_778
10
7.416824
20
85.6594677
11
7.039524
21
85.6594677
0
LINE
8
DEFAULT_255_2_778
10
7.039524
20
85.6594677
11
7.039524
21
85.2816677
0
LINE
8
DEFAULT_255_2_778
10
7.039524
20
85.2816677
11
7.479024
21
85.2816677
0
LINE
8
DEFAULT_255_2_778
10
7.479024
20
85.2816677
11
7.479024
21
85.1665677
0
LINE
8
DEFAULT_255_2_778
10
7.479024
20
85.1665677
11
6.905624
21
85.1665677
0
LINE
8
DEFAULT_255_2_778
10
6.905624
20
85.1665677
11
6.905624
21
86.2330677
0
LINE
8
DEFAULT_255_2_778
10
6.905624
20
86.2330677
11
7.471824
21
86.2330677
0
LINE
8
DEFAULT_255_2_778
10
7.471824
20
86.2330677
11
7.471824
21
86.1174677
0
LINE
8
DEFAULT_255_2_778
10
7.471824
20
86.1174677
11
7.039724
21
86.1174677
0
LINE
8
DEFAULT_255_2_778
10
7.039724
20
86.1174677
11
7.039724
21
85.7745677
0
LINE
8
DEFAULT_255_2_778
10
7.039724
20
85.7745677
11
7.417024
21
85.7745677
0
LINE
8
DEFAULT_255_2_778
10
7.417024
20
85.7745677
11
7.416824
21
85.7745677
0
ARC
8
DEFAULT_255_2_778
10
7.9619348
20
85.8562977
40
0.3769891
50
64.0502748
51
91.9534218
0
ARC
8
DEFAULT_255_2_778
10
8.0143973
20
85.9810114
40
0.2420057
50
44.7102527
51
62.2981741
0
ARC
8
DEFAULT_255_2_778
10
7.9676276
20
85.9497701
40
0.2974152
50
2.7496437
51
42.6482749
0
ARC
8
DEFAULT_255_2_778
10
7.7243243
20
85.9132117
40
0.5427611
50
359.8897927
51
5.3732456
0
ARC
8
DEFAULT_255_2_778
10
7.9353706
20
85.9042495
40
0.3318083
50
330.2633081
51
1.3674172
0
ARC
8
DEFAULT_255_2_778
10
7.9857886
20
85.8799476
40
0.2760031
50
294.4861165
51
329.4523558
0
ARC
8
DEFAULT_255_2_778
10
7.9555637
20
85.8870921
40
0.174398
50
267.4433763
51
316.5557993
0
ARC
8
DEFAULT_255_2_778
10
7.9280569
20
85.9018584
40
0.2046873
50
318.8500575
51
2.8869748
0
ARC
8
DEFAULT_255_2_778
10
7.8849432
20
85.9246711
40
0.2478567
50
357.1084327
51
29.3925054
0
ARC
8
DEFAULT_255_2_778
10
7.9643327
20
85.9511903
40
0.1664282
50
34.860151
51
94.3964462
0
ARC
8
DEFAULT_255_2_778
10
7.9464889
20
85.7855255
40
0.3316423
50
89.1213085
51
90.0007726
0
LINE
8
DEFAULT_255_2_778
10
8.1623844
20
85.1665677
11
7.9726844
21
85.5977677
0
LINE
8
DEFAULT_255_2_778
10
7.9726844
20
85.5977677
11
7.7850844
21
85.5977677
0
LINE
8
DEFAULT_255_2_778
10
7.7850844
20
85.5977677
11
7.7850844
21
85.1665677
0
LINE
8
DEFAULT_255_2_778
10
7.7850844
20
85.1665677
11
7.6503844
21
85.1665677
0
LINE
8
DEFAULT_255_2_778
10
7.6503844
20
85.1665677
11
7.6503844
21
86.2330677
0
LINE
8
DEFAULT_255_2_778
10
7.6503844
20
86.2330677
11
7.9490844
21
86.2330677
0
LINE
8
DEFAULT_255_2_778
10
8.1001844
20
85.6287677
11
8.3067844
21
85.1752677
0
LINE
8
DEFAULT_255_2_778
10
8.3067844
20
85.1752677
11
8.3067844
21
85.1665677
0
LINE
8
DEFAULT_255_2_778
10
8.3067844
20
85.1665677
11
8.1625844
21
85.1665677
0
LINE
8
DEFAULT_255_2_778
10
8.1625844
20
85.1665677
11
8.1623844
21
85.1665677
0
LINE
8
DEFAULT_255_2_778
10
7.7850844
20
86.1171677
11
7.7850844
21
85.7128677
0
LINE
8
DEFAULT_255_2_778
10
7.7850844
20
85.7128677
11
7.9477844
21
85.7128677
0
LINE
8
DEFAULT_255_2_778
10
7.9464844
20
86.1171677
11
7.7852844
21
86.1171677
0
LINE
8
DEFAULT_255_2_778
10
7.7852844
20
86.1171677
11
7.7850844
21
86.1171677
0
ARC
8
DEFAULT_255_2_778
10
8.7581348
20
85.8562977
40
0.3769891
50
64.0502748
51
91.9534218
0
ARC
8
DEFAULT_255_2_778
10
8.8105973
20
85.9810114
40
0.2420057
50
44.7102527
51
62.2981741
0
ARC
8
DEFAULT_255_2_778
10
8.7638276
20
85.9497701
40
0.2974152
50
2.7496437
51
42.6482749
0
ARC
8
DEFAULT_255_2_778
10
8.5205243
20
85.9132117
40
0.5427611
50
359.8897927
51
5.3732456
0
ARC
8
DEFAULT_255_2_778
10
8.7315706
20
85.9042495
40
0.3318083
50
330.2633081
51
1.3674172
0
ARC
8
DEFAULT_255_2_778
10
8.7819886
20
85.8799476
40
0.2760031
50
294.4861165
51
329.4523558
0
ARC
8
DEFAULT_255_2_778
10
8.7517637
20
85.8870921
40
0.174398
50
267.4433763
51
316.5557993
0
ARC
8
DEFAULT_255_2_778
10
8.7242569
20
85.9018584
40
0.2046873
50
318.8500575
51
2.8869748
0
ARC
8
DEFAULT_255_2_778
10
8.6811432
20
85.9246711
40
0.2478567
50
357.1084327
51
29.3925054
0
ARC
8
DEFAULT_255_2_778
10
8.7605327
20
85.9511903
40
0.1664282
50
34.860151
51
94.3964462
0
ARC
8
DEFAULT_255_2_778
10
8.7426889
20
85.7855255
40
0.3316423
50
89.1213085
51
90.0007726
0
LINE
8
DEFAULT_255_2_778
10
8.9585844
20
85.1665677
11
8.7688844
21
85.5977677
0
LINE
8
DEFAULT_255_2_778
10
8.7688844
20
85.5977677
11
8.5812844
21
85.5977677
0
LINE
8
DEFAULT_255_2_778
10
8.5812844
20
85.5977677
11
8.5812844
21
85.1665677
0
LINE
8
DEFAULT_255_2_778
10
8.5812844
20
85.1665677
11
8.4465844
21
85.1665677
0
LINE
8
DEFAULT_255_2_778
10
8.4465844
20
85.1665677
11
8.4465844
21
86.2330677
0
LINE
8
DEFAULT_255_2_778
10
8.4465844
20
86.2330677
11
8.7452844
21
86.2330677
0
LINE
8
DEFAULT_255_2_778
10
8.8963844
20
85.6287677
11
9.1029844
21
85.1752677
0
LINE
8
DEFAULT_255_2_778
10
9.1029844
20
85.1752677
11
9.1029844
21
85.1665677
0
LINE
8
DEFAULT_255_2_778
10
9.1029844
20
85.1665677
11
8.9587844
21
85.1665677
0
LINE
8
DEFAULT_255_2_778
10
8.9587844
20
85.1665677
11
8.9585844
21
85.1665677
0
LINE
8
DEFAULT_255_2_778
10
8.5812844
20
86.1171677
11
8.5812844
21
85.7128677
0
LINE
8
DEFAULT_255_2_778
10
8.5812844
20
85.7128677
11
8.7439844
21
85.7128677
0
LINE
8
DEFAULT_255_2_778
10
8.7426844
20
86.1171677
11
8.5814844
21
86.1171677
0
LINE
8
DEFAULT_255_2_778
10
8.5814844
20
86.1171677
11
8.5812844
21
86.1171677
0
ARC
8
DEFAULT_255_2_778
10
9.317422
20
85.2406346
40
0.0843406
50
138.730595
51
181.9493485
0
ARC
8
DEFAULT_255_2_778
10
9.3107168
20
85.2404155
40
0.0795777
50
85.6662119
51
135.4258486
0
ARC
8
DEFAULT_255_2_778
10
9.3225863
20
85.2387808
40
0.0811962
50
45.0702714
51
94.135892
0
ARC
8
DEFAULT_255_2_778
10
9.3184886
20
85.2401998
40
0.0831772
50
358.3230333
51
42.3806478
0
ARC
8
DEFAULT_255_2_778
10
9.3229998
20
85.2356442
40
0.078659
50
316.3659533
51
1.5454104
0
ARC
8
DEFAULT_255_2_778
10
9.3225308
20
85.2418447
40
0.0833811
50
266.0108533
51
313.5034107
0
ARC
8
DEFAULT_255_2_778
10
9.310551
20
85.2395402
40
0.0811103
50
225.8260961
51
274.3691907
0
ARC
8
DEFAULT_255_2_778
10
9.3134419
20
85.2354541
40
0.0803449
50
178.3513528
51
222.3147716
0
LINE
8
DEFAULT_255_2_778
10
9.2331302
20
85.2377656
11
9.2331302
21
85.2377656
0
LINE
8
DEFAULT_255_2_778
10
18.3872271
20
93.1067677
11
18.3030271
21
93.3850677
0
LINE
8
DEFAULT_255_2_778
10
18.3030271
20
93.3850677
11
17.9427271
21
93.3850677
0
LINE
8
DEFAULT_255_2_778
10
17.9427271
20
93.3850677
11
17.8599271
21
93.1067677
0
LINE
8
DEFAULT_255_2_778
10
17.8599271
20
93.1067677
11
17.7223271
21
93.1067677
0
LINE
8
DEFAULT_255_2_778
10
17.7223271
20
93.1067677
11
18.0657271
21
94.1732677
0
LINE
8
DEFAULT_255_2_778
10
18.0657271
20
94.1732677
11
18.1808271
21
94.1732677
0
LINE
8
DEFAULT_255_2_778
10
18.1808271
20
94.1732677
11
18.5250271
21
93.1067677
0
LINE
8
DEFAULT_255_2_778
10
18.5250271
20
93.1067677
11
18.3875271
21
93.1067677
0
LINE
8
DEFAULT_255_2_778
10
18.3875271
20
93.1067677
11
18.3872271
21
93.1067677
0
LINE
8
DEFAULT_255_2_778
10
18.1229271
20
93.9856677
11
17.9779271
21
93.5006677
0
LINE
8
DEFAULT_255_2_778
10
17.9779271
20
93.5006677
11
18.2687271
21
93.5006677
0
LINE
8
DEFAULT_255_2_778
10
18.2687271
20
93.5006677
11
18.1229271
21
93.9856677
0
LINE
8
DEFAULT_255_2_778
10
18.1229271
20
93.9856677
11
18.1229271
21
93.9856677
0
LINE
8
DEFAULT_255_2_778
10
18.7674365
20
94.1732677
11
18.9695365
21
93.7644677
0
LINE
8
DEFAULT_255_2_778
10
18.9695365
20
93.7644677
11
19.1701365
21
94.1732677
0
LINE
8
DEFAULT_255_2_778
10
19.1701365
20
94.1732677
11
19.3275365
21
94.1732677
0
LINE
8
DEFAULT_255_2_778
10
19.3275365
20
94.1732677
11
19.0500365
21
93.6443677
0
LINE
8
DEFAULT_255_2_778
10
19.0500365
20
93.6443677
11
19.3333365
21
93.1067677
0
LINE
8
DEFAULT_255_2_778
10
19.3333365
20
93.1067677
11
19.1743365
21
93.1067677
0
LINE
8
DEFAULT_255_2_778
10
19.1743365
20
93.1067677
11
18.9693365
21
93.5226677
0
LINE
8
DEFAULT_255_2_778
10
18.9693365
20
93.5226677
11
18.7634365
21
93.1067677
0
LINE
8
DEFAULT_255_2_778
10
18.7634365
20
93.1067677
11
18.6044365
21
93.1067677
0
LINE
8
DEFAULT_255_2_778
10
18.6044365
20
93.1067677
11
18.8894365
21
93.6443677
0
LINE
8
DEFAULT_255_2_778
10
18.8894365
20
93.6443677
11
18.6102365
21
94.1732677
0
LINE
8
DEFAULT_255_2_778
10
18.6102365
20
94.1732677
11
18.7669365
21
94.1732677
0
LINE
8
DEFAULT_255_2_778
10
18.7669365
20
94.1732677
11
18.7674365
21
94.1732677
0
LINE
8
DEFAULT_255_2_778
10
19.8527292
20
94.1782812
11
19.8527292
21
93.1066812
0
LINE
8
DEFAULT_255_2_778
10
19.8527292
20
93.1066812
11
19.7223292
21
93.1066812
0
LINE
8
DEFAULT_255_2_778
10
19.7223292
20
93.1066812
11
19.7223292
21
94.0097812
0
LINE
8
DEFAULT_255_2_778
10
19.7223292
20
94.0097812
11
19.4982292
21
93.9094812
0
LINE
8
DEFAULT_255_2_778
10
19.4982292
20
93.9094812
11
19.4982292
21
94.0324812
0
LINE
8
DEFAULT_255_2_778
10
19.4982292
20
94.0324812
11
19.8321292
21
94.1782812
0
LINE
8
DEFAULT_255_2_778
10
19.8321292
20
94.1782812
11
19.8527292
21
94.1782812
0
LINE
8
DEFAULT_255_2_778
10
19.8527292
20
94.1782812
11
19.8527292
21
94.1782812
0
LINE
8
DEFAULT_255_2_778
10
18.3872271
20
90.5667677
11
18.3030271
21
90.8450677
0
LINE
8
DEFAULT_255_2_778
10
18.3030271
20
90.8450677
11
17.9427271
21
90.8450677
0
LINE
8
DEFAULT_255_2_778
10
17.9427271
20
90.8450677
11
17.8599271
21
90.5667677
0
LINE
8
DEFAULT_255_2_778
10
17.8599271
20
90.5667677
11
17.7223271
21
90.5667677
0
LINE
8
DEFAULT_255_2_778
10
17.7223271
20
90.5667677
11
18.0657271
21
91.6332677
0
LINE
8
DEFAULT_255_2_778
10
18.0657271
20
91.6332677
11
18.1808271
21
91.6332677
0
LINE
8
DEFAULT_255_2_778
10
18.1808271
20
91.6332677
11
18.5250271
21
90.5667677
0
LINE
8
DEFAULT_255_2_778
10
18.5250271
20
90.5667677
11
18.3875271
21
90.5667677
0
LINE
8
DEFAULT_255_2_778
10
18.3875271
20
90.5667677
11
18.3872271
21
90.5667677
0
LINE
8
DEFAULT_255_2_778
10
18.1229271
20
91.4456677
11
17.9779271
21
90.9606677
0
LINE
8
DEFAULT_255_2_778
10
17.9779271
20
90.9606677
11
18.2687271
21
90.9606677
0
LINE
8
DEFAULT_255_2_778
10
18.2687271
20
90.9606677
11
18.1229271
21
91.4456677
0
LINE
8
DEFAULT_255_2_778
10
18.1229271
20
91.4456677
11
18.1229271
21
91.4456677
0
LINE
8
DEFAULT_255_2_778
10
18.7674365
20
91.6332677
11
18.9695365
21
91.2244677
0
LINE
8
DEFAULT_255_2_778
10
18.9695365
20
91.2244677
11
19.1701365
21
91.6332677
0
LINE
8
DEFAULT_255_2_778
10
19.1701365
20
91.6332677
11
19.3275365
21
91.6332677
0
LINE
8
DEFAULT_255_2_778
10
19.3275365
20
91.6332677
11
19.0500365
21
91.1043677
0
LINE
8
DEFAULT_255_2_778
10
19.0500365
20
91.1043677
11
19.3333365
21
90.5667677
0
LINE
8
DEFAULT_255_2_778
10
19.3333365
20
90.5667677
11
19.1743365
21
90.5667677
0
LINE
8
DEFAULT_255_2_778
10
19.1743365
20
90.5667677
11
18.9693365
21
90.9826677
0
LINE
8
DEFAULT_255_2_778
10
18.9693365
20
90.9826677
11
18.7634365
21
90.5667677
0
LINE
8
DEFAULT_255_2_778
10
18.7634365
20
90.5667677
11
18.6044365
21
90.5667677
0
LINE
8
DEFAULT_255_2_778
10
18.6044365
20
90.5667677
11
18.8894365
21
91.1043677
0
LINE
8
DEFAULT_255_2_778
10
18.8894365
20
91.1043677
11
18.6102365
21
91.6332677
0
LINE
8
DEFAULT_255_2_778
10
18.6102365
20
91.6332677
11
18.7669365
21
91.6332677
0
LINE
8
DEFAULT_255_2_778
10
18.7669365
20
91.6332677
11
18.7674365
21
91.6332677
0
ARC
8
DEFAULT_255_2_778
10
18.8634358
20
91.751302
40
1.1364947
50
322.97483
51
330.0264606
0
ARC
8
DEFAULT_255_2_778
10
19.4427606
20
91.4119804
40
0.4651477
50
330.5818394
51
335.5753566
0
ARC
8
DEFAULT_255_2_778
10
19.5861794
20
91.3448316
40
0.3068036
50
335.9182928
51
0.245048
0
ARC
8
DEFAULT_255_2_778
10
19.6692613
20
91.3565255
40
0.2239596
50
357.3430629
51
34.6137125
0
ARC
8
DEFAULT_255_2_778
10
19.7523066
20
91.4126206
40
0.1237532
50
35.0798738
51
91.2623611
0
ARC
8
DEFAULT_255_2_778
10
19.7416076
20
91.3853332
40
0.1512209
50
86.9778708
51
141.1246111
0
ARC
8
DEFAULT_255_2_778
10
19.8167578
20
91.3435772
40
0.2363885
50
144.6798993
51
179.8005702
0
ARC
8
DEFAULT_255_2_778
10
20.0391027
20
91.3192164
40
0.4594226
50
176.8577155
51
180.0464763
0
ARC
8
DEFAULT_255_2_778
10
19.7979696
20
91.3339737
40
0.3482182
50
141.4038799
51
182.4902637
0
ARC
8
DEFAULT_255_2_778
10
19.756625
20
91.3566492
40
0.301867
50
138.4311983
51
139.8720584
0
ARC
8
DEFAULT_255_2_778
10
19.7367102
20
91.3697792
40
0.2782763
50
87.2873459
51
137.7331023
0
ARC
8
DEFAULT_255_2_778
10
19.7637922
20
91.3870449
40
0.2610698
50
44.3809247
51
93.0546428
0
ARC
8
DEFAULT_255_2_778
10
19.7331936
20
91.3762184
40
0.2908323
50
357.2064006
51
41.6881049
0
ARC
8
DEFAULT_255_2_778
10
19.5834224
20
91.3751424
40
0.4404527
50
333.7720166
51
358.2958216
0
ARC
8
DEFAULT_255_2_778
10
19.0713305
20
91.6112346
40
1.0042656
50
322.6569402
51
334.6010843
0
ARC
8
DEFAULT_255_2_778
10
18.6673955
20
91.8963861
40
1.498482
50
322.667327
51
323.3574708
0
LINE
8
DEFAULT_255_2_778
10
20.0628802
20
90.6772437
11
20.0628802
21
90.5666437
0
LINE
8
DEFAULT_255_2_778
10
20.0628802
20
90.5666437
11
19.4667802
21
90.5666437
0
LINE
8
DEFAULT_255_2_778
10
19.4667802
20
90.5666437
11
19.4667802
21
90.6640437
0
LINE
8
DEFAULT_255_2_778
10
19.4667802
20
90.6640437
11
19.7707802
21
91.0669437
0
LINE
8
DEFAULT_255_2_778
10
19.5796802
20
91.3188437
11
19.4500802
21
91.3188437
0
LINE
8
DEFAULT_255_2_778
10
19.8588802
20
90.9876437
11
19.6214802
21
90.6769437
0
LINE
8
DEFAULT_255_2_778
10
19.6214802
20
90.6769437
11
20.0630802
21
90.6769437
0
LINE
8
DEFAULT_255_2_778
10
20.0630802
20
90.6769437
11
20.0628802
21
90.6772437
0
LINE
8
DEFAULT_255_2_778
10
18.3872271
20
88.0267677
11
18.3030271
21
88.3050677
0
LINE
8
DEFAULT_255_2_778
10
18.3030271
20
88.3050677
11
17.9427271
21
88.3050677
0
LINE
8
DEFAULT_255_2_778
10
17.9427271
20
88.3050677
11
17.8599271
21
88.0267677
0
LINE
8
DEFAULT_255_2_778
10
17.8599271
20
88.0267677
11
17.7223271
21
88.0267677
0
LINE
8
DEFAULT_255_2_778
10
17.7223271
20
88.0267677
11
18.0657271
21
89.0932677
0
LINE
8
DEFAULT_255_2_778
10
18.0657271
20
89.0932677
11
18.1808271
21
89.0932677
0
LINE
8
DEFAULT_255_2_778
10
18.1808271
20
89.0932677
11
18.5250271
21
88.0267677
0
LINE
8
DEFAULT_255_2_778
10
18.5250271
20
88.0267677
11
18.3875271
21
88.0267677
0
LINE
8
DEFAULT_255_2_778
10
18.3875271
20
88.0267677
11
18.3872271
21
88.0267677
0
LINE
8
DEFAULT_255_2_778
10
18.1229271
20
88.9056677
11
17.9779271
21
88.4206677
0
LINE
8
DEFAULT_255_2_778
10
17.9779271
20
88.4206677
11
18.2687271
21
88.4206677
0
LINE
8
DEFAULT_255_2_778
10
18.2687271
20
88.4206677
11
18.1229271
21
88.9056677
0
LINE
8
DEFAULT_255_2_778
10
18.1229271
20
88.9056677
11
18.1229271
21
88.9056677
0
LINE
8
DEFAULT_255_2_778
10
18.7674365
20
89.0932677
11
18.9695365
21
88.6844677
0
LINE
8
DEFAULT_255_2_778
10
18.9695365
20
88.6844677
11
19.1701365
21
89.0932677
0
LINE
8
DEFAULT_255_2_778
10
19.1701365
20
89.0932677
11
19.3275365
21
89.0932677
0
LINE
8
DEFAULT_255_2_778
10
19.3275365
20
89.0932677
11
19.0500365
21
88.5643677
0
LINE
8
DEFAULT_255_2_778
10
19.0500365
20
88.5643677
11
19.3333365
21
88.0267677
0
LINE
8
DEFAULT_255_2_778
10
19.3333365
20
88.0267677
11
19.1743365
21
88.0267677
0
LINE
8
DEFAULT_255_2_778
10
19.1743365
20
88.0267677
11
18.9693365
21
88.4426677
0
LINE
8
DEFAULT_255_2_778
10
18.9693365
20
88.4426677
11
18.7634365
21
88.0267677
0
LINE
8
DEFAULT_255_2_778
10
18.7634365
20
88.0267677
11
18.6044365
21
88.0267677
0
LINE
8
DEFAULT_255_2_778
10
18.6044365
20
88.0267677
11
18.8894365
21
88.5643677
0
LINE
8
DEFAULT_255_2_778
10
18.8894365
20
88.5643677
11
18.6102365
21
89.0932677
0
LINE
8
DEFAULT_255_2_778
10
18.6102365
20
89.0932677
11
18.7669365
21
89.0932677
0
LINE
8
DEFAULT_255_2_778
10
18.7669365
20
89.0932677
11
18.7674365
21
89.0932677
0
ARC
8
DEFAULT_255_2_778
10
19.7243854
20
88.7811088
40
0.1554184
50
266.4753201
51
316.9347733
0
ARC
8
DEFAULT_255_2_778
10
19.6855927
20
88.7979223
40
0.1957564
50
321.0961876
51
3.2688007
0
ARC
8
DEFAULT_255_2_778
10
19.6232889
20
88.8211773
40
0.2580252
50
357.3137163
51
25.5041692
0
ARC
8
DEFAULT_255_2_778
10
19.7462974
20
88.8715821
40
0.1255228
50
28.916628
51
94.6916408
0
ARC
8
DEFAULT_255_2_778
10
19.7302578
20
88.8662606
40
0.1305514
50
87.4656749
51
142.2511636
0
ARC
8
DEFAULT_255_2_778
10
19.7971575
20
88.8234803
40
0.2097605
50
144.1989673
51
182.7040585
0
ARC
8
DEFAULT_255_2_778
10
19.7553737
20
88.8241187
40
0.2968302
50
137.4135099
51
182.0338139
0
ARC
8
DEFAULT_255_2_778
10
19.7281575
20
88.8466836
40
0.2615285
50
88.209152
51
137.0183418
0
ARC
8
DEFAULT_255_2_778
10
19.7489869
20
88.8469999
40
0.261391
50
44.2158206
51
92.7752989
0
ARC
8
DEFAULT_255_2_778
10
19.7149203
20
88.8352315
40
0.294413
50
1.1643506
51
41.2326359
0
ARC
8
DEFAULT_255_2_778
10
19.4947047
20
88.8066726
40
0.515726
50
359.9457543
51
3.8403337
0
ARC
8
DEFAULT_255_2_778
10
19.7467169
20
88.8051237
40
0.2637157
50
328.6913701
51
0.2304527
0
ARC
8
DEFAULT_255_2_778
10
19.7658599
20
88.7867706
40
0.2378923
50
296.5063552
51
330.0722569
0
ARC
8
DEFAULT_255_2_778
10
19.7947286
20
88.3601576
40
0.2272768
50
358.3421244
51
70.1156544
0
ARC
8
DEFAULT_255_2_778
10
19.5626247
20
88.324485
40
0.4602061
50
359.9501196
51
3.6250213
0
ARC
8
DEFAULT_255_2_778
10
19.6959341
20
88.3095193
40
0.3272208
50
322.7756536
51
2.5511597
0
ARC
8
DEFAULT_255_2_778
10
19.7442959
20
88.2833042
40
0.2729817
50
316.8428474
51
321.0161949
0
ARC
8
DEFAULT_255_2_778
10
19.7462839
20
88.2830149
40
0.2713359
50
267.7709711
51
316.6002705
0
ARC
8
DEFAULT_255_2_778
10
19.7244089
20
88.2843225
40
0.2726732
50
224.8305701
51
272.3796466
0
ARC
8
DEFAULT_255_2_778
10
19.7483434
20
88.2927505
40
0.2957901
50
177.1060209
51
222.7193009
0
ARC
8
DEFAULT_255_2_778
10
19.7895134
20
88.2967589
40
0.207271
50
176.9784695
51
216.8394535
0
ARC
8
DEFAULT_255_2_778
10
19.7297155
20
88.2591158
40
0.1369636
50
219.2358696
51
272.5170806
0
ARC
8
DEFAULT_255_2_778
10
19.7420804
20
88.2679164
40
0.1457704
50
267.5033481
51
318.4256249
0
ARC
8
DEFAULT_255_2_778
10
19.6907873
20
88.2949144
40
0.2025317
50
322.3441527
51
0.2024205
0
ARC
8
DEFAULT_255_2_778
10
19.467765
20
88.3202743
40
0.4262657
50
356.6856196
51
0.055111
0
ARC
8
DEFAULT_255_2_778
10
19.6733174
20
88.3333098
40
0.2210739
50
356.726079
51
32.6504463
0
ARC
8
DEFAULT_255_2_778
10
19.7291529
20
88.34781
40
0.1672011
50
38.8013195
51
93.2183191
0
ARC
8
DEFAULT_255_2_778
10
19.710194
20
88.1799403
40
0.3349439
50
88.3623618
51
90.0108521
0
LINE
8
DEFAULT_255_2_778
10
19.6320305
20
88.5153844
11
19.6320305
21
88.6259844
0
LINE
8
DEFAULT_255_2_778
10
19.6320305
20
88.6259844
11
19.7148305
21
88.6259844
0
LINE
8
DEFAULT_255_2_778
10
19.5876305
20
88.8135844
11
19.4587305
21
88.8135844
0
LINE
8
DEFAULT_255_2_778
10
19.4529305
20
88.3076844
11
19.5825305
21
88.3076844
0
LINE
8
DEFAULT_255_2_778
10
19.7101305
20
88.5148844
11
19.6326305
21
88.5148844
0
LINE
8
DEFAULT_255_2_778
10
19.6326305
20
88.5148844
11
19.6320305
21
88.5153844
0
LINE
8
DEFAULT_255_2_778
10
18.3872271
20
85.4864677
11
18.3030271
21
85.7647677
0
LINE
8
DEFAULT_255_2_778
10
18.3030271
20
85.7647677
11
17.9427271
21
85.7647677
0
LINE
8
DEFAULT_255_2_778
10
17.9427271
20
85.7647677
11
17.8599271
21
85.4864677
0
LINE
8
DEFAULT_255_2_778
10
17.8599271
20
85.4864677
11
17.7223271
21
85.4864677
0
LINE
8
DEFAULT_255_2_778
10
17.7223271
20
85.4864677
11
18.0657271
21
86.5529677
0
LINE
8
DEFAULT_255_2_778
10
18.0657271
20
86.5529677
11
18.1808271
21
86.5529677
0
LINE
8
DEFAULT_255_2_778
10
18.1808271
20
86.5529677
11
18.5250271
21
85.4864677
0
LINE
8
DEFAULT_255_2_778
10
18.5250271
20
85.4864677
11
18.3875271
21
85.4864677
0
LINE
8
DEFAULT_255_2_778
10
18.3875271
20
85.4864677
11
18.3872271
21
85.4864677
0
LINE
8
DEFAULT_255_2_778
10
18.1229271
20
86.3653677
11
17.9779271
21
85.8803677
0
LINE
8
DEFAULT_255_2_778
10
17.9779271
20
85.8803677
11
18.2687271
21
85.8803677
0
LINE
8
DEFAULT_255_2_778
10
18.2687271
20
85.8803677
11
18.1229271
21
86.3653677
0
LINE
8
DEFAULT_255_2_778
10
18.1229271
20
86.3653677
11
18.1229271
21
86.3653677
0
LINE
8
DEFAULT_255_2_778
10
18.7674365
20
86.5529677
11
18.9695365
21
86.1441677
0
LINE
8
DEFAULT_255_2_778
10
18.9695365
20
86.1441677
11
19.1701365
21
86.5529677
0
LINE
8
DEFAULT_255_2_778
10
19.1701365
20
86.5529677
11
19.3275365
21
86.5529677
0
LINE
8
DEFAULT_255_2_778
10
19.3275365
20
86.5529677
11
19.0500365
21
86.0240677
0
LINE
8
DEFAULT_255_2_778
10
19.0500365
20
86.0240677
11
19.3333365
21
85.4864677
0
LINE
8
DEFAULT_255_2_778
10
19.3333365
20
85.4864677
11
19.1743365
21
85.4864677
0
LINE
8
DEFAULT_255_2_778
10
19.1743365
20
85.4864677
11
18.9693365
21
85.9023677
0
LINE
8
DEFAULT_255_2_778
10
18.9693365
20
85.9023677
11
18.7634365
21
85.4864677
0
LINE
8
DEFAULT_255_2_778
10
18.7634365
20
85.4864677
11
18.6044365
21
85.4864677
0
LINE
8
DEFAULT_255_2_778
10
18.6044365
20
85.4864677
11
18.8894365
21
86.0240677
0
LINE
8
DEFAULT_255_2_778
10
18.8894365
20
86.0240677
11
18.6102365
21
86.5529677
0
LINE
8
DEFAULT_255_2_778
10
18.6102365
20
86.5529677
11
18.7669365
21
86.5529677
0
LINE
8
DEFAULT_255_2_778
10
18.7669365
20
86.5529677
11
18.7674365
21
86.5529677
0
LINE
8
DEFAULT_255_2_778
10
19.9572302
20
86.5529677
11
19.9572302
21
85.8446677
0
LINE
8
DEFAULT_255_2_778
10
19.9572302
20
85.8446677
11
20.0757302
21
85.8446677
0
LINE
8
DEFAULT_255_2_778
10
20.0757302
20
85.8446677
11
20.0757302
21
85.7340677
0
LINE
8
DEFAULT_255_2_778
10
20.0757302
20
85.7340677
11
19.9572302
21
85.7340677
0
LINE
8
DEFAULT_255_2_778
10
19.9572302
20
85.7340677
11
19.9572302
21
85.4864677
0
LINE
8
DEFAULT_255_2_778
10
19.9572302
20
85.4864677
11
19.8276302
21
85.4864677
0
LINE
8
DEFAULT_255_2_778
10
19.8276302
20
85.4864677
11
19.8276302
21
85.7340677
0
LINE
8
DEFAULT_255_2_778
10
19.8276302
20
85.7340677
11
19.4246302
21
85.7340677
0
LINE
8
DEFAULT_255_2_778
10
19.4246302
20
85.7340677
11
19.4246302
21
85.8139677
0
LINE
8
DEFAULT_255_2_778
10
19.4246302
20
85.8139677
11
19.8209302
21
86.5529677
0
LINE
8
DEFAULT_255_2_778
10
19.8209302
20
86.5529677
11
19.9572302
21
86.5529677
0
LINE
8
DEFAULT_255_2_778
10
19.9572302
20
86.5529677
11
19.9572302
21
86.5529677
0
LINE
8
DEFAULT_255_2_778
10
19.8276302
20
86.3516677
11
19.5683302
21
85.8446677
0
LINE
8
DEFAULT_255_2_778
10
19.5683302
20
85.8446677
11
19.8276302
21
85.8446677
0
LINE
8
DEFAULT_255_2_778
10
19.8276302
20
85.8446677
11
19.8276302
21
86.3516677
0
LINE
8
DEFAULT_255_2_778
10
19.8276302
20
86.3516677
11
19.8276302
21
86.3516677
0
ARC
8
DEFAULT_255_2_778
10
7.2172203
20
93.7961737
40
0.3769891
50
64.0502748
51
91.9534218
0
ARC
8
DEFAULT_255_2_778
10
7.2696828
20
93.9208875
40
0.2420057
50
44.7102527
51
62.2981741
0
ARC
8
DEFAULT_255_2_778
10
7.2229131
20
93.8896462
40
0.2974152
50
2.7496437
51
42.6482749
0
ARC
8
DEFAULT_255_2_778
10
6.9796098
20
93.8530877
40
0.5427611
50
359.8897927
51
5.3732456
0
ARC
8
DEFAULT_255_2_778
10
7.190656
20
93.8441256
40
0.3318083
50
330.2633081
51
1.3674172
0
ARC
8
DEFAULT_255_2_778
10
7.241074
20
93.8198236
40
0.2760031
50
294.4861165
51
329.4523558
0
ARC
8
DEFAULT_255_2_778
10
7.2108733
20
93.8274295
40
0.1745603
50
267.4378071
51
316.4880524
0
ARC
8
DEFAULT_255_2_778
10
7.1831157
20
93.8420131
40
0.2049097
50
318.8752073
51
2.861825
0
ARC
8
DEFAULT_255_2_778
10
7.1393701
20
93.8646598
40
0.2487098
50
357.138501
51
29.1976245
0
ARC
8
DEFAULT_255_2_778
10
7.2196694
20
93.8915714
40
0.1662261
50
34.6101849
51
94.4137307
0
ARC
8
DEFAULT_255_2_778
10
7.2017874
20
93.7269351
40
0.3304087
50
89.1173899
51
90.0030502
0
ARC
8
DEFAULT_255_2_778
10
7.9925135
20
93.4045991
40
0.3450114
50
325.7655812
51
1.7181814
0
ARC
8
DEFAULT_255_2_778
10
8.0570284
20
93.3712733
40
0.2730656
50
314.8088722
51
323.9307896
0
ARC
8
DEFAULT_255_2_778
10
8.0340004
20
93.4078931
40
0.3154171
50
270.0948108
51
313.0883655
0
ARC
8
DEFAULT_255_2_778
10
8.0087118
20
93.6184888
40
0.5266451
50
269.9736768
51
272.8091546
0
ARC
8
DEFAULT_255_2_778
10
7.9954588
20
93.4701461
40
0.3785261
50
243.1574505
51
271.9698094
0
ARC
8
DEFAULT_255_2_778
10
7.9456627
20
93.3544494
40
0.2529312
50
224.9539935
51
241.3877331
0
ARC
8
DEFAULT_255_2_778
10
7.9922104
20
93.3870845
40
0.3090849
50
181.826257
51
223.138393
0
ARC
8
DEFAULT_255_2_778
10
8.2156389
20
93.4188892
40
0.5339838
50
180.4233423
51
184.4740516
0
ARC
8
DEFAULT_255_2_778
10
8.0972014
20
93.4077171
40
0.2823964
50
177.5185492
51
205.5438235
0
ARC
8
DEFAULT_255_2_778
10
7.97588
20
93.3573251
40
0.1513591
50
208.1367461
51
220.4907688
0
ARC
8
DEFAULT_255_2_778
10
7.9855492
20
93.3801328
40
0.1738748
50
224.1400865
51
271.4195462
0
ARC
8
DEFAULT_255_2_778
10
8.0082287
20
93.5670903
40
0.3612465
50
267.0848328
51
270.0382489
0
ARC
8
DEFAULT_255_2_778
10
8.0210926
20
93.415121
40
0.2096576
50
266.5483308
51
303.5006805
0
ARC
8
DEFAULT_255_2_778
10
8.0601825
20
93.3423601
40
0.1276325
50
306.8982099
51
319.248233
0
ARC
8
DEFAULT_255_2_778
10
7.9851764
20
93.3907614
40
0.2163982
50
322.5057322
51
359.1676989
0
ARC
8
DEFAULT_255_2_778
10
7.7530456
20
93.4193148
40
0.4496247
50
355.9575184
51
0.0801408
0
LINE
8
DEFAULT_255_2_778
10
7.4176698
20
93.1064437
11
7.2279698
21
93.5376437
0
LINE
8
DEFAULT_255_2_778
10
7.2279698
20
93.5376437
11
7.0403698
21
93.5376437
0
LINE
8
DEFAULT_255_2_778
10
7.0403698
20
93.5376437
11
7.0403698
21
93.1064437
0
LINE
8
DEFAULT_255_2_778
10
7.0403698
20
93.1064437
11
6.9056698
21
93.1064437
0
LINE
8
DEFAULT_255_2_778
10
6.9056698
20
93.1064437
11
6.9056698
21
94.1729437
0
LINE
8
DEFAULT_255_2_778
10
6.9056698
20
94.1729437
11
7.2043698
21
94.1729437
0
LINE
8
DEFAULT_255_2_778
10
7.3554698
20
93.5686437
11
7.5620698
21
93.1151437
0
LINE
8
DEFAULT_255_2_778
10
7.5620698
20
93.1151437
11
7.5620698
21
93.1064437
0
LINE
8
DEFAULT_255_2_778
10
7.5620698
20
93.1064437
11
7.4178698
21
93.1064437
0
LINE
8
DEFAULT_255_2_778
10
7.4178698
20
93.1064437
11
7.4176698
21
93.1064437
0
LINE
8
DEFAULT_255_2_778
10
7.0403698
20
94.0573437
11
7.0403698
21
93.6530437
0
LINE
8
DEFAULT_255_2_778
10
7.0403698
20
93.6530437
11
7.2030698
21
93.6530437
0
LINE
8
DEFAULT_255_2_778
10
7.2017698
20
94.0573437
11
7.0405698
21
94.0573437
0
LINE
8
DEFAULT_255_2_778
10
7.0405698
20
94.0573437
11
7.0403698
21
94.0573437
0
LINE
8
DEFAULT_255_2_778
10
8.2026698
20
94.1729437
11
8.3373698
21
94.1729437
0
LINE
8
DEFAULT_255_2_778
10
8.3373698
20
94.1729437
11
8.3373698
21
93.4149437
0
LINE
8
DEFAULT_255_2_778
10
7.6816698
20
93.4149437
11
7.6816698
21
94.1729437
0
LINE
8
DEFAULT_255_2_778
10
7.6816698
20
94.1729437
11
7.8150698
21
94.1729437
0
LINE
8
DEFAULT_255_2_778
10
7.8150698
20
94.1729437
11
7.8150698
21
93.4199437
0
LINE
8
DEFAULT_255_2_778
10
8.2026698
20
93.4199437
11
8.2026698
21
94.1729437
0
LINE
8
DEFAULT_255_2_778
10
8.2026698
20
94.1729437
11
8.2026698
21
94.1729437
0
LINE
8
DEFAULT_255_2_778
10
9.2406083
20
94.1729677
11
9.2406083
21
93.1064677
0
LINE
8
DEFAULT_255_2_778
10
9.2406083
20
93.1064677
11
9.1059083
21
93.1064677
0
LINE
8
DEFAULT_255_2_778
10
9.1059083
20
93.1064677
11
8.6789083
21
93.9282677
0
LINE
8
DEFAULT_255_2_778
10
8.6789083
20
93.9282677
11
8.6789083
21
93.1064677
0
LINE
8
DEFAULT_255_2_778
10
8.6789083
20
93.1064677
11
8.5442083
21
93.1064677
0
LINE
8
DEFAULT_255_2_778
10
8.5442083
20
93.1064677
11
8.5442083
21
94.1729677
0
LINE
8
DEFAULT_255_2_778
10
8.5442083
20
94.1729677
11
8.6789083
21
94.1729677
0
LINE
8
DEFAULT_255_2_778
10
8.6789083
20
94.1729677
11
9.1072083
21
93.3474677
0
LINE
8
DEFAULT_255_2_778
10
9.1072083
20
93.3474677
11
9.1072083
21
94.1729677
0
LINE
8
DEFAULT_255_2_778
10
9.1072083
20
94.1729677
11
9.2406083
21
94.1729677
0
LINE
8
DEFAULT_255_2_778
10
9.2406083
20
94.1729677
11
9.2406083
21
94.1729677
0
LINE
8
DEFAULT_255_2_778
10
1.9404409
20
8.4828294
11
21.9405409
21
8.4828294
0
LINE
8
DEFAULT_255_2_778
10
1.9404409
20
66.9629294
11
21.9405409
21
66.9629294
0
ARC
8
DEFAULT_255_2_778
10
6.0625967
20
5.7360955
40
1.297198
50
148.2770855
51
180.1324007
0
ARC
8
DEFAULT_255_2_778
10
6.0617449
20
5.7366122
40
1.2962017
50
97.0226393
51
148.276717
0
ARC
8
DEFAULT_255_2_778
10
6.0649539
20
5.7088442
40
1.3241537
50
89.9849309
51
97.0135513
0
ARC
8
DEFAULT_255_2_778
10
6.0682997
20
5.7358033
40
1.297198
50
58.2770855
51
90.1324007
0
ARC
8
DEFAULT_255_2_778
10
6.0688165
20
5.7366551
40
1.2962017
50
7.0226393
51
58.276717
0
ARC
8
DEFAULT_255_2_778
10
6.0410484
20
5.7334461
40
1.3241537
50
359.9849309
51
7.0135513
0
ARC
8
DEFAULT_255_2_778
10
6.0680076
20
5.7301003
40
1.297198
50
328.2770855
51
0.1324007
0
ARC
8
DEFAULT_255_2_778
10
6.0688594
20
5.7295835
40
1.2962017
50
277.0226393
51
328.276717
0
ARC
8
DEFAULT_255_2_778
10
6.0656504
20
5.7573516
40
1.3241537
50
269.9849309
51
277.0135513
0
ARC
8
DEFAULT_255_2_778
10
6.0623045
20
5.7303924
40
1.297198
50
238.2770855
51
270.1324007
0
ARC
8
DEFAULT_255_2_778
10
6.0617878
20
5.7295406
40
1.2962017
50
187.0226393
51
238.276717
0
ARC
8
DEFAULT_255_2_778
10
6.0895558
20
5.7327496
40
1.3241537
50
179.9849309
51
187.0135513
0
LINE
8
DEFAULT_255_2_778
10
4.7654021
20
5.7330979
11
4.7654021
21
5.7330979
0
ARC
8
DEFAULT_255_2_778
10
17.8127967
20
5.7360955
40
1.297198
50
148.2770855
51
180.1324007
0
ARC
8
DEFAULT_255_2_778
10
17.8119449
20
5.7366122
40
1.2962017
50
97.0226393
51
148.276717
0
ARC
8
DEFAULT_255_2_778
10
17.8151539
20
5.7088442
40
1.3241537
50
89.9849309
51
97.0135513
0
ARC
8
DEFAULT_255_2_778
10
17.8184997
20
5.7358033
40
1.297198
50
58.2770855
51
90.1324007
0
ARC
8
DEFAULT_255_2_778
10
17.8190165
20
5.7366551
40
1.2962017
50
7.0226393
51
58.276717
0
ARC
8
DEFAULT_255_2_778
10
17.7912484
20
5.7334461
40
1.3241537
50
359.9849309
51
7.0135513
0
ARC
8
DEFAULT_255_2_778
10
17.8182076
20
5.7301003
40
1.297198
50
328.2770855
51
0.1324007
0
ARC
8
DEFAULT_255_2_778
10
17.8190594
20
5.7295835
40
1.2962017
50
277.0226393
51
328.276717
0
ARC
8
DEFAULT_255_2_778
10
17.8158504
20
5.7573516
40
1.3241537
50
269.9849309
51
277.0135513
0
ARC
8
DEFAULT_255_2_778
10
17.8125045
20
5.7303924
40
1.297198
50
238.2770855
51
270.1324007
0
ARC
8
DEFAULT_255_2_778
10
17.8119878
20
5.7295406
40
1.2962017
50
187.0226393
51
238.276717
0
ARC
8
DEFAULT_255_2_778
10
17.8397558
20
5.7327496
40
1.3241537
50
179.9849309
51
187.0135513
0
LINE
8
DEFAULT_255_2_778
10
16.5156021
20
5.7330979
11
16.5156021
21
5.7330979
0
ARC
8
DEFAULT_255_2_778
10
6.0625967
20
69.7159955
40
1.297198
50
148.2770855
51
180.1324007
0
ARC
8
DEFAULT_255_2_778
10
6.0617449
20
69.7165122
40
1.2962017
50
97.0226393
51
148.276717
0
ARC
8
DEFAULT_255_2_778
10
6.0649539
20
69.6887442
40
1.3241537
50
89.9849309
51
97.0135513
0
ARC
8
DEFAULT_255_2_778
10
6.0682997
20
69.7157033
40
1.297198
50
58.2770855
51
90.1324007
0
ARC
8
DEFAULT_255_2_778
10
6.0688165
20
69.7165551
40
1.2962017
50
7.0226393
51
58.276717
0
ARC
8
DEFAULT_255_2_778
10
6.0410484
20
69.7133461
40
1.3241537
50
359.9849309
51
7.0135513
0
ARC
8
DEFAULT_255_2_778
10
6.0680076
20
69.7100003
40
1.297198
50
328.2770855
51
0.1324007
0
ARC
8
DEFAULT_255_2_778
10
6.0688594
20
69.7094835
40
1.2962017
50
277.0226393
51
328.276717
0
ARC
8
DEFAULT_255_2_778
10
6.0656504
20
69.7372516
40
1.3241537
50
269.9849309
51
277.0135513
0
ARC
8
DEFAULT_255_2_778
10
6.0623045
20
69.7102924
40
1.297198
50
238.2770855
51
270.1324007
0
ARC
8
DEFAULT_255_2_778
10
6.0617878
20
69.7094406
40
1.2962017
50
187.0226393
51
238.276717
0
ARC
8
DEFAULT_255_2_778
10
6.0895558
20
69.7126496
40
1.3241537
50
179.9849309
51
187.0135513
0
LINE
8
DEFAULT_255_2_778
10
4.7654021
20
69.7129979
11
4.7654021
21
69.7129979
0
ARC
8
DEFAULT_255_2_778
10
17.8127967
20
69.7159955
40
1.297198
50
148.2770855
51
180.1324007
0
ARC
8
DEFAULT_255_2_778
10
17.8119449
20
69.7165122
40
1.2962017
50
97.0226393
51
148.276717
0
ARC
8
DEFAULT_255_2_778
10
17.8151539
20
69.6887442
40
1.3241537
50
89.9849309
51
97.0135513
0
ARC
8
DEFAULT_255_2_778
10
17.8184997
20
69.7157033
40
1.297198
50
58.2770855
51
90.1324007
0
ARC
8
DEFAULT_255_2_778
10
17.8190165
20
69.7165551
40
1.2962017
50
7.0226393
51
58.276717
0
ARC
8
DEFAULT_255_2_778
10
17.7912484
20
69.7133461
40
1.3241537
50
359.9849309
51
7.0135513
0
ARC
8
DEFAULT_255_2_778
10
17.8182076
20
69.7100003
40
1.297198
50
328.2770855
51
0.1324007
0
ARC
8
DEFAULT_255_2_778
10
17.8190594
20
69.7094835
40
1.2962017
50
277.0226393
51
328.276717
0
ARC
8
DEFAULT_255_2_778
10
17.8158504
20
69.7372516
40
1.3241537
50
269.9849309
51
277.0135513
0
ARC
8
DEFAULT_255_2_778
10
17.8125045
20
69.7102924
40
1.297198
50
238.2770855
51
270.1324007
0
ARC
8
DEFAULT_255_2_778
10
17.8119878
20
69.7094406
40
1.2962017
50
187.0226393
51
238.276717
0
ARC
8
DEFAULT_255_2_778
10
17.8397558
20
69.7126496
40
1.3241537
50
179.9849309
51
187.0135513
0
LINE
8
DEFAULT_255_2_778
10
16.5156021
20
69.7129979
11
16.5156021
21
69.7129979
0
LINE
8
DEFAULT_255_2_778
10
22.2903295
20
2.4827178
11
22.2903295
21
72.9629178
0
LINE
8
DEFAULT_255_2_778
10
22.2903295
20
72.9629178
11
1.5904295
21
72.9629178
0
LINE
8
DEFAULT_255_2_778
10
1.5904295
20
72.9629178
11
1.5904295
21
2.4827178
0
LINE
8
DEFAULT_255_2_778
10
1.5904295
20
2.4827178
11
22.2903295
21
2.4827178
0
LINE
8
DEFAULT_255_2_778
10
21.9405409
20
2.9830553
11
21.9405409
21
72.4631553
0
LINE
8
DEFAULT_255_2_778
10
21.9405409
20
72.4631553
11
1.9404409
21
72.4631553
0
LINE
8
DEFAULT_255_2_778
10
1.9404409
20
72.4631553
11
1.9404409
21
2.9830553
0
LINE
8
DEFAULT_255_2_778
10
1.9404409
20
2.9830553
11
21.9405409
21
2.9830553
0
LINE
8
DEFAULT_255_2_778
10
13.6903459
20
65.0730107
11
13.6903459
21
10.3728107
0
LINE
8
DEFAULT_255_2_778
10
13.6903459
20
10.3728107
11
10.1904459
21
10.3728107
0
LINE
8
DEFAULT_255_2_778
10
10.1904459
20
10.3728107
11
10.1904459
21
65.0730107
0
LINE
8
DEFAULT_255_2_778
10
10.1904459
20
65.0730107
11
13.6903459
21
65.0730107
0
LINE
8
DEFAULT_255_2_778
10
3.5903596
20
2.4829105
11
3.5903596
21
1.4828105
0
LINE
8
DEFAULT_255_2_778
10
3.5903596
20
1.4828105
11
23.2904596
21
1.4828105
0
LINE
8
DEFAULT_255_2_778
10
23.2904596
20
1.4828105
11
23.2904596
21
73.9630105
0
LINE
8
DEFAULT_255_2_778
10
23.2904596
20
73.9630105
11
3.5903596
21
73.9630105
0
LINE
8
DEFAULT_255_2_778
10
3.5903596
20
73.9630105
11
3.5903596
21
72.9629105
0
ARC
8
DEFAULT_255_2_778
10
19.7197178
20
62.9723696
40
1.4958871
50
359.9473959
51
34.3318016
0
ARC
8
DEFAULT_255_2_778
10
19.7165471
20
62.9725316
40
1.4984153
50
34.2583099
51
77.6006949
0
ARC
8
DEFAULT_255_2_778
10
19.7133647
20
62.9566448
40
1.514615
50
77.6121623
51
80.9961105
0
ARC
8
DEFAULT_255_2_778
10
15.9158779
20
63.5708528
40
1.5021642
50
81.0179144
51
84.5891186
0
ARC
8
DEFAULT_255_2_778
10
15.9160809
20
63.5730541
40
1.4999536
50
84.5889093
51
89.9996882
0
ARC
8
DEFAULT_255_2_778
10
15.9161317
20
63.5724262
40
1.5005814
50
90.0016285
51
130.4988846
0
ARC
8
DEFAULT_255_2_778
10
15.916059
20
63.5727937
40
1.5002547
50
130.5058876
51
179.9960846
0
ARC
8
DEFAULT_255_2_778
10
15.916059
20
11.8733988
40
1.5002547
50
180.0039154
51
229.4941124
0
ARC
8
DEFAULT_255_2_778
10
15.9161317
20
11.8737663
40
1.5005814
50
229.5011154
51
269.9983715
0
ARC
8
DEFAULT_255_2_778
10
15.9160809
20
11.8731383
40
1.4999535
50
270.0003118
51
275.4110907
0
ARC
8
DEFAULT_255_2_778
10
15.9158779
20
11.8753396
40
1.5021643
50
275.4108814
51
278.9820856
0
ARC
8
DEFAULT_255_2_778
10
19.717609
20
12.4710697
40
1.495701
50
278.9540858
51
313.342278
0
ARC
8
DEFAULT_255_2_778
10
19.7170408
20
12.474452
40
1.4985521
50
313.2693174
51
356.6082116
0
ARC
8
DEFAULT_255_2_778
10
19.7006426
20
12.47513
40
1.5149617
50
356.6193053
51
0.0025034
0
LINE
8
DEFAULT_255_2_778
10
19.9504043
20
64.4525962
11
16.1504043
21
65.0545962
0
LINE
8
DEFAULT_255_2_778
10
14.4158043
20
63.5728962
11
14.4158043
21
11.8732962
0
LINE
8
DEFAULT_255_2_778
10
16.1504043
20
10.3915962
11
19.9504043
21
10.9935962
0
LINE
8
DEFAULT_255_2_778
10
21.2156043
20
12.4751962
11
21.2156043
21
62.9709962
0
LINE
8
DEFAULT_255_2_778
10
19.3357688
20
54.8529795
11
19.3357688
21
53.6128795
0
LINE
8
DEFAULT_255_2_778
10
19.3357688
20
53.6128795
11
18.8356688
21
53.6128795
0
LINE
8
DEFAULT_255_2_778
10
18.8356688
20
53.6128795
11
18.8356688
21
54.8529795
0
LINE
8
DEFAULT_255_2_778
10
18.8356688
20
54.8529795
11
19.3357688
21
54.8529795
0
LINE
8
DEFAULT_255_2_778
10
16.7957688
20
53.6128795
11
16.7957688
21
54.8529795
0
LINE
8
DEFAULT_255_2_778
10
16.7957688
20
54.8529795
11
16.2956688
21
54.8529795
0
LINE
8
DEFAULT_255_2_778
10
16.2956688
20
54.8529795
11
16.2956688
21
53.6128795
0
LINE
8
DEFAULT_255_2_778
10
16.2956688
20
53.6128795
11
16.7957688
21
53.6128795
0
LINE
8
DEFAULT_255_2_778
10
19.3357688
20
57.3929795
11
19.3357688
21
56.1528795
0
LINE
8
DEFAULT_255_2_778
10
19.3357688
20
56.1528795
11
18.8356688
21
56.1528795
0
LINE
8
DEFAULT_255_2_778
10
18.8356688
20
56.1528795
11
18.8356688
21
57.3929795
0
LINE
8
DEFAULT_255_2_778
10
18.8356688
20
57.3929795
11
19.3357688
21
57.3929795
0
LINE
8
DEFAULT_255_2_778
10
16.7957688
20
56.1528795
11
16.7957688
21
57.3929795
0
LINE
8
DEFAULT_255_2_778
10
16.7957688
20
57.3929795
11
16.2956688
21
57.3929795
0
LINE
8
DEFAULT_255_2_778
10
16.2956688
20
57.3929795
11
16.2956688
21
56.1528795
0
LINE
8
DEFAULT_255_2_778
10
16.2956688
20
56.1528795
11
16.7957688
21
56.1528795
0
LINE
8
DEFAULT_255_2_778
10
19.3357688
20
59.9329795
11
19.3357688
21
58.6928795
0
LINE
8
DEFAULT_255_2_778
10
19.3357688
20
58.6928795
11
18.8356688
21
58.6928795
0
LINE
8
DEFAULT_255_2_778
10
18.8356688
20
58.6928795
11
18.8356688
21
59.9329795
0
LINE
8
DEFAULT_255_2_778
10
18.8356688
20
59.9329795
11
19.3357688
21
59.9329795
0
LINE
8
DEFAULT_255_2_778
10
16.7957688
20
58.6928795
11
16.7957688
21
59.9329795
0
LINE
8
DEFAULT_255_2_778
10
16.7957688
20
59.9329795
11
16.2956688
21
59.9329795
0
LINE
8
DEFAULT_255_2_778
10
16.2956688
20
59.9329795
11
16.2956688
21
58.6928795
0
LINE
8
DEFAULT_255_2_778
10
16.2956688
20
58.6928795
11
16.7957688
21
58.6928795
0
LINE
8
DEFAULT_255_2_778
10
19.3357688
20
62.4729795
11
19.3357688
21
61.2328795
0
LINE
8
DEFAULT_255_2_778
10
19.3357688
20
61.2328795
11
18.8356688
21
61.2328795
0
LINE
8
DEFAULT_255_2_778
10
18.8356688
20
61.2328795
11
18.8356688
21
62.4729795
0
LINE
8
DEFAULT_255_2_778
10
18.8356688
20
62.4729795
11
19.3357688
21
62.4729795
0
LINE
8
DEFAULT_255_2_778
10
16.7957688
20
61.2328795
11
16.7957688
21
62.4729795
0
LINE
8
DEFAULT_255_2_778
10
16.7957688
20
62.4729795
11
16.2956688
21
62.4729795
0
LINE
8
DEFAULT_255_2_778
10
16.2956688
20
62.4729795
11
16.2956688
21
61.2328795
0
LINE
8
DEFAULT_255_2_778
10
16.2956688
20
61.2328795
11
16.7957688
21
61.2328795
0
LINE
8
DEFAULT_255_2_778
10
19.3357688
20
44.6926795
11
19.3357688
21
43.4525795
0
LINE
8
DEFAULT_255_2_778
10
19.3357688
20
43.4525795
11
18.8356688
21
43.4525795
0
LINE
8
DEFAULT_255_2_778
10
18.8356688
20
43.4525795
11
18.8356688
21
44.6926795
0
LINE
8
DEFAULT_255_2_778
10
18.8356688
20
44.6926795
11
19.3357688
21
44.6926795
0
LINE
8
DEFAULT_255_2_778
10
16.7957688
20
43.4525795
11
16.7957688
21
44.6926795
0
LINE
8
DEFAULT_255_2_778
10
16.7957688
20
44.6926795
11
16.2956688
21
44.6926795
0
LINE
8
DEFAULT_255_2_778
10
16.2956688
20
44.6926795
11
16.2956688
21
43.4525795
0
LINE
8
DEFAULT_255_2_778
10
16.2956688
20
43.4525795
11
16.7957688
21
43.4525795
0
LINE
8
DEFAULT_255_2_778
10
19.3357688
20
47.2326795
11
19.3357688
21
45.9925795
0
LINE
8
DEFAULT_255_2_778
10
19.3357688
20
45.9925795
11
18.8356688
21
45.9925795
0
LINE
8
DEFAULT_255_2_778
10
18.8356688
20
45.9925795
11
18.8356688
21
47.2326795
0
LINE
8
DEFAULT_255_2_778
10
18.8356688
20
47.2326795
11
19.3357688
21
47.2326795
0
LINE
8
DEFAULT_255_2_778
10
16.7957688
20
45.9925795
11
16.7957688
21
47.2326795
0
LINE
8
DEFAULT_255_2_778
10
16.7957688
20
47.2326795
11
16.2956688
21
47.2326795
0
LINE
8
DEFAULT_255_2_778
10
16.2956688
20
47.2326795
11
16.2956688
21
45.9925795
0
LINE
8
DEFAULT_255_2_778
10
16.2956688
20
45.9925795
11
16.7957688
21
45.9925795
0
LINE
8
DEFAULT_255_2_778
10
19.3357688
20
49.7726795
11
19.3357688
21
48.5325795
0
LINE
8
DEFAULT_255_2_778
10
19.3357688
20
48.5325795
11
18.8356688
21
48.5325795
0
LINE
8
DEFAULT_255_2_778
10
18.8356688
20
48.5325795
11
18.8356688
21
49.7726795
0
LINE
8
DEFAULT_255_2_778
10
18.8356688
20
49.7726795
11
19.3357688
21
49.7726795
0
LINE
8
DEFAULT_255_2_778
10
16.7957688
20
48.5325795
11
16.7957688
21
49.7726795
0
LINE
8
DEFAULT_255_2_778
10
16.7957688
20
49.7726795
11
16.2956688
21
49.7726795
0
LINE
8
DEFAULT_255_2_778
10
16.2956688
20
49.7726795
11
16.2956688
21
48.5325795
0
LINE
8
DEFAULT_255_2_778
10
16.2956688
20
48.5325795
11
16.7957688
21
48.5325795
0
LINE
8
DEFAULT_255_2_778
10
19.3357688
20
52.3126795
11
19.3357688
21
51.0725795
0
LINE
8
DEFAULT_255_2_778
10
19.3357688
20
51.0725795
11
18.8356688
21
51.0725795
0
LINE
8
DEFAULT_255_2_778
10
18.8356688
20
51.0725795
11
18.8356688
21
52.3126795
0
LINE
8
DEFAULT_255_2_778
10
18.8356688
20
52.3126795
11
19.3357688
21
52.3126795
0
LINE
8
DEFAULT_255_2_778
10
16.7957688
20
51.0725795
11
16.7957688
21
52.3126795
0
LINE
8
DEFAULT_255_2_778
10
16.7957688
20
52.3126795
11
16.2956688
21
52.3126795
0
LINE
8
DEFAULT_255_2_778
10
16.2956688
20
52.3126795
11
16.2956688
21
51.0725795
0
LINE
8
DEFAULT_255_2_778
10
16.2956688
20
51.0725795
11
16.7957688
21
51.0725795
0
LINE
8
DEFAULT_255_2_778
10
19.3357688
20
34.5324795
11
19.3357688
21
33.2923795
0
LINE
8
DEFAULT_255_2_778
10
19.3357688
20
33.2923795
11
18.8356688
21
33.2923795
0
LINE
8
DEFAULT_255_2_778
10
18.8356688
20
33.2923795
11
18.8356688
21
34.5324795
0
LINE
8
DEFAULT_255_2_778
10
18.8356688
20
34.5324795
11
19.3357688
21
34.5324795
0
LINE
8
DEFAULT_255_2_778
10
16.7957688
20
33.2923795
11
16.7957688
21
34.5324795
0
LINE
8
DEFAULT_255_2_778
10
16.7957688
20
34.5324795
11
16.2956688
21
34.5324795
0
LINE
8
DEFAULT_255_2_778
10
16.2956688
20
34.5324795
11
16.2956688
21
33.2923795
0
LINE
8
DEFAULT_255_2_778
10
16.2956688
20
33.2923795
11
16.7957688
21
33.2923795
0
LINE
8
DEFAULT_255_2_778
10
19.3357688
20
37.0724795
11
19.3357688
21
35.8323795
0
LINE
8
DEFAULT_255_2_778
10
19.3357688
20
35.8323795
11
18.8356688
21
35.8323795
0
LINE
8
DEFAULT_255_2_778
10
18.8356688
20
35.8323795
11
18.8356688
21
37.0724795
0
LINE
8
DEFAULT_255_2_778
10
18.8356688
20
37.0724795
11
19.3357688
21
37.0724795
0
LINE
8
DEFAULT_255_2_778
10
16.7957688
20
35.8323795
11
16.7957688
21
37.0724795
0
LINE
8
DEFAULT_255_2_778
10
16.7957688
20
37.0724795
11
16.2956688
21
37.0724795
0
LINE
8
DEFAULT_255_2_778
10
16.2956688
20
37.0724795
11
16.2956688
21
35.8323795
0
LINE
8
DEFAULT_255_2_778
10
16.2956688
20
35.8323795
11
16.7957688
21
35.8323795
0
LINE
8
DEFAULT_255_2_778
10
19.3357688
20
39.6124795
11
19.3357688
21
38.3723795
0
LINE
8
DEFAULT_255_2_778
10
19.3357688
20
38.3723795
11
18.8356688
21
38.3723795
0
LINE
8
DEFAULT_255_2_778
10
18.8356688
20
38.3723795
11
18.8356688
21
39.6124795
0
LINE
8
DEFAULT_255_2_778
10
18.8356688
20
39.6124795
11
19.3357688
21
39.6124795
0
LINE
8
DEFAULT_255_2_778
10
16.7957688
20
38.3723795
11
16.7957688
21
39.6124795
0
LINE
8
DEFAULT_255_2_778
10
16.7957688
20
39.6124795
11
16.2956688
21
39.6124795
0
LINE
8
DEFAULT_255_2_778
10
16.2956688
20
39.6124795
11
16.2956688
21
38.3723795
0
LINE
8
DEFAULT_255_2_778
10
16.2956688
20
38.3723795
11
16.7957688
21
38.3723795
0
LINE
8
DEFAULT_255_2_778
10
19.3357688
20
42.1524795
11
19.3357688
21
40.9123795
0
LINE
8
DEFAULT_255_2_778
10
19.3357688
20
40.9123795
11
18.8356688
21
40.9123795
0
LINE
8
DEFAULT_255_2_778
10
18.8356688
20
40.9123795
11
18.8356688
21
42.1524795
0
LINE
8
DEFAULT_255_2_778
10
18.8356688
20
42.1524795
11
19.3357688
21
42.1524795
0
LINE
8
DEFAULT_255_2_778
10
16.7957688
20
40.9123795
11
16.7957688
21
42.1524795
0
LINE
8
DEFAULT_255_2_778
10
16.7957688
20
42.1524795
11
16.2956688
21
42.1524795
0
LINE
8
DEFAULT_255_2_778
10
16.2956688
20
42.1524795
11
16.2956688
21
40.9123795
0
LINE
8
DEFAULT_255_2_778
10
16.2956688
20
40.9123795
11
16.7957688
21
40.9123795
0
LINE
8
DEFAULT_255_2_778
10
19.3357688
20
24.3721795
11
19.3357688
21
23.1320795
0
LINE
8
DEFAULT_255_2_778
10
19.3357688
20
23.1320795
11
18.8356688
21
23.1320795
0
LINE
8
DEFAULT_255_2_778
10
18.8356688
20
23.1320795
11
18.8356688
21
24.3721795
0
LINE
8
DEFAULT_255_2_778
10
18.8356688
20
24.3721795
11
19.3357688
21
24.3721795
0
LINE
8
DEFAULT_255_2_778
10
16.7957688
20
23.1320795
11
16.7957688
21
24.3721795
0
LINE
8
DEFAULT_255_2_778
10
16.7957688
20
24.3721795
11
16.2956688
21
24.3721795
0
LINE
8
DEFAULT_255_2_778
10
16.2956688
20
24.3721795
11
16.2956688
21
23.1320795
0
LINE
8
DEFAULT_255_2_778
10
16.2956688
20
23.1320795
11
16.7957688
21
23.1320795
0
LINE
8
DEFAULT_255_2_778
10
19.3357688
20
26.9121795
11
19.3357688
21
25.6720795
0
LINE
8
DEFAULT_255_2_778
10
19.3357688
20
25.6720795
11
18.8356688
21
25.6720795
0
LINE
8
DEFAULT_255_2_778
10
18.8356688
20
25.6720795
11
18.8356688
21
26.9121795
0
LINE
8
DEFAULT_255_2_778
10
18.8356688
20
26.9121795
11
19.3357688
21
26.9121795
0
LINE
8
DEFAULT_255_2_778
10
16.7957688
20
25.6720795
11
16.7957688
21
26.9121795
0
LINE
8
DEFAULT_255_2_778
10
16.7957688
20
26.9121795
11
16.2956688
21
26.9121795
0
LINE
8
DEFAULT_255_2_778
10
16.2956688
20
26.9121795
11
16.2956688
21
25.6720795
0
LINE
8
DEFAULT_255_2_778
10
16.2956688
20
25.6720795
11
16.7957688
21
25.6720795
0
LINE
8
DEFAULT_255_2_778
10
19.3357688
20
29.4521795
11
19.3357688
21
28.2120795
0
LINE
8
DEFAULT_255_2_778
10
19.3357688
20
28.2120795
11
18.8356688
21
28.2120795
0
LINE
8
DEFAULT_255_2_778
10
18.8356688
20
28.2120795
11
18.8356688
21
29.4521795
0
LINE
8
DEFAULT_255_2_778
10
18.8356688
20
29.4521795
11
19.3357688
21
29.4521795
0
LINE
8
DEFAULT_255_2_778
10
16.7957688
20
28.2120795
11
16.7957688
21
29.4521795
0
LINE
8
DEFAULT_255_2_778
10
16.7957688
20
29.4521795
11
16.2956688
21
29.4521795
0
LINE
8
DEFAULT_255_2_778
10
16.2956688
20
29.4521795
11
16.2956688
21
28.2120795
0
LINE
8
DEFAULT_255_2_778
10
16.2956688
20
28.2120795
11
16.7957688
21
28.2120795
0
LINE
8
DEFAULT_255_2_778
10
19.3357688
20
31.9921795
11
19.3357688
21
30.7520795
0
LINE
8
DEFAULT_255_2_778
10
19.3357688
20
30.7520795
11
18.8356688
21
30.7520795
0
LINE
8
DEFAULT_255_2_778
10
18.8356688
20
30.7520795
11
18.8356688
21
31.9921795
0
LINE
8
DEFAULT_255_2_778
10
18.8356688
20
31.9921795
11
19.3357688
21
31.9921795
0
LINE
8
DEFAULT_255_2_778
10
16.7957688
20
30.7520795
11
16.7957688
21
31.9921795
0
LINE
8
DEFAULT_255_2_778
10
16.7957688
20
31.9921795
11
16.2956688
21
31.9921795
0
LINE
8
DEFAULT_255_2_778
10
16.2956688
20
31.9921795
11
16.2956688
21
30.7520795
0
LINE
8
DEFAULT_255_2_778
10
16.2956688
20
30.7520795
11
16.7957688
21
30.7520795
0
LINE
8
DEFAULT_255_2_778
10
19.3357688
20
14.2118795
11
19.3357688
21
12.9717795
0
LINE
8
DEFAULT_255_2_778
10
19.3357688
20
12.9717795
11
18.8356688
21
12.9717795
0
LINE
8
DEFAULT_255_2_778
10
18.8356688
20
12.9717795
11
18.8356688
21
14.2118795
0
LINE
8
DEFAULT_255_2_778
10
18.8356688
20
14.2118795
11
19.3357688
21
14.2118795
0
LINE
8
DEFAULT_255_2_778
10
16.7957688
20
12.9717795
11
16.7957688
21
14.2118795
0
LINE
8
DEFAULT_255_2_778
10
16.7957688
20
14.2118795
11
16.2956688
21
14.2118795
0
LINE
8
DEFAULT_255_2_778
10
16.2956688
20
14.2118795
11
16.2956688
21
12.9717795
0
LINE
8
DEFAULT_255_2_778
10
16.2956688
20
12.9717795
11
16.7957688
21
12.9717795
0
LINE
8
DEFAULT_255_2_778
10
19.3357688
20
16.7518795
11
19.3357688
21
15.5117795
0
LINE
8
DEFAULT_255_2_778
10
19.3357688
20
15.5117795
11
18.8356688
21
15.5117795
0
LINE
8
DEFAULT_255_2_778
10
18.8356688
20
15.5117795
11
18.8356688
21
16.7518795
0
LINE
8
DEFAULT_255_2_778
10
18.8356688
20
16.7518795
11
19.3357688
21
16.7518795
0
LINE
8
DEFAULT_255_2_778
10
16.7957688
20
15.5117795
11
16.7957688
21
16.7518795
0
LINE
8
DEFAULT_255_2_778
10
16.7957688
20
16.7518795
11
16.2956688
21
16.7518795
0
LINE
8
DEFAULT_255_2_778
10
16.2956688
20
16.7518795
11
16.2956688
21
15.5117795
0
LINE
8
DEFAULT_255_2_778
10
16.2956688
20
15.5117795
11
16.7957688
21
15.5117795
0
LINE
8
DEFAULT_255_2_778
10
19.3357688
20
19.2918795
11
19.3357688
21
18.0517795
0
LINE
8
DEFAULT_255_2_778
10
19.3357688
20
18.0517795
11
18.8356688
21
18.0517795
0
LINE
8
DEFAULT_255_2_778
10
18.8356688
20
18.0517795
11
18.8356688
21
19.2918795
0
LINE
8
DEFAULT_255_2_778
10
18.8356688
20
19.2918795
11
19.3357688
21
19.2918795
0
LINE
8
DEFAULT_255_2_778
10
16.7957688
20
18.0517795
11
16.7957688
21
19.2918795
0
LINE
8
DEFAULT_255_2_778
10
16.7957688
20
19.2918795
11
16.2956688
21
19.2918795
0
LINE
8
DEFAULT_255_2_778
10
16.2956688
20
19.2918795
11
16.2956688
21
18.0517795
0
LINE
8
DEFAULT_255_2_778
10
16.2956688
20
18.0517795
11
16.7957688
21
18.0517795
0
LINE
8
DEFAULT_255_2_778
10
19.3357688
20
21.8318795
11
19.3357688
21
20.5917795
0
LINE
8
DEFAULT_255_2_778
10
19.3357688
20
20.5917795
11
18.8356688
21
20.5917795
0
LINE
8
DEFAULT_255_2_778
10
18.8356688
20
20.5917795
11
18.8356688
21
21.8318795
0
LINE
8
DEFAULT_255_2_778
10
18.8356688
20
21.8318795
11
19.3357688
21
21.8318795
0
LINE
8
DEFAULT_255_2_778
10
16.7957688
20
20.5917795
11
16.7957688
21
21.8318795
0
LINE
8
DEFAULT_255_2_778
10
16.7957688
20
21.8318795
11
16.2956688
21
21.8318795
0
LINE
8
DEFAULT_255_2_778
10
16.2956688
20
21.8318795
11
16.2956688
21
20.5917795
0
LINE
8
DEFAULT_255_2_778
10
16.2956688
20
20.5917795
11
16.7957688
21
20.5917795
0
ARC
8
DEFAULT_255_2_778
10
7.9696178
20
62.9723696
40
1.4958871
50
359.9473959
51
34.3318016
0
ARC
8
DEFAULT_255_2_778
10
7.9664471
20
62.9725316
40
1.4984153
50
34.2583099
51
77.6006949
0
ARC
8
DEFAULT_255_2_778
10
7.9632647
20
62.9566448
40
1.514615
50
77.6121623
51
80.9961105
0
ARC
8
DEFAULT_255_2_778
10
4.1657779
20
63.5708528
40
1.5021642
50
81.0179144
51
84.5891186
0
ARC
8
DEFAULT_255_2_778
10
4.1659809
20
63.5730541
40
1.4999536
50
84.5889093
51
89.9996882
0
ARC
8
DEFAULT_255_2_778
10
4.1660317
20
63.5724262
40
1.5005814
50
90.0016285
51
130.4988846
0
ARC
8
DEFAULT_255_2_778
10
4.165959
20
63.5727937
40
1.5002547
50
130.5058876
51
179.9960846
0
ARC
8
DEFAULT_255_2_778
10
4.165959
20
11.8733988
40
1.5002547
50
180.0039154
51
229.4941124
0
ARC
8
DEFAULT_255_2_778
10
4.1660317
20
11.8737663
40
1.5005814
50
229.5011154
51
269.9983715
0
ARC
8
DEFAULT_255_2_778
10
4.1659809
20
11.8731383
40
1.4999535
50
270.0003118
51
275.4110907
0
ARC
8
DEFAULT_255_2_778
10
4.1657779
20
11.8753396
40
1.5021643
50
275.4108814
51
278.9820856
0
ARC
8
DEFAULT_255_2_778
10
7.967509
20
12.4710697
40
1.495701
50
278.9540858
51
313.342278
0
ARC
8
DEFAULT_255_2_778
10
7.9669408
20
12.474452
40
1.4985521
50
313.2693174
51
356.6082116
0
ARC
8
DEFAULT_255_2_778
10
7.9505426
20
12.47513
40
1.5149617
50
356.6193053
51
0.0025034
0
LINE
8
DEFAULT_255_2_778
10
8.2003043
20
64.4525962
11
4.4003043
21
65.0545962
0
LINE
8
DEFAULT_255_2_778
10
2.6657043
20
63.5728962
11
2.6657043
21
11.8732962
0
LINE
8
DEFAULT_255_2_778
10
4.4003043
20
10.3915962
11
8.2003043
21
10.9935962
0
LINE
8
DEFAULT_255_2_778
10
9.4655043
20
12.4751962
11
9.4655043
21
62.9709962
0
LINE
8
DEFAULT_255_2_778
10
7.5856688
20
54.8529795
11
7.5856688
21
53.6128795
0
LINE
8
DEFAULT_255_2_778
10
7.5856688
20
53.6128795
11
7.0855688
21
53.6128795
0
LINE
8
DEFAULT_255_2_778
10
7.0855688
20
53.6128795
11
7.0855688
21
54.8529795
0
LINE
8
DEFAULT_255_2_778
10
7.0855688
20
54.8529795
11
7.5856688
21
54.8529795
0
LINE
8
DEFAULT_255_2_778
10
5.0456688
20
53.6128795
11
5.0456688
21
54.8529795
0
LINE
8
DEFAULT_255_2_778
10
5.0456688
20
54.8529795
11
4.5455688
21
54.8529795
0
LINE
8
DEFAULT_255_2_778
10
4.5455688
20
54.8529795
11
4.5455688
21
53.6128795
0
LINE
8
DEFAULT_255_2_778
10
4.5455688
20
53.6128795
11
5.0456688
21
53.6128795
0
LINE
8
DEFAULT_255_2_778
10
7.5856688
20
57.3929795
11
7.5856688
21
56.1528795
0
LINE
8
DEFAULT_255_2_778
10
7.5856688
20
56.1528795
11
7.0855688
21
56.1528795
0
LINE
8
DEFAULT_255_2_778
10
7.0855688
20
56.1528795
11
7.0855688
21
57.3929795
0
LINE
8
DEFAULT_255_2_778
10
7.0855688
20
57.3929795
11
7.5856688
21
57.3929795
0
LINE
8
DEFAULT_255_2_778
10
5.0456688
20
56.1528795
11
5.0456688
21
57.3929795
0
LINE
8
DEFAULT_255_2_778
10
5.0456688
20
57.3929795
11
4.5455688
21
57.3929795
0
LINE
8
DEFAULT_255_2_778
10
4.5455688
20
57.3929795
11
4.5455688
21
56.1528795
0
LINE
8
DEFAULT_255_2_778
10
4.5455688
20
56.1528795
11
5.0456688
21
56.1528795
0
LINE
8
DEFAULT_255_2_778
10
7.5856688
20
59.9329795
11
7.5856688
21
58.6928795
0
LINE
8
DEFAULT_255_2_778
10
7.5856688
20
58.6928795
11
7.0855688
21
58.6928795
0
LINE
8
DEFAULT_255_2_778
10
7.0855688
20
58.6928795
11
7.0855688
21
59.9329795
0
LINE
8
DEFAULT_255_2_778
10
7.0855688
20
59.9329795
11
7.5856688
21
59.9329795
0
LINE
8
DEFAULT_255_2_778
10
5.0456688
20
58.6928795
11
5.0456688
21
59.9329795
0
LINE
8
DEFAULT_255_2_778
10
5.0456688
20
59.9329795
11
4.5455688
21
59.9329795
0
LINE
8
DEFAULT_255_2_778
10
4.5455688
20
59.9329795
11
4.5455688
21
58.6928795
0
LINE
8
DEFAULT_255_2_778
10
4.5455688
20
58.6928795
11
5.0456688
21
58.6928795
0
LINE
8
DEFAULT_255_2_778
10
7.5856688
20
62.4729795
11
7.5856688
21
61.2328795
0
LINE
8
DEFAULT_255_2_778
10
7.5856688
20
61.2328795
11
7.0855688
21
61.2328795
0
LINE
8
DEFAULT_255_2_778
10
7.0855688
20
61.2328795
11
7.0855688
21
62.4729795
0
LINE
8
DEFAULT_255_2_778
10
7.0855688
20
62.4729795
11
7.5856688
21
62.4729795
0
LINE
8
DEFAULT_255_2_778
10
5.0456688
20
61.2328795
11
5.0456688
21
62.4729795
0
LINE
8
DEFAULT_255_2_778
10
5.0456688
20
62.4729795
11
4.5455688
21
62.4729795
0
LINE
8
DEFAULT_255_2_778
10
4.5455688
20
62.4729795
11
4.5455688
21
61.2328795
0
LINE
8
DEFAULT_255_2_778
10
4.5455688
20
61.2328795
11
5.0456688
21
61.2328795
0
LINE
8
DEFAULT_255_2_778
10
7.5856688
20
44.6926795
11
7.5856688
21
43.4525795
0
LINE
8
DEFAULT_255_2_778
10
7.5856688
20
43.4525795
11
7.0855688
21
43.4525795
0
LINE
8
DEFAULT_255_2_778
10
7.0855688
20
43.4525795
11
7.0855688
21
44.6926795
0
LINE
8
DEFAULT_255_2_778
10
7.0855688
20
44.6926795
11
7.5856688
21
44.6926795
0
LINE
8
DEFAULT_255_2_778
10
5.0456688
20
43.4525795
11
5.0456688
21
44.6926795
0
LINE
8
DEFAULT_255_2_778
10
5.0456688
20
44.6926795
11
4.5455688
21
44.6926795
0
LINE
8
DEFAULT_255_2_778
10
4.5455688
20
44.6926795
11
4.5455688
21
43.4525795
0
LINE
8
DEFAULT_255_2_778
10
4.5455688
20
43.4525795
11
5.0456688
21
43.4525795
0
LINE
8
DEFAULT_255_2_778
10
7.5856688
20
47.2326795
11
7.5856688
21
45.9925795
0
LINE
8
DEFAULT_255_2_778
10
7.5856688
20
45.9925795
11
7.0855688
21
45.9925795
0
LINE
8
DEFAULT_255_2_778
10
7.0855688
20
45.9925795
11
7.0855688
21
47.2326795
0
LINE
8
DEFAULT_255_2_778
10
7.0855688
20
47.2326795
11
7.5856688
21
47.2326795
0
LINE
8
DEFAULT_255_2_778
10
5.0456688
20
45.9925795
11
5.0456688
21
47.2326795
0
LINE
8
DEFAULT_255_2_778
10
5.0456688
20
47.2326795
11
4.5455688
21
47.2326795
0
LINE
8
DEFAULT_255_2_778
10
4.5455688
20
47.2326795
11
4.5455688
21
45.9925795
0
LINE
8
DEFAULT_255_2_778
10
4.5455688
20
45.9925795
11
5.0456688
21
45.9925795
0
LINE
8
DEFAULT_255_2_778
10
7.5856688
20
49.7726795
11
7.5856688
21
48.5325795
0
LINE
8
DEFAULT_255_2_778
10
7.5856688
20
48.5325795
11
7.0855688
21
48.5325795
0
LINE
8
DEFAULT_255_2_778
10
7.0855688
20
48.5325795
11
7.0855688
21
49.7726795
0
LINE
8
DEFAULT_255_2_778
10
7.0855688
20
49.7726795
11
7.5856688
21
49.7726795
0
LINE
8
DEFAULT_255_2_778
10
5.0456688
20
48.5325795
11
5.0456688
21
49.7726795
0
LINE
8
DEFAULT_255_2_778
10
5.0456688
20
49.7726795
11
4.5455688
21
49.7726795
0
LINE
8
DEFAULT_255_2_778
10
4.5455688
20
49.7726795
11
4.5455688
21
48.5325795
0
LINE
8
DEFAULT_255_2_778
10
4.5455688
20
48.5325795
11
5.0456688
21
48.5325795
0
LINE
8
DEFAULT_255_2_778
10
7.5856688
20
52.3126795
11
7.5856688
21
51.0725795
0
LINE
8
DEFAULT_255_2_778
10
7.5856688
20
51.0725795
11
7.0855688
21
51.0725795
0
LINE
8
DEFAULT_255_2_778
10
7.0855688
20
51.0725795
11
7.0855688
21
52.3126795
0
LINE
8
DEFAULT_255_2_778
10
7.0855688
20
52.3126795
11
7.5856688
21
52.3126795
0
LINE
8
DEFAULT_255_2_778
10
5.0456688
20
51.0725795
11
5.0456688
21
52.3126795
0
LINE
8
DEFAULT_255_2_778
10
5.0456688
20
52.3126795
11
4.5455688
21
52.3126795
0
LINE
8
DEFAULT_255_2_778
10
4.5455688
20
52.3126795
11
4.5455688
21
51.0725795
0
LINE
8
DEFAULT_255_2_778
10
4.5455688
20
51.0725795
11
5.0456688
21
51.0725795
0
LINE
8
DEFAULT_255_2_778
10
7.5856688
20
34.5324795
11
7.5856688
21
33.2923795
0
LINE
8
DEFAULT_255_2_778
10
7.5856688
20
33.2923795
11
7.0855688
21
33.2923795
0
LINE
8
DEFAULT_255_2_778
10
7.0855688
20
33.2923795
11
7.0855688
21
34.5324795
0
LINE
8
DEFAULT_255_2_778
10
7.0855688
20
34.5324795
11
7.5856688
21
34.5324795
0
LINE
8
DEFAULT_255_2_778
10
5.0456688
20
33.2923795
11
5.0456688
21
34.5324795
0
LINE
8
DEFAULT_255_2_778
10
5.0456688
20
34.5324795
11
4.5455688
21
34.5324795
0
LINE
8
DEFAULT_255_2_778
10
4.5455688
20
34.5324795
11
4.5455688
21
33.2923795
0
LINE
8
DEFAULT_255_2_778
10
4.5455688
20
33.2923795
11
5.0456688
21
33.2923795
0
LINE
8
DEFAULT_255_2_778
10
7.5856688
20
37.0724795
11
7.5856688
21
35.8323795
0
LINE
8
DEFAULT_255_2_778
10
7.5856688
20
35.8323795
11
7.0855688
21
35.8323795
0
LINE
8
DEFAULT_255_2_778
10
7.0855688
20
35.8323795
11
7.0855688
21
37.0724795
0
LINE
8
DEFAULT_255_2_778
10
7.0855688
20
37.0724795
11
7.5856688
21
37.0724795
0
LINE
8
DEFAULT_255_2_778
10
5.0456688
20
35.8323795
11
5.0456688
21
37.0724795
0
LINE
8
DEFAULT_255_2_778
10
5.0456688
20
37.0724795
11
4.5455688
21
37.0724795
0
LINE
8
DEFAULT_255_2_778
10
4.5455688
20
37.0724795
11
4.5455688
21
35.8323795
0
LINE
8
DEFAULT_255_2_778
10
4.5455688
20
35.8323795
11
5.0456688
21
35.8323795
0
LINE
8
DEFAULT_255_2_778
10
7.5856688
20
39.6124795
11
7.5856688
21
38.3723795
0
LINE
8
DEFAULT_255_2_778
10
7.5856688
20
38.3723795
11
7.0855688
21
38.3723795
0
LINE
8
DEFAULT_255_2_778
10
7.0855688
20
38.3723795
11
7.0855688
21
39.6124795
0
LINE
8
DEFAULT_255_2_778
10
7.0855688
20
39.6124795
11
7.5856688
21
39.6124795
0
LINE
8
DEFAULT_255_2_778
10
5.0456688
20
38.3723795
11
5.0456688
21
39.6124795
0
LINE
8
DEFAULT_255_2_778
10
5.0456688
20
39.6124795
11
4.5455688
21
39.6124795
0
LINE
8
DEFAULT_255_2_778
10
4.5455688
20
39.6124795
11
4.5455688
21
38.3723795
0
LINE
8
DEFAULT_255_2_778
10
4.5455688
20
38.3723795
11
5.0456688
21
38.3723795
0
LINE
8
DEFAULT_255_2_778
10
7.5856688
20
42.1524795
11
7.5856688
21
40.9123795
0
LINE
8
DEFAULT_255_2_778
10
7.5856688
20
40.9123795
11
7.0855688
21
40.9123795
0
LINE
8
DEFAULT_255_2_778
10
7.0855688
20
40.9123795
11
7.0855688
21
42.1524795
0
LINE
8
DEFAULT_255_2_778
10
7.0855688
20
42.1524795
11
7.5856688
21
42.1524795
0
LINE
8
DEFAULT_255_2_778
10
5.0456688
20
40.9123795
11
5.0456688
21
42.1524795
0
LINE
8
DEFAULT_255_2_778
10
5.0456688
20
42.1524795
11
4.5455688
21
42.1524795
0
LINE
8
DEFAULT_255_2_778
10
4.5455688
20
42.1524795
11
4.5455688
21
40.9123795
0
LINE
8
DEFAULT_255_2_778
10
4.5455688
20
40.9123795
11
5.0456688
21
40.9123795
0
LINE
8
DEFAULT_255_2_778
10
7.5856688
20
24.3721795
11
7.5856688
21
23.1320795
0
LINE
8
DEFAULT_255_2_778
10
7.5856688
20
23.1320795
11
7.0855688
21
23.1320795
0
LINE
8
DEFAULT_255_2_778
10
7.0855688
20
23.1320795
11
7.0855688
21
24.3721795
0
LINE
8
DEFAULT_255_2_778
10
7.0855688
20
24.3721795
11
7.5856688
21
24.3721795
0
LINE
8
DEFAULT_255_2_778
10
5.0456688
20
23.1320795
11
5.0456688
21
24.3721795
0
LINE
8
DEFAULT_255_2_778
10
5.0456688
20
24.3721795
11
4.5455688
21
24.3721795
0
LINE
8
DEFAULT_255_2_778
10
4.5455688
20
24.3721795
11
4.5455688
21
23.1320795
0
LINE
8
DEFAULT_255_2_778
10
4.5455688
20
23.1320795
11
5.0456688
21
23.1320795
0
LINE
8
DEFAULT_255_2_778
10
7.5856688
20
26.9121795
11
7.5856688
21
25.6720795
0
LINE
8
DEFAULT_255_2_778
10
7.5856688
20
25.6720795
11
7.0855688
21
25.6720795
0
LINE
8
DEFAULT_255_2_778
10
7.0855688
20
25.6720795
11
7.0855688
21
26.9121795
0
LINE
8
DEFAULT_255_2_778
10
7.0855688
20
26.9121795
11
7.5856688
21
26.9121795
0
LINE
8
DEFAULT_255_2_778
10
5.0456688
20
25.6720795
11
5.0456688
21
26.9121795
0
LINE
8
DEFAULT_255_2_778
10
5.0456688
20
26.9121795
11
4.5455688
21
26.9121795
0
LINE
8
DEFAULT_255_2_778
10
4.5455688
20
26.9121795
11
4.5455688
21
25.6720795
0
LINE
8
DEFAULT_255_2_778
10
4.5455688
20
25.6720795
11
5.0456688
21
25.6720795
0
LINE
8
DEFAULT_255_2_778
10
7.5856688
20
29.4521795
11
7.5856688
21
28.2120795
0
LINE
8
DEFAULT_255_2_778
10
7.5856688
20
28.2120795
11
7.0855688
21
28.2120795
0
LINE
8
DEFAULT_255_2_778
10
7.0855688
20
28.2120795
11
7.0855688
21
29.4521795
0
LINE
8
DEFAULT_255_2_778
10
7.0855688
20
29.4521795
11
7.5856688
21
29.4521795
0
LINE
8
DEFAULT_255_2_778
10
5.0456688
20
28.2120795
11
5.0456688
21
29.4521795
0
LINE
8
DEFAULT_255_2_778
10
5.0456688
20
29.4521795
11
4.5455688
21
29.4521795
0
LINE
8
DEFAULT_255_2_778
10
4.5455688
20
29.4521795
11
4.5455688
21
28.2120795
0
LINE
8
DEFAULT_255_2_778
10
4.5455688
20
28.2120795
11
5.0456688
21
28.2120795
0
LINE
8
DEFAULT_255_2_778
10
7.5856688
20
31.9921795
11
7.5856688
21
30.7520795
0
LINE
8
DEFAULT_255_2_778
10
7.5856688
20
30.7520795
11
7.0855688
21
30.7520795
0
LINE
8
DEFAULT_255_2_778
10
7.0855688
20
30.7520795
11
7.0855688
21
31.9921795
0
LINE
8
DEFAULT_255_2_778
10
7.0855688
20
31.9921795
11
7.5856688
21
31.9921795
0
LINE
8
DEFAULT_255_2_778
10
5.0456688
20
30.7520795
11
5.0456688
21
31.9921795
0
LINE
8
DEFAULT_255_2_778
10
5.0456688
20
31.9921795
11
4.5455688
21
31.9921795
0
LINE
8
DEFAULT_255_2_778
10
4.5455688
20
31.9921795
11
4.5455688
21
30.7520795
0
LINE
8
DEFAULT_255_2_778
10
4.5455688
20
30.7520795
11
5.0456688
21
30.7520795
0
LINE
8
DEFAULT_255_2_778
10
7.5856688
20
14.2118795
11
7.5856688
21
12.9717795
0
LINE
8
DEFAULT_255_2_778
10
7.5856688
20
12.9717795
11
7.0855688
21
12.9717795
0
LINE
8
DEFAULT_255_2_778
10
7.0855688
20
12.9717795
11
7.0855688
21
14.2118795
0
LINE
8
DEFAULT_255_2_778
10
7.0855688
20
14.2118795
11
7.5856688
21
14.2118795
0
LINE
8
DEFAULT_255_2_778
10
5.0456688
20
12.9717795
11
5.0456688
21
14.2118795
0
LINE
8
DEFAULT_255_2_778
10
5.0456688
20
14.2118795
11
4.5455688
21
14.2118795
0
LINE
8
DEFAULT_255_2_778
10
4.5455688
20
14.2118795
11
4.5455688
21
12.9717795
0
LINE
8
DEFAULT_255_2_778
10
4.5455688
20
12.9717795
11
5.0456688
21
12.9717795
0
LINE
8
DEFAULT_255_2_778
10
7.5856688
20
16.7518795
11
7.5856688
21
15.5117795
0
LINE
8
DEFAULT_255_2_778
10
7.5856688
20
15.5117795
11
7.0855688
21
15.5117795
0
LINE
8
DEFAULT_255_2_778
10
7.0855688
20
15.5117795
11
7.0855688
21
16.7518795
0
LINE
8
DEFAULT_255_2_778
10
7.0855688
20
16.7518795
11
7.5856688
21
16.7518795
0
LINE
8
DEFAULT_255_2_778
10
5.0456688
20
15.5117795
11
5.0456688
21
16.7518795
0
LINE
8
DEFAULT_255_2_778
10
5.0456688
20
16.7518795
11
4.5455688
21
16.7518795
0
LINE
8
DEFAULT_255_2_778
10
4.5455688
20
16.7518795
11
4.5455688
21
15.5117795
0
LINE
8
DEFAULT_255_2_778
10
4.5455688
20
15.5117795
11
5.0456688
21
15.5117795
0
LINE
8
DEFAULT_255_2_778
10
7.5856688
20
19.2918795
11
7.5856688
21
18.0517795
0
LINE
8
DEFAULT_255_2_778
10
7.5856688
20
18.0517795
11
7.0855688
21
18.0517795
0
LINE
8
DEFAULT_255_2_778
10
7.0855688
20
18.0517795
11
7.0855688
21
19.2918795
0
LINE
8
DEFAULT_255_2_778
10
7.0855688
20
19.2918795
11
7.5856688
21
19.2918795
0
LINE
8
DEFAULT_255_2_778
10
5.0456688
20
18.0517795
11
5.0456688
21
19.2918795
0
LINE
8
DEFAULT_255_2_778
10
5.0456688
20
19.2918795
11
4.5455688
21
19.2918795
0
LINE
8
DEFAULT_255_2_778
10
4.5455688
20
19.2918795
11
4.5455688
21
18.0517795
0
LINE
8
DEFAULT_255_2_778
10
4.5455688
20
18.0517795
11
5.0456688
21
18.0517795
0
LINE
8
DEFAULT_255_2_778
10
7.5856688
20
21.8318795
11
7.5856688
21
20.5917795
0
LINE
8
DEFAULT_255_2_778
10
7.5856688
20
20.5917795
11
7.0855688
21
20.5917795
0
LINE
8
DEFAULT_255_2_778
10
7.0855688
20
20.5917795
11
7.0855688
21
21.8318795
0
LINE
8
DEFAULT_255_2_778
10
7.0855688
20
21.8318795
11
7.5856688
21
21.8318795
0
LINE
8
DEFAULT_255_2_778
10
5.0456688
20
20.5917795
11
5.0456688
21
21.8318795
0
LINE
8
DEFAULT_255_2_778
10
5.0456688
20
21.8318795
11
4.5455688
21
21.8318795
0
LINE
8
DEFAULT_255_2_778
10
4.5455688
20
21.8318795
11
4.5455688
21
20.5917795
0
LINE
8
DEFAULT_255_2_778
10
4.5455688
20
20.5917795
11
5.0456688
21
20.5917795
0
ENDSEC
0
EOF