0
SECTION
2
HEADER
9
$MEASUREMENT
70
1
0
ENDSEC
0
SECTION
2
TABLES
0
TABLE
2
LTYPE
0
LTYPE
72
65
70
64
2
CONTINUOUS
3
______
73
0
40
0
0
ENDTAB
0
TABLE
2
LAYER
0
LAYER
2
DEFAULT_255_2_778
70
0
62
255
6
CONTINUOUS
0
ENDTAB
0
ENDSEC
0
SECTION
2
ENTITIES
0
ARC
8
DEFAULT_255_2_778
10
90.0580637
20
97.5725673
40
0.7001699
50
0.0057163
51
89.9942837
0
ARC
8
DEFAULT_255_2_778
10
5.3584799
20
97.7726416
40
0.5000956
50
90.0053149
51
135.0041129
0
ARC
8
DEFAULT_255_2_778
10
5.358081
20
97.772735
40
0.4997474
50
134.9793514
51
180.0112208
0
ARC
8
DEFAULT_255_2_778
10
0.7587254
20
90.5724316
40
0.5002056
50
90.0334266
51
135.0150873
0
ARC
8
DEFAULT_255_2_778
10
0.757843
20
90.5725338
40
0.4995095
50
134.9518221
51
179.9651965
0
LINE
8
DEFAULT_255_2_778
10
86.5582336
20
83.2727372
11
90.7582336
21
83.2727372
0
LINE
8
DEFAULT_255_2_778
10
90.7582336
20
83.2727372
11
90.7582336
21
97.5726372
0
LINE
8
DEFAULT_255_2_778
10
90.0581336
20
98.2727372
11
5.3584336
21
98.2727372
0
LINE
8
DEFAULT_255_2_778
10
4.8583336
20
97.7726372
11
4.8583336
21
91.0726372
0
LINE
8
DEFAULT_255_2_778
10
4.8583336
20
91.0726372
11
0.7584336
21
91.0726372
0
LINE
8
DEFAULT_255_2_778
10
0.2583336
20
90.5728372
11
0.2583336
21
41.3529372
0
LINE
8
DEFAULT_255_2_778
10
0.2583336
20
41.3529372
11
1.7582336
21
40.4869372
0
LINE
8
DEFAULT_255_2_778
10
1.7582336
20
40.4869372
11
1.7582336
21
31.9869372
0
LINE
8
DEFAULT_255_2_778
10
1.7582336
20
31.9869372
11
0.2583336
21
31.1207372
0
LINE
8
DEFAULT_255_2_778
10
0.2583336
20
31.1207372
11
0.2583336
21
3.7368372
0
LINE
8
DEFAULT_255_2_778
10
0.2583336
20
3.7368372
11
2.2583336
21
-0.2271628
0
LINE
8
DEFAULT_255_2_778
10
2.2583336
20
-0.2271628
11
3.7582336
21
-0.2271628
0
LINE
8
DEFAULT_255_2_778
10
3.7582336
20
-0.2271628
11
3.7582336
21
2.2729372
0
LINE
8
DEFAULT_255_2_778
10
0.997097
20
2.2726927
11
7.258497
21
2.2726927
0
LINE
8
DEFAULT_255_2_778
10
7.258497
20
2.2726927
11
8.413097
21
0.2726927
0
LINE
8
DEFAULT_255_2_778
10
63.7438091
20
98.2727405
11
17.4584091
21
91.2726405
0
LINE
8
DEFAULT_255_2_778
10
17.4584091
20
91.2726405
11
11.3584091
21
91.2726405
0
LINE
8
DEFAULT_255_2_778
10
11.3584091
20
91.2726405
11
11.3584091
21
98.2727405
0
LINE
8
DEFAULT_255_2_778
10
57.2583
20
98.2727382
11
57.2583
21
0.2726382
0
LINE
8
DEFAULT_255_2_778
10
1.7537584
20
0.7727
11
3.7582584
21
0.7727
0
ARC
8
DEFAULT_255_2_778
10
90.0581465
20
0.9726189
40
0.7001484
50
270.0039567
51
359.9878547
0
LINE
8
DEFAULT_255_2_778
10
86.5582949
20
98.2727705
11
86.5582949
21
82.7726705
0
LINE
8
DEFAULT_255_2_778
10
86.5582949
20
82.7726705
11
90.7582949
21
82.7726705
0
LINE
8
DEFAULT_255_2_778
10
90.7582949
20
82.7726705
11
90.7582949
21
74.4726705
0
LINE
8
DEFAULT_255_2_778
10
90.7582949
20
74.4726705
11
90.2981949
21
74.4726705
0
LINE
8
DEFAULT_255_2_778
10
90.2981949
20
74.4726705
11
90.2981949
21
1.9726705
0
LINE
8
DEFAULT_255_2_778
10
90.2981949
20
1.9726705
11
90.7582949
21
1.9726705
0
LINE
8
DEFAULT_255_2_778
10
90.7582949
20
1.9726705
11
90.7582949
21
0.9724705
0
LINE
8
DEFAULT_255_2_778
10
90.0581949
20
0.2724705
11
8.4130949
21
0.2724705
0
LINE
8
DEFAULT_255_2_778
10
57.2584073
20
84.2728707
11
55.2584073
21
84.2728707
0
LINE
8
DEFAULT_255_2_778
10
55.2584073
20
84.2728707
11
55.2584073
21
92.2727707
0
LINE
8
DEFAULT_255_2_778
10
55.2584073
20
92.2727707
11
57.2584073
21
92.2727707
0
LINE
8
DEFAULT_255_2_778
10
57.2584073
20
9.2727707
11
55.2584073
21
9.2727707
0
LINE
8
DEFAULT_255_2_778
10
55.2584073
20
9.2727707
11
55.2584073
21
17.2726707
0
LINE
8
DEFAULT_255_2_778
10
55.2584073
20
17.2726707
11
57.2584073
21
17.2726707
0
ARC
8
DEFAULT_255_2_778
10
87.2583668
20
51.2726668
40
0.5000116
50
270.0013268
51
0.0101312
0
ARC
8
DEFAULT_255_2_778
10
87.2583668
20
53.2727436
40
0.5000116
50
359.9898688
51
89.9986732
0
ARC
8
DEFAULT_255_2_778
10
67.2582753
20
53.2726582
40
0.5000969
50
89.9996485
51
180.0003515
0
ARC
8
DEFAULT_255_2_778
10
67.2582753
20
51.2727521
40
0.5000969
50
179.9996485
51
270.0003515
0
LINE
8
DEFAULT_255_2_778
10
87.7583784
20
51.2727552
11
87.7583784
21
53.2726552
0
LINE
8
DEFAULT_255_2_778
10
87.2583784
20
53.7727552
11
67.2582784
21
53.7727552
0
LINE
8
DEFAULT_255_2_778
10
66.7581784
20
53.2726552
11
66.7581784
21
51.2727552
0
LINE
8
DEFAULT_255_2_778
10
67.2582784
20
50.7726552
11
87.2583784
21
50.7726552
0
ARC
8
DEFAULT_255_2_778
10
87.2583668
20
47.2726668
40
0.5000116
50
270.0013268
51
0.0101312
0
ARC
8
DEFAULT_255_2_778
10
87.2583668
20
49.2727436
40
0.5000116
50
359.9898688
51
89.9986732
0
ARC
8
DEFAULT_255_2_778
10
67.2582753
20
49.2726582
40
0.5000969
50
89.9996485
51
180.0003515
0
ARC
8
DEFAULT_255_2_778
10
67.2582753
20
47.2727521
40
0.5000969
50
179.9996485
51
270.0003515
0
LINE
8
DEFAULT_255_2_778
10
87.7583784
20
47.2727552
11
87.7583784
21
49.2726552
0
LINE
8
DEFAULT_255_2_778
10
87.2583784
20
49.7727552
11
67.2582784
21
49.7727552
0
LINE
8
DEFAULT_255_2_778
10
66.7581784
20
49.2726552
11
66.7581784
21
47.2727552
0
LINE
8
DEFAULT_255_2_778
10
67.2582784
20
46.7726552
11
87.2583784
21
46.7726552
0
LINE
8
DEFAULT_255_2_778
10
60.8084761
20
85.0227093
11
60.8084761
21
91.5227093
0
LINE
8
DEFAULT_255_2_778
10
63.2084761
20
91.5227093
11
60.7084761
21
91.5227093
0
LINE
8
DEFAULT_255_2_778
10
60.7084761
20
91.5227093
11
60.7084761
21
85.0227093
0
LINE
8
DEFAULT_255_2_778
10
60.7084761
20
85.0227093
11
63.2084761
21
85.0227093
0
LINE
8
DEFAULT_255_2_778
10
63.2084761
20
85.0227093
11
63.2084761
21
91.5227093
0
LINE
8
DEFAULT_255_2_778
10
61.2585761
20
91.2727093
11
61.2585761
21
85.2727093
0
LINE
8
DEFAULT_255_2_778
10
60.8084761
20
91.2727093
11
63.2063761
21
91.2727093
0
LINE
8
DEFAULT_255_2_778
10
63.2063761
20
91.2727093
11
63.2063761
21
90.2728093
0
LINE
8
DEFAULT_255_2_778
10
63.2063761
20
90.2728093
11
61.8085761
21
90.2728093
0
LINE
8
DEFAULT_255_2_778
10
61.8085761
20
90.2728093
11
61.8085761
21
88.7729093
0
LINE
8
DEFAULT_255_2_778
10
61.8085761
20
88.7729093
11
63.2063761
21
88.7729093
0
LINE
8
DEFAULT_255_2_778
10
63.2063761
20
88.7729093
11
63.2063761
21
87.7730093
0
LINE
8
DEFAULT_255_2_778
10
63.2063761
20
87.7730093
11
61.8085761
21
87.7730093
0
LINE
8
DEFAULT_255_2_778
10
61.8085761
20
87.7730093
11
61.8085761
21
86.2731093
0
LINE
8
DEFAULT_255_2_778
10
61.8085761
20
86.2731093
11
63.2063761
21
86.2731093
0
LINE
8
DEFAULT_255_2_778
10
63.2063761
20
86.2731093
11
63.2063761
21
85.2730093
0
LINE
8
DEFAULT_255_2_778
10
63.2063761
20
85.2730093
11
60.8084761
21
85.2730093
0
LINE
8
DEFAULT_255_2_778
10
60.8084761
20
16.5226093
11
60.8084761
21
10.0226093
0
LINE
8
DEFAULT_255_2_778
10
63.2084761
20
16.5226093
11
60.7084761
21
16.5226093
0
LINE
8
DEFAULT_255_2_778
10
60.7084761
20
16.5226093
11
60.7084761
21
10.0226093
0
LINE
8
DEFAULT_255_2_778
10
60.7084761
20
10.0226093
11
63.2084761
21
10.0226093
0
LINE
8
DEFAULT_255_2_778
10
63.2084761
20
10.0226093
11
63.2084761
21
16.5226093
0
LINE
8
DEFAULT_255_2_778
10
61.2585761
20
16.2726093
11
61.2585761
21
10.2726093
0
LINE
8
DEFAULT_255_2_778
10
60.8084761
20
10.2726093
11
63.2063761
21
10.2726093
0
LINE
8
DEFAULT_255_2_778
10
63.2063761
20
10.2726093
11
63.2063761
21
11.2727093
0
LINE
8
DEFAULT_255_2_778
10
63.2063761
20
11.2727093
11
61.8085761
21
11.2727093
0
LINE
8
DEFAULT_255_2_778
10
61.8085761
20
11.2727093
11
61.8085761
21
12.7727093
0
LINE
8
DEFAULT_255_2_778
10
61.8085761
20
12.7727093
11
63.2063761
21
12.7727093
0
LINE
8
DEFAULT_255_2_778
10
63.2063761
20
12.7727093
11
63.2063761
21
13.7725093
0
LINE
8
DEFAULT_255_2_778
10
63.2063761
20
13.7725093
11
61.8085761
21
13.7725093
0
LINE
8
DEFAULT_255_2_778
10
61.8085761
20
13.7725093
11
61.8085761
21
15.2724093
0
LINE
8
DEFAULT_255_2_778
10
61.8085761
20
15.2724093
11
63.2063761
21
15.2724093
0
LINE
8
DEFAULT_255_2_778
10
63.2063761
20
15.2724093
11
63.2063761
21
16.2723093
0
LINE
8
DEFAULT_255_2_778
10
63.2063761
20
16.2723093
11
60.8084761
21
16.2723093
0
ENDSEC
0
EOF