0
SECTION
2
HEADER
9
$MEASUREMENT
70
1
0
ENDSEC
0
SECTION
2
TABLES
0
TABLE
2
LTYPE
0
LTYPE
72
65
70
64
2
CONTINUOUS
3
______
73
0
40
0
0
ENDTAB
0
TABLE
2
LAYER
0
LAYER
2
DEFAULT_255_2_778
70
0
62
255
6
CONTINUOUS
0
LAYER
2
DEFAULT_255_1_234
70
0
62
255
6
CONTINUOUS
0
ENDTAB
0
ENDSEC
0
SECTION
2
ENTITIES
0
ARC
8
DEFAULT_255_2_778
10
3.5700693
20
20.2426538
40
0.7914215
50
129.1312896
51
180.1450914
0
ARC
8
DEFAULT_255_2_778
10
3.5703345
20
20.2431409
40
0.7912112
50
89.854026
51
129.1684493
0
ARC
8
DEFAULT_255_2_778
10
25.7993937
20
20.2428275
40
0.7915249
50
39.4792447
51
90.147911
0
ARC
8
DEFAULT_255_2_778
10
25.7999935
20
20.2426741
40
0.7911595
50
359.8533901
51
39.5154338
0
ARC
8
DEFAULT_255_2_778
10
25.7996693
20
-1.9863985
40
0.7914836
50
309.4761667
51
0.1482649
0
ARC
8
DEFAULT_255_2_778
10
25.799398
20
-1.9868295
40
0.7913235
50
269.8517415
51
309.511178
0
ARC
8
DEFAULT_255_2_778
10
3.570342
20
-1.9867714
40
0.7913815
50
219.1282118
51
270.1454017
0
ARC
8
DEFAULT_255_2_778
10
3.5700247
20
-1.9863889
40
0.7913769
50
179.8524075
51
219.1641908
0
LINE
8
DEFAULT_255_2_778
10
3.5723503
20
21.0343497
11
25.7973503
21
21.0343497
0
LINE
8
DEFAULT_255_2_778
10
26.5911503
20
20.2406497
11
26.5911503
21
-1.9843503
0
LINE
8
DEFAULT_255_2_778
10
25.7973503
20
-2.7781503
11
3.5723503
21
-2.7781503
0
LINE
8
DEFAULT_255_2_778
10
2.7786503
20
-1.9843503
11
2.7786503
21
20.2406497
0
LINE
8
DEFAULT_255_1_234
10
11.5691657
20
-0.0296435
11
11.5691657
21
-0.1043386
0
LINE
8
DEFAULT_255_1_234
10
11.3643563
20
-0.5878493
11
11.5731815
21
-0.7516967
0
LINE
8
DEFAULT_255_1_234
10
11.5731815
20
-0.7516967
11
11.4679658
21
-0.8488808
0
LINE
8
DEFAULT_255_1_234
10
11.4679658
20
-0.8488808
11
11.2213914
21
-0.6529063
0
LINE
8
DEFAULT_255_1_234
10
10.6278459
20
-0.1147799
11
10.6278459
21
-0.0304466
0
LINE
8
DEFAULT_255_1_234
10
11.4149563
20
-0.1155831
11
11.4149563
21
-0.0288403
0
LINE
8
DEFAULT_255_1_234
10
10.7820553
20
-0.018399
11
10.7820553
21
-0.1043386
0
ARC
8
DEFAULT_255_1_234
10
10.6737909
20
-0.1082293
40
0.8953833
50
351.453011
51
0.2489685
0
ARC
8
DEFAULT_255_1_234
10
10.9322709
20
-0.1482067
40
0.6338333
50
338.6861641
51
351.5540711
0
ARC
8
DEFAULT_255_1_234
10
11.0256593
20
-0.1812172
40
0.5348431
50
336.2887631
51
338.3442418
0
ARC
8
DEFAULT_255_1_234
10
11.0596215
20
-0.1998302
40
0.4962747
50
321.1170344
51
336.6795229
0
ARC
8
DEFAULT_255_1_234
10
11.1228044
20
-0.2484794
40
0.4165565
50
305.4419708
51
320.8705636
0
ARC
8
DEFAULT_255_1_234
10
11.1031514
20
-0.1737293
40
0.4935497
50
271.6373023
51
283.8611969
0
ARC
8
DEFAULT_255_1_234
10
11.0993767
20
-0.1081428
40
0.5592206
50
269.9930596
51
271.8318864
0
ARC
8
DEFAULT_255_1_234
10
11.095621
20
-0.1889319
40
0.4784458
50
252.5219675
51
270.4416499
0
ARC
8
DEFAULT_255_1_234
10
11.0812469
20
-0.2428408
40
0.422716
50
237.5352116
51
252.1857531
0
ARC
8
DEFAULT_255_1_234
10
11.0901665
20
-0.2314637
40
0.4371052
50
209.063312
51
237.3492538
0
ARC
8
DEFAULT_255_1_234
10
11.1771513
20
-0.1768315
40
0.5397041
50
205.1183774
51
209.6470015
0
ARC
8
DEFAULT_255_1_234
10
11.256855
20
-0.143017
40
0.6262326
50
188.7215458
51
204.8240747
0
ARC
8
DEFAULT_255_1_234
10
11.4566078
20
-0.1093933
40
0.8287794
50
180.3723947
51
188.9252049
0
ARC
8
DEFAULT_255_1_234
10
11.453883
20
-0.0264598
40
0.8260467
50
169.5253763
51
180.2765336
0
ARC
8
DEFAULT_255_1_234
10
11.2636279
20
0.0085309
40
0.6326007
50
155.8315255
51
169.5089989
0
ARC
8
DEFAULT_255_1_234
10
11.135578
20
0.0679348
40
0.4914567
50
139.6258461
51
156.0379525
0
ARC
8
DEFAULT_255_1_234
10
11.0766113
20
0.1153799
40
0.4158054
50
122.6416387
51
139.3430715
0
ARC
8
DEFAULT_255_1_234
10
11.0866733
20
0.0970451
40
0.4366739
50
93.0223692
51
122.455762
0
ARC
8
DEFAULT_255_1_234
10
11.097473
20
0.0005709
40
0.5336137
50
89.975342
51
93.6341897
0
ARC
8
DEFAULT_255_1_234
10
11.1013616
20
0.0385375
40
0.4956606
50
73.9665422
51
90.4229648
0
ARC
8
DEFAULT_255_1_234
10
11.1197263
20
0.1100451
40
0.4218674
50
57.5178019
51
73.6813337
0
ARC
8
DEFAULT_255_1_234
10
11.1153046
20
0.1064462
40
0.4272816
50
28.7261108
51
57.2767933
0
ARC
8
DEFAULT_255_1_234
10
11.0242378
20
0.0501688
40
0.534218
50
24.2448911
51
29.3248482
0
ARC
8
DEFAULT_255_1_234
10
10.9316479
20
0.0118819
40
0.6343711
50
9.064382
51
23.9639114
0
ARC
8
DEFAULT_255_1_234
10
10.7060807
20
-0.0260075
40
0.8630926
50
359.7586264
51
9.1891435
0
ARC
8
DEFAULT_255_1_234
10
10.5806287
20
-0.0246657
40
0.834338
50
359.7133237
51
7.96545
0
ARC
8
DEFAULT_255_1_234
10
10.8768504
20
0.0180681
40
0.5350538
50
7.8291991
51
20.0421623
0
ARC
8
DEFAULT_255_1_234
10
11.0393067
20
0.0771606
40
0.3621841
50
20.0677553
51
35.9161685
0
ARC
8
DEFAULT_255_1_234
10
11.1168105
20
0.134767
40
0.2656263
50
35.6594382
51
85.1578074
0
ARC
8
DEFAULT_255_1_234
10
11.0983361
20
0.0232378
40
0.3784238
50
83.7959068
51
90.095906
0
ARC
8
DEFAULT_255_1_234
10
11.0940295
20
0.0965601
40
0.3051229
50
89.3102392
51
109.9889877
0
ARC
8
DEFAULT_255_1_234
10
11.0857778
20
0.1321433
40
0.2688988
50
110.9285147
51
143.9411762
0
ARC
8
DEFAULT_255_1_234
10
11.1788724
20
0.0609236
40
0.3860887
50
143.5289163
51
163.2980757
0
ARC
8
DEFAULT_255_1_234
10
11.3696545
20
0.0009433
40
0.5860659
50
163.0418846
51
174.3140048
0
ARC
8
DEFAULT_255_1_234
10
11.6100657
20
-0.0268146
40
0.8280531
50
174.0509143
51
179.4176892
0
ARC
8
DEFAULT_255_1_234
10
11.5586992
20
-0.1086366
40
0.7766558
50
179.6829237
51
188.9631324
0
ARC
8
DEFAULT_255_1_234
10
11.2916553
20
-0.1521248
40
0.5060992
50
188.8100743
51
202.9300012
0
ARC
8
DEFAULT_255_1_234
10
11.1700182
20
-0.2016145
40
0.3747967
50
203.2069261
51
215.7876482
0
ARC
8
DEFAULT_255_1_234
10
11.0851579
20
-0.2687329
40
0.2667526
50
214.7521006
51
264.2834488
0
ARC
8
DEFAULT_255_1_234
10
11.0987234
20
-0.183222
40
0.3532247
50
263.4755397
51
270.0949833
0
ARC
8
DEFAULT_255_1_234
10
11.1029345
20
-0.2093626
40
0.3271036
50
269.3649385
51
287.5152008
0
ARC
8
DEFAULT_255_1_234
10
11.1207503
20
-0.2740762
40
0.2600406
50
288.0630309
51
323.8113348
0
ARC
8
DEFAULT_255_1_234
10
11.0336345
20
-0.2090951
40
0.3687189
50
323.6547608
51
342.6590488
0
ARC
8
DEFAULT_255_1_234
10
10.830496
20
-0.1430048
40
0.5823286
50
342.4091907
51
353.6451149
0
ARC
8
DEFAULT_255_1_234
10
10.5473471
20
-0.107781
40
0.8676442
50
353.4029884
51
359.4847795
0
LINE
8
DEFAULT_255_1_234
10
12.1305842
20
-0.6513
11
11.8069051
21
-0.6513
0
LINE
8
DEFAULT_255_1_234
10
11.8069051
20
-0.6513
11
11.8069051
21
0.5181211
0
LINE
8
DEFAULT_255_1_234
10
11.8069051
20
0.5181211
11
12.1370096
21
0.5181211
0
LINE
8
DEFAULT_255_1_234
10
12.6526472
20
-0.0272339
11
12.6526472
21
-0.1019291
0
LINE
8
DEFAULT_255_1_234
10
12.1410254
20
0.3912196
11
11.9611145
21
0.3912196
0
LINE
8
DEFAULT_255_1_234
10
11.9611145
20
0.3912196
11
11.9611145
21
-0.5252017
0
LINE
8
DEFAULT_255_1_234
10
11.9611145
20
-0.5252017
11
12.1233556
21
-0.5252017
0
LINE
8
DEFAULT_255_1_234
10
12.5000441
20
-0.0987164
11
12.5000441
21
-0.0304466
0
ARC
8
DEFAULT_255_1_234
10
12.1409038
20
-0.0684106
40
0.5865446
50
75.4101064
51
90.3804066
0
ARC
8
DEFAULT_255_1_234
10
12.1638552
20
0.0272492
40
0.4881916
50
60.145586
51
75.1888407
0
ARC
8
DEFAULT_255_1_234
10
12.1797327
20
0.0549199
40
0.4562893
50
26.5253612
51
60.1450928
0
ARC
8
DEFAULT_255_1_234
10
12.0677076
20
-0.0044842
40
0.5830602
50
7.4030428
51
26.8320788
0
ARC
8
DEFAULT_255_1_234
10
11.9082833
20
-0.0293196
40
0.7443669
50
0.1605367
51
7.7176192
0
ARC
8
DEFAULT_255_1_234
10
11.9246738
20
-0.1057566
40
0.7279835
50
348.7289388
51
0.3012466
0
ARC
8
DEFAULT_255_1_234
10
12.0903168
20
-0.1386614
40
0.559104
50
333.0706509
51
348.7181832
0
ARC
8
DEFAULT_255_1_234
10
12.1869926
20
-0.1911681
40
0.4491417
50
299.2531685
51
333.4571258
0
ARC
8
DEFAULT_255_1_234
10
12.1509065
20
-0.1226172
40
0.5265881
50
278.107187
51
299.0339503
0
ARC
8
DEFAULT_255_1_234
10
12.1253144
20
0.0281216
40
0.679442
50
270.4443897
51
278.4511052
0
ARC
8
DEFAULT_255_1_234
10
12.1273974
20
-0.0647787
40
0.4604407
50
269.4970433
51
284.0205042
0
ARC
8
DEFAULT_255_1_234
10
12.1629275
20
-0.2013022
40
0.3193797
50
283.7700273
51
318.1555492
0
ARC
8
DEFAULT_255_1_234
10
12.1292033
20
-0.1760633
40
0.3613588
50
318.7415601
51
343.6873628
0
ARC
8
DEFAULT_255_1_234
10
11.9488057
20
-0.1197168
40
0.5503313
50
343.3325091
51
355.8548958
0
ARC
8
DEFAULT_255_1_234
10
11.7389741
20
-0.0997681
40
0.7610708
50
355.4988528
51
0.0791727
0
ARC
8
DEFAULT_255_1_234
10
11.8172364
20
-0.026222
40
0.6828208
50
359.6455037
51
9.8607896
0
ARC
8
DEFAULT_255_1_234
10
12.0533062
20
0.0164099
40
0.4429406
50
9.6571907
51
26.1932807
0
ARC
8
DEFAULT_255_1_234
10
12.146105
20
0.0595118
40
0.3406537
50
26.5777228
51
40.1532208
0
ARC
8
DEFAULT_255_1_234
10
12.1716777
20
0.0794619
40
0.308246
50
40.3840491
51
80.1431104
0
ARC
8
DEFAULT_255_1_234
10
12.1389894
20
-0.0654667
40
0.4566909
50
79.2152159
51
89.7445637
0
LINE
8
DEFAULT_255_1_234
10
13.6019986
20
0.5181211
11
13.6019986
21
0.434591
0
LINE
8
DEFAULT_255_1_234
10
13.6019986
20
0.434591
11
13.1176848
21
-0.6513
0
LINE
8
DEFAULT_255_1_234
10
13.1176848
20
-0.6513
11
12.9618691
21
-0.6513
0
LINE
8
DEFAULT_255_1_234
10
12.9618691
20
-0.6513
11
13.4445766
21
0.3960387
0
LINE
8
DEFAULT_255_1_234
10
13.4445766
20
0.3960387
11
12.8116756
21
0.3960387
0
LINE
8
DEFAULT_255_1_234
10
12.8116756
20
0.3960387
11
12.8116756
21
0.5181211
0
LINE
8
DEFAULT_255_1_234
10
12.8116756
20
0.5181211
11
13.6019986
21
0.5181211
0
LINE
8
DEFAULT_255_1_234
10
13.9578046
20
-0.0955037
11
13.8389349
21
-0.0649831
0
LINE
8
DEFAULT_255_1_234
10
13.8389349
20
-0.0649831
11
13.8983698
21
0.5181211
0
LINE
8
DEFAULT_255_1_234
10
13.8983698
20
0.5181211
11
14.4975375
21
0.5181211
0
LINE
8
DEFAULT_255_1_234
10
14.4975375
20
0.5181211
11
14.4975375
21
0.3807784
0
LINE
8
DEFAULT_255_1_234
10
14.4975375
20
0.3807784
11
14.0244681
21
0.3807784
0
LINE
8
DEFAULT_255_1_234
10
14.0244681
20
0.3807784
11
13.9891284
21
0.0619184
0
LINE
8
DEFAULT_255_1_234
10
13.7971699
20
-0.3436844
11
13.9377253
21
-0.3436844
0
LINE
8
DEFAULT_255_1_234
10
13.9971602
20
-0.0633768
11
13.9578046
21
-0.0955037
0
ARC
8
DEFAULT_255_1_234
10
14.1746068
20
-0.256077
40
0.3681349
50
93.7182161
51
120.2538958
0
ARC
8
DEFAULT_255_1_234
10
14.1840331
20
-0.3368606
40
0.449379
50
89.9660152
51
94.2496022
0
ARC
8
DEFAULT_255_1_234
10
14.1881065
20
-0.2779451
40
0.390482
50
73.8043271
51
90.5585896
0
ARC
8
DEFAULT_255_1_234
10
14.2115962
20
-0.1921398
40
0.3015334
50
41.3071453
51
73.5430202
0
ARC
8
DEFAULT_255_1_234
10
14.1699789
20
-0.2279676
40
0.3564457
50
13.5075983
51
41.2174222
0
ARC
8
DEFAULT_255_1_234
10
14.0057993
20
-0.2709514
40
0.5261351
50
1.1331335
51
13.8829381
0
ARC
8
DEFAULT_255_1_234
10
13.8646362
20
-0.2785335
40
0.6674378
50
359.9919444
51
1.544251
0
ARC
8
DEFAULT_255_1_234
10
13.9923188
20
-0.282672
40
0.5397702
50
347.8572367
51
0.4293338
0
ARC
8
DEFAULT_255_1_234
10
14.1673506
20
-0.3223264
40
0.3603188
50
323.673004
51
348.1672506
0
ARC
8
DEFAULT_255_1_234
10
14.1968014
20
-0.3402832
40
0.3259678
50
316.8171152
51
323.1492751
0
ARC
8
DEFAULT_255_1_234
10
14.2029203
20
-0.343954
40
0.3189975
50
281.8396411
51
316.5457803
0
ARC
8
DEFAULT_255_1_234
10
14.1653467
20
-0.1884238
40
0.4789527
50
269.5770101
51
282.4214771
0
ARC
8
DEFAULT_255_1_234
10
14.1582278
20
-0.2097875
40
0.45759
50
256.2427136
51
270.4486331
0
ARC
8
DEFAULT_255_1_234
10
14.1283181
20
-0.3297771
40
0.3339303
50
228.9023911
51
256.3314342
0
ARC
8
DEFAULT_255_1_234
10
14.1209413
20
-0.3414254
40
0.32031
50
193.753695
51
228.5271154
0
ARC
8
DEFAULT_255_1_234
10
14.2447367
20
-0.30512
40
0.4492253
50
184.924711
51
194.497588
0
ARC
8
DEFAULT_255_1_234
10
14.2639934
20
-0.3015409
40
0.3289787
50
187.3600538
51
198.6732863
0
ARC
8
DEFAULT_255_1_234
10
14.1590228
20
-0.3379326
40
0.217884
50
198.4451669
51
217.794479
0
ARC
8
DEFAULT_255_1_234
10
14.1294403
20
-0.3588915
40
0.1816698
50
218.2887171
51
228.5612368
0
ARC
8
DEFAULT_255_1_234
10
14.139219
20
-0.3457037
40
0.1980329
50
228.9654866
51
258.1234728
0
ARC
8
DEFAULT_255_1_234
10
14.15979
20
-0.2576167
40
0.2884748
50
257.7258293
51
270.401361
0
ARC
8
DEFAULT_255_1_234
10
14.1642786
20
-0.3021179
40
0.2439788
50
269.4204404
51
286.4209037
0
ARC
8
DEFAULT_255_1_234
10
14.1791274
20
-0.3560343
40
0.1880666
50
286.7251356
51
320.600362
0
ARC
8
DEFAULT_255_1_234
10
14.1408099
20
-0.3249405
40
0.2374121
50
320.6712579
51
344.5441685
0
ARC
8
DEFAULT_255_1_234
10
14.0251425
20
-0.2909955
40
0.3579479
50
344.2412205
51
356.7357071
0
ARC
8
DEFAULT_255_1_234
10
13.9002574
20
-0.2806556
40
0.4832297
50
356.3548756
51
0.0500261
0
ARC
8
DEFAULT_255_1_234
10
14.0339083
20
-0.277535
40
0.3495889
50
359.5576869
51
12.953486
0
ARC
8
DEFAULT_255_1_234
10
14.139398
20
-0.2519566
40
0.2410532
50
12.6490276
51
41.6081334
0
ARC
8
DEFAULT_255_1_234
10
14.1624351
20
-0.2323679
40
0.2108218
50
41.7850273
51
85.9892764
0
ARC
8
DEFAULT_255_1_234
10
14.1501088
20
-0.3136538
40
0.2928454
50
84.6957577
51
90.0676183
0
ARC
8
DEFAULT_255_1_234
10
14.1477572
20
-0.3805284
40
0.3597255
50
89.6804936
51
99.1614436
0
ARC
8
DEFAULT_255_1_234
10
14.1272203
20
-0.2577869
40
0.235281
50
98.9830931
51
113.8908934
0
ARC
8
DEFAULT_255_1_234
10
14.1042613
20
-0.2036413
40
0.176479
50
114.1950727
51
127.3641004
0
LINE
8
DEFAULT_255_1_234
10
15.0565464
20
-0.6513
11
14.7328674
21
-0.6513
0
LINE
8
DEFAULT_255_1_234
10
14.7328674
20
-0.6513
11
14.7328674
21
0.5181211
0
LINE
8
DEFAULT_255_1_234
10
14.7328674
20
0.5181211
11
15.0629718
21
0.5181211
0
LINE
8
DEFAULT_255_1_234
10
15.5786094
20
-0.0272339
11
15.5786094
21
-0.1019291
0
LINE
8
DEFAULT_255_1_234
10
15.0669877
20
0.3912196
11
14.8870768
21
0.3912196
0
LINE
8
DEFAULT_255_1_234
10
14.8870768
20
0.3912196
11
14.8870768
21
-0.5252017
0
LINE
8
DEFAULT_255_1_234
10
14.8870768
20
-0.5252017
11
15.0493179
21
-0.5252017
0
LINE
8
DEFAULT_255_1_234
10
15.4260064
20
-0.0987164
11
15.4260064
21
-0.0304466
0
ARC
8
DEFAULT_255_1_234
10
15.0668661
20
-0.0684106
40
0.5865446
50
75.4101064
51
90.3804066
0
ARC
8
DEFAULT_255_1_234
10
15.0898174
20
0.0272492
40
0.4881916
50
60.145586
51
75.1888407
0
ARC
8
DEFAULT_255_1_234
10
15.105695
20
0.0549199
40
0.4562893
50
26.5253612
51
60.1450928
0
ARC
8
DEFAULT_255_1_234
10
14.9936699
20
-0.0044842
40
0.5830602
50
7.4030428
51
26.8320788
0
ARC
8
DEFAULT_255_1_234
10
14.8342456
20
-0.0293196
40
0.7443669
50
0.1605367
51
7.7176192
0
ARC
8
DEFAULT_255_1_234
10
14.850636
20
-0.1057566
40
0.7279835
50
348.7289388
51
0.3012466
0
ARC
8
DEFAULT_255_1_234
10
15.0162791
20
-0.1386614
40
0.559104
50
333.0706509
51
348.7181832
0
ARC
8
DEFAULT_255_1_234
10
15.1129548
20
-0.1911681
40
0.4491417
50
299.2531685
51
333.4571258
0
ARC
8
DEFAULT_255_1_234
10
15.0768688
20
-0.1226172
40
0.5265881
50
278.107187
51
299.0339503
0
ARC
8
DEFAULT_255_1_234
10
15.0512767
20
0.0281216
40
0.679442
50
270.4443897
51
278.4511052
0
ARC
8
DEFAULT_255_1_234
10
15.0533597
20
-0.0647787
40
0.4604407
50
269.4970433
51
284.0205042
0
ARC
8
DEFAULT_255_1_234
10
15.0888898
20
-0.2013022
40
0.3193797
50
283.7700273
51
318.1555492
0
ARC
8
DEFAULT_255_1_234
10
15.0551656
20
-0.1760633
40
0.3613588
50
318.7415601
51
343.6873628
0
ARC
8
DEFAULT_255_1_234
10
14.8747679
20
-0.1197168
40
0.5503313
50
343.3325091
51
355.8548958
0
ARC
8
DEFAULT_255_1_234
10
14.6649364
20
-0.0997681
40
0.7610708
50
355.4988528
51
0.0791727
0
ARC
8
DEFAULT_255_1_234
10
14.7431986
20
-0.026222
40
0.6828208
50
359.6455037
51
9.8607896
0
ARC
8
DEFAULT_255_1_234
10
14.9792684
20
0.0164099
40
0.4429406
50
9.6571907
51
26.1932807
0
ARC
8
DEFAULT_255_1_234
10
15.0720673
20
0.0595118
40
0.3406537
50
26.5777228
51
40.1532208
0
ARC
8
DEFAULT_255_1_234
10
15.0976399
20
0.0794619
40
0.308246
50
40.3840491
51
80.1431104
0
ARC
8
DEFAULT_255_1_234
10
15.0649517
20
-0.0654667
40
0.4566909
50
79.2152159
51
89.7445637
0
LINE
8
DEFAULT_255_1_234
10
16.5392053
20
-0.5300208
11
16.5392053
21
-0.6513
0
LINE
8
DEFAULT_255_1_234
10
16.5392053
20
-0.6513
11
15.7729775
21
-0.6513
0
LINE
8
DEFAULT_255_1_234
10
15.7729775
20
-0.6513
11
15.7729775
21
-0.5444779
0
LINE
8
DEFAULT_255_1_234
10
15.7729775
20
-0.5444779
11
16.1777771
21
-0.0947005
0
LINE
8
DEFAULT_255_1_234
10
15.8990758
20
0.1735595
11
15.7504886
21
0.1735595
0
LINE
8
DEFAULT_255_1_234
10
16.265323
20
-0.1902782
11
15.9520853
21
-0.5300208
0
LINE
8
DEFAULT_255_1_234
10
15.9520853
20
-0.5300208
11
16.5392053
21
-0.5300208
0
ARC
8
DEFAULT_255_1_234
10
14.8287604
20
1.0982527
40
1.8008286
50
318.5132453
51
320.7828378
0
ARC
8
DEFAULT_255_1_234
10
15.3574579
20
0.6679426
40
1.1191493
50
320.7372736
51
323.9737074
0
ARC
8
DEFAULT_255_1_234
10
15.7494435
20
0.3839361
40
0.6350923
50
323.8961724
51
328.6421089
0
ARC
8
DEFAULT_255_1_234
10
15.9541031
20
0.2577031
40
0.3946393
50
328.8299013
51
331.789948
0
ARC
8
DEFAULT_255_1_234
10
16.0538209
20
0.2062509
40
0.2824501
50
331.4255242
51
352.9364833
0
ARC
8
DEFAULT_255_1_234
10
16.067471
20
0.2031976
40
0.2685315
50
353.2248685
51
0.0169286
0
ARC
8
DEFAULT_255_1_234
10
16.0884586
20
0.205495
40
0.2475536
50
359.4866256
51
15.9339782
0
ARC
8
DEFAULT_255_1_234
10
16.1391572
20
0.2191286
40
0.1950618
50
16.1714718
51
43.5284424
0
ARC
8
DEFAULT_255_1_234
10
16.146888
20
0.2268573
40
0.184134
50
43.4415429
51
83.1661404
0
ARC
8
DEFAULT_255_1_234
10
16.1334799
20
0.1531771
40
0.258926
50
82.160215
51
90.1505798
0
ARC
8
DEFAULT_255_1_234
10
16.1303226
20
0.0994865
40
0.3126255
50
89.5460705
51
102.5418777
0
ARC
8
DEFAULT_255_1_234
10
16.1060312
20
0.2025665
40
0.2067346
50
102.1739365
51
129.2061916
0
ARC
8
DEFAULT_255_1_234
10
16.0981384
20
0.2150094
40
0.1921118
50
129.7279328
51
135.7542026
0
ARC
8
DEFAULT_255_1_234
10
16.1102911
20
0.2053045
40
0.2075944
50
136.175737
51
166.3674722
0
ARC
8
DEFAULT_255_1_234
10
16.2109831
20
0.1783182
40
0.3118201
50
165.9092917
51
178.8683903
0
ARC
8
DEFAULT_255_1_234
10
16.2974692
20
0.1736179
40
0.3983935
50
178.438168
51
180.0083905
0
ARC
8
DEFAULT_255_1_234
10
16.1573294
20
0.1775231
40
0.4068601
50
163.2878735
51
180.5581814
0
ARC
8
DEFAULT_255_1_234
10
16.0771555
20
0.199584
40
0.3237344
50
133.454115
51
162.9470031
0
ARC
8
DEFAULT_255_1_234
10
16.0950097
20
0.1806
40
0.349795
50
100.7869394
51
133.4384016
0
ARC
8
DEFAULT_255_1_234
10
16.1297868
20
0.0257319
40
0.5084616
50
89.6605301
51
101.3704185
0
ARC
8
DEFAULT_255_1_234
10
16.1364207
20
0.0318496
40
0.502348
50
78.2171172
51
90.4130393
0
ARC
8
DEFAULT_255_1_234
10
16.1719285
20
0.1942637
40
0.3361092
50
55.9268222
51
78.4888551
0
ARC
8
DEFAULT_255_1_234
10
16.1915726
20
0.2281324
40
0.2970617
50
47.9292255
51
55.4054003
0
ARC
8
DEFAULT_255_1_234
10
16.2017286
20
0.2384502
40
0.2825983
50
4.3347696
51
48.0560701
0
ARC
8
DEFAULT_255_1_234
10
16.092168
20
0.2214601
40
0.393225
50
359.925209
51
5.5967654
0
ARC
8
DEFAULT_255_1_234
10
16.1350572
20
0.2270816
40
0.3503892
50
337.8914096
51
358.9967724
0
ARC
8
DEFAULT_255_1_234
10
15.8636984
20
0.3317706
40
0.6412172
50
326.9135351
51
338.3505194
0
ARC
8
DEFAULT_255_1_234
10
15.4651287
20
0.5872284
40
1.1146189
50
319.6472867
51
327.095818
0
ARC
8
DEFAULT_255_1_234
10
15.0818291
20
0.9034
40
1.6114559
50
317.2586784
51
319.9046139
0
LINE
8
DEFAULT_255_1_234
10
17.6339313
20
0.5181211
11
17.6339313
21
-0.6513
0
LINE
8
DEFAULT_255_1_234
10
17.6339313
20
-0.6513
11
17.4789187
21
-0.6513
0
LINE
8
DEFAULT_255_1_234
10
17.4789187
20
-0.6513
11
16.8901923
21
0.249861
0
LINE
8
DEFAULT_255_1_234
10
16.8901923
20
0.249861
11
16.8901923
21
-0.6513
0
LINE
8
DEFAULT_255_1_234
10
16.8901923
20
-0.6513
11
16.7351797
21
-0.6513
0
LINE
8
DEFAULT_255_1_234
10
16.7351797
20
-0.6513
11
16.7351797
21
0.5181211
0
LINE
8
DEFAULT_255_1_234
10
16.7351797
20
0.5181211
11
16.8901923
21
0.5181211
0
LINE
8
DEFAULT_255_1_234
10
16.8901923
20
0.5181211
11
17.480525
21
-0.3870558
0
LINE
8
DEFAULT_255_1_234
10
17.480525
20
-0.3870558
11
17.480525
21
0.5181211
0
LINE
8
DEFAULT_255_1_234
10
17.480525
20
0.5181211
11
17.6339313
21
0.5181211
0
LINE
8
DEFAULT_255_1_234
10
11.7240657
20
15.1838565
11
11.7240657
21
15.1091614
0
LINE
8
DEFAULT_255_1_234
10
11.5192563
20
14.6256507
11
11.7280815
21
14.4618033
0
LINE
8
DEFAULT_255_1_234
10
11.7280815
20
14.4618033
11
11.6228658
21
14.3646192
0
LINE
8
DEFAULT_255_1_234
10
11.6228658
20
14.3646192
11
11.3762914
21
14.5605937
0
LINE
8
DEFAULT_255_1_234
10
10.7827459
20
15.0987201
11
10.7827459
21
15.1830534
0
LINE
8
DEFAULT_255_1_234
10
11.5698563
20
15.0979169
11
11.5698563
21
15.1846597
0
LINE
8
DEFAULT_255_1_234
10
10.9369553
20
15.195101
11
10.9369553
21
15.1091614
0
ARC
8
DEFAULT_255_1_234
10
10.8286909
20
15.1052707
40
0.8953833
50
351.453011
51
0.2489685
0
ARC
8
DEFAULT_255_1_234
10
11.0871709
20
15.0652933
40
0.6338333
50
338.6861641
51
351.5540711
0
ARC
8
DEFAULT_255_1_234
10
11.1805593
20
15.0322828
40
0.5348431
50
336.2887631
51
338.3442418
0
ARC
8
DEFAULT_255_1_234
10
11.2145215
20
15.0136698
40
0.4962747
50
321.1170344
51
336.6795229
0
ARC
8
DEFAULT_255_1_234
10
11.2777044
20
14.9650206
40
0.4165565
50
305.4419708
51
320.8705636
0
ARC
8
DEFAULT_255_1_234
10
11.2580514
20
15.0397707
40
0.4935497
50
271.6373023
51
283.8611969
0
ARC
8
DEFAULT_255_1_234
10
11.2542767
20
15.1053572
40
0.5592206
50
269.9930596
51
271.8318864
0
ARC
8
DEFAULT_255_1_234
10
11.250521
20
15.0245681
40
0.4784458
50
252.5219675
51
270.4416499
0
ARC
8
DEFAULT_255_1_234
10
11.2361469
20
14.9706592
40
0.422716
50
237.5352116
51
252.1857531
0
ARC
8
DEFAULT_255_1_234
10
11.2450665
20
14.9820363
40
0.4371052
50
209.063312
51
237.3492538
0
ARC
8
DEFAULT_255_1_234
10
11.3320513
20
15.0366685
40
0.5397041
50
205.1183774
51
209.6470015
0
ARC
8
DEFAULT_255_1_234
10
11.411755
20
15.070483
40
0.6262326
50
188.7215458
51
204.8240747
0
ARC
8
DEFAULT_255_1_234
10
11.6115078
20
15.1041067
40
0.8287794
50
180.3723947
51
188.9252049
0
ARC
8
DEFAULT_255_1_234
10
11.608783
20
15.1870402
40
0.8260467
50
169.5253763
51
180.2765336
0
ARC
8
DEFAULT_255_1_234
10
11.4185279
20
15.2220309
40
0.6326007
50
155.8315255
51
169.5089989
0
ARC
8
DEFAULT_255_1_234
10
11.290478
20
15.2814348
40
0.4914567
50
139.6258461
51
156.0379525
0
ARC
8
DEFAULT_255_1_234
10
11.2315113
20
15.3288799
40
0.4158054
50
122.6416387
51
139.3430715
0
ARC
8
DEFAULT_255_1_234
10
11.2415733
20
15.3105451
40
0.4366739
50
93.0223692
51
122.455762
0
ARC
8
DEFAULT_255_1_234
10
11.252373
20
15.2140709
40
0.5336137
50
89.975342
51
93.6341897
0
ARC
8
DEFAULT_255_1_234
10
11.2562616
20
15.2520375
40
0.4956606
50
73.9665422
51
90.4229648
0
ARC
8
DEFAULT_255_1_234
10
11.2746263
20
15.3235451
40
0.4218674
50
57.5178019
51
73.6813337
0
ARC
8
DEFAULT_255_1_234
10
11.2702046
20
15.3199462
40
0.4272816
50
28.7261108
51
57.2767933
0
ARC
8
DEFAULT_255_1_234
10
11.1791378
20
15.2636688
40
0.534218
50
24.2448911
51
29.3248482
0
ARC
8
DEFAULT_255_1_234
10
11.0865479
20
15.2253819
40
0.6343711
50
9.064382
51
23.9639114
0
ARC
8
DEFAULT_255_1_234
10
10.8609807
20
15.1874925
40
0.8630926
50
359.7586264
51
9.1891435
0
ARC
8
DEFAULT_255_1_234
10
10.7355287
20
15.1888343
40
0.834338
50
359.7133237
51
7.96545
0
ARC
8
DEFAULT_255_1_234
10
11.0317504
20
15.2315681
40
0.5350538
50
7.8291991
51
20.0421623
0
ARC
8
DEFAULT_255_1_234
10
11.1942067
20
15.2906606
40
0.3621841
50
20.0677553
51
35.9161685
0
ARC
8
DEFAULT_255_1_234
10
11.2717105
20
15.348267
40
0.2656263
50
35.6594382
51
85.1578074
0
ARC
8
DEFAULT_255_1_234
10
11.2532361
20
15.2367378
40
0.3784238
50
83.7959068
51
90.095906
0
ARC
8
DEFAULT_255_1_234
10
11.2489295
20
15.3100601
40
0.3051229
50
89.3102392
51
109.9889877
0
ARC
8
DEFAULT_255_1_234
10
11.2406778
20
15.3456433
40
0.2688988
50
110.9285147
51
143.9411762
0
ARC
8
DEFAULT_255_1_234
10
11.3337724
20
15.2744236
40
0.3860887
50
143.5289163
51
163.2980757
0
ARC
8
DEFAULT_255_1_234
10
11.5245545
20
15.2144433
40
0.5860659
50
163.0418846
51
174.3140048
0
ARC
8
DEFAULT_255_1_234
10
11.7649657
20
15.1866854
40
0.8280531
50
174.0509143
51
179.4176892
0
ARC
8
DEFAULT_255_1_234
10
11.7135992
20
15.1048634
40
0.7766558
50
179.6829237
51
188.9631324
0
ARC
8
DEFAULT_255_1_234
10
11.4465553
20
15.0613752
40
0.5060992
50
188.8100743
51
202.9300012
0
ARC
8
DEFAULT_255_1_234
10
11.3249182
20
15.0118855
40
0.3747967
50
203.2069261
51
215.7876482
0
ARC
8
DEFAULT_255_1_234
10
11.2400579
20
14.9447671
40
0.2667526
50
214.7521006
51
264.2834488
0
ARC
8
DEFAULT_255_1_234
10
11.2536234
20
15.030278
40
0.3532247
50
263.4755397
51
270.0949833
0
ARC
8
DEFAULT_255_1_234
10
11.2578345
20
15.0041374
40
0.3271036
50
269.3649385
51
287.5152008
0
ARC
8
DEFAULT_255_1_234
10
11.2756503
20
14.9394238
40
0.2600406
50
288.0630309
51
323.8113348
0
ARC
8
DEFAULT_255_1_234
10
11.1885345
20
15.0044049
40
0.3687189
50
323.6547608
51
342.6590488
0
ARC
8
DEFAULT_255_1_234
10
10.985396
20
15.0704952
40
0.5823286
50
342.4091907
51
353.6451149
0
ARC
8
DEFAULT_255_1_234
10
10.7022471
20
15.105719
40
0.8676442
50
353.4029884
51
359.4847795
0
LINE
8
DEFAULT_255_1_234
10
12.6549441
20
15.1196026
11
12.6549441
21
14.9983234
0
LINE
8
DEFAULT_255_1_234
10
12.6549441
20
14.9983234
11
12.2629953
21
14.9983234
0
LINE
8
DEFAULT_255_1_234
10
12.2629953
20
14.9983234
11
12.2629953
21
15.1196026
0
LINE
8
DEFAULT_255_1_234
10
12.2629953
20
15.1196026
11
12.6549441
21
15.1196026
0
LINE
8
DEFAULT_255_1_234
10
14.0058825
20
15.3934849
11
13.85087
21
15.3934849
0
LINE
8
DEFAULT_255_1_234
10
13.1585341
20
14.9011394
11
13.3135467
21
14.9011394
0
ARC
8
DEFAULT_255_1_234
10
13.9167513
20
16.2881768
40
1.252368
50
248.9199003
51
254.1439814
0
ARC
8
DEFAULT_255_1_234
10
13.7487007
20
15.8555234
40
0.788226
50
241.633709
51
249.0064503
0
ARC
8
DEFAULT_255_1_234
10
13.5958402
20
15.5754317
40
0.4691427
50
230.498225
51
241.8087113
0
ARC
8
DEFAULT_255_1_234
10
13.5173976
20
15.4754906
40
0.3421437
50
227.4064532
51
229.9881192
0
ARC
8
DEFAULT_255_1_234
10
13.4686497
20
15.4279088
40
0.2741476
50
200.6781896
51
228.1763934
0
ARC
8
DEFAULT_255_1_234
10
13.4758807
20
15.4264077
40
0.2804109
50
179.5061581
51
199.8694617
0
ARC
8
DEFAULT_255_1_234
10
13.4749559
20
15.433821
40
0.2795204
50
132.4834203
51
181.0242172
0
ARC
8
DEFAULT_255_1_234
10
13.5345141
20
15.3775704
40
0.3612768
50
129.2532479
51
133.4242687
0
ARC
8
DEFAULT_255_1_234
10
13.5491591
20
15.3555965
40
0.3875675
50
101.98776
51
128.8742646
0
ARC
8
DEFAULT_255_1_234
10
13.5890202
20
15.1834741
40
0.5642249
50
89.5906553
51
102.3169264
0
ARC
8
DEFAULT_255_1_234
10
13.5960694
20
15.2153148
40
0.5323783
50
77.2360837
51
90.3248275
0
ARC
8
DEFAULT_255_1_234
10
13.6167773
20
15.31204
40
0.4334697
50
63.837784
51
77.0809408
0
ARC
8
DEFAULT_255_1_234
10
13.6445535
20
15.3637911
40
0.3747796
50
45.9864267
51
64.1607727
0
ARC
8
DEFAULT_255_1_234
10
13.6706416
20
15.3935866
40
0.3352302
50
32.2747395
51
45.6547121
0
ARC
8
DEFAULT_255_1_234
10
13.6772857
20
15.395488
40
0.328603
50
359.6507365
51
32.6130309
0
ARC
8
DEFAULT_255_1_234
10
13.5829952
20
15.395966
40
0.2678863
50
359.469343
51
14.9832209
0
ARC
8
DEFAULT_255_1_234
10
13.6535014
20
15.4148539
40
0.1948938
50
14.9781179
51
48.2004265
0
ARC
8
DEFAULT_255_1_234
10
13.6370658
20
15.3941983
40
0.2212521
50
48.5927837
51
74.1241538
0
ARC
8
DEFAULT_255_1_234
10
13.6037148
20
15.2841248
40
0.3362561
50
73.7888341
51
86.6652678
0
ARC
8
DEFAULT_255_1_234
10
13.5934714
20
15.1633881
40
0.4573953
50
86.2640471
51
90.0526343
0
ARC
8
DEFAULT_255_1_234
10
13.5906426
20
15.2029192
40
0.4178709
50
89.6697524
51
99.2309573
0
ARC
8
DEFAULT_255_1_234
10
13.5663877
20
15.3473964
40
0.2713749
50
99.069534
51
113.7658566
0
ARC
8
DEFAULT_255_1_234
10
13.5390068
20
15.4119677
40
0.2012469
50
114.0401004
51
127.9850673
0
ARC
8
DEFAULT_255_1_234
10
13.5149632
20
15.441573
40
0.1631167
50
127.7287463
51
176.7105154
0
ARC
8
DEFAULT_255_1_234
10
13.5828349
20
15.4314693
40
0.2315392
50
175.1779447
51
180.0581938
0
ARC
8
DEFAULT_255_1_234
10
13.4985196
20
15.4302428
40
0.1472271
50
179.6142195
51
228.1246017
0
ARC
8
DEFAULT_255_1_234
10
13.5426865
20
15.4711308
40
0.2072299
50
226.5779593
51
230.8800004
0
ARC
8
DEFAULT_255_1_234
10
13.5897944
20
15.5336636
40
0.2854818
50
231.4635071
51
241.9260842
0
ARC
8
DEFAULT_255_1_234
10
13.7095122
20
15.75398
40
0.53622
50
241.7178533
51
248.3259551
0
ARC
8
DEFAULT_255_1_234
10
13.8480493
20
16.0972064
40
0.9063478
50
248.2007737
51
252.4528373
0
ARC
8
DEFAULT_255_1_234
10
13.9684218
20
16.4693441
40
1.2974635
50
252.3391078
51
254.3469452
0
ARC
8
DEFAULT_255_1_234
10
13.2141921
20
13.7716148
40
1.5037162
50
71.0197183
51
74.4087047
0
ARC
8
DEFAULT_255_1_234
10
13.3836606
20
14.2608111
40
0.9859993
50
66.1847285
51
71.086374
0
ARC
8
DEFAULT_255_1_234
10
13.5392918
20
14.61122
40
0.6025855
50
59.3536294
51
66.2691831
0
ARC
8
DEFAULT_255_1_234
10
13.6281571
20
14.7615609
40
0.4279449
50
49.1020879
51
59.3293958
0
ARC
8
DEFAULT_255_1_234
10
13.7100311
20
14.8548834
40
0.3038015
50
32.7919921
51
49.2505539
0
ARC
8
DEFAULT_255_1_234
10
13.7421401
20
14.8777191
40
0.264448
50
31.1181161
51
32.4005348
0
ARC
8
DEFAULT_255_1_234
10
13.7332938
20
14.8741779
40
0.2738556
50
8.1116974
51
30.7958831
0
ARC
8
DEFAULT_255_1_234
10
13.6522607
20
14.8603753
40
0.3560327
50
359.8389159
51
8.4706516
0
ARC
8
DEFAULT_255_1_234
10
13.7148398
20
14.8555137
40
0.2934776
50
337.4731098
51
0.7537279
0
ARC
8
DEFAULT_255_1_234
10
13.7327093
20
14.8535387
40
0.2762607
50
307.5917067
51
336.4315538
0
ARC
8
DEFAULT_255_1_234
10
13.6866921
20
14.9048102
40
0.3449979
50
307.6551545
51
308.4529766
0
ARC
8
DEFAULT_255_1_234
10
13.663664
20
14.940325
40
0.3871988
50
284.3734338
51
307.1424381
0
ARC
8
DEFAULT_255_1_234
10
13.614147
20
15.1224932
40
0.5759636
50
272.4382747
51
284.646547
0
ARC
8
DEFAULT_255_1_234
10
13.6014679
20
15.3024893
40
0.7563528
50
269.9708387
51
272.8178037
0
ARC
8
DEFAULT_255_1_234
10
13.5971718
20
15.0986716
40
0.5525489
50
248.2707594
51
270.4055579
0
ARC
8
DEFAULT_255_1_234
10
13.5917459
20
15.0796192
40
0.5328452
50
246.1383403
51
248.0542782
0
ARC
8
DEFAULT_255_1_234
10
13.5498838
20
14.9916843
40
0.4355005
50
233.1670131
51
246.4950969
0
ARC
8
DEFAULT_255_1_234
10
13.4944743
20
14.9168812
40
0.3424126
50
215.3403242
51
233.0843104
0
ARC
8
DEFAULT_255_1_234
10
13.4672175
20
14.8970549
40
0.3087104
50
179.2419209
51
215.2648451
0
ARC
8
DEFAULT_255_1_234
10
13.5439768
20
14.8984666
40
0.2304457
50
179.335461
51
199.1045811
0
ARC
8
DEFAULT_255_1_234
10
13.5107445
20
14.8897766
40
0.1962176
50
199.8828939
51
232.7063202
0
ARC
8
DEFAULT_255_1_234
10
13.5579713
20
14.9491788
40
0.2720938
50
232.3738199
51
255.5136649
0
ARC
8
DEFAULT_255_1_234
10
13.592058
20
15.0735835
40
0.4010747
50
255.2446292
51
267.5320849
0
ARC
8
DEFAULT_255_1_234
10
13.6008203
20
15.1968702
40
0.5246356
50
267.1557994
51
270.0286766
0
ARC
8
DEFAULT_255_1_234
10
13.6035976
20
15.152495
40
0.4802668
50
269.7000017
51
278.1660162
0
ARC
8
DEFAULT_255_1_234
10
13.629198
20
14.9794515
40
0.3053425
50
278.0231263
51
290.625471
0
ARC
8
DEFAULT_255_1_234
10
13.6639667
20
14.8867025
40
0.206291
50
290.6619762
51
307.0370976
0
ARC
8
DEFAULT_255_1_234
10
13.6940057
20
14.8498504
40
0.1587906
50
306.3943566
51
355.3030547
0
ARC
8
DEFAULT_255_1_234
10
13.6427988
20
14.8575113
40
0.2104809
50
354.3660432
51
0.0698737
0
ARC
8
DEFAULT_255_1_234
10
13.6570333
20
14.8597617
40
0.1962563
50
359.417946
51
16.1971788
0
ARC
8
DEFAULT_255_1_234
10
13.7025644
20
14.8722418
40
0.149053
50
16.4723299
51
52.6262157
0
ARC
8
DEFAULT_255_1_234
10
13.6204698
20
14.7638433
40
0.2850296
50
52.7386432
51
62.4979148
0
ARC
8
DEFAULT_255_1_234
10
13.4819774
20
14.5032283
40
0.5801521
50
62.2515216
51
68.1220564
0
ARC
8
DEFAULT_255_1_234
10
13.3099685
20
14.0804872
40
1.0365451
50
68.0062803
51
71.8053402
0
ARC
8
DEFAULT_255_1_234
10
13.1304057
20
13.5419758
40
1.6042013
50
71.7183119
51
73.9258742
0
LINE
8
DEFAULT_255_1_234
10
14.1448316
20
14.9726218
11
14.1448316
21
14.9999297
0
LINE
8
DEFAULT_255_1_234
10
14.8821452
20
15.0159932
11
14.8821452
21
14.9541488
0
LINE
8
DEFAULT_255_1_234
10
14.8821452
20
14.9541488
11
14.2934188
21
14.9541488
0
LINE
8
DEFAULT_255_1_234
10
14.7801421
20
14.7846792
11
14.8709007
21
14.7139999
0
LINE
8
DEFAULT_255_1_234
10
14.2982378
20
15.0762313
11
14.733558
21
15.0762313
0
LINE
8
DEFAULT_255_1_234
10
14.733558
20
15.0762313
11
14.733558
21
15.0874757
0
ARC
8
DEFAULT_255_1_234
10
14.5387681
20
14.9837332
40
0.4376191
50
252.3266134
51
270.5810217
0
ARC
8
DEFAULT_255_1_234
10
14.518277
20
14.9096644
40
0.3608374
50
223.3000567
51
251.8561855
0
ARC
8
DEFAULT_255_1_234
10
14.5394131
20
14.9301937
40
0.3902993
50
190.9374509
51
223.3654032
0
ARC
8
DEFAULT_255_1_234
10
14.7119103
20
14.9691885
40
0.5670891
50
179.6531105
51
191.4989439
0
ARC
8
DEFAULT_255_1_234
10
14.7241115
20
15.0031417
40
0.5792888
50
167.4007466
51
180.3176909
0
ARC
8
DEFAULT_255_1_234
10
14.6189177
20
15.0253885
40
0.471777
50
154.1835823
51
167.250763
0
ARC
8
DEFAULT_255_1_234
10
14.5557644
20
15.0586417
40
0.4004528
50
134.3149965
51
154.5315275
0
ARC
8
DEFAULT_255_1_234
10
14.5340139
20
15.0777228
40
0.371612
50
122.8616532
51
133.9707695
0
ARC
8
DEFAULT_255_1_234
10
14.5236714
20
15.0999703
40
0.3473289
50
89.8249009
51
123.4199222
0
ARC
8
DEFAULT_255_1_234
10
14.5286755
20
15.0352967
40
0.4120197
50
74.7876118
51
90.5482747
0
ARC
8
DEFAULT_255_1_234
10
14.5580498
20
15.143803
40
0.2996077
50
39.8178249
51
74.7633718
0
ARC
8
DEFAULT_255_1_234
10
14.5067818
20
15.1038351
40
0.3645855
50
16.8990863
51
39.4829761
0
ARC
8
DEFAULT_255_1_234
10
14.3173114
20
15.0431526
40
0.5635218
50
4.9636328
51
17.2026414
0
ARC
8
DEFAULT_255_1_234
10
14.0755185
20
15.017634
40
0.8066286
50
359.8834553
51
5.2834307
0
ARC
8
DEFAULT_255_1_234
10
14.6792709
20
14.9607803
40
0.3859091
50
180.9846213
51
194.9401313
0
ARC
8
DEFAULT_255_1_234
10
14.5742987
20
14.9320849
40
0.2770883
50
194.80314
51
222.0412631
0
ARC
8
DEFAULT_255_1_234
10
14.5438869
20
14.9019116
40
0.2343055
50
221.5417084
51
268.8614402
0
ARC
8
DEFAULT_255_1_234
10
14.5511863
20
14.9695686
40
0.3021528
50
267.732405
51
270.0097136
0
ARC
8
DEFAULT_255_1_234
10
14.5529673
20
14.9897105
40
0.3222994
50
269.6924892
51
280.4117579
0
ARC
8
DEFAULT_255_1_234
10
14.570608
20
14.8978193
40
0.2287344
50
280.2255091
51
298.6338936
0
ARC
8
DEFAULT_255_1_234
10
14.5822872
20
14.8734223
40
0.2017294
50
299.0430333
51
300.4643464
0
ARC
8
DEFAULT_255_1_234
10
14.5142878
20
14.9868038
40
0.3339357
50
300.6577328
51
322.0378878
0
ARC
8
DEFAULT_255_1_234
10
14.4792417
20
15.0172021
40
0.3802736
50
321.6750233
51
322.3046845
0
ARC
8
DEFAULT_255_1_234
10
14.5723378
20
14.900537
40
0.3520454
50
276.9728461
51
328.0035423
0
ARC
8
DEFAULT_255_1_234
10
14.5446431
20
15.0485841
40
0.5024498
50
269.8361028
51
278.0581756
0
ARC
8
DEFAULT_255_1_234
10
14.5219168
20
15.1230757
40
0.202159
50
89.2018686
51
117.2851756
0
ARC
8
DEFAULT_255_1_234
10
14.5272337
20
15.1188752
40
0.2083484
50
118.0551165
51
137.4540413
0
ARC
8
DEFAULT_255_1_234
10
14.5647077
20
15.0848304
40
0.2589774
50
137.5109581
51
158.8516286
0
ARC
8
DEFAULT_255_1_234
10
14.6784913
20
15.0389074
40
0.38167
50
158.5845963
51
170.1721436
0
ARC
8
DEFAULT_255_1_234
10
14.7954302
20
15.0156823
40
0.5008657
50
169.8376422
51
173.0566086
0
ARC
8
DEFAULT_255_1_234
10
14.3257376
20
15.0667509
40
0.4083467
50
2.9091802
51
12.8847116
0
ARC
8
DEFAULT_255_1_234
10
14.4628053
20
15.0990101
40
0.2675383
50
12.6957781
51
28.6404489
0
ARC
8
DEFAULT_255_1_234
10
14.5169723
20
15.1270458
40
0.2065654
50
29.0169854
51
41.1487595
0
ARC
8
DEFAULT_255_1_234
10
14.5372509
20
15.1447003
40
0.1796786
50
41.1646065
51
85.0013516
0
ARC
8
DEFAULT_255_1_234
10
14.5251605
20
15.0712431
40
0.2539726
50
83.7280015
51
90.0964893
0
LINE
8
DEFAULT_255_1_234
10
15.4740843
20
15.4360531
11
15.4740843
21
15.2979072
0
LINE
8
DEFAULT_255_1_234
10
15.2026115
20
15.1790375
11
15.2026115
21
14.5622
0
LINE
8
DEFAULT_255_1_234
10
15.2026115
20
14.5622
11
15.0540244
21
14.5622
0
LINE
8
DEFAULT_255_1_234
10
15.0540244
20
14.5622
11
15.0540244
21
15.4312341
0
LINE
8
DEFAULT_255_1_234
10
15.0540244
20
15.4312341
11
15.1985957
21
15.4312341
0
LINE
8
DEFAULT_255_1_234
10
15.1985957
20
15.4312341
11
15.2010052
21
15.3308374
0
ARC
8
DEFAULT_255_1_234
10
15.4074248
20
14.8919342
40
0.4114092
50
80.6754243
51
86.8932892
0
ARC
8
DEFAULT_255_1_234
10
15.4013783
20
14.79517
40
0.5083596
50
86.8038578
51
90.0431435
0
ARC
8
DEFAULT_255_1_234
10
15.3976763
20
15.0408866
40
0.2626638
50
89.2759698
51
106.6213787
0
ARC
8
DEFAULT_255_1_234
10
15.3772327
20
15.115183
40
0.1856317
50
107.1346045
51
157.6458115
0
ARC
8
DEFAULT_255_1_234
10
15.4463929
20
15.0768311
40
0.2643398
50
155.6586782
51
157.2539184
0
ARC
8
DEFAULT_255_1_234
10
15.4259131
20
15.1937157
40
0.2634121
50
127.8165941
51
148.6302098
0
ARC
8
DEFAULT_255_1_234
10
15.40056
20
15.2197218
40
0.2273596
50
91.3329982
51
126.7875809
0
ARC
8
DEFAULT_255_1_234
10
15.408154
20
15.1482195
40
0.299078
50
89.986594
51
92.4688449
0
ARC
8
DEFAULT_255_1_234
10
15.4089935
20
15.1757078
40
0.2715908
50
85.3589899
51
90.1623399
0
ARC
8
DEFAULT_255_1_234
10
15.4174451
20
15.2761164
40
0.1708278
50
78.401942
51
85.4594656
0
ARC
8
DEFAULT_255_1_234
10
15.4319335
20
15.3452236
40
0.1002194
50
67.7858312
51
78.5728455
0
ARC
8
DEFAULT_255_1_234
10
15.4427188
20
15.3731887
40
0.0702548
50
63.4835954
51
67.3062642
0
LINE
8
DEFAULT_255_1_234
10
15.7720618
20
15.4312341
11
15.7720618
21
14.5622
0
LINE
8
DEFAULT_255_1_234
10
15.7720618
20
14.5622
11
15.6234746
21
14.5622
0
LINE
8
DEFAULT_255_1_234
10
15.6234746
20
14.5622
11
15.6234746
21
15.4312341
0
LINE
8
DEFAULT_255_1_234
10
15.6234746
20
15.4312341
11
15.7720618
21
15.4312341
0
ARC
8
DEFAULT_255_1_234
10
15.7092895
20
15.6626889
40
0.097867
50
161.415052
51
180.5526306
0
ARC
8
DEFAULT_255_1_234
10
15.6968673
20
15.6661077
40
0.0850062
50
138.1827368
51
160.9307106
0
ARC
8
DEFAULT_255_1_234
10
15.6858619
20
15.6756588
40
0.0704362
50
104.6368899
51
138.0039868
0
ARC
8
DEFAULT_255_1_234
10
15.6965773
20
15.6389963
40
0.1086221
50
92.0600725
51
105.2189128
0
ARC
8
DEFAULT_255_1_234
10
15.6989122
20
15.6047117
40
0.1429728
50
89.9756393
51
92.5012496
0
ARC
8
DEFAULT_255_1_234
10
15.6999141
20
15.6272731
40
0.1204151
50
78.0235316
51
90.4478182
0
ARC
8
DEFAULT_255_1_234
10
15.7091233
20
15.6686295
40
0.0780493
50
55.051506
51
78.3369085
0
ARC
8
DEFAULT_255_1_234
10
15.7141507
20
15.6770711
40
0.0682538
50
42.0501187
51
54.4513741
0
ARC
8
DEFAULT_255_1_234
10
15.7006374
20
15.6646798
40
0.0865878
50
1.7497075
51
42.1496013
0
ARC
8
DEFAULT_255_1_234
10
15.6751707
20
15.6617738
40
0.1121515
50
359.9852656
51
2.8364544
0
ARC
8
DEFAULT_255_1_234
10
15.6917699
20
15.6608229
40
0.0955566
50
342.1070653
51
0.552888
0
ARC
8
DEFAULT_255_1_234
10
15.7060397
20
15.6568904
40
0.0807713
50
316.7107116
51
341.6516965
0
ARC
8
DEFAULT_255_1_234
10
15.7127434
20
15.6508823
40
0.0717724
50
285.4397031
51
316.5324284
0
ARC
8
DEFAULT_255_1_234
10
15.7017351
20
15.6874554
40
0.1099597
50
272.3547054
51
285.8953117
0
ARC
8
DEFAULT_255_1_234
10
15.6990509
20
15.7240048
40
0.1465932
50
269.9695369
51
272.8160237
0
ARC
8
DEFAULT_255_1_234
10
15.698069
20
15.7020863
40
0.1246779
50
258.8431134
51
270.4153935
0
ARC
8
DEFAULT_255_1_234
10
15.6890733
20
15.6585414
40
0.0802162
50
238.5431189
51
259.1288175
0
ARC
8
DEFAULT_255_1_234
10
15.6822618
20
15.6461856
40
0.0661247
50
222.5062634
51
237.9906969
0
ARC
8
DEFAULT_255_1_234
10
15.6950205
20
15.6577889
40
0.0833707
50
184.1069131
51
222.460413
0
ARC
8
DEFAULT_255_1_234
10
15.7219446
20
15.6616349
40
0.1105176
50
179.9429482
51
185.0960898
0
LINE
8
DEFAULT_255_1_234
10
15.9720521
20
14.9726218
11
15.9720521
21
14.9999297
0
LINE
8
DEFAULT_255_1_234
10
16.7093656
20
15.0159932
11
16.7093656
21
14.9541488
0
LINE
8
DEFAULT_255_1_234
10
16.7093656
20
14.9541488
11
16.1206392
21
14.9541488
0
LINE
8
DEFAULT_255_1_234
10
16.6073625
20
14.7846792
11
16.6981212
21
14.7139999
0
LINE
8
DEFAULT_255_1_234
10
16.1254583
20
15.0762313
11
16.5607785
21
15.0762313
0
LINE
8
DEFAULT_255_1_234
10
16.5607785
20
15.0762313
11
16.5607785
21
15.0874757
0
ARC
8
DEFAULT_255_1_234
10
16.3659886
20
14.9837332
40
0.4376191
50
252.3266134
51
270.5810217
0
ARC
8
DEFAULT_255_1_234
10
16.3454975
20
14.9096644
40
0.3608374
50
223.3000567
51
251.8561855
0
ARC
8
DEFAULT_255_1_234
10
16.3666335
20
14.9301937
40
0.3902993
50
190.9374509
51
223.3654032
0
ARC
8
DEFAULT_255_1_234
10
16.5391308
20
14.9691885
40
0.5670891
50
179.6531105
51
191.4989439
0
ARC
8
DEFAULT_255_1_234
10
16.551332
20
15.0031417
40
0.5792888
50
167.4007466
51
180.3176909
0
ARC
8
DEFAULT_255_1_234
10
16.4461381
20
15.0253885
40
0.471777
50
154.1835823
51
167.250763
0
ARC
8
DEFAULT_255_1_234
10
16.3829849
20
15.0586417
40
0.4004528
50
134.3149965
51
154.5315275
0
ARC
8
DEFAULT_255_1_234
10
16.3612344
20
15.0777228
40
0.371612
50
122.8616532
51
133.9707695
0
ARC
8
DEFAULT_255_1_234
10
16.3508918
20
15.0999703
40
0.3473289
50
89.8249009
51
123.4199222
0
ARC
8
DEFAULT_255_1_234
10
16.3558959
20
15.0352967
40
0.4120197
50
74.7876118
51
90.5482747
0
ARC
8
DEFAULT_255_1_234
10
16.3852702
20
15.143803
40
0.2996077
50
39.8178249
51
74.7633718
0
ARC
8
DEFAULT_255_1_234
10
16.3340023
20
15.1038351
40
0.3645855
50
16.8990863
51
39.4829761
0
ARC
8
DEFAULT_255_1_234
10
16.1445319
20
15.0431526
40
0.5635218
50
4.9636328
51
17.2026414
0
ARC
8
DEFAULT_255_1_234
10
15.9027389
20
15.017634
40
0.8066286
50
359.8834553
51
5.2834307
0
ARC
8
DEFAULT_255_1_234
10
16.5064914
20
14.9607803
40
0.3859091
50
180.9846213
51
194.9401313
0
ARC
8
DEFAULT_255_1_234
10
16.4015191
20
14.9320849
40
0.2770883
50
194.80314
51
222.0412631
0
ARC
8
DEFAULT_255_1_234
10
16.3711073
20
14.9019116
40
0.2343055
50
221.5417084
51
268.8614402
0
ARC
8
DEFAULT_255_1_234
10
16.3784068
20
14.9695686
40
0.3021528
50
267.732405
51
270.0097136
0
ARC
8
DEFAULT_255_1_234
10
16.3801878
20
14.9897105
40
0.3222994
50
269.6924892
51
280.4117579
0
ARC
8
DEFAULT_255_1_234
10
16.3978285
20
14.8978193
40
0.2287344
50
280.2255091
51
298.6338936
0
ARC
8
DEFAULT_255_1_234
10
16.4095077
20
14.8734223
40
0.2017294
50
299.0430333
51
300.4643464
0
ARC
8
DEFAULT_255_1_234
10
16.3415082
20
14.9868038
40
0.3339357
50
300.6577328
51
322.0378878
0
ARC
8
DEFAULT_255_1_234
10
16.3064621
20
15.0172021
40
0.3802736
50
321.6750233
51
322.3046845
0
ARC
8
DEFAULT_255_1_234
10
16.3995583
20
14.900537
40
0.3520454
50
276.9728461
51
328.0035423
0
ARC
8
DEFAULT_255_1_234
10
16.3718635
20
15.0485841
40
0.5024498
50
269.8361028
51
278.0581756
0
ARC
8
DEFAULT_255_1_234
10
16.3491373
20
15.1230757
40
0.202159
50
89.2018686
51
117.2851756
0
ARC
8
DEFAULT_255_1_234
10
16.3544542
20
15.1188752
40
0.2083484
50
118.0551165
51
137.4540413
0
ARC
8
DEFAULT_255_1_234
10
16.3919282
20
15.0848304
40
0.2589774
50
137.5109581
51
158.8516286
0
ARC
8
DEFAULT_255_1_234
10
16.5057117
20
15.0389074
40
0.38167
50
158.5845963
51
170.1721436
0
ARC
8
DEFAULT_255_1_234
10
16.6226507
20
15.0156823
40
0.5008657
50
169.8376422
51
173.0566086
0
ARC
8
DEFAULT_255_1_234
10
16.1529581
20
15.0667509
40
0.4083467
50
2.9091802
51
12.8847116
0
ARC
8
DEFAULT_255_1_234
10
16.2900257
20
15.0990101
40
0.2675383
50
12.6957781
51
28.6404489
0
ARC
8
DEFAULT_255_1_234
10
16.3441928
20
15.1270458
40
0.2065654
50
29.0169854
51
41.1487595
0
ARC
8
DEFAULT_255_1_234
10
16.3644713
20
15.1447003
40
0.1796786
50
41.1646065
51
85.0013516
0
ARC
8
DEFAULT_255_1_234
10
16.352381
20
15.0712431
40
0.2539726
50
83.7280015
51
90.0964893
0
LINE
8
DEFAULT_255_1_234
10
17.5277998
20
15.1758248
11
17.3784094
21
15.1758248
0
LINE
8
DEFAULT_255_1_234
10
16.845102
20
14.8296569
11
16.9936892
21
14.8296569
0
ARC
8
DEFAULT_255_1_234
10
17.2595913
20
14.7941959
40
0.1276617
50
359.3334982
51
18.5871358
0
ARC
8
DEFAULT_255_1_234
10
17.280455
20
14.7997133
40
0.1061371
50
19.3540742
51
54.6485071
0
ARC
8
DEFAULT_255_1_234
10
17.2300452
20
14.7301919
40
0.1920087
50
54.3827097
51
65.0622807
0
ARC
8
DEFAULT_255_1_234
10
17.1531848
20
14.56849
40
0.3710447
50
64.8282493
51
71.4200025
0
ARC
8
DEFAULT_255_1_234
10
17.0629724
20
14.3038107
40
0.6506741
50
71.3164301
51
75.8006402
0
ARC
8
DEFAULT_255_1_234
10
16.9788544
20
13.9797561
40
0.9854641
50
75.6809531
51
78.0061883
0
ARC
8
DEFAULT_255_1_234
10
17.4237077
20
16.077677
40
1.1591028
50
254.6901892
51
258.0466452
0
ARC
8
DEFAULT_255_1_234
10
17.3198985
20
15.7017781
40
0.7691345
50
249.9010773
51
254.755261
0
ARC
8
DEFAULT_255_1_234
10
17.2195327
20
15.4291982
40
0.478665
50
243.3097214
51
249.9709442
0
ARC
8
DEFAULT_255_1_234
10
17.1566349
20
15.3037778
40
0.3383568
50
234.4047477
51
243.2862168
0
ARC
8
DEFAULT_255_1_234
10
17.0943872
20
15.2178232
40
0.2322322
50
220.8667099
51
234.5493881
0
ARC
8
DEFAULT_255_1_234
10
17.0601813
20
15.1866817
40
0.1859923
50
214.3062465
51
220.5065136
0
ARC
8
DEFAULT_255_1_234
10
17.0575892
20
15.183588
40
0.1821108
50
186.912965
51
213.9618616
0
ARC
8
DEFAULT_255_1_234
10
17.1107987
20
15.1922009
40
0.2359799
50
179.8808832
51
187.4339886
0
ARC
8
DEFAULT_255_1_234
10
17.095312
20
15.1942088
40
0.2204978
50
132.005434
51
180.3942919
0
ARC
8
DEFAULT_255_1_234
10
17.1609734
20
15.1336083
40
0.3095791
50
129.2319861
51
133.5302299
0
ARC
8
DEFAULT_255_1_234
10
17.1663242
20
15.1241928
40
0.3202615
50
100.4410011
51
128.9081242
0
ARC
8
DEFAULT_255_1_234
10
17.1937126
20
14.9956455
40
0.4516583
50
89.6985377
51
100.9026564
0
ARC
8
DEFAULT_255_1_234
10
17.1994168
20
14.9796166
40
0.4676928
50
77.6965325
51
90.4076836
0
ARC
8
DEFAULT_255_1_234
10
17.2325152
20
15.1223413
40
0.3211988
50
50.7276602
51
78.0399361
0
ARC
8
DEFAULT_255_1_234
10
17.276961
20
15.1741296
40
0.2529778
50
25.7545084
51
51.0957453
0
ARC
8
DEFAULT_255_1_234
10
17.2770835
20
15.1791206
40
0.250738
50
359.2468627
51
24.7394243
0
ARC
8
DEFAULT_255_1_234
10
17.2486287
20
15.1762664
40
0.1297815
50
359.8050318
51
45.1544908
0
ARC
8
DEFAULT_255_1_234
10
17.2079429
20
15.1414794
40
0.1831883
50
43.8047702
51
49.6271585
0
ARC
8
DEFAULT_255_1_234
10
17.208733
20
15.1415678
40
0.18261
50
49.7980766
51
82.1218353
0
ARC
8
DEFAULT_255_1_234
10
17.1968302
20
15.0768998
40
0.2483163
50
81.4465357
51
90.1710293
0
ARC
8
DEFAULT_255_1_234
10
17.1943905
20
15.024288
40
0.300932
50
89.6766211
51
99.1264602
0
ARC
8
DEFAULT_255_1_234
10
17.1772367
20
15.1276537
40
0.1961547
50
98.968313
51
113.4570237
0
ARC
8
DEFAULT_255_1_234
10
17.1576452
20
15.1744965
40
0.1453859
50
113.722589
51
127.4763106
0
ARC
8
DEFAULT_255_1_234
10
17.1408098
20
15.1945124
40
0.1192639
50
126.9083309
51
150.3165862
0
ARC
8
DEFAULT_255_1_234
10
17.1360431
20
15.1995981
40
0.112623
50
151.3635175
51
180.0701457
0
ARC
8
DEFAULT_255_1_234
10
17.1669215
20
15.197499
40
0.1435149
50
179.2169974
51
179.9954013
0
ARC
8
DEFAULT_255_1_234
10
17.1308273
20
15.1962056
40
0.1074286
50
179.3040112
51
198.4225446
0
ARC
8
DEFAULT_255_1_234
10
17.1116406
20
15.1912127
40
0.0876573
50
199.2895851
51
238.6034594
0
ARC
8
DEFAULT_255_1_234
10
17.1719253
20
15.285845
40
0.1998512
50
237.9846301
51
246.8744712
0
ARC
8
DEFAULT_255_1_234
10
17.2577198
20
15.4821205
40
0.4140547
50
246.6234531
51
251.8168941
0
ARC
8
DEFAULT_255_1_234
10
17.3607741
20
15.7915905
40
0.7402308
50
251.713434
51
255.0778414
0
ARC
8
DEFAULT_255_1_234
10
17.4807004
20
16.2382563
40
1.2027155
50
255.0367487
51
257.4705983
0
ARC
8
DEFAULT_255_1_234
10
16.9699014
20
13.9368863
40
1.1546601
50
73.6837552
51
77.5016755
0
ARC
8
DEFAULT_255_1_234
10
17.0787789
20
14.3068581
40
0.7690009
50
68.7044154
51
73.7249639
0
ARC
8
DEFAULT_255_1_234
10
17.1690809
20
14.5395654
40
0.5193873
50
63.590599
51
68.6626804
0
ARC
8
DEFAULT_255_1_234
10
17.2461828
20
14.6933123
40
0.3473927
50
54.7106439
51
63.7013633
0
ARC
8
DEFAULT_255_1_234
10
17.3086283
20
14.78054
40
0.2401192
50
41.0622434
51
54.8487496
0
ARC
8
DEFAULT_255_1_234
10
17.3427669
20
14.8118592
40
0.1938094
50
34.4950568
51
40.7105546
0
ARC
8
DEFAULT_255_1_234
10
17.3474477
20
14.8167078
40
0.1872106
50
9.3763373
51
34.0833615
0
ARC
8
DEFAULT_255_1_234
10
17.2821347
20
14.8041728
40
0.2536988
50
359.7694872
51
9.7663171
0
ARC
8
DEFAULT_255_1_234
10
17.3018848
20
14.7998764
40
0.2339696
50
335.8654732
51
0.8022045
0
ARC
8
DEFAULT_255_1_234
10
17.3093892
20
14.8012197
40
0.2277108
50
307.7357725
51
334.7849066
0
ARC
8
DEFAULT_255_1_234
10
17.2693068
20
14.8462645
40
0.2878951
50
307.0241536
51
308.5578354
0
ARC
8
DEFAULT_255_1_234
10
17.2435399
20
14.8848801
40
0.3342515
50
282.9362969
51
306.5646424
0
ARC
8
DEFAULT_255_1_234
10
17.2073697
20
15.0316108
40
0.4853615
50
271.1026298
51
283.2200835
0
ARC
8
DEFAULT_255_1_234
10
17.2009941
20
15.1557418
40
0.6096052
50
269.9919117
51
271.4772449
0
ARC
8
DEFAULT_255_1_234
10
17.1983696
20
15.0479436
40
0.5018135
50
259.0723564
51
270.289833
0
ARC
8
DEFAULT_255_1_234
10
17.1771428
20
14.9362271
40
0.388099
50
245.4963068
51
259.0227342
0
ARC
8
DEFAULT_255_1_234
10
17.1493384
20
14.8780615
40
0.3236422
50
228.9684658
51
245.7044727
0
ARC
8
DEFAULT_255_1_234
10
17.1227828
20
14.8453575
40
0.2815426
50
214.4011705
51
228.6759915
0
ARC
8
DEFAULT_255_1_234
10
17.0938569
20
14.829529
40
0.2487548
50
179.9705531
51
215.1572795
0
ARC
8
DEFAULT_255_1_234
10
17.1639168
20
14.8368806
40
0.1703809
50
182.4299387
51
203.0329699
0
ARC
8
DEFAULT_255_1_234
10
17.1454826
20
14.8312396
40
0.1512226
50
203.798802
51
232.548466
0
ARC
8
DEFAULT_255_1_234
10
17.1731347
20
14.8663826
40
0.1959374
50
232.3782728
51
256.3934612
0
ARC
8
DEFAULT_255_1_234
10
17.1961709
20
14.9553842
40
0.2878639
50
256.104506
51
268.4626716
0
ARC
8
DEFAULT_255_1_234
10
17.2008193
20
15.0350487
40
0.3676329
50
268.0715632
51
270.0138206
0
ARC
8
DEFAULT_255_1_234
10
17.2026718
20
15.0078083
40
0.3403971
50
269.7031147
51
278.8341955
0
ARC
8
DEFAULT_255_1_234
10
17.2208811
20
14.8947876
40
0.2259217
50
278.6728789
51
292.8232582
0
ARC
8
DEFAULT_255_1_234
10
17.2409349
20
14.8446449
40
0.171929
50
293.1452328
51
303.6655899
0
ARC
8
DEFAULT_255_1_234
10
17.2674228
20
14.8070204
40
0.1259367
50
303.1248165
51
321.742847
0
ARC
8
DEFAULT_255_1_234
10
17.2860109
20
14.7907156
40
0.1012531
50
322.4748573
51
1.1291126
0
LINE
8
DEFAULT_255_2_778
10
10.5738396
20
17.0868073
11
9.3932396
21
17.0868073
0
LINE
8
DEFAULT_255_2_778
10
9.3932396
20
17.0868073
11
9.9837396
21
18.1094073
0
LINE
8
DEFAULT_255_2_778
10
9.9837396
20
18.1094073
11
11.1643396
21
18.1094073
0
LINE
8
DEFAULT_255_2_778
10
11.1643396
20
18.1094073
11
10.5738396
21
17.0868073
0
LINE
8
DEFAULT_255_2_778
10
10.5738396
20
17.0868073
11
10.5738396
21
17.0868073
0
LINE
8
DEFAULT_255_2_778
10
11.7546396
20
17.0868073
11
12.9354396
21
17.0868073
0
LINE
8
DEFAULT_255_2_778
10
12.9354396
20
17.0868073
11
12.3451396
21
18.1094073
0
LINE
8
DEFAULT_255_2_778
10
12.3451396
20
18.1094073
11
11.1643396
21
18.1094073
0
LINE
8
DEFAULT_255_2_778
10
11.1643396
20
18.1094073
11
11.7546396
21
17.0868073
0
LINE
8
DEFAULT_255_2_778
10
11.7546396
20
17.0868073
11
11.7546396
21
17.0868073
0
LINE
8
DEFAULT_255_2_778
10
11.7545823
20
19.1320146
11
11.1642823
21
20.1546146
0
LINE
8
DEFAULT_255_2_778
10
11.1642823
20
20.1546146
11
10.5737823
21
19.1320146
0
LINE
8
DEFAULT_255_2_778
10
10.5737823
20
19.1320146
11
11.1642823
21
18.1094146
0
LINE
8
DEFAULT_255_2_778
10
11.1642823
20
18.1094146
11
11.7545823
21
19.1320146
0
LINE
8
DEFAULT_255_2_778
10
11.7545823
20
19.1320146
11
11.7545823
21
19.1320146
0
ARC
8
DEFAULT_255_2_778
10
16.5183731
20
18.7782426
40
0.5650491
50
268.7543645
51
289.1417717
0
ARC
8
DEFAULT_255_2_778
10
16.606208
20
18.5230531
40
0.2951681
50
289.2776255
51
3.7648372
0
ARC
8
DEFAULT_255_2_778
10
16.3901618
20
18.5496085
40
0.5106278
50
359.1949826
51
0.0020862
0
ARC
8
DEFAULT_255_2_778
10
16.547449
20
18.5355832
40
0.1541914
50
280.2616216
51
358.5297855
0
ARC
8
DEFAULT_255_2_778
10
16.5080075
20
18.648155
40
0.2726346
50
269.5969454
51
284.2065679
0
ARC
8
DEFAULT_255_2_778
10
16.4981967
20
18.6325316
40
0.2571258
50
246.5290903
51
271.7590909
0
ARC
8
DEFAULT_255_2_778
10
16.4527148
20
18.5245009
40
0.1399248
50
188.1071678
51
245.9934684
0
ARC
8
DEFAULT_255_2_778
10
16.4829007
20
18.5314617
40
0.1708111
50
179.9445314
51
188.990814
0
ARC
8
DEFAULT_255_2_778
10
16.4924507
20
18.5382849
40
0.3763411
50
178.2272621
51
205.8283807
0
ARC
8
DEFAULT_255_2_778
10
16.4132476
20
18.5205833
40
0.2979176
50
209.4028057
51
263.0375728
0
ARC
8
DEFAULT_255_2_778
10
16.5005111
20
18.8952629
40
0.6816586
50
259.5722942
51
270.4689037
0
ARC
8
DEFAULT_255_2_778
10
17.411252
20
18.9514767
40
0.1217154
50
2.0482843
51
87.015299
0
ARC
8
DEFAULT_255_2_778
10
17.4060617
20
18.9558852
40
0.126828
50
353.0600847
51
359.9737428
0
ARC
8
DEFAULT_255_2_778
10
17.4110442
20
18.9527555
40
0.1215295
50
270.5739762
51
354.2410513
0
ARC
8
DEFAULT_255_2_778
10
17.4065059
20
18.9889297
40
0.1578027
50
269.9941256
51
272.0902921
0
ARC
8
DEFAULT_255_2_778
10
17.414084
20
18.5380295
40
0.1400686
50
358.2807293
51
95.6106825
0
ARC
8
DEFAULT_255_2_778
10
17.4103233
20
18.5341963
40
0.1437669
50
266.9962473
51
359.8528392
0
ARC
8
DEFAULT_255_2_778
10
17.4725249
20
18.5744988
40
0.3335288
50
268.2414507
51
302.0223478
0
ARC
8
DEFAULT_255_2_778
10
17.5091261
20
18.499183
40
0.2504234
50
304.0600275
51
2.0468005
0
ARC
8
DEFAULT_255_2_778
10
17.4832788
20
18.5058521
40
0.2761203
50
0.4720601
51
65.8403529
0
ARC
8
DEFAULT_255_2_778
10
17.5191655
20
18.5706061
40
0.2024466
50
67.606893
51
75.8693222
0
ARC
8
DEFAULT_255_2_778
10
17.5042026
20
18.978222
40
0.2208874
50
286.9473417
51
358.0074963
0
ARC
8
DEFAULT_255_2_778
10
17.4710866
20
18.9870045
40
0.2544031
50
356.2897886
51
0.0050857
0
ARC
8
DEFAULT_255_2_778
10
17.497262
20
18.9920946
40
0.2282839
50
358.7280137
51
81.8073164
0
ARC
8
DEFAULT_255_2_778
10
17.4216369
20
18.7406283
40
0.4895182
50
77.2355086
51
90.5088275
0
ARC
8
DEFAULT_255_2_778
10
17.5842747
20
17.7760989
40
0.1302704
50
89.9972707
51
92.6773048
0
ARC
8
DEFAULT_255_2_778
10
17.5844071
20
17.77687
40
0.1294993
50
45.0546048
51
90.0558451
0
ARC
8
DEFAULT_255_2_778
10
17.5844118
20
17.776719
40
0.1296029
50
0.001866
51
45.1031959
0
ARC
8
DEFAULT_255_2_778
10
17.5845123
20
17.7767202
40
0.1295026
50
357.4803735
51
0.0013544
0
ARC
8
DEFAULT_255_2_778
10
17.5901979
20
17.7728512
40
0.1237052
50
339.8672523
51
359.1550732
0
ARC
8
DEFAULT_255_2_778
10
17.5794513
20
17.7700079
40
0.1329691
50
272.0853006
51
342.6124646
0
ARC
8
DEFAULT_255_2_778
10
17.6596145
20
17.8082661
40
0.2575135
50
286.787355
51
290.6121696
0
ARC
8
DEFAULT_255_2_778
10
17.6689461
20
17.7939533
40
0.24086
50
289.7330405
51
342.3216972
0
ARC
8
DEFAULT_255_2_778
10
17.641261
20
17.7987954
40
0.268735
50
343.130572
51
0.3905272
0
ARC
8
DEFAULT_255_2_778
10
17.6578783
20
17.8161767
40
0.2525904
50
356.4706028
51
80.1788963
0
ARC
8
DEFAULT_255_2_778
10
17.5921649
20
17.5892163
40
0.4881286
50
77.1212301
51
90.4900821
0
ARC
8
DEFAULT_255_2_778
10
17.5166337
20
17.291536
40
0.1865405
50
50.1507009
51
92.9634648
0
ARC
8
DEFAULT_255_2_778
10
17.5301354
20
17.3198678
40
0.1563319
50
12.621233
51
47.2950617
0
ARC
8
DEFAULT_255_2_778
10
16.8485884
20
17.1869726
40
0.8506657
50
2.8173892
51
11.3253986
0
ARC
8
DEFAULT_255_2_778
10
-29.2295733
20
13.6906175
40
47.060992
50
4.3048394
51
4.3117143
0
ARC
8
DEFAULT_255_2_778
10
18.5500859
20
17.263084
40
0.8523717
50
182.6850102
51
191.2954256
0
ARC
8
DEFAULT_255_2_778
10
17.9656837
20
17.1567399
40
0.2586603
50
193.5512904
51
195.3825538
0
ARC
8
DEFAULT_255_2_778
10
19.3507425
20
17.4156408
40
1.4700994
50
182.6283124
51
192.8725697
0
ARC
8
DEFAULT_255_2_778
10
17.6207606
20
17.3427215
40
0.261487
50
1.2064311
51
30.4123358
0
ARC
8
DEFAULT_255_2_778
10
17.6663626
20
17.357776
40
0.2147766
50
33.1081154
51
71.7312197
0
LINE
8
DEFAULT_255_2_778
10
13.4657897
20
17.5223271
11
13.9385897
21
17.5223271
0
LINE
8
DEFAULT_255_2_778
10
13.9385897
20
17.5223271
11
13.9385897
21
17.6937271
0
LINE
8
DEFAULT_255_2_778
10
13.9385897
20
17.6937271
11
13.4657897
21
17.6937271
0
LINE
8
DEFAULT_255_2_778
10
13.4657897
20
17.6937271
11
13.4657897
21
17.9046271
0
LINE
8
DEFAULT_255_2_778
10
13.4657897
20
17.9046271
11
13.9977897
21
17.9046271
0
LINE
8
DEFAULT_255_2_778
10
13.9977897
20
17.9046271
11
13.9977897
21
18.0760271
0
LINE
8
DEFAULT_255_2_778
10
13.9977897
20
18.0760271
11
13.4657897
21
18.0760271
0
LINE
8
DEFAULT_255_2_778
10
13.4657897
20
18.0760271
11
13.2651897
21
18.0760271
0
LINE
8
DEFAULT_255_2_778
10
13.2651897
20
18.0760271
11
13.2651897
21
17.9046271
0
LINE
8
DEFAULT_255_2_778
10
13.2651897
20
17.9046271
11
13.2651897
21
17.2582271
0
LINE
8
DEFAULT_255_2_778
10
13.2651897
20
17.2582271
11
13.2651897
21
17.0867271
0
LINE
8
DEFAULT_255_2_778
10
13.2651897
20
17.0867271
11
13.4657897
21
17.0867271
0
LINE
8
DEFAULT_255_2_778
10
13.4657897
20
17.0867271
11
14.0118897
21
17.0867271
0
LINE
8
DEFAULT_255_2_778
10
14.0118897
20
17.0867271
11
14.0118897
21
17.2582271
0
LINE
8
DEFAULT_255_2_778
10
14.0118897
20
17.2582271
11
13.4657897
21
17.2582271
0
LINE
8
DEFAULT_255_2_778
10
13.4657897
20
17.2582271
11
13.4657897
21
17.5220271
0
LINE
8
DEFAULT_255_2_778
10
13.4657897
20
17.5220271
11
13.4657897
21
17.5223271
0
LINE
8
DEFAULT_255_2_778
10
13.4519897
20
18.9764271
11
13.6620897
21
18.2411271
0
LINE
8
DEFAULT_255_2_778
10
13.6620897
20
18.2411271
11
13.6704897
21
18.2411271
0
LINE
8
DEFAULT_255_2_778
10
13.6704897
20
18.2411271
11
13.8464897
21
18.2411271
0
LINE
8
DEFAULT_255_2_778
10
13.8464897
20
18.2411271
11
13.8546897
21
18.2411271
0
LINE
8
DEFAULT_255_2_778
10
13.8546897
20
18.2411271
11
14.0647897
21
18.9764271
0
LINE
8
DEFAULT_255_2_778
10
14.0647897
20
18.9764271
11
14.0647897
21
18.2411271
0
LINE
8
DEFAULT_255_2_778
10
14.0647897
20
18.2411271
11
14.2515897
21
18.2411271
0
LINE
8
DEFAULT_255_2_778
10
14.2515897
20
18.2411271
11
14.2515897
21
19.2304271
0
LINE
8
DEFAULT_255_2_778
10
14.2515897
20
19.2304271
11
14.1496897
21
19.2304271
0
LINE
8
DEFAULT_255_2_778
10
14.1496897
20
19.2304271
11
14.0615897
21
19.2304271
0
LINE
8
DEFAULT_255_2_778
10
14.0615897
20
19.2304271
11
13.9655897
21
19.2304271
0
LINE
8
DEFAULT_255_2_778
10
13.9655897
20
19.2304271
11
13.7583897
21
18.5361271
0
LINE
8
DEFAULT_255_2_778
10
13.7583897
20
18.5361271
11
13.5511897
21
19.2304271
0
LINE
8
DEFAULT_255_2_778
10
13.5511897
20
19.2304271
11
13.4551897
21
19.2304271
0
LINE
8
DEFAULT_255_2_778
10
13.4551897
20
19.2304271
11
13.3670897
21
19.2304271
0
LINE
8
DEFAULT_255_2_778
10
13.3670897
20
19.2304271
11
13.2651897
21
19.2304271
0
LINE
8
DEFAULT_255_2_778
10
13.2651897
20
19.2304271
11
13.2651897
21
18.2411271
0
LINE
8
DEFAULT_255_2_778
10
13.2651897
20
18.2411271
11
13.4519897
21
18.2411271
0
LINE
8
DEFAULT_255_2_778
10
13.4519897
20
18.2411271
11
13.4519897
21
18.9764271
0
LINE
8
DEFAULT_255_2_778
10
13.4519897
20
18.9764271
11
13.4519897
21
18.9764271
0
LINE
8
DEFAULT_255_2_778
10
18.0056897
20
19.2304271
11
17.8064897
21
19.2304271
0
LINE
8
DEFAULT_255_2_778
10
17.8064897
20
19.2304271
11
17.8064897
21
18.2411271
0
LINE
8
DEFAULT_255_2_778
10
17.8064897
20
18.2411271
11
18.0056897
21
18.2411271
0
LINE
8
DEFAULT_255_2_778
10
18.0056897
20
18.2411271
11
18.0056897
21
19.2304271
0
LINE
8
DEFAULT_255_2_778
10
18.0056897
20
19.2304271
11
18.0056897
21
19.2304271
0
LINE
8
DEFAULT_255_2_778
10
18.1681897
20
18.0763271
11
17.9689897
21
18.0763271
0
LINE
8
DEFAULT_255_2_778
10
17.9689897
20
18.0763271
11
17.9689897
21
17.0870271
0
LINE
8
DEFAULT_255_2_778
10
17.9689897
20
17.0870271
11
18.1681897
21
17.0870271
0
LINE
8
DEFAULT_255_2_778
10
18.1681897
20
17.0870271
11
18.1681897
21
18.0763271
0
LINE
8
DEFAULT_255_2_778
10
18.1681897
20
18.0763271
11
18.1681897
21
18.0763271
0
LINE
8
DEFAULT_255_2_778
10
19.9765897
20
19.2304271
11
19.7773897
21
19.2304271
0
LINE
8
DEFAULT_255_2_778
10
19.7773897
20
19.2304271
11
19.7773897
21
18.2411271
0
LINE
8
DEFAULT_255_2_778
10
19.7773897
20
18.2411271
11
19.9765897
21
18.2411271
0
LINE
8
DEFAULT_255_2_778
10
19.9765897
20
18.2411271
11
19.9765897
21
19.2304271
0
LINE
8
DEFAULT_255_2_778
10
19.9765897
20
19.2304271
11
19.9765897
21
19.2304271
0
LINE
8
DEFAULT_255_2_778
10
14.5298897
20
19.2304271
11
14.3306897
21
19.2304271
0
LINE
8
DEFAULT_255_2_778
10
14.3306897
20
19.2304271
11
14.3306897
21
18.2411271
0
LINE
8
DEFAULT_255_2_778
10
14.3306897
20
18.2411271
11
14.5298897
21
18.2411271
0
LINE
8
DEFAULT_255_2_778
10
14.5298897
20
18.2411271
11
14.5298897
21
19.2304271
0
LINE
8
DEFAULT_255_2_778
10
14.5298897
20
19.2304271
11
14.5298897
21
19.2304271
0
LINE
8
DEFAULT_255_2_778
10
19.4989897
20
18.8444271
11
19.1029897
21
18.8444271
0
LINE
8
DEFAULT_255_2_778
10
19.1029897
20
18.8444271
11
19.1029897
21
19.2301271
0
LINE
8
DEFAULT_255_2_778
10
19.1029897
20
19.2301271
11
18.9068897
21
19.2301271
0
LINE
8
DEFAULT_255_2_778
10
18.9068897
20
19.2301271
11
18.9068897
21
18.2411271
0
LINE
8
DEFAULT_255_2_778
10
18.9068897
20
18.2411271
11
19.1029897
21
18.2411271
0
LINE
8
DEFAULT_255_2_778
10
19.1029897
20
18.2411271
11
19.1029897
21
18.6729271
0
LINE
8
DEFAULT_255_2_778
10
19.1029897
20
18.6729271
11
19.4989897
21
18.6729271
0
LINE
8
DEFAULT_255_2_778
10
19.4989897
20
18.6729271
11
19.4989897
21
18.2411271
0
LINE
8
DEFAULT_255_2_778
10
19.4989897
20
18.2411271
11
19.6950897
21
18.2411271
0
LINE
8
DEFAULT_255_2_778
10
19.6950897
20
18.2411271
11
19.6950897
21
19.2301271
0
LINE
8
DEFAULT_255_2_778
10
19.6950897
20
19.2301271
11
19.4989897
21
19.2301271
0
LINE
8
DEFAULT_255_2_778
10
19.4989897
20
19.2301271
11
19.4989897
21
18.8444271
0
LINE
8
DEFAULT_255_2_778
10
19.4989897
20
18.8444271
11
19.4989897
21
18.8444271
0
LINE
8
DEFAULT_255_2_778
10
14.8246897
20
18.2411271
11
15.0280897
21
18.2411271
0
LINE
8
DEFAULT_255_2_778
10
15.0280897
20
18.2411271
11
15.0280897
21
19.0590271
0
LINE
8
DEFAULT_255_2_778
10
15.0280897
20
19.0590271
11
15.2696897
21
19.0590271
0
LINE
8
DEFAULT_255_2_778
10
15.2696897
20
19.0590271
11
15.2696897
21
19.2304271
0
LINE
8
DEFAULT_255_2_778
10
15.2696897
20
19.2304271
11
15.0280897
21
19.2304271
0
LINE
8
DEFAULT_255_2_778
10
15.0280897
20
19.2304271
11
14.8246897
21
19.2304271
0
LINE
8
DEFAULT_255_2_778
10
14.8246897
20
19.2304271
11
14.5830897
21
19.2304271
0
LINE
8
DEFAULT_255_2_778
10
14.5830897
20
19.2304271
11
14.5830897
21
19.0590271
0
LINE
8
DEFAULT_255_2_778
10
14.5830897
20
19.0590271
11
14.8246897
21
19.0590271
0
LINE
8
DEFAULT_255_2_778
10
14.8246897
20
19.0590271
11
14.8246897
21
18.2411271
0
LINE
8
DEFAULT_255_2_778
10
14.8246897
20
18.2411271
11
14.8246897
21
18.2411271
0
LINE
8
DEFAULT_255_2_778
10
16.6422897
20
17.0870271
11
16.8454897
21
17.0870271
0
LINE
8
DEFAULT_255_2_778
10
16.8454897
20
17.0870271
11
16.8454897
21
17.9048271
0
LINE
8
DEFAULT_255_2_778
10
16.8454897
20
17.9048271
11
17.0873897
21
17.9048271
0
LINE
8
DEFAULT_255_2_778
10
17.0873897
20
17.9048271
11
17.0873897
21
18.0766271
0
LINE
8
DEFAULT_255_2_778
10
17.0873897
20
18.0766271
11
16.8454897
21
18.0766271
0
LINE
8
DEFAULT_255_2_778
10
16.8454897
20
18.0766271
11
16.6422897
21
18.0766271
0
LINE
8
DEFAULT_255_2_778
10
16.6422897
20
18.0766271
11
16.4004897
21
18.0766271
0
LINE
8
DEFAULT_255_2_778
10
16.4004897
20
18.0766271
11
16.4004897
21
17.9048271
0
LINE
8
DEFAULT_255_2_778
10
16.4004897
20
17.9048271
11
16.6422897
21
17.9048271
0
LINE
8
DEFAULT_255_2_778
10
16.6422897
20
17.9048271
11
16.6422897
21
17.0870271
0
LINE
8
DEFAULT_255_2_778
10
16.6422897
20
17.0870271
11
16.6422897
21
17.0870271
0
LINE
8
DEFAULT_255_2_778
10
16.9007897
20
18.5496271
11
16.9007897
21
19.2301271
0
LINE
8
DEFAULT_255_2_778
10
16.9007897
20
19.2301271
11
16.7015897
21
19.2301271
0
LINE
8
DEFAULT_255_2_778
10
16.7015897
20
19.2301271
11
16.7015897
21
18.5316271
0
LINE
8
DEFAULT_255_2_778
10
16.3120897
20
18.5316271
11
16.3120897
21
19.2301271
0
LINE
8
DEFAULT_255_2_778
10
16.3120897
20
19.2301271
11
16.1162897
21
19.2301271
0
LINE
8
DEFAULT_255_2_778
10
16.1162897
20
19.2301271
11
16.1162897
21
18.5499271
0
LINE
8
DEFAULT_255_2_778
10
15.0000897
20
17.5223271
11
15.4730897
21
17.5223271
0
LINE
8
DEFAULT_255_2_778
10
15.4730897
20
17.5223271
11
15.4730897
21
17.6937271
0
LINE
8
DEFAULT_255_2_778
10
15.4730897
20
17.6937271
11
15.0000897
21
17.6937271
0
LINE
8
DEFAULT_255_2_778
10
15.0000897
20
17.6937271
11
15.0000897
21
17.9046271
0
LINE
8
DEFAULT_255_2_778
10
15.0000897
20
17.9046271
11
15.5320897
21
17.9046271
0
LINE
8
DEFAULT_255_2_778
10
15.5320897
20
17.9046271
11
15.5320897
21
18.0760271
0
LINE
8
DEFAULT_255_2_778
10
15.5320897
20
18.0760271
11
15.0000897
21
18.0760271
0
LINE
8
DEFAULT_255_2_778
10
15.0000897
20
18.0760271
11
14.7997897
21
18.0760271
0
LINE
8
DEFAULT_255_2_778
10
14.7997897
20
18.0760271
11
14.7997897
21
17.9046271
0
LINE
8
DEFAULT_255_2_778
10
14.7997897
20
17.9046271
11
14.7997897
21
17.2582271
0
LINE
8
DEFAULT_255_2_778
10
14.7997897
20
17.2582271
11
14.7997897
21
17.0867271
0
LINE
8
DEFAULT_255_2_778
10
14.7997897
20
17.0867271
11
15.0000897
21
17.0867271
0
LINE
8
DEFAULT_255_2_778
10
15.0000897
20
17.0867271
11
15.5461897
21
17.0867271
0
LINE
8
DEFAULT_255_2_778
10
15.5461897
20
17.0867271
11
15.5461897
21
17.2582271
0
LINE
8
DEFAULT_255_2_778
10
15.5461897
20
17.2582271
11
15.0000897
21
17.2582271
0
LINE
8
DEFAULT_255_2_778
10
15.0000897
20
17.2582271
11
15.0000897
21
17.5220271
0
LINE
8
DEFAULT_255_2_778
10
15.0000897
20
17.5220271
11
15.0000897
21
17.5223271
0
LINE
8
DEFAULT_255_2_778
10
17.4064897
20
18.8311271
11
17.1690897
21
18.8311271
0
LINE
8
DEFAULT_255_2_778
10
17.1690897
20
18.8311271
11
17.1690897
21
19.0727271
0
LINE
8
DEFAULT_255_2_778
10
17.1690897
20
19.0727271
11
17.4175897
21
19.0727271
0
LINE
8
DEFAULT_255_2_778
10
17.4175897
20
19.0727271
11
17.4175897
21
19.0730271
0
LINE
8
DEFAULT_255_2_778
10
17.4027897
20
18.3903271
11
17.1690897
21
18.3903271
0
LINE
8
DEFAULT_255_2_778
10
17.1690897
20
18.3903271
11
17.1690897
21
18.6774271
0
LINE
8
DEFAULT_255_2_778
10
17.1690897
20
18.6774271
11
17.4003897
21
18.6774271
0
LINE
8
DEFAULT_255_2_778
10
17.1767897
20
18.2411271
11
17.4622897
21
18.2411271
0
LINE
8
DEFAULT_255_2_778
10
17.4172897
20
19.2301271
11
17.1770897
21
19.2301271
0
LINE
8
DEFAULT_255_2_778
10
17.1770897
20
19.2301271
11
16.9722897
21
19.2301271
0
LINE
8
DEFAULT_255_2_778
10
16.9722897
20
19.2301271
11
16.9711897
21
19.2301271
0
LINE
8
DEFAULT_255_2_778
10
16.9711897
20
19.2301271
11
16.9711897
21
18.2411271
0
LINE
8
DEFAULT_255_2_778
10
16.9711897
20
18.2411271
11
16.9722897
21
18.2411271
0
LINE
8
DEFAULT_255_2_778
10
16.9722897
20
18.2411271
11
17.1770897
21
18.2411271
0
LINE
8
DEFAULT_255_2_778
10
17.1770897
20
18.2411271
11
17.1767897
21
18.2411271
0
LINE
8
DEFAULT_255_2_778
10
17.3368897
20
17.6368271
11
17.3368897
21
17.9062271
0
LINE
8
DEFAULT_255_2_778
10
17.3368897
20
17.9062271
11
17.5781897
21
17.9062271
0
LINE
8
DEFAULT_255_2_778
10
17.5842897
20
17.6371271
11
17.3370897
21
17.6371271
0
LINE
8
DEFAULT_255_2_778
10
17.3370897
20
17.6371271
11
17.3368897
21
17.6368271
0
LINE
8
DEFAULT_255_2_778
10
17.5879897
20
18.0773271
11
17.3368897
21
18.0773271
0
LINE
8
DEFAULT_255_2_778
10
17.3368897
20
18.0773271
11
17.1383897
21
18.0773271
0
LINE
8
DEFAULT_255_2_778
10
17.1383897
20
18.0773271
11
17.1362897
21
18.0773271
0
LINE
8
DEFAULT_255_2_778
10
17.1362897
20
18.0773271
11
17.1362897
21
17.0881271
0
LINE
8
DEFAULT_255_2_778
10
17.1362897
20
17.0881271
11
17.3368897
21
17.0881271
0
LINE
8
DEFAULT_255_2_778
10
17.3368897
20
17.0881271
11
17.3368897
21
17.4778271
0
LINE
8
DEFAULT_255_2_778
10
17.3368897
20
17.4778271
11
17.5069897
21
17.4778271
0
LINE
8
DEFAULT_255_2_778
10
17.7162897
20
17.0881271
11
17.9175897
21
17.0881271
0
LINE
8
DEFAULT_255_2_778
10
14.2763897
20
18.0763271
11
14.0760897
21
18.0763271
0
LINE
8
DEFAULT_255_2_778
10
14.0760897
20
18.0763271
11
14.0760897
21
17.2585271
0
LINE
8
DEFAULT_255_2_778
10
14.0760897
20
17.2585271
11
14.0760897
21
17.0870271
0
LINE
8
DEFAULT_255_2_778
10
14.0760897
20
17.0870271
11
14.2763897
21
17.0870271
0
LINE
8
DEFAULT_255_2_778
10
14.2763897
20
17.0870271
11
14.7428897
21
17.0870271
0
LINE
8
DEFAULT_255_2_778
10
14.7428897
20
17.0870271
11
14.7428897
21
17.2585271
0
LINE
8
DEFAULT_255_2_778
10
14.7428897
20
17.2585271
11
14.2763897
21
17.2585271
0
LINE
8
DEFAULT_255_2_778
10
14.2763897
20
17.2585271
11
14.2763897
21
18.0763271
0
LINE
8
DEFAULT_255_2_778
10
14.2763897
20
18.0763271
11
14.2763897
21
18.0763271
0
ARC
8
DEFAULT_255_2_778
10
15.4584271
20
17.7021969
40
0.9681224
50
72.4822103
51
81.3184214
0
ARC
8
DEFAULT_255_2_778
10
15.7160297
20
18.4788918
40
0.1503783
50
28.8883513
51
77.0092434
0
ARC
8
DEFAULT_255_2_778
10
15.7432379
20
18.5078196
40
0.113238
50
358.9917455
51
22.7117017
0
ARC
8
DEFAULT_255_2_778
10
15.7394861
20
18.5119918
40
0.1171346
50
289.2958104
51
356.9831562
0
ARC
8
DEFAULT_255_2_778
10
15.6668261
20
18.6694882
40
0.2902651
50
268.4665462
51
292.5613311
0
ARC
8
DEFAULT_255_2_778
10
15.6496856
20
18.6104179
40
0.2312808
50
236.4956947
51
272.3225735
0
ARC
8
DEFAULT_255_2_778
10
15.6106646
20
18.5421839
40
0.1529307
50
178.9722202
51
234.5742435
0
ARC
8
DEFAULT_255_2_778
10
15.5656113
20
18.5326079
40
0.3002058
50
177.6481608
51
245.5596397
0
ARC
8
DEFAULT_255_2_778
10
15.6409971
20
18.7048561
40
0.488217
50
245.8690375
51
267.169035
0
ARC
8
DEFAULT_255_2_778
10
15.6671503
20
18.9558916
40
0.7403648
50
266.1069867
51
270.0547972
0
ARC
8
DEFAULT_255_2_778
10
15.6772894
20
18.7871135
40
0.5716642
50
269.0547216
51
287.7147747
0
ARC
8
DEFAULT_255_2_778
10
15.7598889
20
18.5414091
40
0.3125017
50
286.995984
51
325.1221533
0
ARC
8
DEFAULT_255_2_778
10
15.7678294
20
18.524861
40
0.2966627
50
326.8673922
51
0.8625726
0
ARC
8
DEFAULT_255_2_778
10
15.7898286
20
18.5334409
40
0.2746606
50
359.1417932
51
76.9739731
0
ARC
8
DEFAULT_255_2_778
10
15.6705461
20
18.2525719
40
0.577616
50
71.7185727
51
79.1315439
0
ARC
8
DEFAULT_255_2_778
10
14.2492968
20
10.898967
40
8.0673056
50
79.0662148
51
79.6216572
0
ARC
8
DEFAULT_255_2_778
10
16.4356585
20
22.7766581
40
4.0099443
50
259.1227669
51
259.4665204
0
ARC
8
DEFAULT_255_2_778
10
15.7836732
20
19.4816142
40
0.6513291
50
249.9945768
51
260.7485895
0
ARC
8
DEFAULT_255_2_778
10
15.5880401
20
18.9705999
40
0.1046098
50
178.6705173
51
254.9333545
0
ARC
8
DEFAULT_255_2_778
10
15.6049957
20
18.9671688
40
0.1216785
50
93.288632
51
177.2403935
0
ARC
8
DEFAULT_255_2_778
10
15.6585677
20
18.7801752
40
0.3143588
50
89.6189463
51
101.1057977
0
ARC
8
DEFAULT_255_2_778
10
15.6722733
20
18.892016
40
0.2028439
50
53.5634072
51
93.2825843
0
ARC
8
DEFAULT_255_2_778
10
15.7018505
20
18.9502144
40
0.1388739
50
357.1985816
51
49.1152298
0
ARC
8
DEFAULT_255_2_778
10
15.7254907
20
18.9434274
40
0.3087677
50
359.9999335
51
2.3703878
0
ARC
8
DEFAULT_255_2_778
10
15.7353555
20
18.9449337
40
0.298851
50
2.1600756
51
60.1092229
0
ARC
8
DEFAULT_255_2_778
10
15.6766212
20
18.8383133
40
0.4205645
50
60.4106856
51
86.1444419
0
ARC
8
DEFAULT_255_2_778
10
15.6536151
20
18.6616228
40
0.5985046
50
85.0843314
51
90.0628677
0
ARC
8
DEFAULT_255_2_778
10
15.6529718
20
18.7850466
40
0.4750804
50
90.001616
51
92.2300394
0
ARC
8
DEFAULT_255_2_778
10
15.6281193
20
18.890187
40
0.3696351
50
89.0131319
51
149.6364996
0
ARC
8
DEFAULT_255_2_778
10
15.5505461
20
18.9624055
40
0.2671974
50
154.5962367
51
180.4885883
0
ARC
8
DEFAULT_255_2_778
10
15.5651524
20
18.960884
40
0.281795
50
180.1539064
51
255.1120325
0
ARC
8
DEFAULT_255_2_778
10
15.7094242
20
19.283732
40
0.6333958
50
249.9962237
51
260.4976723
0
ARC
8
DEFAULT_255_2_778
10
18.2470963
20
17.7033351
40
0.967002
50
72.4685023
51
81.3064395
0
ARC
8
DEFAULT_255_2_778
10
18.5045397
20
18.478927
40
0.1503535
50
28.8782248
51
76.9904304
0
ARC
8
DEFAULT_255_2_778
10
18.5317197
20
18.5078189
40
0.1132561
50
358.9922779
51
22.7082666
0
ARC
8
DEFAULT_255_2_778
10
18.5280402
20
18.5119088
40
0.1170763
50
289.2761556
51
357.0223042
0
ARC
8
DEFAULT_255_2_778
10
18.4553612
20
18.6697836
40
0.2905613
50
268.4611814
51
292.5289055
0
ARC
8
DEFAULT_255_2_778
10
18.4381801
20
18.6113175
40
0.2321799
50
236.6698634
51
272.3149402
0
ARC
8
DEFAULT_255_2_778
10
18.39878
20
18.5421762
40
0.1528464
50
178.9687581
51
234.7686008
0
ARC
8
DEFAULT_255_2_778
10
18.3540113
20
18.5326079
40
0.3002058
50
177.6481608
51
245.5596397
0
ARC
8
DEFAULT_255_2_778
10
18.4293971
20
18.7048561
40
0.488217
50
245.8690375
51
267.169035
0
ARC
8
DEFAULT_255_2_778
10
18.4555503
20
18.9558916
40
0.7403648
50
266.1069867
51
270.0547972
0
ARC
8
DEFAULT_255_2_778
10
18.4656836
20
18.7877451
40
0.5722957
50
269.0563423
51
287.7048702
0
ARC
8
DEFAULT_255_2_778
10
18.548344
20
18.5417682
40
0.312856
50
286.9832601
51
325.0871916
0
ARC
8
DEFAULT_255_2_778
10
18.5567708
20
18.5248856
40
0.2964208
50
326.8311942
51
0.8585267
0
ARC
8
DEFAULT_255_2_778
10
18.5785756
20
18.5335282
40
0.2746149
50
359.1234265
51
76.9343785
0
ARC
8
DEFAULT_255_2_778
10
18.4596421
20
18.2536965
40
0.5764934
50
71.6999697
51
79.1198353
0
ARC
8
DEFAULT_255_2_778
10
17.0173657
20
10.7769392
40
8.1910887
50
79.0843627
51
79.6321368
0
ARC
8
DEFAULT_255_2_778
10
19.2200266
20
22.7564177
40
3.9892176
50
259.1314419
51
259.4772924
0
ARC
8
DEFAULT_255_2_778
10
18.5723251
20
19.4810131
40
0.6507003
50
249.9919323
51
260.7592458
0
ARC
8
DEFAULT_255_2_778
10
18.376901
20
18.9705546
40
0.1045718
50
178.6452075
51
254.9151907
0
ARC
8
DEFAULT_255_2_778
10
18.3939581
20
18.9671016
40
0.121744
50
93.2745253
51
177.21023
0
ARC
8
DEFAULT_255_2_778
10
18.4475726
20
18.7800052
40
0.3145287
50
89.6200387
51
101.1027534
0
ARC
8
DEFAULT_255_2_778
10
18.4613489
20
18.8933453
40
0.2015212
50
53.1490002
51
93.3256649
0
ARC
8
DEFAULT_255_2_778
10
18.4902753
20
18.9501519
40
0.1391457
50
357.2298288
51
48.6469881
0
ARC
8
DEFAULT_255_2_778
10
18.5137232
20
18.9434226
40
0.3092351
50
0.0008291
51
2.3676985
0
ARC
8
DEFAULT_255_2_778
10
18.5240744
20
18.9449868
40
0.2988304
50
2.1500394
51
60.0956838
0
ARC
8
DEFAULT_255_2_778
10
18.4654399
20
18.8384909
40
0.4203859
50
60.40452
51
86.1455285
0
ARC
8
DEFAULT_255_2_778
10
18.4424157
20
18.6616686
40
0.5984588
50
85.0841409
51
90.0629301
0
ARC
8
DEFAULT_255_2_778
10
18.4417778
20
18.7846392
40
0.4754878
50
90.0023409
51
92.3231329
0
ARC
8
DEFAULT_255_2_778
10
18.4167555
20
18.8899604
40
0.3698206
50
89.1093915
51
149.6400816
0
ARC
8
DEFAULT_255_2_778
10
18.338761
20
18.9623917
40
0.2669122
50
154.6001925
51
180.486137
0
ARC
8
DEFAULT_255_2_778
10
18.3537607
20
18.9610152
40
0.2819037
50
180.1805176
51
255.132702
0
ARC
8
DEFAULT_255_2_778
10
18.4982264
20
19.2842784
40
0.6339516
50
250.0026216
51
260.4967164
0
ARC
8
DEFAULT_255_2_778
10
16.008917
20
17.4914283
40
0.2519711
50
190.2626864
51
267.3480013
0
ARC
8
DEFAULT_255_2_778
10
16.2443543
20
17.5827548
40
0.5022041
50
179.6723028
51
195.7380858
0
ARC
8
DEFAULT_255_2_778
10
16.1790511
20
17.5982671
40
0.4370755
50
148.7005643
51
181.6572045
0
ARC
8
DEFAULT_255_2_778
10
15.9957576
20
17.7083723
40
0.2232598
50
89.6148479
51
148.4074796
0
ARC
8
DEFAULT_255_2_778
10
16.0060936
20
17.730449
40
0.201372
50
41.9769772
51
92.5146611
0
ARC
8
DEFAULT_255_2_778
10
15.9522078
20
17.6927523
40
0.2667646
50
15.1848537
51
40.2549591
0
ARC
8
DEFAULT_255_2_778
10
16.028123
20
17.7030326
40
0.3935735
50
8.7091682
51
82.0550801
0
ARC
8
DEFAULT_255_2_778
10
15.9931241
20
17.5565871
40
0.543642
50
80.5350289
51
90.1544743
0
ARC
8
DEFAULT_255_2_778
10
15.9818804
20
17.6452192
40
0.4551129
50
88.7689246
51
119.6437418
0
ARC
8
DEFAULT_255_2_778
10
16.0077717
20
17.6489647
40
0.4653013
50
122.644121
51
173.3997839
0
ARC
8
DEFAULT_255_2_778
10
16.2711934
20
17.5846568
40
0.7351371
50
170.7798304
51
180.1348114
0
ARC
8
DEFAULT_255_2_778
10
16.1377257
20
17.5692615
40
0.6018225
50
178.6988735
51
210.5289552
0
ARC
8
DEFAULT_255_2_778
10
15.970325
20
17.4784953
40
0.4115783
50
211.4828222
51
265.8686737
0
ARC
8
DEFAULT_255_2_778
10
15.9909864
20
17.6032011
40
0.5375742
50
264.6297133
51
270.0503073
0
ARC
8
DEFAULT_255_2_778
10
16.0020995
20
17.5350749
40
0.4695684
50
268.7014824
51
300.1403067
0
ARC
8
DEFAULT_255_2_778
10
16.0350333
20
17.4566852
40
0.385394
50
301.7580058
51
353.77968
0
ARC
8
DEFAULT_255_2_778
10
16.0012256
20
17.4510219
40
0.2113379
50
268.8430278
51
350.1661143
0
ARC
8
DEFAULT_255_2_778
10
18.6896799
20
17.4913824
40
0.2519281
50
190.2538303
51
267.3332171
0
ARC
8
DEFAULT_255_2_778
10
18.9252249
20
17.5827581
40
0.5022746
50
179.672724
51
195.7362088
0
ARC
8
DEFAULT_255_2_778
10
18.8600432
20
17.5982917
40
0.4372682
50
148.7196987
51
181.6596982
0
ARC
8
DEFAULT_255_2_778
10
18.676443
20
17.7084906
40
0.2231415
50
89.6108896
51
148.4244661
0
ARC
8
DEFAULT_255_2_778
10
18.686876
20
17.730467
40
0.2013576
50
42.5913083
51
92.5383066
0
ARC
8
DEFAULT_255_2_778
10
18.6345542
20
17.6940973
40
0.2646316
50
15.0085433
51
40.7215892
0
ARC
8
DEFAULT_255_2_778
10
18.708623
20
17.7030326
40
0.3935735
50
8.7091682
51
82.0550801
0
ARC
8
DEFAULT_255_2_778
10
18.6736241
20
17.5565871
40
0.543642
50
80.5350289
51
90.1544743
0
ARC
8
DEFAULT_255_2_778
10
18.6623804
20
17.6452192
40
0.4551129
50
88.7689246
51
119.6437418
0
ARC
8
DEFAULT_255_2_778
10
18.6882717
20
17.6489647
40
0.4653013
50
122.644121
51
173.3997839
0
ARC
8
DEFAULT_255_2_778
10
18.9516934
20
17.5846568
40
0.7351371
50
170.7798304
51
180.1348114
0
ARC
8
DEFAULT_255_2_778
10
18.8177822
20
17.56932
40
0.6013778
50
178.7034849
51
210.5604279
0
ARC
8
DEFAULT_255_2_778
10
18.6511312
20
17.4788377
40
0.4119265
50
211.5090145
51
265.8592607
0
ARC
8
DEFAULT_255_2_778
10
18.6716883
20
17.6029521
40
0.5373252
50
264.628472
51
270.0501277
0
ARC
8
DEFAULT_255_2_778
10
18.682837
20
17.5348685
40
0.4693629
50
268.6963312
51
300.2191972
0
ARC
8
DEFAULT_255_2_778
10
18.7155684
20
17.4569124
40
0.3856821
50
301.8465101
51
353.7503927
0
ARC
8
DEFAULT_255_2_778
10
18.6820648
20
17.4508604
40
0.2111733
50
268.8857714
51
350.2028431
0
LINE
8
DEFAULT_255_2_778
10
15.4577584
20
18.5449271
11
15.2656584
21
18.5449271
0
LINE
8
DEFAULT_255_2_778
10
15.8405584
20
18.9434271
11
16.0342584
21
18.9434271
0
LINE
8
DEFAULT_255_2_778
10
18.2459584
20
18.5449271
11
18.0540584
21
18.5449271
0
LINE
8
DEFAULT_255_2_778
10
18.6292584
20
18.9434271
11
18.8229584
21
18.9434271
0
LINE
8
DEFAULT_255_2_778
10
16.2096584
20
17.7626271
11
16.4171584
21
17.7626271
0
LINE
8
DEFAULT_255_2_778
10
16.4181584
20
17.4149271
11
16.2094584
21
17.4149271
0
LINE
8
DEFAULT_255_2_778
10
18.8901584
20
17.7626271
11
19.0976584
21
17.7626271
0
LINE
8
DEFAULT_255_2_778
10
19.0989584
20
17.4149271
11
18.8901584
21
17.4149271
0
LINE
8
DEFAULT_255_1_234
10
4.9274119
20
12.6991792
11
4.9274119
21
12.5779
0
LINE
8
DEFAULT_255_1_234
10
4.9274119
20
12.5779
11
4.161184
21
12.5779
0
LINE
8
DEFAULT_255_1_234
10
4.161184
20
12.5779
11
4.161184
21
12.6847221
0
LINE
8
DEFAULT_255_1_234
10
4.161184
20
12.6847221
11
4.5659836
21
13.1344995
0
LINE
8
DEFAULT_255_1_234
10
4.2872823
20
13.4027595
11
4.1386952
21
13.4027595
0
LINE
8
DEFAULT_255_1_234
10
4.6535296
20
13.0389218
11
4.3402918
21
12.6991792
0
LINE
8
DEFAULT_255_1_234
10
4.3402918
20
12.6991792
11
4.9274119
21
12.6991792
0
ARC
8
DEFAULT_255_1_234
10
3.216967
20
14.3274527
40
1.8008286
50
318.5132453
51
320.7828378
0
ARC
8
DEFAULT_255_1_234
10
3.7456644
20
13.8971426
40
1.1191493
50
320.7372736
51
323.9737074
0
ARC
8
DEFAULT_255_1_234
10
4.1376501
20
13.6131361
40
0.6350923
50
323.8961724
51
328.6421089
0
ARC
8
DEFAULT_255_1_234
10
4.3423096
20
13.4869031
40
0.3946393
50
328.8299013
51
331.789948
0
ARC
8
DEFAULT_255_1_234
10
4.4420274
20
13.4354509
40
0.2824501
50
331.4255242
51
352.9364833
0
ARC
8
DEFAULT_255_1_234
10
4.4556775
20
13.4323976
40
0.2685315
50
353.2248685
51
0.0169286
0
ARC
8
DEFAULT_255_1_234
10
4.4766652
20
13.434695
40
0.2475536
50
359.4866256
51
15.9339782
0
ARC
8
DEFAULT_255_1_234
10
4.5273637
20
13.4483286
40
0.1950618
50
16.1714718
51
43.5284424
0
ARC
8
DEFAULT_255_1_234
10
4.5350946
20
13.4560573
40
0.184134
50
43.4415429
51
83.1661404
0
ARC
8
DEFAULT_255_1_234
10
4.5216864
20
13.3823771
40
0.258926
50
82.160215
51
90.1505798
0
ARC
8
DEFAULT_255_1_234
10
4.5185291
20
13.3286865
40
0.3126255
50
89.5460705
51
102.5418777
0
ARC
8
DEFAULT_255_1_234
10
4.4942377
20
13.4317665
40
0.2067346
50
102.1739365
51
129.2061916
0
ARC
8
DEFAULT_255_1_234
10
4.4863449
20
13.4442094
40
0.1921118
50
129.7279328
51
135.7542026
0
ARC
8
DEFAULT_255_1_234
10
4.4984977
20
13.4345045
40
0.2075944
50
136.175737
51
166.3674722
0
ARC
8
DEFAULT_255_1_234
10
4.5991896
20
13.4075182
40
0.3118201
50
165.9092917
51
178.8683903
0
ARC
8
DEFAULT_255_1_234
10
4.6856757
20
13.4028179
40
0.3983935
50
178.438168
51
180.0083905
0
ARC
8
DEFAULT_255_1_234
10
4.5455359
20
13.4067231
40
0.4068601
50
163.2878735
51
180.5581814
0
ARC
8
DEFAULT_255_1_234
10
4.4653621
20
13.428784
40
0.3237344
50
133.454115
51
162.9470031
0
ARC
8
DEFAULT_255_1_234
10
4.4832162
20
13.4098
40
0.349795
50
100.7869394
51
133.4384016
0
ARC
8
DEFAULT_255_1_234
10
4.5179934
20
13.2549319
40
0.5084616
50
89.6605301
51
101.3704185
0
ARC
8
DEFAULT_255_1_234
10
4.5246273
20
13.2610496
40
0.502348
50
78.2171172
51
90.4130393
0
ARC
8
DEFAULT_255_1_234
10
4.5601351
20
13.4234637
40
0.3361092
50
55.9268222
51
78.4888551
0
ARC
8
DEFAULT_255_1_234
10
4.5797791
20
13.4573324
40
0.2970617
50
47.9292255
51
55.4054003
0
ARC
8
DEFAULT_255_1_234
10
4.5899352
20
13.4676502
40
0.2825983
50
4.3347696
51
48.0560701
0
ARC
8
DEFAULT_255_1_234
10
4.4803745
20
13.4506601
40
0.393225
50
359.925209
51
5.5967654
0
ARC
8
DEFAULT_255_1_234
10
4.5232637
20
13.4562816
40
0.3503892
50
337.8914096
51
358.9967724
0
ARC
8
DEFAULT_255_1_234
10
4.2519049
20
13.5609706
40
0.6412172
50
326.9135351
51
338.3505194
0
ARC
8
DEFAULT_255_1_234
10
3.8533353
20
13.8164284
40
1.1146189
50
319.6472867
51
327.095818
0
ARC
8
DEFAULT_255_1_234
10
3.4700356
20
14.1326
40
1.6114559
50
317.2586784
51
319.9046139
0
LINE
8
DEFAULT_255_1_234
10
5.7121127
20
13.7473211
11
5.7121127
21
12.970652
0
LINE
8
DEFAULT_255_1_234
10
5.7121127
20
12.970652
11
5.8743538
21
12.970652
0
LINE
8
DEFAULT_255_1_234
10
5.8743538
20
12.970652
11
5.8743538
21
12.8493728
0
LINE
8
DEFAULT_255_1_234
10
5.8743538
20
12.8493728
11
5.7121127
21
12.8493728
0
LINE
8
DEFAULT_255_1_234
10
5.7121127
20
12.8493728
11
5.7121127
21
12.5779
0
LINE
8
DEFAULT_255_1_234
10
5.7121127
20
12.5779
11
5.5627224
21
12.5779
0
LINE
8
DEFAULT_255_1_234
10
5.5627224
20
12.5779
11
5.5627224
21
12.8493728
0
LINE
8
DEFAULT_255_1_234
10
5.5627224
20
12.8493728
11
5.0302181
21
12.8493728
0
LINE
8
DEFAULT_255_1_234
10
5.0302181
20
12.8493728
11
5.0302181
21
12.9369187
0
LINE
8
DEFAULT_255_1_234
10
5.0302181
20
12.9369187
11
5.5538875
21
13.7473211
0
LINE
8
DEFAULT_255_1_234
10
5.5538875
20
13.7473211
11
5.7121127
21
13.7473211
0
LINE
8
DEFAULT_255_1_234
10
5.5450525
20
13.5119912
11
5.1988846
21
12.970652
0
LINE
8
DEFAULT_255_1_234
10
5.1988846
20
12.970652
11
5.5627224
21
12.970652
0
LINE
8
DEFAULT_255_1_234
10
5.5627224
20
12.970652
11
5.5627224
21
13.5441181
0
LINE
8
DEFAULT_255_1_234
10
5.5627224
20
13.5441181
11
5.5450525
21
13.5119912
0
LINE
8
DEFAULT_255_1_234
10
6.101652
20
13.7473211
11
6.434166
21
12.7827093
0
LINE
8
DEFAULT_255_1_234
10
6.434166
20
12.7827093
11
6.7682863
21
13.7473211
0
LINE
8
DEFAULT_255_1_234
10
6.7682863
20
13.7473211
11
6.9369528
21
13.7473211
0
LINE
8
DEFAULT_255_1_234
10
6.9369528
20
13.7473211
11
6.5032389
21
12.5779
0
LINE
8
DEFAULT_255_1_234
10
6.5032389
20
12.5779
11
6.3666994
21
12.5779
0
LINE
8
DEFAULT_255_1_234
10
6.3666994
20
12.5779
11
5.9337887
21
13.7473211
0
LINE
8
DEFAULT_255_1_234
10
5.9337887
20
13.7473211
11
6.101652
21
13.7473211
0
LINE
8
DEFAULT_255_1_234
10
4.949123
20
5.0114663
11
5.1041355
21
5.0114663
0
LINE
8
DEFAULT_255_1_234
10
4.2037777
20
5.1704947
11
4.2037777
21
5.2829391
0
LINE
8
DEFAULT_255_1_234
10
5.1041355
20
5.4339357
11
4.949123
21
5.4339357
0
LINE
8
DEFAULT_255_1_234
10
4.3587902
20
5.2789232
11
4.3587902
21
5.1656757
0
ARC
8
DEFAULT_255_1_234
10
4.5560742
20
5.0711846
40
0.5513052
50
340.1774281
51
353.7814284
0
ARC
8
DEFAULT_255_1_234
10
4.7132095
20
5.0126582
40
0.3836379
50
311.4558989
51
340.4421614
0
ARC
8
DEFAULT_255_1_234
10
4.7098763
20
5.0237528
40
0.3941894
50
282.4333181
51
310.7513653
0
ARC
8
DEFAULT_255_1_234
10
4.6659502
20
5.2052679
40
0.5809175
50
269.9358511
51
282.809604
0
ARC
8
DEFAULT_255_1_234
10
4.6607568
20
5.3510212
40
0.7266847
50
270.0021091
51
270.3581957
0
ARC
8
DEFAULT_255_1_234
10
4.6554985
20
5.0909585
40
0.4666519
50
250.7884749
51
270.6489167
0
ARC
8
DEFAULT_255_1_234
10
4.638682
20
5.0272319
40
0.4009729
50
219.3627325
51
250.0611886
0
ARC
8
DEFAULT_255_1_234
10
4.7216031
20
5.0977042
40
0.5097822
50
193.5479632
51
219.5756669
0
ARC
8
DEFAULT_255_1_234
10
4.9587652
20
5.1592919
40
0.7547848
50
181.1218675
51
193.87563
0
ARC
8
DEFAULT_255_1_234
10
5.1657833
20
5.170358
40
0.9620055
50
179.9918545
51
181.5394234
0
ARC
8
DEFAULT_255_1_234
10
4.9806935
20
5.2866788
40
0.7769248
50
169.5837241
51
180.2757934
0
ARC
8
DEFAULT_255_1_234
10
4.7969873
20
5.3206229
40
0.590109
50
155.0365899
51
169.6003176
0
ARC
8
DEFAULT_255_1_234
10
4.6834337
20
5.3753677
40
0.4640625
50
136.783148
51
155.2472683
0
ARC
8
DEFAULT_255_1_234
10
4.6444814
20
5.4084562
40
0.4130255
50
121.7633186
51
136.428115
0
ARC
8
DEFAULT_255_1_234
10
4.6579776
20
5.3835227
40
0.4413323
50
95.6459699
51
121.5490577
0
ARC
8
DEFAULT_255_1_234
10
4.6737058
20
5.2726949
40
0.55319
50
89.924208
51
96.1377933
0
ARC
8
DEFAULT_255_1_234
10
4.6787491
20
5.2845542
40
0.5413475
50
76.6779277
51
90.4563316
0
ARC
8
DEFAULT_255_1_234
10
4.7181114
20
5.4436114
40
0.3775041
50
47.485847
51
76.9287264
0
ARC
8
DEFAULT_255_1_234
10
4.7034087
20
5.4336159
40
0.3948286
50
16.5424086
51
46.8933463
0
ARC
8
DEFAULT_255_1_234
10
4.5426244
20
5.3807861
40
0.564021
50
5.4072051
51
17.0365086
0
ARC
8
DEFAULT_255_1_234
10
4.3987261
20
5.3576679
40
0.5556559
50
7.8891745
51
15.9239216
0
ARC
8
DEFAULT_255_1_234
10
4.5974274
20
5.4153631
40
0.3487515
50
15.7653144
51
27.9410532
0
ARC
8
DEFAULT_255_1_234
10
4.7078492
20
5.474479
40
0.2235026
50
27.8166557
51
46.4008329
0
ARC
8
DEFAULT_255_1_234
10
4.7128135
20
5.4739082
40
0.2205286
50
47.4371857
51
75.0698205
0
ARC
8
DEFAULT_255_1_234
10
4.6819529
20
5.3664765
40
0.3322915
50
74.7008593
51
87.8124495
0
ARC
8
DEFAULT_255_1_234
10
4.6746217
20
5.2608844
40
0.4380987
50
87.3814673
51
90.0240855
0
ARC
8
DEFAULT_255_1_234
10
4.670776
20
5.3786291
40
0.3203749
50
89.3451631
51
108.5745436
0
ARC
8
DEFAULT_255_1_234
10
4.6570865
20
5.4299908
40
0.2673494
50
109.2998449
51
143.3037509
0
ARC
8
DEFAULT_255_1_234
10
4.7332938
20
5.3713881
40
0.3634757
50
143.0753173
51
163.1916937
0
ARC
8
DEFAULT_255_1_234
10
4.9284666
20
5.3097967
40
0.5681262
50
162.9373603
51
174.6208611
0
ARC
8
DEFAULT_255_1_234
10
5.1910708
20
5.281001
40
0.8322832
50
174.3419979
51
180.1430411
0
ARC
8
DEFAULT_255_1_234
10
5.0979864
20
5.1615698
40
0.7392076
50
179.6817502
51
189.150529
0
ARC
8
DEFAULT_255_1_234
10
4.8479112
20
5.119919
40
0.4856932
50
188.9910863
51
203.5773039
0
ARC
8
DEFAULT_255_1_234
10
4.7399445
20
5.0751211
40
0.3688271
50
203.9077269
51
215.1312379
0
ARC
8
DEFAULT_255_1_234
10
4.6476539
20
5.0035941
40
0.2522457
50
213.9071664
51
263.8849284
0
ARC
8
DEFAULT_255_1_234
10
4.6601868
20
5.0820518
40
0.3316174
50
263.1758525
51
270.1031083
0
ARC
8
DEFAULT_255_1_234
10
4.663396
20
5.2067365
40
0.4563091
50
269.6719807
51
279.0609165
0
ARC
8
DEFAULT_255_1_234
10
4.6900728
20
5.0454907
40
0.2928759
50
278.8750225
51
293.6346586
0
ARC
8
DEFAULT_255_1_234
10
4.7220936
20
4.97029
40
0.2111472
50
293.8553404
51
310.0518804
0
ARC
8
DEFAULT_255_1_234
10
4.722579
20
4.9640516
40
0.2060917
50
311.0646779
51
332.0108348
0
ARC
8
DEFAULT_255_1_234
10
4.6033517
20
5.0297978
40
0.3422352
50
331.6588543
51
343.2878891
0
ARC
8
DEFAULT_255_1_234
10
4.3971032
20
5.0931798
40
0.5580003
50
343.1446044
51
351.010618
0
ARC
8
DEFAULT_255_1_234
10
4.2429678
20
5.1212871
40
0.7146438
50
350.7157277
51
351.1602153
0
LINE
8
DEFAULT_255_1_234
10
6.2141218
20
5.2612534
11
6.2141218
21
5.1873614
0
LINE
8
DEFAULT_255_1_234
10
5.2736052
20
5.1769201
11
5.2736052
21
5.2612534
0
LINE
8
DEFAULT_255_1_234
10
6.0607156
20
5.1761169
11
6.0607156
21
5.2628597
0
LINE
8
DEFAULT_255_1_234
10
5.4270114
20
5.273301
11
5.4270114
21
5.1873614
0
ARC
8
DEFAULT_255_1_234
10
5.3499244
20
5.1834015
40
0.8642064
50
350.487711
51
0.2625388
0
ARC
8
DEFAULT_255_1_234
10
5.5792486
20
5.1439578
40
0.631518
50
336.0277639
51
350.5787438
0
ARC
8
DEFAULT_255_1_234
10
5.7137309
20
5.0831892
40
0.4839466
50
319.8877444
51
336.1328423
0
ARC
8
DEFAULT_255_1_234
10
5.773995
20
5.034958
40
0.4067874
50
302.4806467
51
319.6143626
0
ARC
8
DEFAULT_255_1_234
10
5.762496
20
5.0571202
40
0.4316636
50
275.8195682
51
302.1884709
0
ARC
8
DEFAULT_255_1_234
10
5.7458593
20
5.1713665
40
0.5470306
50
269.9171439
51
276.3397983
0
ARC
8
DEFAULT_255_1_234
10
5.7413803
20
5.1027681
40
0.4784458
50
252.5219675
51
270.4416499
0
ARC
8
DEFAULT_255_1_234
10
5.7270062
20
5.0488592
40
0.422716
50
237.5352116
51
252.1857531
0
ARC
8
DEFAULT_255_1_234
10
5.7359258
20
5.0602363
40
0.4371052
50
209.063312
51
237.3492538
0
ARC
8
DEFAULT_255_1_234
10
5.8229106
20
5.1148685
40
0.5397041
50
205.1183774
51
209.6470015
0
ARC
8
DEFAULT_255_1_234
10
5.9026143
20
5.148683
40
0.6262326
50
188.7215458
51
204.8240747
0
ARC
8
DEFAULT_255_1_234
10
6.1023671
20
5.1823067
40
0.8287794
50
180.3723947
51
188.9252049
0
ARC
8
DEFAULT_255_1_234
10
6.0996423
20
5.2652402
40
0.8260467
50
169.5253763
51
180.2765336
0
ARC
8
DEFAULT_255_1_234
10
5.9093871
20
5.3002309
40
0.6326007
50
155.8315255
51
169.5089989
0
ARC
8
DEFAULT_255_1_234
10
5.7813373
20
5.3596348
40
0.4914567
50
139.6258461
51
156.0379525
0
ARC
8
DEFAULT_255_1_234
10
5.7223706
20
5.4070799
40
0.4158054
50
122.6416387
51
139.3430715
0
ARC
8
DEFAULT_255_1_234
10
5.7324326
20
5.3887451
40
0.4366739
50
93.0223692
51
122.455762
0
ARC
8
DEFAULT_255_1_234
10
5.7432323
20
5.2922709
40
0.5336137
50
89.975342
51
93.6341897
0
ARC
8
DEFAULT_255_1_234
10
5.7471102
20
5.3321242
40
0.4937738
50
73.746375
51
90.4233405
0
ARC
8
DEFAULT_255_1_234
10
5.7646681
20
5.4001287
40
0.4235786
50
57.662753
51
73.4518111
0
ARC
8
DEFAULT_255_1_234
10
5.7638687
20
5.4022832
40
0.4221899
50
29.1440151
51
57.414694
0
ARC
8
DEFAULT_255_1_234
10
5.6703882
20
5.3439005
40
0.5322966
50
24.0982783
51
29.7323517
0
ARC
8
DEFAULT_255_1_234
10
5.5670157
20
5.3010399
40
0.6441673
50
8.6655297
51
23.8241346
0
ARC
8
DEFAULT_255_1_234
10
5.3435895
20
5.2645854
40
0.8705386
50
359.7806941
51
8.8218784
0
ARC
8
DEFAULT_255_1_234
10
5.2288893
20
5.2671345
40
0.8318373
50
359.7055579
51
8.036044
0
ARC
8
DEFAULT_255_1_234
10
5.5288899
20
5.3108239
40
0.5286768
50
7.8928306
51
20.2962107
0
ARC
8
DEFAULT_255_1_234
10
5.691647
20
5.3708395
40
0.3552073
50
20.3231126
51
36.4992797
0
ARC
8
DEFAULT_255_1_234
10
5.7602016
20
5.4236402
40
0.2686974
50
36.1437156
51
85.6627023
0
ARC
8
DEFAULT_255_1_234
10
5.7439562
20
5.3196221
40
0.373739
50
84.3852322
51
90.0757696
0
ARC
8
DEFAULT_255_1_234
10
5.7397234
20
5.3856839
40
0.3076997
50
89.3038458
51
109.9045693
0
ARC
8
DEFAULT_255_1_234
10
5.7304625
20
5.4239062
40
0.2686424
50
110.8228367
51
143.9179474
0
ARC
8
DEFAULT_255_1_234
10
5.8238285
20
5.3526236
40
0.3860887
50
143.5289163
51
163.2980757
0
ARC
8
DEFAULT_255_1_234
10
6.0146106
20
5.2926433
40
0.5860659
50
163.0418846
51
174.3140048
0
ARC
8
DEFAULT_255_1_234
10
6.2550218
20
5.2648854
40
0.8280531
50
174.0509143
51
179.4176892
0
ARC
8
DEFAULT_255_1_234
10
6.2045957
20
5.1831954
40
0.7775954
50
179.6930361
51
188.7906598
0
ARC
8
DEFAULT_255_1_234
10
5.9382436
20
5.1405935
40
0.5078633
50
188.6331305
51
202.5629587
0
ARC
8
DEFAULT_255_1_234
10
5.8128028
20
5.0901996
40
0.3726913
50
202.8081362
51
216.1193925
0
ARC
8
DEFAULT_255_1_234
10
5.7318598
20
5.0250676
40
0.2689577
50
215.0755913
51
264.6379694
0
ARC
8
DEFAULT_255_1_234
10
5.7445548
20
5.1081513
40
0.3528978
50
263.846392
51
270.0833719
0
ARC
8
DEFAULT_255_1_234
10
5.7486938
20
5.0823374
40
0.3271036
50
269.3649385
51
287.5152008
0
ARC
8
DEFAULT_255_1_234
10
5.7665096
20
5.0176238
40
0.2600406
50
288.0630309
51
323.8113348
0
ARC
8
DEFAULT_255_1_234
10
5.6793937
20
5.0826049
40
0.3687189
50
323.6547608
51
342.6590488
0
ARC
8
DEFAULT_255_1_234
10
5.4762552
20
5.1486952
40
0.5823286
50
342.4091907
51
353.6451149
0
ARC
8
DEFAULT_255_1_234
10
5.1931063
20
5.183919
40
0.8676442
50
353.4029884
51
359.4847795
0
LINE
8
DEFAULT_255_1_234
10
7.3441874
20
5.8098211
11
7.3441874
21
4.6404
0
LINE
8
DEFAULT_255_1_234
10
7.3441874
20
4.6404
11
7.1891748
21
4.6404
0
LINE
8
DEFAULT_255_1_234
10
7.1891748
20
4.6404
11
6.6004484
21
5.541561
0
LINE
8
DEFAULT_255_1_234
10
6.6004484
20
5.541561
11
6.6004484
21
4.6404
0
LINE
8
DEFAULT_255_1_234
10
6.6004484
20
4.6404
11
6.4454358
21
4.6404
0
LINE
8
DEFAULT_255_1_234
10
6.4454358
20
4.6404
11
6.4454358
21
5.8098211
0
LINE
8
DEFAULT_255_1_234
10
6.4454358
20
5.8098211
11
6.6004484
21
5.8098211
0
LINE
8
DEFAULT_255_1_234
10
6.6004484
20
5.8098211
11
7.1907812
21
4.9046442
0
LINE
8
DEFAULT_255_1_234
10
7.1907812
20
4.9046442
11
7.1907812
21
5.8098211
0
LINE
8
DEFAULT_255_1_234
10
7.1907812
20
5.8098211
11
7.3441874
21
5.8098211
0
LINE
8
DEFAULT_255_1_234
10
8.067847
20
5.8154433
11
8.067847
21
4.6404
0
LINE
8
DEFAULT_255_1_234
10
8.067847
20
4.6404
11
7.9184566
21
4.6404
0
LINE
8
DEFAULT_255_1_234
10
7.9184566
20
4.6404
11
7.9184566
21
5.6307133
0
LINE
8
DEFAULT_255_1_234
10
7.9184566
20
5.6307133
11
7.6188728
21
5.5206785
0
LINE
8
DEFAULT_255_1_234
10
7.6188728
20
5.5206785
11
7.6188728
21
5.6556117
0
LINE
8
DEFAULT_255_1_234
10
7.6188728
20
5.6556117
11
8.0445549
21
5.8154433
0
LINE
8
DEFAULT_255_1_234
10
8.0445549
20
5.8154433
11
8.067847
21
5.8154433
0
LINE
8
DEFAULT_255_1_234
10
22.1801119
20
12.6991792
11
22.1801119
21
12.5779
0
LINE
8
DEFAULT_255_1_234
10
22.1801119
20
12.5779
11
21.413884
21
12.5779
0
LINE
8
DEFAULT_255_1_234
10
21.413884
20
12.5779
11
21.413884
21
12.6847221
0
LINE
8
DEFAULT_255_1_234
10
21.413884
20
12.6847221
11
21.8186836
21
13.1344995
0
LINE
8
DEFAULT_255_1_234
10
21.5399823
20
13.4027595
11
21.3913952
21
13.4027595
0
LINE
8
DEFAULT_255_1_234
10
21.9062296
20
13.0389218
11
21.5929918
21
12.6991792
0
LINE
8
DEFAULT_255_1_234
10
21.5929918
20
12.6991792
11
22.1801119
21
12.6991792
0
ARC
8
DEFAULT_255_1_234
10
20.469667
20
14.3274527
40
1.8008286
50
318.5132453
51
320.7828378
0
ARC
8
DEFAULT_255_1_234
10
20.9983644
20
13.8971426
40
1.1191493
50
320.7372736
51
323.9737074
0
ARC
8
DEFAULT_255_1_234
10
21.3903501
20
13.6131361
40
0.6350923
50
323.8961724
51
328.6421089
0
ARC
8
DEFAULT_255_1_234
10
21.5950096
20
13.4869031
40
0.3946393
50
328.8299013
51
331.789948
0
ARC
8
DEFAULT_255_1_234
10
21.6947274
20
13.4354509
40
0.2824501
50
331.4255242
51
352.9364833
0
ARC
8
DEFAULT_255_1_234
10
21.7083775
20
13.4323976
40
0.2685315
50
353.2248685
51
0.0169286
0
ARC
8
DEFAULT_255_1_234
10
21.7293652
20
13.434695
40
0.2475536
50
359.4866256
51
15.9339782
0
ARC
8
DEFAULT_255_1_234
10
21.7800637
20
13.4483286
40
0.1950618
50
16.1714718
51
43.5284424
0
ARC
8
DEFAULT_255_1_234
10
21.7877946
20
13.4560573
40
0.184134
50
43.4415429
51
83.1661404
0
ARC
8
DEFAULT_255_1_234
10
21.7743864
20
13.3823771
40
0.258926
50
82.160215
51
90.1505798
0
ARC
8
DEFAULT_255_1_234
10
21.7712291
20
13.3286865
40
0.3126255
50
89.5460705
51
102.5418777
0
ARC
8
DEFAULT_255_1_234
10
21.7469377
20
13.4317665
40
0.2067346
50
102.1739365
51
129.2061916
0
ARC
8
DEFAULT_255_1_234
10
21.7390449
20
13.4442094
40
0.1921118
50
129.7279328
51
135.7542026
0
ARC
8
DEFAULT_255_1_234
10
21.7511977
20
13.4345045
40
0.2075944
50
136.175737
51
166.3674722
0
ARC
8
DEFAULT_255_1_234
10
21.8518896
20
13.4075182
40
0.3118201
50
165.9092917
51
178.8683903
0
ARC
8
DEFAULT_255_1_234
10
21.9383757
20
13.4028179
40
0.3983935
50
178.438168
51
180.0083905
0
ARC
8
DEFAULT_255_1_234
10
21.7982359
20
13.4067231
40
0.4068601
50
163.2878735
51
180.5581814
0
ARC
8
DEFAULT_255_1_234
10
21.7180621
20
13.428784
40
0.3237344
50
133.454115
51
162.9470031
0
ARC
8
DEFAULT_255_1_234
10
21.7359162
20
13.4098
40
0.349795
50
100.7869394
51
133.4384016
0
ARC
8
DEFAULT_255_1_234
10
21.7706934
20
13.2549319
40
0.5084616
50
89.6605301
51
101.3704185
0
ARC
8
DEFAULT_255_1_234
10
21.7773273
20
13.2610496
40
0.502348
50
78.2171172
51
90.4130393
0
ARC
8
DEFAULT_255_1_234
10
21.8128351
20
13.4234637
40
0.3361092
50
55.9268222
51
78.4888551
0
ARC
8
DEFAULT_255_1_234
10
21.8324791
20
13.4573324
40
0.2970617
50
47.9292255
51
55.4054003
0
ARC
8
DEFAULT_255_1_234
10
21.8426352
20
13.4676502
40
0.2825983
50
4.3347696
51
48.0560701
0
ARC
8
DEFAULT_255_1_234
10
21.7330745
20
13.4506601
40
0.393225
50
359.925209
51
5.5967654
0
ARC
8
DEFAULT_255_1_234
10
21.7759637
20
13.4562816
40
0.3503892
50
337.8914096
51
358.9967724
0
ARC
8
DEFAULT_255_1_234
10
21.5046049
20
13.5609706
40
0.6412172
50
326.9135351
51
338.3505194
0
ARC
8
DEFAULT_255_1_234
10
21.1060353
20
13.8164284
40
1.1146189
50
319.6472867
51
327.095818
0
ARC
8
DEFAULT_255_1_234
10
20.7227356
20
14.1326
40
1.6114559
50
317.2586784
51
319.9046139
0
LINE
8
DEFAULT_255_1_234
10
22.9648127
20
13.7473211
11
22.9648127
21
12.970652
0
LINE
8
DEFAULT_255_1_234
10
22.9648127
20
12.970652
11
23.1270538
21
12.970652
0
LINE
8
DEFAULT_255_1_234
10
23.1270538
20
12.970652
11
23.1270538
21
12.8493728
0
LINE
8
DEFAULT_255_1_234
10
23.1270538
20
12.8493728
11
22.9648127
21
12.8493728
0
LINE
8
DEFAULT_255_1_234
10
22.9648127
20
12.8493728
11
22.9648127
21
12.5779
0
LINE
8
DEFAULT_255_1_234
10
22.9648127
20
12.5779
11
22.8154224
21
12.5779
0
LINE
8
DEFAULT_255_1_234
10
22.8154224
20
12.5779
11
22.8154224
21
12.8493728
0
LINE
8
DEFAULT_255_1_234
10
22.8154224
20
12.8493728
11
22.2829181
21
12.8493728
0
LINE
8
DEFAULT_255_1_234
10
22.2829181
20
12.8493728
11
22.2829181
21
12.9369187
0
LINE
8
DEFAULT_255_1_234
10
22.2829181
20
12.9369187
11
22.8065875
21
13.7473211
0
LINE
8
DEFAULT_255_1_234
10
22.8065875
20
13.7473211
11
22.9648127
21
13.7473211
0
LINE
8
DEFAULT_255_1_234
10
22.7977525
20
13.5119912
11
22.4515846
21
12.970652
0
LINE
8
DEFAULT_255_1_234
10
22.4515846
20
12.970652
11
22.8154224
21
12.970652
0
LINE
8
DEFAULT_255_1_234
10
22.8154224
20
12.970652
11
22.8154224
21
13.5441181
0
LINE
8
DEFAULT_255_1_234
10
22.8154224
20
13.5441181
11
22.7977525
21
13.5119912
0
LINE
8
DEFAULT_255_1_234
10
24.163148
20
13.160201
11
24.163148
21
12.7313062
0
LINE
8
DEFAULT_255_1_234
10
23.261987
20
13.1063884
11
23.261987
21
13.2083915
0
LINE
8
DEFAULT_255_1_234
10
24.163148
20
13.4043659
11
24.0089387
21
13.4043659
0
LINE
8
DEFAULT_255_1_234
10
23.4169996
20
13.2124073
11
23.4169996
21
13.1168296
0
LINE
8
DEFAULT_255_1_234
10
24.0097418
20
12.7722681
11
24.0097418
21
13.0349059
0
LINE
8
DEFAULT_255_1_234
10
24.0097418
20
13.0349059
11
23.7390723
21
13.0349059
0
LINE
8
DEFAULT_255_1_234
10
23.7390723
20
13.0349059
11
23.7390723
21
13.160201
0
LINE
8
DEFAULT_255_1_234
10
23.7390723
20
13.160201
11
24.163148
21
13.160201
0
ARC
8
DEFAULT_255_1_234
10
23.8799987
20
12.9306396
40
0.3462765
50
295.8437914
51
324.8549609
0
ARC
8
DEFAULT_255_1_234
10
23.8383954
20
13.0059567
40
0.4322211
50
291.5695085
51
296.4549398
0
ARC
8
DEFAULT_255_1_234
10
23.7873205
20
13.1424275
40
0.5779178
50
278.6622409
51
291.3045483
0
ARC
8
DEFAULT_255_1_234
10
23.7533697
20
13.3572408
40
0.7953952
50
270.020006
51
278.7494541
0
ARC
8
DEFAULT_255_1_234
10
23.7495621
20
13.4889036
40
0.927067
50
269.9969998
51
270.2524872
0
ARC
8
DEFAULT_255_1_234
10
23.7457334
20
13.0805589
40
0.5187361
50
253.5786322
51
270.4175299
0
ARC
8
DEFAULT_255_1_234
10
23.728399
20
13.0134236
40
0.4494451
50
238.8203306
51
253.2788235
0
ARC
8
DEFAULT_255_1_234
10
23.7264363
20
13.0083231
40
0.4440665
50
206.7883783
51
238.6962764
0
ARC
8
DEFAULT_255_1_234
10
23.8038273
20
13.0547405
40
0.5341121
50
206.1129412
51
207.4916643
0
ARC
8
DEFAULT_255_1_234
10
23.8635188
20
13.0801488
40
0.5989041
50
188.6921119
51
205.7821245
0
ARC
8
DEFAULT_255_1_234
10
24.049155
20
13.111723
40
0.7871862
50
180.3882829
51
188.9219216
0
ARC
8
DEFAULT_255_1_234
10
24.1719364
20
13.2140464
40
0.909967
50
170.2024264
51
180.3560651
0
ARC
8
DEFAULT_255_1_234
10
23.8555882
20
13.2706237
40
0.5886083
50
154.2857445
51
170.3893044
0
ARC
8
DEFAULT_255_1_234
10
23.7274085
20
13.329295
40
0.4476743
50
139.8401567
51
153.9332699
0
ARC
8
DEFAULT_255_1_234
10
23.6914821
20
13.3580577
40
0.4016697
50
98.4190291
51
139.6707122
0
ARC
8
DEFAULT_255_1_234
10
23.7294339
20
13.1735328
40
0.5898566
50
89.7659205
51
99.4415478
0
ARC
8
DEFAULT_255_1_234
10
23.7359588
20
13.1800844
40
0.5833147
50
78.0551672
51
90.4042112
0
ARC
8
DEFAULT_255_1_234
10
23.7764098
20
13.3619644
40
0.3970055
50
54.6380464
51
78.3339173
0
ARC
8
DEFAULT_255_1_234
10
23.7954154
20
13.3939795
40
0.3599102
50
50.031736
51
54.1558201
0
ARC
8
DEFAULT_255_1_234
10
23.7846942
20
13.3843766
40
0.3741624
50
18.1092409
51
49.7180913
0
ARC
8
DEFAULT_255_1_234
10
23.6390142
20
13.3310089
40
0.5292424
50
7.9672797
51
18.6984571
0
ARC
8
DEFAULT_255_1_234
10
23.654062
20
13.3433504
40
0.3600838
50
9.7557294
51
27.3215714
0
ARC
8
DEFAULT_255_1_234
10
23.7668092
20
13.3996912
40
0.2340608
50
27.7361077
51
84.5257964
0
ARC
8
DEFAULT_255_1_234
10
23.7340479
20
13.235364
40
0.4011215
50
82.106034
51
90.2001166
0
ARC
8
DEFAULT_255_1_234
10
23.7290696
20
13.2861215
40
0.3503799
50
89.4150119
51
105.5823402
0
ARC
8
DEFAULT_255_1_234
10
23.7033694
20
13.3796867
40
0.2533503
50
105.6678618
51
144.2648758
0
ARC
8
DEFAULT_255_1_234
10
23.7926949
20
13.3161289
40
0.3629787
50
144.3561283
51
162.8564086
0
ARC
8
DEFAULT_255_1_234
10
24.0010858
20
13.2492017
40
0.5818441
50
162.6076014
51
173.6780284
0
ARC
8
DEFAULT_255_1_234
10
24.3072002
20
13.211989
40
0.8902007
50
173.4670142
51
179.9730753
0
ARC
8
DEFAULT_255_1_234
10
24.1163673
20
13.112626
40
0.6993804
50
179.6556203
51
190.0080463
0
ARC
8
DEFAULT_255_1_234
10
23.8847502
20
13.0701375
40
0.4639066
50
189.8116607
51
206.6796816
0
ARC
8
DEFAULT_255_1_234
10
23.8002654
20
13.0307503
40
0.3707421
50
207.1031645
51
217.7074368
0
ARC
8
DEFAULT_255_1_234
10
23.7368343
20
12.9755559
40
0.2868417
50
216.7345547
51
265.6812148
0
ARC
8
DEFAULT_255_1_234
10
23.7499134
20
13.0659855
40
0.3780509
50
264.7366618
51
270.0611241
0
ARC
8
DEFAULT_255_1_234
10
23.7522397
20
13.3500111
40
0.662079
50
269.8335834
51
276.0539546
0
ARC
8
DEFAULT_255_1_234
10
23.7729402
20
13.159856
40
0.4708016
50
275.9894168
51
284.4615085
0
ARC
8
DEFAULT_255_1_234
10
23.7927409
20
13.0765663
40
0.3852094
50
284.7034461
51
286.4953897
0
ARC
8
DEFAULT_255_1_234
10
23.8334422
20
12.9454965
40
0.2479842
50
286.0770838
51
304.2625829
0
ARC
8
DEFAULT_255_1_234
10
23.8467836
20
12.9236594
40
0.2224291
50
304.5891602
51
317.1073298
0
ENDSEC
0
EOF