0
SECTION
2
HEADER
9
$MEASUREMENT
70
1
0
ENDSEC
0
SECTION
2
TABLES
0
TABLE
2
LTYPE
0
LTYPE
72
65
70
64
2
CONTINUOUS
3
______
73
0
40
0
0
ENDTAB
0
TABLE
2
LAYER
0
LAYER
2
DEFAULT_255_2_778
70
0
62
255
6
CONTINUOUS
0
LAYER
2
DEFAULT_255_1_234
70
0
62
255
6
CONTINUOUS
0
ENDTAB
0
ENDSEC
0
SECTION
2
ENTITIES
0
ARC
8
DEFAULT_255_2_778
10
3.5700693
20
28.1802037
40
0.7914215
50
129.1312896
51
180.1450914
0
ARC
8
DEFAULT_255_2_778
10
3.5703345
20
28.1806908
40
0.7912112
50
89.854026
51
129.1684493
0
ARC
8
DEFAULT_255_2_778
10
25.7993937
20
28.1803773
40
0.7915249
50
39.4792447
51
90.147911
0
ARC
8
DEFAULT_255_2_778
10
25.7999935
20
28.180224
40
0.7911595
50
359.8533901
51
39.5154338
0
ARC
8
DEFAULT_255_2_778
10
25.7996693
20
-1.9863486
40
0.7914836
50
309.4761667
51
0.1482649
0
ARC
8
DEFAULT_255_2_778
10
25.799398
20
-1.9867797
40
0.7913235
50
269.8517415
51
309.511178
0
ARC
8
DEFAULT_255_2_778
10
3.570342
20
-1.9867215
40
0.7913815
50
219.1282118
51
270.1454017
0
ARC
8
DEFAULT_255_2_778
10
3.5700247
20
-1.986339
40
0.7913769
50
179.8524075
51
219.1641908
0
LINE
8
DEFAULT_255_2_778
10
3.5723503
20
28.9718996
11
25.7973503
21
28.9718996
0
LINE
8
DEFAULT_255_2_778
10
26.5911503
20
28.1781996
11
26.5911503
21
-1.9843004
0
LINE
8
DEFAULT_255_2_778
10
25.7973503
20
-2.7781004
11
3.5723503
21
-2.7781004
0
LINE
8
DEFAULT_255_2_778
10
2.7786503
20
-1.9843004
11
2.7786503
21
28.1781996
0
LINE
8
DEFAULT_255_1_234
10
11.6799657
20
-0.0296435
11
11.6799657
21
-0.1043386
0
LINE
8
DEFAULT_255_1_234
10
11.4751563
20
-0.5878493
11
11.6839815
21
-0.7516967
0
LINE
8
DEFAULT_255_1_234
10
11.6839815
20
-0.7516967
11
11.5787658
21
-0.8488808
0
LINE
8
DEFAULT_255_1_234
10
11.5787658
20
-0.8488808
11
11.3321914
21
-0.6529063
0
LINE
8
DEFAULT_255_1_234
10
10.7386459
20
-0.1147799
11
10.7386459
21
-0.0304466
0
LINE
8
DEFAULT_255_1_234
10
11.5257563
20
-0.1155831
11
11.5257563
21
-0.0288403
0
LINE
8
DEFAULT_255_1_234
10
10.8928553
20
-0.018399
11
10.8928553
21
-0.1043386
0
ARC
8
DEFAULT_255_1_234
10
10.7845909
20
-0.1082293
40
0.8953833
50
351.453011
51
0.2489685
0
ARC
8
DEFAULT_255_1_234
10
11.0430709
20
-0.1482067
40
0.6338333
50
338.6861641
51
351.5540711
0
ARC
8
DEFAULT_255_1_234
10
11.1364593
20
-0.1812172
40
0.5348431
50
336.2887631
51
338.3442418
0
ARC
8
DEFAULT_255_1_234
10
11.1704215
20
-0.1998302
40
0.4962747
50
321.1170344
51
336.6795229
0
ARC
8
DEFAULT_255_1_234
10
11.2336044
20
-0.2484794
40
0.4165565
50
305.4419708
51
320.8705636
0
ARC
8
DEFAULT_255_1_234
10
11.2139514
20
-0.1737293
40
0.4935497
50
271.6373023
51
283.8611969
0
ARC
8
DEFAULT_255_1_234
10
11.2101767
20
-0.1081428
40
0.5592206
50
269.9930596
51
271.8318864
0
ARC
8
DEFAULT_255_1_234
10
11.206421
20
-0.1889319
40
0.4784458
50
252.5219675
51
270.4416499
0
ARC
8
DEFAULT_255_1_234
10
11.1920469
20
-0.2428408
40
0.422716
50
237.5352116
51
252.1857531
0
ARC
8
DEFAULT_255_1_234
10
11.2009665
20
-0.2314637
40
0.4371052
50
209.063312
51
237.3492538
0
ARC
8
DEFAULT_255_1_234
10
11.2879513
20
-0.1768315
40
0.5397041
50
205.1183774
51
209.6470015
0
ARC
8
DEFAULT_255_1_234
10
11.367655
20
-0.143017
40
0.6262326
50
188.7215458
51
204.8240747
0
ARC
8
DEFAULT_255_1_234
10
11.5674078
20
-0.1093933
40
0.8287794
50
180.3723947
51
188.9252049
0
ARC
8
DEFAULT_255_1_234
10
11.564683
20
-0.0264598
40
0.8260467
50
169.5253763
51
180.2765336
0
ARC
8
DEFAULT_255_1_234
10
11.3744279
20
0.0085309
40
0.6326007
50
155.8315255
51
169.5089989
0
ARC
8
DEFAULT_255_1_234
10
11.246378
20
0.0679348
40
0.4914567
50
139.6258461
51
156.0379525
0
ARC
8
DEFAULT_255_1_234
10
11.1874113
20
0.1153799
40
0.4158054
50
122.6416387
51
139.3430715
0
ARC
8
DEFAULT_255_1_234
10
11.1974733
20
0.0970451
40
0.4366739
50
93.0223692
51
122.455762
0
ARC
8
DEFAULT_255_1_234
10
11.208273
20
0.0005709
40
0.5336137
50
89.975342
51
93.6341897
0
ARC
8
DEFAULT_255_1_234
10
11.2121616
20
0.0385375
40
0.4956606
50
73.9665422
51
90.4229648
0
ARC
8
DEFAULT_255_1_234
10
11.2305263
20
0.1100451
40
0.4218674
50
57.5178019
51
73.6813337
0
ARC
8
DEFAULT_255_1_234
10
11.2261046
20
0.1064462
40
0.4272816
50
28.7261108
51
57.2767933
0
ARC
8
DEFAULT_255_1_234
10
11.1350378
20
0.0501688
40
0.534218
50
24.2448911
51
29.3248482
0
ARC
8
DEFAULT_255_1_234
10
11.0424479
20
0.0118819
40
0.6343711
50
9.064382
51
23.9639114
0
ARC
8
DEFAULT_255_1_234
10
10.8168807
20
-0.0260075
40
0.8630926
50
359.7586264
51
9.1891435
0
ARC
8
DEFAULT_255_1_234
10
10.6914287
20
-0.0246657
40
0.834338
50
359.7133237
51
7.96545
0
ARC
8
DEFAULT_255_1_234
10
10.9876504
20
0.0180681
40
0.5350538
50
7.8291991
51
20.0421623
0
ARC
8
DEFAULT_255_1_234
10
11.1501067
20
0.0771606
40
0.3621841
50
20.0677553
51
35.9161685
0
ARC
8
DEFAULT_255_1_234
10
11.2276105
20
0.134767
40
0.2656263
50
35.6594382
51
85.1578074
0
ARC
8
DEFAULT_255_1_234
10
11.2091361
20
0.0232378
40
0.3784238
50
83.7959068
51
90.095906
0
ARC
8
DEFAULT_255_1_234
10
11.2048295
20
0.0965601
40
0.3051229
50
89.3102392
51
109.9889877
0
ARC
8
DEFAULT_255_1_234
10
11.1965778
20
0.1321433
40
0.2688988
50
110.9285147
51
143.9411762
0
ARC
8
DEFAULT_255_1_234
10
11.2896724
20
0.0609236
40
0.3860887
50
143.5289163
51
163.2980757
0
ARC
8
DEFAULT_255_1_234
10
11.4804545
20
0.0009433
40
0.5860659
50
163.0418846
51
174.3140048
0
ARC
8
DEFAULT_255_1_234
10
11.7208657
20
-0.0268146
40
0.8280531
50
174.0509143
51
179.4176892
0
ARC
8
DEFAULT_255_1_234
10
11.6694992
20
-0.1086366
40
0.7766558
50
179.6829237
51
188.9631324
0
ARC
8
DEFAULT_255_1_234
10
11.4024553
20
-0.1521248
40
0.5060992
50
188.8100743
51
202.9300012
0
ARC
8
DEFAULT_255_1_234
10
11.2808182
20
-0.2016145
40
0.3747967
50
203.2069261
51
215.7876482
0
ARC
8
DEFAULT_255_1_234
10
11.1959579
20
-0.2687329
40
0.2667526
50
214.7521006
51
264.2834488
0
ARC
8
DEFAULT_255_1_234
10
11.2095234
20
-0.183222
40
0.3532247
50
263.4755397
51
270.0949833
0
ARC
8
DEFAULT_255_1_234
10
11.2137345
20
-0.2093626
40
0.3271036
50
269.3649385
51
287.5152008
0
ARC
8
DEFAULT_255_1_234
10
11.2315503
20
-0.2740762
40
0.2600406
50
288.0630309
51
323.8113348
0
ARC
8
DEFAULT_255_1_234
10
11.1444345
20
-0.2090951
40
0.3687189
50
323.6547608
51
342.6590488
0
ARC
8
DEFAULT_255_1_234
10
10.941296
20
-0.1430048
40
0.5823286
50
342.4091907
51
353.6451149
0
ARC
8
DEFAULT_255_1_234
10
10.6581471
20
-0.107781
40
0.8676442
50
353.4029884
51
359.4847795
0
LINE
8
DEFAULT_255_1_234
10
12.2413842
20
-0.6513
11
11.9177051
21
-0.6513
0
LINE
8
DEFAULT_255_1_234
10
11.9177051
20
-0.6513
11
11.9177051
21
0.5181211
0
LINE
8
DEFAULT_255_1_234
10
11.9177051
20
0.5181211
11
12.2478096
21
0.5181211
0
LINE
8
DEFAULT_255_1_234
10
12.7634472
20
-0.0272339
11
12.7634472
21
-0.1019291
0
LINE
8
DEFAULT_255_1_234
10
12.2518254
20
0.3912196
11
12.0719145
21
0.3912196
0
LINE
8
DEFAULT_255_1_234
10
12.0719145
20
0.3912196
11
12.0719145
21
-0.5252017
0
LINE
8
DEFAULT_255_1_234
10
12.0719145
20
-0.5252017
11
12.2341556
21
-0.5252017
0
LINE
8
DEFAULT_255_1_234
10
12.6108441
20
-0.0987164
11
12.6108441
21
-0.0304466
0
ARC
8
DEFAULT_255_1_234
10
12.2517038
20
-0.0684106
40
0.5865446
50
75.4101064
51
90.3804066
0
ARC
8
DEFAULT_255_1_234
10
12.2746552
20
0.0272492
40
0.4881916
50
60.145586
51
75.1888407
0
ARC
8
DEFAULT_255_1_234
10
12.2905327
20
0.0549199
40
0.4562893
50
26.5253612
51
60.1450928
0
ARC
8
DEFAULT_255_1_234
10
12.1785076
20
-0.0044842
40
0.5830602
50
7.4030428
51
26.8320788
0
ARC
8
DEFAULT_255_1_234
10
12.0190833
20
-0.0293196
40
0.7443669
50
0.1605367
51
7.7176192
0
ARC
8
DEFAULT_255_1_234
10
12.0354738
20
-0.1057566
40
0.7279835
50
348.7289388
51
0.3012466
0
ARC
8
DEFAULT_255_1_234
10
12.2011168
20
-0.1386614
40
0.559104
50
333.0706509
51
348.7181832
0
ARC
8
DEFAULT_255_1_234
10
12.2977926
20
-0.1911681
40
0.4491417
50
299.2531685
51
333.4571258
0
ARC
8
DEFAULT_255_1_234
10
12.2617065
20
-0.1226172
40
0.5265881
50
278.107187
51
299.0339503
0
ARC
8
DEFAULT_255_1_234
10
12.2361144
20
0.0281216
40
0.679442
50
270.4443897
51
278.4511052
0
ARC
8
DEFAULT_255_1_234
10
12.2381974
20
-0.0647787
40
0.4604407
50
269.4970433
51
284.0205042
0
ARC
8
DEFAULT_255_1_234
10
12.2737275
20
-0.2013022
40
0.3193797
50
283.7700273
51
318.1555492
0
ARC
8
DEFAULT_255_1_234
10
12.2400033
20
-0.1760633
40
0.3613588
50
318.7415601
51
343.6873628
0
ARC
8
DEFAULT_255_1_234
10
12.0596057
20
-0.1197168
40
0.5503313
50
343.3325091
51
355.8548958
0
ARC
8
DEFAULT_255_1_234
10
11.8497741
20
-0.0997681
40
0.7610708
50
355.4988528
51
0.0791727
0
ARC
8
DEFAULT_255_1_234
10
11.9280364
20
-0.026222
40
0.6828208
50
359.6455037
51
9.8607896
0
ARC
8
DEFAULT_255_1_234
10
12.1641062
20
0.0164099
40
0.4429406
50
9.6571907
51
26.1932807
0
ARC
8
DEFAULT_255_1_234
10
12.256905
20
0.0595118
40
0.3406537
50
26.5777228
51
40.1532208
0
ARC
8
DEFAULT_255_1_234
10
12.2824777
20
0.0794619
40
0.308246
50
40.3840491
51
80.1431104
0
ARC
8
DEFAULT_255_1_234
10
12.2497894
20
-0.0654667
40
0.4566909
50
79.2152159
51
89.7445637
0
LINE
8
DEFAULT_255_1_234
10
13.7127986
20
0.5181211
11
13.7127986
21
0.434591
0
LINE
8
DEFAULT_255_1_234
10
13.7127986
20
0.434591
11
13.2284848
21
-0.6513
0
LINE
8
DEFAULT_255_1_234
10
13.2284848
20
-0.6513
11
13.0726691
21
-0.6513
0
LINE
8
DEFAULT_255_1_234
10
13.0726691
20
-0.6513
11
13.5553766
21
0.3960387
0
LINE
8
DEFAULT_255_1_234
10
13.5553766
20
0.3960387
11
12.9224756
21
0.3960387
0
LINE
8
DEFAULT_255_1_234
10
12.9224756
20
0.3960387
11
12.9224756
21
0.5181211
0
LINE
8
DEFAULT_255_1_234
10
12.9224756
20
0.5181211
11
13.7127986
21
0.5181211
0
LINE
8
DEFAULT_255_1_234
10
14.6364485
20
0.5181211
11
14.6364485
21
0.434591
0
LINE
8
DEFAULT_255_1_234
10
14.6364485
20
0.434591
11
14.1521347
21
-0.6513
0
LINE
8
DEFAULT_255_1_234
10
14.1521347
20
-0.6513
11
13.996319
21
-0.6513
0
LINE
8
DEFAULT_255_1_234
10
13.996319
20
-0.6513
11
14.4790265
21
0.3960387
0
LINE
8
DEFAULT_255_1_234
10
14.4790265
20
0.3960387
11
13.8461255
21
0.3960387
0
LINE
8
DEFAULT_255_1_234
10
13.8461255
20
0.3960387
11
13.8461255
21
0.5181211
0
LINE
8
DEFAULT_255_1_234
10
13.8461255
20
0.5181211
11
14.6364485
21
0.5181211
0
LINE
8
DEFAULT_255_1_234
10
15.7070792
20
-0.068999
11
15.7070792
21
-0.4978938
0
LINE
8
DEFAULT_255_1_234
10
14.8059182
20
-0.1228116
11
14.8059182
21
-0.0208085
0
LINE
8
DEFAULT_255_1_234
10
15.7070792
20
0.1751659
11
15.5528699
21
0.1751659
0
LINE
8
DEFAULT_255_1_234
10
14.9609308
20
-0.0167927
11
14.9609308
21
-0.1123704
0
LINE
8
DEFAULT_255_1_234
10
15.553673
20
-0.4569319
11
15.553673
21
-0.1942941
0
LINE
8
DEFAULT_255_1_234
10
15.553673
20
-0.1942941
11
15.2830035
21
-0.1942941
0
LINE
8
DEFAULT_255_1_234
10
15.2830035
20
-0.1942941
11
15.2830035
21
-0.068999
0
LINE
8
DEFAULT_255_1_234
10
15.2830035
20
-0.068999
11
15.7070792
21
-0.068999
0
ARC
8
DEFAULT_255_1_234
10
15.4239299
20
-0.2985604
40
0.3462765
50
295.8437914
51
324.8549609
0
ARC
8
DEFAULT_255_1_234
10
15.3823266
20
-0.2232433
40
0.4322211
50
291.5695085
51
296.4549398
0
ARC
8
DEFAULT_255_1_234
10
15.3312517
20
-0.0867725
40
0.5779178
50
278.6622409
51
291.3045483
0
ARC
8
DEFAULT_255_1_234
10
15.2973009
20
0.1280408
40
0.7953952
50
270.020006
51
278.7494541
0
ARC
8
DEFAULT_255_1_234
10
15.2934933
20
0.2597036
40
0.927067
50
269.9969998
51
270.2524872
0
ARC
8
DEFAULT_255_1_234
10
15.2896646
20
-0.1486411
40
0.5187361
50
253.5786322
51
270.4175299
0
ARC
8
DEFAULT_255_1_234
10
15.2723302
20
-0.2157764
40
0.4494451
50
238.8203306
51
253.2788235
0
ARC
8
DEFAULT_255_1_234
10
15.2703675
20
-0.2208769
40
0.4440665
50
206.7883783
51
238.6962764
0
ARC
8
DEFAULT_255_1_234
10
15.3477585
20
-0.1744595
40
0.5341121
50
206.1129412
51
207.4916643
0
ARC
8
DEFAULT_255_1_234
10
15.40745
20
-0.1490512
40
0.5989041
50
188.6921119
51
205.7821245
0
ARC
8
DEFAULT_255_1_234
10
15.5930862
20
-0.117477
40
0.7871862
50
180.3882829
51
188.9219216
0
ARC
8
DEFAULT_255_1_234
10
15.7158676
20
-0.0151536
40
0.909967
50
170.2024264
51
180.3560651
0
ARC
8
DEFAULT_255_1_234
10
15.3995194
20
0.0414237
40
0.5886083
50
154.2857445
51
170.3893044
0
ARC
8
DEFAULT_255_1_234
10
15.2713397
20
0.100095
40
0.4476743
50
139.8401567
51
153.9332699
0
ARC
8
DEFAULT_255_1_234
10
15.2354133
20
0.1288577
40
0.4016697
50
98.4190291
51
139.6707122
0
ARC
8
DEFAULT_255_1_234
10
15.2733651
20
-0.0556672
40
0.5898566
50
89.7659205
51
99.4415478
0
ARC
8
DEFAULT_255_1_234
10
15.27989
20
-0.0491156
40
0.5833147
50
78.0551672
51
90.4042112
0
ARC
8
DEFAULT_255_1_234
10
15.320341
20
0.1327644
40
0.3970055
50
54.6380464
51
78.3339173
0
ARC
8
DEFAULT_255_1_234
10
15.3393466
20
0.1647795
40
0.3599102
50
50.031736
51
54.1558201
0
ARC
8
DEFAULT_255_1_234
10
15.3286254
20
0.1551766
40
0.3741624
50
18.1092409
51
49.7180913
0
ARC
8
DEFAULT_255_1_234
10
15.1829454
20
0.1018089
40
0.5292424
50
7.9672797
51
18.6984571
0
ARC
8
DEFAULT_255_1_234
10
15.1979932
20
0.1141504
40
0.3600838
50
9.7557294
51
27.3215714
0
ARC
8
DEFAULT_255_1_234
10
15.3107404
20
0.1704912
40
0.2340608
50
27.7361077
51
84.5257964
0
ARC
8
DEFAULT_255_1_234
10
15.2779791
20
0.006164
40
0.4011215
50
82.106034
51
90.2001166
0
ARC
8
DEFAULT_255_1_234
10
15.2730008
20
0.0569215
40
0.3503799
50
89.4150119
51
105.5823402
0
ARC
8
DEFAULT_255_1_234
10
15.2473006
20
0.1504867
40
0.2533503
50
105.6678618
51
144.2648758
0
ARC
8
DEFAULT_255_1_234
10
15.3366261
20
0.0869289
40
0.3629787
50
144.3561283
51
162.8564086
0
ARC
8
DEFAULT_255_1_234
10
15.545017
20
0.0200017
40
0.5818441
50
162.6076014
51
173.6780284
0
ARC
8
DEFAULT_255_1_234
10
15.8511314
20
-0.017211
40
0.8902007
50
173.4670142
51
179.9730753
0
ARC
8
DEFAULT_255_1_234
10
15.6602985
20
-0.116574
40
0.6993804
50
179.6556203
51
190.0080463
0
ARC
8
DEFAULT_255_1_234
10
15.4286814
20
-0.1590625
40
0.4639066
50
189.8116607
51
206.6796816
0
ARC
8
DEFAULT_255_1_234
10
15.3441966
20
-0.1984497
40
0.3707421
50
207.1031645
51
217.7074368
0
ARC
8
DEFAULT_255_1_234
10
15.2807655
20
-0.2536441
40
0.2868417
50
216.7345547
51
265.6812148
0
ARC
8
DEFAULT_255_1_234
10
15.2938446
20
-0.1632145
40
0.3780509
50
264.7366618
51
270.0611241
0
ARC
8
DEFAULT_255_1_234
10
15.2961709
20
0.1208111
40
0.662079
50
269.8335834
51
276.0539546
0
ARC
8
DEFAULT_255_1_234
10
15.3168714
20
-0.069344
40
0.4708016
50
275.9894168
51
284.4615085
0
ARC
8
DEFAULT_255_1_234
10
15.3366721
20
-0.1526337
40
0.3852094
50
284.7034461
51
286.4953897
0
ARC
8
DEFAULT_255_1_234
10
15.3773734
20
-0.2837035
40
0.2479842
50
286.0770838
51
304.2625829
0
ARC
8
DEFAULT_255_1_234
10
15.3907148
20
-0.3055406
40
0.2224291
50
304.5891602
51
317.1073298
0
LINE
8
DEFAULT_255_1_234
10
16.6090435
20
-0.0087609
11
16.6090435
21
-0.1348592
0
LINE
8
DEFAULT_255_1_234
10
16.6090435
20
-0.1348592
11
16.1183042
21
-0.1348592
0
LINE
8
DEFAULT_255_1_234
10
16.1183042
20
-0.1348592
11
16.1183042
21
-0.6513
0
LINE
8
DEFAULT_255_1_234
10
16.1183042
20
-0.6513
11
15.9640949
21
-0.6513
0
LINE
8
DEFAULT_255_1_234
10
15.9640949
20
-0.6513
11
15.9640949
21
0.5181211
0
LINE
8
DEFAULT_255_1_234
10
15.9640949
20
0.5181211
11
16.6885577
21
0.5181211
0
LINE
8
DEFAULT_255_1_234
10
16.6885577
20
0.5181211
11
16.6885577
21
0.3912196
0
LINE
8
DEFAULT_255_1_234
10
16.6885577
20
0.3912196
11
16.1183042
21
0.3912196
0
LINE
8
DEFAULT_255_1_234
10
16.1183042
20
0.3912196
11
16.1183042
21
-0.0087609
0
LINE
8
DEFAULT_255_1_234
10
16.1183042
20
-0.0087609
11
16.6090435
21
-0.0087609
0
LINE
8
DEFAULT_255_1_234
10
17.4620141
20
0.5181211
11
17.4620141
21
-0.258548
0
LINE
8
DEFAULT_255_1_234
10
17.4620141
20
-0.258548
11
17.6242552
21
-0.258548
0
LINE
8
DEFAULT_255_1_234
10
17.6242552
20
-0.258548
11
17.6242552
21
-0.3798272
0
LINE
8
DEFAULT_255_1_234
10
17.6242552
20
-0.3798272
11
17.4620141
21
-0.3798272
0
LINE
8
DEFAULT_255_1_234
10
17.4620141
20
-0.3798272
11
17.4620141
21
-0.6513
0
LINE
8
DEFAULT_255_1_234
10
17.4620141
20
-0.6513
11
17.3126237
21
-0.6513
0
LINE
8
DEFAULT_255_1_234
10
17.3126237
20
-0.6513
11
17.3126237
21
-0.3798272
0
LINE
8
DEFAULT_255_1_234
10
17.3126237
20
-0.3798272
11
16.7801195
21
-0.3798272
0
LINE
8
DEFAULT_255_1_234
10
16.7801195
20
-0.3798272
11
16.7801195
21
-0.2922813
0
LINE
8
DEFAULT_255_1_234
10
16.7801195
20
-0.2922813
11
17.3037888
21
0.5181211
0
LINE
8
DEFAULT_255_1_234
10
17.3037888
20
0.5181211
11
17.4620141
21
0.5181211
0
LINE
8
DEFAULT_255_1_234
10
17.2949539
20
0.2827912
11
16.948786
21
-0.258548
0
LINE
8
DEFAULT_255_1_234
10
16.948786
20
-0.258548
11
17.3126237
21
-0.258548
0
LINE
8
DEFAULT_255_1_234
10
17.3126237
20
-0.258548
11
17.3126237
21
0.3149181
0
LINE
8
DEFAULT_255_1_234
10
17.3126237
20
0.3149181
11
17.2949539
21
0.2827912
0
LINE
8
DEFAULT_255_1_234
10
11.7240657
20
24.0011565
11
11.7240657
21
23.9264614
0
LINE
8
DEFAULT_255_1_234
10
11.5192563
20
23.4429507
11
11.7280815
21
23.2791033
0
LINE
8
DEFAULT_255_1_234
10
11.7280815
20
23.2791033
11
11.6228658
21
23.1819192
0
LINE
8
DEFAULT_255_1_234
10
11.6228658
20
23.1819192
11
11.3762914
21
23.3778937
0
LINE
8
DEFAULT_255_1_234
10
10.7827459
20
23.9160201
11
10.7827459
21
24.0003534
0
LINE
8
DEFAULT_255_1_234
10
11.5698563
20
23.9152169
11
11.5698563
21
24.0019597
0
LINE
8
DEFAULT_255_1_234
10
10.9369553
20
24.012401
11
10.9369553
21
23.9264614
0
ARC
8
DEFAULT_255_1_234
10
10.8286909
20
23.9225707
40
0.8953833
50
351.453011
51
0.2489685
0
ARC
8
DEFAULT_255_1_234
10
11.0871709
20
23.8825933
40
0.6338333
50
338.6861641
51
351.5540711
0
ARC
8
DEFAULT_255_1_234
10
11.1805593
20
23.8495828
40
0.5348431
50
336.2887631
51
338.3442418
0
ARC
8
DEFAULT_255_1_234
10
11.2145215
20
23.8309698
40
0.4962747
50
321.1170344
51
336.6795229
0
ARC
8
DEFAULT_255_1_234
10
11.2777044
20
23.7823206
40
0.4165565
50
305.4419708
51
320.8705636
0
ARC
8
DEFAULT_255_1_234
10
11.2580514
20
23.8570707
40
0.4935497
50
271.6373023
51
283.8611969
0
ARC
8
DEFAULT_255_1_234
10
11.2542767
20
23.9226572
40
0.5592206
50
269.9930596
51
271.8318864
0
ARC
8
DEFAULT_255_1_234
10
11.250521
20
23.8418681
40
0.4784458
50
252.5219675
51
270.4416499
0
ARC
8
DEFAULT_255_1_234
10
11.2361469
20
23.7879592
40
0.422716
50
237.5352116
51
252.1857531
0
ARC
8
DEFAULT_255_1_234
10
11.2450665
20
23.7993363
40
0.4371052
50
209.063312
51
237.3492538
0
ARC
8
DEFAULT_255_1_234
10
11.3320513
20
23.8539685
40
0.5397041
50
205.1183774
51
209.6470015
0
ARC
8
DEFAULT_255_1_234
10
11.411755
20
23.887783
40
0.6262326
50
188.7215458
51
204.8240747
0
ARC
8
DEFAULT_255_1_234
10
11.6115078
20
23.9214067
40
0.8287794
50
180.3723947
51
188.9252049
0
ARC
8
DEFAULT_255_1_234
10
11.608783
20
24.0043402
40
0.8260467
50
169.5253763
51
180.2765336
0
ARC
8
DEFAULT_255_1_234
10
11.4185279
20
24.0393309
40
0.6326007
50
155.8315255
51
169.5089989
0
ARC
8
DEFAULT_255_1_234
10
11.290478
20
24.0987348
40
0.4914567
50
139.6258461
51
156.0379525
0
ARC
8
DEFAULT_255_1_234
10
11.2315113
20
24.1461799
40
0.4158054
50
122.6416387
51
139.3430715
0
ARC
8
DEFAULT_255_1_234
10
11.2415733
20
24.1278451
40
0.4366739
50
93.0223692
51
122.455762
0
ARC
8
DEFAULT_255_1_234
10
11.252373
20
24.0313709
40
0.5336137
50
89.975342
51
93.6341897
0
ARC
8
DEFAULT_255_1_234
10
11.2562616
20
24.0693375
40
0.4956606
50
73.9665422
51
90.4229648
0
ARC
8
DEFAULT_255_1_234
10
11.2746263
20
24.1408451
40
0.4218674
50
57.5178019
51
73.6813337
0
ARC
8
DEFAULT_255_1_234
10
11.2702046
20
24.1372462
40
0.4272816
50
28.7261108
51
57.2767933
0
ARC
8
DEFAULT_255_1_234
10
11.1791378
20
24.0809688
40
0.534218
50
24.2448911
51
29.3248482
0
ARC
8
DEFAULT_255_1_234
10
11.0865479
20
24.0426819
40
0.6343711
50
9.064382
51
23.9639114
0
ARC
8
DEFAULT_255_1_234
10
10.8609807
20
24.0047925
40
0.8630926
50
359.7586264
51
9.1891435
0
ARC
8
DEFAULT_255_1_234
10
10.7355287
20
24.0061343
40
0.834338
50
359.7133237
51
7.96545
0
ARC
8
DEFAULT_255_1_234
10
11.0317504
20
24.0488681
40
0.5350538
50
7.8291991
51
20.0421623
0
ARC
8
DEFAULT_255_1_234
10
11.1942067
20
24.1079606
40
0.3621841
50
20.0677553
51
35.9161685
0
ARC
8
DEFAULT_255_1_234
10
11.2717105
20
24.165567
40
0.2656263
50
35.6594382
51
85.1578074
0
ARC
8
DEFAULT_255_1_234
10
11.2532361
20
24.0540378
40
0.3784238
50
83.7959068
51
90.095906
0
ARC
8
DEFAULT_255_1_234
10
11.2489295
20
24.1273601
40
0.3051229
50
89.3102392
51
109.9889877
0
ARC
8
DEFAULT_255_1_234
10
11.2406778
20
24.1629433
40
0.2688988
50
110.9285147
51
143.9411762
0
ARC
8
DEFAULT_255_1_234
10
11.3337724
20
24.0917236
40
0.3860887
50
143.5289163
51
163.2980757
0
ARC
8
DEFAULT_255_1_234
10
11.5245545
20
24.0317433
40
0.5860659
50
163.0418846
51
174.3140048
0
ARC
8
DEFAULT_255_1_234
10
11.7649657
20
24.0039854
40
0.8280531
50
174.0509143
51
179.4176892
0
ARC
8
DEFAULT_255_1_234
10
11.7135992
20
23.9221634
40
0.7766558
50
179.6829237
51
188.9631324
0
ARC
8
DEFAULT_255_1_234
10
11.4465553
20
23.8786752
40
0.5060992
50
188.8100743
51
202.9300012
0
ARC
8
DEFAULT_255_1_234
10
11.3249182
20
23.8291855
40
0.3747967
50
203.2069261
51
215.7876482
0
ARC
8
DEFAULT_255_1_234
10
11.2400579
20
23.7620671
40
0.2667526
50
214.7521006
51
264.2834488
0
ARC
8
DEFAULT_255_1_234
10
11.2536234
20
23.847578
40
0.3532247
50
263.4755397
51
270.0949833
0
ARC
8
DEFAULT_255_1_234
10
11.2578345
20
23.8214374
40
0.3271036
50
269.3649385
51
287.5152008
0
ARC
8
DEFAULT_255_1_234
10
11.2756503
20
23.7567238
40
0.2600406
50
288.0630309
51
323.8113348
0
ARC
8
DEFAULT_255_1_234
10
11.1885345
20
23.8217049
40
0.3687189
50
323.6547608
51
342.6590488
0
ARC
8
DEFAULT_255_1_234
10
10.985396
20
23.8877952
40
0.5823286
50
342.4091907
51
353.6451149
0
ARC
8
DEFAULT_255_1_234
10
10.7022471
20
23.923019
40
0.8676442
50
353.4029884
51
359.4847795
0
LINE
8
DEFAULT_255_1_234
10
12.6549441
20
23.9369026
11
12.6549441
21
23.8156234
0
LINE
8
DEFAULT_255_1_234
10
12.6549441
20
23.8156234
11
12.2629953
21
23.8156234
0
LINE
8
DEFAULT_255_1_234
10
12.2629953
20
23.8156234
11
12.2629953
21
23.9369026
0
LINE
8
DEFAULT_255_1_234
10
12.2629953
20
23.9369026
11
12.6549441
21
23.9369026
0
LINE
8
DEFAULT_255_1_234
10
14.0058825
20
24.2107849
11
13.85087
21
24.2107849
0
LINE
8
DEFAULT_255_1_234
10
13.1585341
20
23.7184394
11
13.3135467
21
23.7184394
0
ARC
8
DEFAULT_255_1_234
10
13.9167513
20
25.1054768
40
1.252368
50
248.9199003
51
254.1439814
0
ARC
8
DEFAULT_255_1_234
10
13.7487007
20
24.6728234
40
0.788226
50
241.633709
51
249.0064503
0
ARC
8
DEFAULT_255_1_234
10
13.5958402
20
24.3927317
40
0.4691427
50
230.498225
51
241.8087113
0
ARC
8
DEFAULT_255_1_234
10
13.5173976
20
24.2927906
40
0.3421437
50
227.4064532
51
229.9881192
0
ARC
8
DEFAULT_255_1_234
10
13.4686497
20
24.2452088
40
0.2741476
50
200.6781896
51
228.1763934
0
ARC
8
DEFAULT_255_1_234
10
13.4758807
20
24.2437077
40
0.2804109
50
179.5061581
51
199.8694617
0
ARC
8
DEFAULT_255_1_234
10
13.4749559
20
24.251121
40
0.2795204
50
132.4834203
51
181.0242172
0
ARC
8
DEFAULT_255_1_234
10
13.5345141
20
24.1948704
40
0.3612768
50
129.2532479
51
133.4242687
0
ARC
8
DEFAULT_255_1_234
10
13.5491591
20
24.1728965
40
0.3875675
50
101.98776
51
128.8742646
0
ARC
8
DEFAULT_255_1_234
10
13.5890202
20
24.0007741
40
0.5642249
50
89.5906553
51
102.3169264
0
ARC
8
DEFAULT_255_1_234
10
13.5960694
20
24.0326148
40
0.5323783
50
77.2360837
51
90.3248275
0
ARC
8
DEFAULT_255_1_234
10
13.6167773
20
24.12934
40
0.4334697
50
63.837784
51
77.0809408
0
ARC
8
DEFAULT_255_1_234
10
13.6445535
20
24.1810911
40
0.3747796
50
45.9864267
51
64.1607727
0
ARC
8
DEFAULT_255_1_234
10
13.6706416
20
24.2108866
40
0.3352302
50
32.2747395
51
45.6547121
0
ARC
8
DEFAULT_255_1_234
10
13.6772857
20
24.212788
40
0.328603
50
359.6507365
51
32.6130309
0
ARC
8
DEFAULT_255_1_234
10
13.5829952
20
24.213266
40
0.2678863
50
359.469343
51
14.9832209
0
ARC
8
DEFAULT_255_1_234
10
13.6535014
20
24.2321539
40
0.1948938
50
14.9781179
51
48.2004265
0
ARC
8
DEFAULT_255_1_234
10
13.6370658
20
24.2114983
40
0.2212521
50
48.5927837
51
74.1241538
0
ARC
8
DEFAULT_255_1_234
10
13.6037148
20
24.1014248
40
0.3362561
50
73.7888341
51
86.6652678
0
ARC
8
DEFAULT_255_1_234
10
13.5934714
20
23.9806881
40
0.4573953
50
86.2640471
51
90.0526343
0
ARC
8
DEFAULT_255_1_234
10
13.5906426
20
24.0202192
40
0.4178709
50
89.6697524
51
99.2309573
0
ARC
8
DEFAULT_255_1_234
10
13.5663877
20
24.1646964
40
0.2713749
50
99.069534
51
113.7658566
0
ARC
8
DEFAULT_255_1_234
10
13.5390068
20
24.2292677
40
0.2012469
50
114.0401004
51
127.9850673
0
ARC
8
DEFAULT_255_1_234
10
13.5149632
20
24.258873
40
0.1631167
50
127.7287463
51
176.7105154
0
ARC
8
DEFAULT_255_1_234
10
13.5828349
20
24.2487693
40
0.2315392
50
175.1779447
51
180.0581938
0
ARC
8
DEFAULT_255_1_234
10
13.4985196
20
24.2475428
40
0.1472271
50
179.6142195
51
228.1246017
0
ARC
8
DEFAULT_255_1_234
10
13.5426865
20
24.2884308
40
0.2072299
50
226.5779593
51
230.8800004
0
ARC
8
DEFAULT_255_1_234
10
13.5897944
20
24.3509636
40
0.2854818
50
231.4635071
51
241.9260842
0
ARC
8
DEFAULT_255_1_234
10
13.7095122
20
24.57128
40
0.53622
50
241.7178533
51
248.3259551
0
ARC
8
DEFAULT_255_1_234
10
13.8480493
20
24.9145064
40
0.9063478
50
248.2007737
51
252.4528373
0
ARC
8
DEFAULT_255_1_234
10
13.9684218
20
25.2866441
40
1.2974635
50
252.3391078
51
254.3469452
0
ARC
8
DEFAULT_255_1_234
10
13.2141921
20
22.5889148
40
1.5037162
50
71.0197183
51
74.4087047
0
ARC
8
DEFAULT_255_1_234
10
13.3836606
20
23.0781111
40
0.9859993
50
66.1847285
51
71.086374
0
ARC
8
DEFAULT_255_1_234
10
13.5392918
20
23.42852
40
0.6025855
50
59.3536294
51
66.2691831
0
ARC
8
DEFAULT_255_1_234
10
13.6281571
20
23.5788609
40
0.4279449
50
49.1020879
51
59.3293958
0
ARC
8
DEFAULT_255_1_234
10
13.7100311
20
23.6721834
40
0.3038015
50
32.7919921
51
49.2505539
0
ARC
8
DEFAULT_255_1_234
10
13.7421401
20
23.6950191
40
0.264448
50
31.1181161
51
32.4005348
0
ARC
8
DEFAULT_255_1_234
10
13.7332938
20
23.6914779
40
0.2738556
50
8.1116974
51
30.7958831
0
ARC
8
DEFAULT_255_1_234
10
13.6522607
20
23.6776753
40
0.3560327
50
359.8389159
51
8.4706516
0
ARC
8
DEFAULT_255_1_234
10
13.7148398
20
23.6728137
40
0.2934776
50
337.4731098
51
0.7537279
0
ARC
8
DEFAULT_255_1_234
10
13.7327093
20
23.6708387
40
0.2762607
50
307.5917067
51
336.4315538
0
ARC
8
DEFAULT_255_1_234
10
13.6866921
20
23.7221102
40
0.3449979
50
307.6551545
51
308.4529766
0
ARC
8
DEFAULT_255_1_234
10
13.663664
20
23.757625
40
0.3871988
50
284.3734338
51
307.1424381
0
ARC
8
DEFAULT_255_1_234
10
13.614147
20
23.9397932
40
0.5759636
50
272.4382747
51
284.646547
0
ARC
8
DEFAULT_255_1_234
10
13.6014679
20
24.1197893
40
0.7563528
50
269.9708387
51
272.8178037
0
ARC
8
DEFAULT_255_1_234
10
13.5971718
20
23.9159716
40
0.5525489
50
248.2707594
51
270.4055579
0
ARC
8
DEFAULT_255_1_234
10
13.5917459
20
23.8969192
40
0.5328452
50
246.1383403
51
248.0542782
0
ARC
8
DEFAULT_255_1_234
10
13.5498838
20
23.8089843
40
0.4355005
50
233.1670131
51
246.4950969
0
ARC
8
DEFAULT_255_1_234
10
13.4944743
20
23.7341812
40
0.3424126
50
215.3403242
51
233.0843104
0
ARC
8
DEFAULT_255_1_234
10
13.4672175
20
23.7143549
40
0.3087104
50
179.2419209
51
215.2648451
0
ARC
8
DEFAULT_255_1_234
10
13.5439768
20
23.7157666
40
0.2304457
50
179.335461
51
199.1045811
0
ARC
8
DEFAULT_255_1_234
10
13.5107445
20
23.7070766
40
0.1962176
50
199.8828939
51
232.7063202
0
ARC
8
DEFAULT_255_1_234
10
13.5579713
20
23.7664788
40
0.2720938
50
232.3738199
51
255.5136649
0
ARC
8
DEFAULT_255_1_234
10
13.592058
20
23.8908835
40
0.4010747
50
255.2446292
51
267.5320849
0
ARC
8
DEFAULT_255_1_234
10
13.6008203
20
24.0141702
40
0.5246356
50
267.1557994
51
270.0286766
0
ARC
8
DEFAULT_255_1_234
10
13.6035976
20
23.969795
40
0.4802668
50
269.7000017
51
278.1660162
0
ARC
8
DEFAULT_255_1_234
10
13.629198
20
23.7967515
40
0.3053425
50
278.0231263
51
290.625471
0
ARC
8
DEFAULT_255_1_234
10
13.6639667
20
23.7040025
40
0.206291
50
290.6619762
51
307.0370976
0
ARC
8
DEFAULT_255_1_234
10
13.6940057
20
23.6671504
40
0.1587906
50
306.3943566
51
355.3030547
0
ARC
8
DEFAULT_255_1_234
10
13.6427988
20
23.6748113
40
0.2104809
50
354.3660432
51
0.0698737
0
ARC
8
DEFAULT_255_1_234
10
13.6570333
20
23.6770617
40
0.1962563
50
359.417946
51
16.1971788
0
ARC
8
DEFAULT_255_1_234
10
13.7025644
20
23.6895418
40
0.149053
50
16.4723299
51
52.6262157
0
ARC
8
DEFAULT_255_1_234
10
13.6204698
20
23.5811433
40
0.2850296
50
52.7386432
51
62.4979148
0
ARC
8
DEFAULT_255_1_234
10
13.4819774
20
23.3205283
40
0.5801521
50
62.2515216
51
68.1220564
0
ARC
8
DEFAULT_255_1_234
10
13.3099685
20
22.8977872
40
1.0365451
50
68.0062803
51
71.8053402
0
ARC
8
DEFAULT_255_1_234
10
13.1304057
20
22.3592758
40
1.6042013
50
71.7183119
51
73.9258742
0
LINE
8
DEFAULT_255_1_234
10
14.1448316
20
23.7899218
11
14.1448316
21
23.8172297
0
LINE
8
DEFAULT_255_1_234
10
14.8821452
20
23.8332932
11
14.8821452
21
23.7714488
0
LINE
8
DEFAULT_255_1_234
10
14.8821452
20
23.7714488
11
14.2934188
21
23.7714488
0
LINE
8
DEFAULT_255_1_234
10
14.7801421
20
23.6019792
11
14.8709007
21
23.5312999
0
LINE
8
DEFAULT_255_1_234
10
14.2982378
20
23.8935313
11
14.733558
21
23.8935313
0
LINE
8
DEFAULT_255_1_234
10
14.733558
20
23.8935313
11
14.733558
21
23.9047757
0
ARC
8
DEFAULT_255_1_234
10
14.5387681
20
23.8010332
40
0.4376191
50
252.3266134
51
270.5810217
0
ARC
8
DEFAULT_255_1_234
10
14.518277
20
23.7269644
40
0.3608374
50
223.3000567
51
251.8561855
0
ARC
8
DEFAULT_255_1_234
10
14.5394131
20
23.7474937
40
0.3902993
50
190.9374509
51
223.3654032
0
ARC
8
DEFAULT_255_1_234
10
14.7119103
20
23.7864885
40
0.5670891
50
179.6531105
51
191.4989439
0
ARC
8
DEFAULT_255_1_234
10
14.7241115
20
23.8204417
40
0.5792888
50
167.4007466
51
180.3176909
0
ARC
8
DEFAULT_255_1_234
10
14.6189177
20
23.8426885
40
0.471777
50
154.1835823
51
167.250763
0
ARC
8
DEFAULT_255_1_234
10
14.5557644
20
23.8759417
40
0.4004528
50
134.3149965
51
154.5315275
0
ARC
8
DEFAULT_255_1_234
10
14.5340139
20
23.8950228
40
0.371612
50
122.8616532
51
133.9707695
0
ARC
8
DEFAULT_255_1_234
10
14.5236714
20
23.9172703
40
0.3473289
50
89.8249009
51
123.4199222
0
ARC
8
DEFAULT_255_1_234
10
14.5286755
20
23.8525967
40
0.4120197
50
74.7876118
51
90.5482747
0
ARC
8
DEFAULT_255_1_234
10
14.5580498
20
23.961103
40
0.2996077
50
39.8178249
51
74.7633718
0
ARC
8
DEFAULT_255_1_234
10
14.5067818
20
23.9211351
40
0.3645855
50
16.8990863
51
39.4829761
0
ARC
8
DEFAULT_255_1_234
10
14.3173114
20
23.8604526
40
0.5635218
50
4.9636328
51
17.2026414
0
ARC
8
DEFAULT_255_1_234
10
14.0755185
20
23.834934
40
0.8066286
50
359.8834553
51
5.2834307
0
ARC
8
DEFAULT_255_1_234
10
14.6792709
20
23.7780803
40
0.3859091
50
180.9846213
51
194.9401313
0
ARC
8
DEFAULT_255_1_234
10
14.5742987
20
23.7493849
40
0.2770883
50
194.80314
51
222.0412631
0
ARC
8
DEFAULT_255_1_234
10
14.5438869
20
23.7192116
40
0.2343055
50
221.5417084
51
268.8614402
0
ARC
8
DEFAULT_255_1_234
10
14.5511863
20
23.7868686
40
0.3021528
50
267.732405
51
270.0097136
0
ARC
8
DEFAULT_255_1_234
10
14.5529673
20
23.8070105
40
0.3222994
50
269.6924892
51
280.4117579
0
ARC
8
DEFAULT_255_1_234
10
14.570608
20
23.7151193
40
0.2287344
50
280.2255091
51
298.6338936
0
ARC
8
DEFAULT_255_1_234
10
14.5822872
20
23.6907223
40
0.2017294
50
299.0430333
51
300.4643464
0
ARC
8
DEFAULT_255_1_234
10
14.5142878
20
23.8041038
40
0.3339357
50
300.6577328
51
322.0378878
0
ARC
8
DEFAULT_255_1_234
10
14.4792417
20
23.8345021
40
0.3802736
50
321.6750233
51
322.3046845
0
ARC
8
DEFAULT_255_1_234
10
14.5723378
20
23.717837
40
0.3520454
50
276.9728461
51
328.0035423
0
ARC
8
DEFAULT_255_1_234
10
14.5446431
20
23.8658841
40
0.5024498
50
269.8361028
51
278.0581756
0
ARC
8
DEFAULT_255_1_234
10
14.5219168
20
23.9403757
40
0.202159
50
89.2018686
51
117.2851756
0
ARC
8
DEFAULT_255_1_234
10
14.5272337
20
23.9361752
40
0.2083484
50
118.0551165
51
137.4540413
0
ARC
8
DEFAULT_255_1_234
10
14.5647077
20
23.9021304
40
0.2589774
50
137.5109581
51
158.8516286
0
ARC
8
DEFAULT_255_1_234
10
14.6784913
20
23.8562074
40
0.38167
50
158.5845963
51
170.1721436
0
ARC
8
DEFAULT_255_1_234
10
14.7954302
20
23.8329823
40
0.5008657
50
169.8376422
51
173.0566086
0
ARC
8
DEFAULT_255_1_234
10
14.3257376
20
23.8840509
40
0.4083467
50
2.9091802
51
12.8847116
0
ARC
8
DEFAULT_255_1_234
10
14.4628053
20
23.9163101
40
0.2675383
50
12.6957781
51
28.6404489
0
ARC
8
DEFAULT_255_1_234
10
14.5169723
20
23.9443458
40
0.2065654
50
29.0169854
51
41.1487595
0
ARC
8
DEFAULT_255_1_234
10
14.5372509
20
23.9620003
40
0.1796786
50
41.1646065
51
85.0013516
0
ARC
8
DEFAULT_255_1_234
10
14.5251605
20
23.8885431
40
0.2539726
50
83.7280015
51
90.0964893
0
LINE
8
DEFAULT_255_1_234
10
15.4740843
20
24.2533531
11
15.4740843
21
24.1152072
0
LINE
8
DEFAULT_255_1_234
10
15.2026115
20
23.9963375
11
15.2026115
21
23.3795
0
LINE
8
DEFAULT_255_1_234
10
15.2026115
20
23.3795
11
15.0540244
21
23.3795
0
LINE
8
DEFAULT_255_1_234
10
15.0540244
20
23.3795
11
15.0540244
21
24.2485341
0
LINE
8
DEFAULT_255_1_234
10
15.0540244
20
24.2485341
11
15.1985957
21
24.2485341
0
LINE
8
DEFAULT_255_1_234
10
15.1985957
20
24.2485341
11
15.2010052
21
24.1481374
0
ARC
8
DEFAULT_255_1_234
10
15.4074248
20
23.7092342
40
0.4114092
50
80.6754243
51
86.8932892
0
ARC
8
DEFAULT_255_1_234
10
15.4013783
20
23.61247
40
0.5083596
50
86.8038578
51
90.0431435
0
ARC
8
DEFAULT_255_1_234
10
15.3976763
20
23.8581866
40
0.2626638
50
89.2759698
51
106.6213787
0
ARC
8
DEFAULT_255_1_234
10
15.3772327
20
23.932483
40
0.1856317
50
107.1346045
51
157.6458115
0
ARC
8
DEFAULT_255_1_234
10
15.4463929
20
23.8941311
40
0.2643398
50
155.6586782
51
157.2539184
0
ARC
8
DEFAULT_255_1_234
10
15.4259131
20
24.0110157
40
0.2634121
50
127.8165941
51
148.6302098
0
ARC
8
DEFAULT_255_1_234
10
15.40056
20
24.0370218
40
0.2273596
50
91.3329982
51
126.7875809
0
ARC
8
DEFAULT_255_1_234
10
15.408154
20
23.9655195
40
0.299078
50
89.986594
51
92.4688449
0
ARC
8
DEFAULT_255_1_234
10
15.4089935
20
23.9930078
40
0.2715908
50
85.3589899
51
90.1623399
0
ARC
8
DEFAULT_255_1_234
10
15.4174451
20
24.0934164
40
0.1708278
50
78.401942
51
85.4594656
0
ARC
8
DEFAULT_255_1_234
10
15.4319335
20
24.1625236
40
0.1002194
50
67.7858312
51
78.5728455
0
ARC
8
DEFAULT_255_1_234
10
15.4427188
20
24.1904887
40
0.0702548
50
63.4835954
51
67.3062642
0
LINE
8
DEFAULT_255_1_234
10
15.7720618
20
24.2485341
11
15.7720618
21
23.3795
0
LINE
8
DEFAULT_255_1_234
10
15.7720618
20
23.3795
11
15.6234746
21
23.3795
0
LINE
8
DEFAULT_255_1_234
10
15.6234746
20
23.3795
11
15.6234746
21
24.2485341
0
LINE
8
DEFAULT_255_1_234
10
15.6234746
20
24.2485341
11
15.7720618
21
24.2485341
0
ARC
8
DEFAULT_255_1_234
10
15.7092895
20
24.4799889
40
0.097867
50
161.415052
51
180.5526306
0
ARC
8
DEFAULT_255_1_234
10
15.6968673
20
24.4834077
40
0.0850062
50
138.1827368
51
160.9307106
0
ARC
8
DEFAULT_255_1_234
10
15.6858619
20
24.4929588
40
0.0704362
50
104.6368899
51
138.0039868
0
ARC
8
DEFAULT_255_1_234
10
15.6965773
20
24.4562963
40
0.1086221
50
92.0600725
51
105.2189128
0
ARC
8
DEFAULT_255_1_234
10
15.6989122
20
24.4220117
40
0.1429728
50
89.9756393
51
92.5012496
0
ARC
8
DEFAULT_255_1_234
10
15.6999141
20
24.4445731
40
0.1204151
50
78.0235316
51
90.4478182
0
ARC
8
DEFAULT_255_1_234
10
15.7091233
20
24.4859295
40
0.0780493
50
55.051506
51
78.3369085
0
ARC
8
DEFAULT_255_1_234
10
15.7141507
20
24.4943711
40
0.0682538
50
42.0501187
51
54.4513741
0
ARC
8
DEFAULT_255_1_234
10
15.7006374
20
24.4819798
40
0.0865878
50
1.7497075
51
42.1496013
0
ARC
8
DEFAULT_255_1_234
10
15.6751707
20
24.4790738
40
0.1121515
50
359.9852656
51
2.8364544
0
ARC
8
DEFAULT_255_1_234
10
15.6917699
20
24.4781229
40
0.0955566
50
342.1070653
51
0.552888
0
ARC
8
DEFAULT_255_1_234
10
15.7060397
20
24.4741904
40
0.0807713
50
316.7107116
51
341.6516965
0
ARC
8
DEFAULT_255_1_234
10
15.7127434
20
24.4681823
40
0.0717724
50
285.4397031
51
316.5324284
0
ARC
8
DEFAULT_255_1_234
10
15.7017351
20
24.5047554
40
0.1099597
50
272.3547054
51
285.8953117
0
ARC
8
DEFAULT_255_1_234
10
15.6990509
20
24.5413048
40
0.1465932
50
269.9695369
51
272.8160237
0
ARC
8
DEFAULT_255_1_234
10
15.698069
20
24.5193863
40
0.1246779
50
258.8431134
51
270.4153935
0
ARC
8
DEFAULT_255_1_234
10
15.6890733
20
24.4758414
40
0.0802162
50
238.5431189
51
259.1288175
0
ARC
8
DEFAULT_255_1_234
10
15.6822618
20
24.4634856
40
0.0661247
50
222.5062634
51
237.9906969
0
ARC
8
DEFAULT_255_1_234
10
15.6950205
20
24.4750889
40
0.0833707
50
184.1069131
51
222.460413
0
ARC
8
DEFAULT_255_1_234
10
15.7219446
20
24.4789349
40
0.1105176
50
179.9429482
51
185.0960898
0
LINE
8
DEFAULT_255_1_234
10
15.9720521
20
23.7899218
11
15.9720521
21
23.8172297
0
LINE
8
DEFAULT_255_1_234
10
16.7093656
20
23.8332932
11
16.7093656
21
23.7714488
0
LINE
8
DEFAULT_255_1_234
10
16.7093656
20
23.7714488
11
16.1206392
21
23.7714488
0
LINE
8
DEFAULT_255_1_234
10
16.6073625
20
23.6019792
11
16.6981212
21
23.5312999
0
LINE
8
DEFAULT_255_1_234
10
16.1254583
20
23.8935313
11
16.5607785
21
23.8935313
0
LINE
8
DEFAULT_255_1_234
10
16.5607785
20
23.8935313
11
16.5607785
21
23.9047757
0
ARC
8
DEFAULT_255_1_234
10
16.3659886
20
23.8010332
40
0.4376191
50
252.3266134
51
270.5810217
0
ARC
8
DEFAULT_255_1_234
10
16.3454975
20
23.7269644
40
0.3608374
50
223.3000567
51
251.8561855
0
ARC
8
DEFAULT_255_1_234
10
16.3666335
20
23.7474937
40
0.3902993
50
190.9374509
51
223.3654032
0
ARC
8
DEFAULT_255_1_234
10
16.5391308
20
23.7864885
40
0.5670891
50
179.6531105
51
191.4989439
0
ARC
8
DEFAULT_255_1_234
10
16.551332
20
23.8204417
40
0.5792888
50
167.4007466
51
180.3176909
0
ARC
8
DEFAULT_255_1_234
10
16.4461381
20
23.8426885
40
0.471777
50
154.1835823
51
167.250763
0
ARC
8
DEFAULT_255_1_234
10
16.3829849
20
23.8759417
40
0.4004528
50
134.3149965
51
154.5315275
0
ARC
8
DEFAULT_255_1_234
10
16.3612344
20
23.8950228
40
0.371612
50
122.8616532
51
133.9707695
0
ARC
8
DEFAULT_255_1_234
10
16.3508918
20
23.9172703
40
0.3473289
50
89.8249009
51
123.4199222
0
ARC
8
DEFAULT_255_1_234
10
16.3558959
20
23.8525967
40
0.4120197
50
74.7876118
51
90.5482747
0
ARC
8
DEFAULT_255_1_234
10
16.3852702
20
23.961103
40
0.2996077
50
39.8178249
51
74.7633718
0
ARC
8
DEFAULT_255_1_234
10
16.3340023
20
23.9211351
40
0.3645855
50
16.8990863
51
39.4829761
0
ARC
8
DEFAULT_255_1_234
10
16.1445319
20
23.8604526
40
0.5635218
50
4.9636328
51
17.2026414
0
ARC
8
DEFAULT_255_1_234
10
15.9027389
20
23.834934
40
0.8066286
50
359.8834553
51
5.2834307
0
ARC
8
DEFAULT_255_1_234
10
16.5064914
20
23.7780803
40
0.3859091
50
180.9846213
51
194.9401313
0
ARC
8
DEFAULT_255_1_234
10
16.4015191
20
23.7493849
40
0.2770883
50
194.80314
51
222.0412631
0
ARC
8
DEFAULT_255_1_234
10
16.3711073
20
23.7192116
40
0.2343055
50
221.5417084
51
268.8614402
0
ARC
8
DEFAULT_255_1_234
10
16.3784068
20
23.7868686
40
0.3021528
50
267.732405
51
270.0097136
0
ARC
8
DEFAULT_255_1_234
10
16.3801878
20
23.8070105
40
0.3222994
50
269.6924892
51
280.4117579
0
ARC
8
DEFAULT_255_1_234
10
16.3978285
20
23.7151193
40
0.2287344
50
280.2255091
51
298.6338936
0
ARC
8
DEFAULT_255_1_234
10
16.4095077
20
23.6907223
40
0.2017294
50
299.0430333
51
300.4643464
0
ARC
8
DEFAULT_255_1_234
10
16.3415082
20
23.8041038
40
0.3339357
50
300.6577328
51
322.0378878
0
ARC
8
DEFAULT_255_1_234
10
16.3064621
20
23.8345021
40
0.3802736
50
321.6750233
51
322.3046845
0
ARC
8
DEFAULT_255_1_234
10
16.3995583
20
23.717837
40
0.3520454
50
276.9728461
51
328.0035423
0
ARC
8
DEFAULT_255_1_234
10
16.3718635
20
23.8658841
40
0.5024498
50
269.8361028
51
278.0581756
0
ARC
8
DEFAULT_255_1_234
10
16.3491373
20
23.9403757
40
0.202159
50
89.2018686
51
117.2851756
0
ARC
8
DEFAULT_255_1_234
10
16.3544542
20
23.9361752
40
0.2083484
50
118.0551165
51
137.4540413
0
ARC
8
DEFAULT_255_1_234
10
16.3919282
20
23.9021304
40
0.2589774
50
137.5109581
51
158.8516286
0
ARC
8
DEFAULT_255_1_234
10
16.5057117
20
23.8562074
40
0.38167
50
158.5845963
51
170.1721436
0
ARC
8
DEFAULT_255_1_234
10
16.6226507
20
23.8329823
40
0.5008657
50
169.8376422
51
173.0566086
0
ARC
8
DEFAULT_255_1_234
10
16.1529581
20
23.8840509
40
0.4083467
50
2.9091802
51
12.8847116
0
ARC
8
DEFAULT_255_1_234
10
16.2900257
20
23.9163101
40
0.2675383
50
12.6957781
51
28.6404489
0
ARC
8
DEFAULT_255_1_234
10
16.3441928
20
23.9443458
40
0.2065654
50
29.0169854
51
41.1487595
0
ARC
8
DEFAULT_255_1_234
10
16.3644713
20
23.9620003
40
0.1796786
50
41.1646065
51
85.0013516
0
ARC
8
DEFAULT_255_1_234
10
16.352381
20
23.8885431
40
0.2539726
50
83.7280015
51
90.0964893
0
LINE
8
DEFAULT_255_1_234
10
17.5277998
20
23.9931248
11
17.3784094
21
23.9931248
0
LINE
8
DEFAULT_255_1_234
10
16.845102
20
23.6469569
11
16.9936892
21
23.6469569
0
ARC
8
DEFAULT_255_1_234
10
17.2595913
20
23.6114959
40
0.1276617
50
359.3334982
51
18.5871358
0
ARC
8
DEFAULT_255_1_234
10
17.280455
20
23.6170133
40
0.1061371
50
19.3540742
51
54.6485071
0
ARC
8
DEFAULT_255_1_234
10
17.2300452
20
23.5474919
40
0.1920087
50
54.3827097
51
65.0622807
0
ARC
8
DEFAULT_255_1_234
10
17.1531848
20
23.38579
40
0.3710447
50
64.8282493
51
71.4200025
0
ARC
8
DEFAULT_255_1_234
10
17.0629724
20
23.1211107
40
0.6506741
50
71.3164301
51
75.8006402
0
ARC
8
DEFAULT_255_1_234
10
16.9788544
20
22.7970561
40
0.9854641
50
75.6809531
51
78.0061883
0
ARC
8
DEFAULT_255_1_234
10
17.4237077
20
24.894977
40
1.1591028
50
254.6901892
51
258.0466452
0
ARC
8
DEFAULT_255_1_234
10
17.3198985
20
24.5190781
40
0.7691345
50
249.9010773
51
254.755261
0
ARC
8
DEFAULT_255_1_234
10
17.2195327
20
24.2464982
40
0.478665
50
243.3097214
51
249.9709442
0
ARC
8
DEFAULT_255_1_234
10
17.1566349
20
24.1210778
40
0.3383568
50
234.4047477
51
243.2862168
0
ARC
8
DEFAULT_255_1_234
10
17.0943872
20
24.0351232
40
0.2322322
50
220.8667099
51
234.5493881
0
ARC
8
DEFAULT_255_1_234
10
17.0601813
20
24.0039817
40
0.1859923
50
214.3062465
51
220.5065136
0
ARC
8
DEFAULT_255_1_234
10
17.0575892
20
24.000888
40
0.1821108
50
186.912965
51
213.9618616
0
ARC
8
DEFAULT_255_1_234
10
17.1107987
20
24.0095009
40
0.2359799
50
179.8808832
51
187.4339886
0
ARC
8
DEFAULT_255_1_234
10
17.095312
20
24.0115088
40
0.2204978
50
132.005434
51
180.3942919
0
ARC
8
DEFAULT_255_1_234
10
17.1609734
20
23.9509083
40
0.3095791
50
129.2319861
51
133.5302299
0
ARC
8
DEFAULT_255_1_234
10
17.1663242
20
23.9414928
40
0.3202615
50
100.4410011
51
128.9081242
0
ARC
8
DEFAULT_255_1_234
10
17.1937126
20
23.8129455
40
0.4516583
50
89.6985377
51
100.9026564
0
ARC
8
DEFAULT_255_1_234
10
17.1994168
20
23.7969166
40
0.4676928
50
77.6965325
51
90.4076836
0
ARC
8
DEFAULT_255_1_234
10
17.2325152
20
23.9396413
40
0.3211988
50
50.7276602
51
78.0399361
0
ARC
8
DEFAULT_255_1_234
10
17.276961
20
23.9914296
40
0.2529778
50
25.7545084
51
51.0957453
0
ARC
8
DEFAULT_255_1_234
10
17.2770835
20
23.9964206
40
0.250738
50
359.2468627
51
24.7394243
0
ARC
8
DEFAULT_255_1_234
10
17.2486287
20
23.9935664
40
0.1297815
50
359.8050318
51
45.1544908
0
ARC
8
DEFAULT_255_1_234
10
17.2079429
20
23.9587794
40
0.1831883
50
43.8047702
51
49.6271585
0
ARC
8
DEFAULT_255_1_234
10
17.208733
20
23.9588678
40
0.18261
50
49.7980766
51
82.1218353
0
ARC
8
DEFAULT_255_1_234
10
17.1968302
20
23.8941998
40
0.2483163
50
81.4465357
51
90.1710293
0
ARC
8
DEFAULT_255_1_234
10
17.1943905
20
23.841588
40
0.300932
50
89.6766211
51
99.1264602
0
ARC
8
DEFAULT_255_1_234
10
17.1772367
20
23.9449537
40
0.1961547
50
98.968313
51
113.4570237
0
ARC
8
DEFAULT_255_1_234
10
17.1576452
20
23.9917965
40
0.1453859
50
113.722589
51
127.4763106
0
ARC
8
DEFAULT_255_1_234
10
17.1408098
20
24.0118124
40
0.1192639
50
126.9083309
51
150.3165862
0
ARC
8
DEFAULT_255_1_234
10
17.1360431
20
24.0168981
40
0.112623
50
151.3635175
51
180.0701457
0
ARC
8
DEFAULT_255_1_234
10
17.1669215
20
24.014799
40
0.1435149
50
179.2169974
51
179.9954013
0
ARC
8
DEFAULT_255_1_234
10
17.1308273
20
24.0135056
40
0.1074286
50
179.3040112
51
198.4225446
0
ARC
8
DEFAULT_255_1_234
10
17.1116406
20
24.0085127
40
0.0876573
50
199.2895851
51
238.6034594
0
ARC
8
DEFAULT_255_1_234
10
17.1719253
20
24.103145
40
0.1998512
50
237.9846301
51
246.8744712
0
ARC
8
DEFAULT_255_1_234
10
17.2577198
20
24.2994205
40
0.4140547
50
246.6234531
51
251.8168941
0
ARC
8
DEFAULT_255_1_234
10
17.3607741
20
24.6088905
40
0.7402308
50
251.713434
51
255.0778414
0
ARC
8
DEFAULT_255_1_234
10
17.4807004
20
25.0555563
40
1.2027155
50
255.0367487
51
257.4705983
0
ARC
8
DEFAULT_255_1_234
10
16.9699014
20
22.7541863
40
1.1546601
50
73.6837552
51
77.5016755
0
ARC
8
DEFAULT_255_1_234
10
17.0787789
20
23.1241581
40
0.7690009
50
68.7044154
51
73.7249639
0
ARC
8
DEFAULT_255_1_234
10
17.1690809
20
23.3568654
40
0.5193873
50
63.590599
51
68.6626804
0
ARC
8
DEFAULT_255_1_234
10
17.2461828
20
23.5106123
40
0.3473927
50
54.7106439
51
63.7013633
0
ARC
8
DEFAULT_255_1_234
10
17.3086283
20
23.59784
40
0.2401192
50
41.0622434
51
54.8487496
0
ARC
8
DEFAULT_255_1_234
10
17.3427669
20
23.6291592
40
0.1938094
50
34.4950568
51
40.7105546
0
ARC
8
DEFAULT_255_1_234
10
17.3474477
20
23.6340078
40
0.1872106
50
9.3763373
51
34.0833615
0
ARC
8
DEFAULT_255_1_234
10
17.2821347
20
23.6214728
40
0.2536988
50
359.7694872
51
9.7663171
0
ARC
8
DEFAULT_255_1_234
10
17.3018848
20
23.6171764
40
0.2339696
50
335.8654732
51
0.8022045
0
ARC
8
DEFAULT_255_1_234
10
17.3093892
20
23.6185197
40
0.2277108
50
307.7357725
51
334.7849066
0
ARC
8
DEFAULT_255_1_234
10
17.2693068
20
23.6635645
40
0.2878951
50
307.0241536
51
308.5578354
0
ARC
8
DEFAULT_255_1_234
10
17.2435399
20
23.7021801
40
0.3342515
50
282.9362969
51
306.5646424
0
ARC
8
DEFAULT_255_1_234
10
17.2073697
20
23.8489108
40
0.4853615
50
271.1026298
51
283.2200835
0
ARC
8
DEFAULT_255_1_234
10
17.2009941
20
23.9730418
40
0.6096052
50
269.9919117
51
271.4772449
0
ARC
8
DEFAULT_255_1_234
10
17.1983696
20
23.8652436
40
0.5018135
50
259.0723564
51
270.289833
0
ARC
8
DEFAULT_255_1_234
10
17.1771428
20
23.7535271
40
0.388099
50
245.4963068
51
259.0227342
0
ARC
8
DEFAULT_255_1_234
10
17.1493384
20
23.6953615
40
0.3236422
50
228.9684658
51
245.7044727
0
ARC
8
DEFAULT_255_1_234
10
17.1227828
20
23.6626575
40
0.2815426
50
214.4011705
51
228.6759915
0
ARC
8
DEFAULT_255_1_234
10
17.0938569
20
23.646829
40
0.2487548
50
179.9705531
51
215.1572795
0
ARC
8
DEFAULT_255_1_234
10
17.1639168
20
23.6541806
40
0.1703809
50
182.4299387
51
203.0329699
0
ARC
8
DEFAULT_255_1_234
10
17.1454826
20
23.6485396
40
0.1512226
50
203.798802
51
232.548466
0
ARC
8
DEFAULT_255_1_234
10
17.1731347
20
23.6836826
40
0.1959374
50
232.3782728
51
256.3934612
0
ARC
8
DEFAULT_255_1_234
10
17.1961709
20
23.7726842
40
0.2878639
50
256.104506
51
268.4626716
0
ARC
8
DEFAULT_255_1_234
10
17.2008193
20
23.8523487
40
0.3676329
50
268.0715632
51
270.0138206
0
ARC
8
DEFAULT_255_1_234
10
17.2026718
20
23.8251083
40
0.3403971
50
269.7031147
51
278.8341955
0
ARC
8
DEFAULT_255_1_234
10
17.2208811
20
23.7120876
40
0.2259217
50
278.6728789
51
292.8232582
0
ARC
8
DEFAULT_255_1_234
10
17.2409349
20
23.6619449
40
0.171929
50
293.1452328
51
303.6655899
0
ARC
8
DEFAULT_255_1_234
10
17.2674228
20
23.6243204
40
0.1259367
50
303.1248165
51
321.742847
0
ARC
8
DEFAULT_255_1_234
10
17.2860109
20
23.6080156
40
0.1012531
50
322.4748573
51
1.1291126
0
LINE
8
DEFAULT_255_2_778
10
10.5738396
20
25.9040073
11
9.3932396
21
25.9040073
0
LINE
8
DEFAULT_255_2_778
10
9.3932396
20
25.9040073
11
9.9837396
21
26.9266073
0
LINE
8
DEFAULT_255_2_778
10
9.9837396
20
26.9266073
11
11.1643396
21
26.9266073
0
LINE
8
DEFAULT_255_2_778
10
11.1643396
20
26.9266073
11
10.5738396
21
25.9040073
0
LINE
8
DEFAULT_255_2_778
10
10.5738396
20
25.9040073
11
10.5738396
21
25.9040073
0
LINE
8
DEFAULT_255_2_778
10
11.7546396
20
25.9040073
11
12.9354396
21
25.9040073
0
LINE
8
DEFAULT_255_2_778
10
12.9354396
20
25.9040073
11
12.3451396
21
26.9266073
0
LINE
8
DEFAULT_255_2_778
10
12.3451396
20
26.9266073
11
11.1643396
21
26.9266073
0
LINE
8
DEFAULT_255_2_778
10
11.1643396
20
26.9266073
11
11.7546396
21
25.9040073
0
LINE
8
DEFAULT_255_2_778
10
11.7546396
20
25.9040073
11
11.7546396
21
25.9040073
0
LINE
8
DEFAULT_255_2_778
10
11.7545823
20
27.9493146
11
11.1642823
21
28.9719146
0
LINE
8
DEFAULT_255_2_778
10
11.1642823
20
28.9719146
11
10.5737823
21
27.9493146
0
LINE
8
DEFAULT_255_2_778
10
10.5737823
20
27.9493146
11
11.1642823
21
26.9267146
0
LINE
8
DEFAULT_255_2_778
10
11.1642823
20
26.9267146
11
11.7545823
21
27.9493146
0
LINE
8
DEFAULT_255_2_778
10
11.7545823
20
27.9493146
11
11.7545823
21
27.9493146
0
ARC
8
DEFAULT_255_2_778
10
16.5183731
20
27.5955426
40
0.5650491
50
268.7543645
51
289.1417717
0
ARC
8
DEFAULT_255_2_778
10
16.606208
20
27.3403531
40
0.2951681
50
289.2776255
51
3.7648372
0
ARC
8
DEFAULT_255_2_778
10
16.3901618
20
27.3669085
40
0.5106278
50
359.1949826
51
0.0020862
0
ARC
8
DEFAULT_255_2_778
10
16.547449
20
27.3531832
40
0.1541914
50
280.2616216
51
358.5297855
0
ARC
8
DEFAULT_255_2_778
10
16.5080075
20
27.465755
40
0.2726346
50
269.5969454
51
284.2065679
0
ARC
8
DEFAULT_255_2_778
10
16.4981967
20
27.4501316
40
0.2571258
50
246.5290903
51
271.7590909
0
ARC
8
DEFAULT_255_2_778
10
16.4527148
20
27.3421009
40
0.1399248
50
188.1071678
51
245.9934684
0
ARC
8
DEFAULT_255_2_778
10
16.4829007
20
27.3490617
40
0.1708111
50
179.9445314
51
188.990814
0
ARC
8
DEFAULT_255_2_778
10
16.4924507
20
27.3555849
40
0.3763411
50
178.2272621
51
205.8283807
0
ARC
8
DEFAULT_255_2_778
10
16.4132476
20
27.3378833
40
0.2979176
50
209.4028057
51
263.0375728
0
ARC
8
DEFAULT_255_2_778
10
16.5005111
20
27.7125629
40
0.6816586
50
259.5722942
51
270.4689037
0
ARC
8
DEFAULT_255_2_778
10
17.411252
20
27.7687767
40
0.1217154
50
2.0482843
51
87.015299
0
ARC
8
DEFAULT_255_2_778
10
17.4060617
20
27.7731852
40
0.126828
50
353.0600847
51
359.9737428
0
ARC
8
DEFAULT_255_2_778
10
17.4110442
20
27.7700555
40
0.1215295
50
270.5739762
51
354.2410513
0
ARC
8
DEFAULT_255_2_778
10
17.4065059
20
27.8062297
40
0.1578027
50
269.9941256
51
272.0902921
0
ARC
8
DEFAULT_255_2_778
10
17.414084
20
27.3553295
40
0.1400686
50
358.2807293
51
95.6106825
0
ARC
8
DEFAULT_255_2_778
10
17.4103233
20
27.3514963
40
0.1437669
50
266.9962473
51
359.8528392
0
ARC
8
DEFAULT_255_2_778
10
17.4725249
20
27.3917988
40
0.3335288
50
268.2414507
51
302.0223478
0
ARC
8
DEFAULT_255_2_778
10
17.5091261
20
27.316483
40
0.2504234
50
304.0600275
51
2.0468005
0
ARC
8
DEFAULT_255_2_778
10
17.4832788
20
27.3231521
40
0.2761203
50
0.4720601
51
65.8403529
0
ARC
8
DEFAULT_255_2_778
10
17.5191655
20
27.3879061
40
0.2024466
50
67.606893
51
75.8693222
0
ARC
8
DEFAULT_255_2_778
10
17.5042026
20
27.795522
40
0.2208874
50
286.9473417
51
358.0074963
0
ARC
8
DEFAULT_255_2_778
10
17.4710866
20
27.8043045
40
0.2544031
50
356.2897886
51
0.0050857
0
ARC
8
DEFAULT_255_2_778
10
17.497262
20
27.8093946
40
0.2282839
50
358.7280137
51
81.8073164
0
ARC
8
DEFAULT_255_2_778
10
17.4216369
20
27.5579283
40
0.4895182
50
77.2355086
51
90.5088275
0
ARC
8
DEFAULT_255_2_778
10
17.5842747
20
26.5933989
40
0.1302704
50
89.9972707
51
92.6773048
0
ARC
8
DEFAULT_255_2_778
10
17.5844071
20
26.59417
40
0.1294993
50
45.0546048
51
90.0558451
0
ARC
8
DEFAULT_255_2_778
10
17.5844118
20
26.594019
40
0.1296029
50
0.001866
51
45.1031959
0
ARC
8
DEFAULT_255_2_778
10
17.5845123
20
26.5940202
40
0.1295026
50
357.4803735
51
0.0013544
0
ARC
8
DEFAULT_255_2_778
10
17.5901979
20
26.5901512
40
0.1237052
50
339.8672523
51
359.1550732
0
ARC
8
DEFAULT_255_2_778
10
17.5794513
20
26.5873079
40
0.1329691
50
272.0853006
51
342.6124646
0
ARC
8
DEFAULT_255_2_778
10
17.6596145
20
26.6255661
40
0.2575135
50
286.787355
51
290.6121696
0
ARC
8
DEFAULT_255_2_778
10
17.6689461
20
26.6112533
40
0.24086
50
289.7330405
51
342.3216972
0
ARC
8
DEFAULT_255_2_778
10
17.641261
20
26.6160954
40
0.268735
50
343.130572
51
0.3905272
0
ARC
8
DEFAULT_255_2_778
10
17.6578783
20
26.6334767
40
0.2525904
50
356.4706028
51
80.1788963
0
ARC
8
DEFAULT_255_2_778
10
17.5921649
20
26.4065163
40
0.4881286
50
77.1212301
51
90.4900821
0
ARC
8
DEFAULT_255_2_778
10
17.5166337
20
26.108836
40
0.1865405
50
50.1507009
51
92.9634648
0
ARC
8
DEFAULT_255_2_778
10
17.5301354
20
26.1371678
40
0.1563319
50
12.621233
51
47.2950617
0
ARC
8
DEFAULT_255_2_778
10
16.8485884
20
26.0042726
40
0.8506657
50
2.8173892
51
11.3253986
0
ARC
8
DEFAULT_255_2_778
10
-29.2295733
20
22.5079175
40
47.060992
50
4.3048394
51
4.3117143
0
ARC
8
DEFAULT_255_2_778
10
18.5500859
20
26.080384
40
0.8523717
50
182.6850102
51
191.2954256
0
ARC
8
DEFAULT_255_2_778
10
17.9656837
20
25.9740399
40
0.2586603
50
193.5512904
51
195.3825538
0
ARC
8
DEFAULT_255_2_778
10
19.0204614
20
26.173524
40
1.1349899
50
186.2964577
51
193.66301
0
ARC
8
DEFAULT_255_2_778
10
19.758659
20
26.2700152
40
1.8793763
50
183.1871324
51
186.7522049
0
ARC
8
DEFAULT_255_2_778
10
17.6207606
20
26.1600215
40
0.261487
50
1.2064311
51
30.4123358
0
ARC
8
DEFAULT_255_2_778
10
17.6663626
20
26.175076
40
0.2147766
50
33.1081154
51
71.7312197
0
LINE
8
DEFAULT_255_2_778
10
13.4657897
20
26.3396271
11
13.9385897
21
26.3396271
0
LINE
8
DEFAULT_255_2_778
10
13.9385897
20
26.3396271
11
13.9385897
21
26.5110271
0
LINE
8
DEFAULT_255_2_778
10
13.9385897
20
26.5110271
11
13.4657897
21
26.5110271
0
LINE
8
DEFAULT_255_2_778
10
13.4657897
20
26.5110271
11
13.4657897
21
26.7219271
0
LINE
8
DEFAULT_255_2_778
10
13.4657897
20
26.7219271
11
13.9977897
21
26.7219271
0
LINE
8
DEFAULT_255_2_778
10
13.9977897
20
26.7219271
11
13.9977897
21
26.8933271
0
LINE
8
DEFAULT_255_2_778
10
13.9977897
20
26.8933271
11
13.4657897
21
26.8933271
0
LINE
8
DEFAULT_255_2_778
10
13.4657897
20
26.8933271
11
13.2651897
21
26.8933271
0
LINE
8
DEFAULT_255_2_778
10
13.2651897
20
26.8933271
11
13.2651897
21
26.7219271
0
LINE
8
DEFAULT_255_2_778
10
13.2651897
20
26.7219271
11
13.2651897
21
26.0755271
0
LINE
8
DEFAULT_255_2_778
10
13.2651897
20
26.0755271
11
13.2651897
21
25.9040271
0
LINE
8
DEFAULT_255_2_778
10
13.2651897
20
25.9040271
11
13.4657897
21
25.9040271
0
LINE
8
DEFAULT_255_2_778
10
13.4657897
20
25.9040271
11
14.0118897
21
25.9040271
0
LINE
8
DEFAULT_255_2_778
10
14.0118897
20
25.9040271
11
14.0118897
21
26.0755271
0
LINE
8
DEFAULT_255_2_778
10
14.0118897
20
26.0755271
11
13.4657897
21
26.0755271
0
LINE
8
DEFAULT_255_2_778
10
13.4657897
20
26.0755271
11
13.4657897
21
26.3393271
0
LINE
8
DEFAULT_255_2_778
10
13.4657897
20
26.3393271
11
13.4657897
21
26.3396271
0
LINE
8
DEFAULT_255_2_778
10
13.4519897
20
27.7937271
11
13.6620897
21
27.0584271
0
LINE
8
DEFAULT_255_2_778
10
13.6620897
20
27.0584271
11
13.6704897
21
27.0584271
0
LINE
8
DEFAULT_255_2_778
10
13.6704897
20
27.0584271
11
13.8464897
21
27.0584271
0
LINE
8
DEFAULT_255_2_778
10
13.8464897
20
27.0584271
11
13.8546897
21
27.0584271
0
LINE
8
DEFAULT_255_2_778
10
13.8546897
20
27.0584271
11
14.0647897
21
27.7937271
0
LINE
8
DEFAULT_255_2_778
10
14.0647897
20
27.7937271
11
14.0647897
21
27.0584271
0
LINE
8
DEFAULT_255_2_778
10
14.0647897
20
27.0584271
11
14.2515897
21
27.0584271
0
LINE
8
DEFAULT_255_2_778
10
14.2515897
20
27.0584271
11
14.2515897
21
28.0477271
0
LINE
8
DEFAULT_255_2_778
10
14.2515897
20
28.0477271
11
14.1496897
21
28.0477271
0
LINE
8
DEFAULT_255_2_778
10
14.1496897
20
28.0477271
11
14.0615897
21
28.0477271
0
LINE
8
DEFAULT_255_2_778
10
14.0615897
20
28.0477271
11
13.9655897
21
28.0477271
0
LINE
8
DEFAULT_255_2_778
10
13.9655897
20
28.0477271
11
13.7583897
21
27.3534271
0
LINE
8
DEFAULT_255_2_778
10
13.7583897
20
27.3534271
11
13.5511897
21
28.0477271
0
LINE
8
DEFAULT_255_2_778
10
13.5511897
20
28.0477271
11
13.4551897
21
28.0477271
0
LINE
8
DEFAULT_255_2_778
10
13.4551897
20
28.0477271
11
13.3670897
21
28.0477271
0
LINE
8
DEFAULT_255_2_778
10
13.3670897
20
28.0477271
11
13.2651897
21
28.0477271
0
LINE
8
DEFAULT_255_2_778
10
13.2651897
20
28.0477271
11
13.2651897
21
27.0584271
0
LINE
8
DEFAULT_255_2_778
10
13.2651897
20
27.0584271
11
13.4519897
21
27.0584271
0
LINE
8
DEFAULT_255_2_778
10
13.4519897
20
27.0584271
11
13.4519897
21
27.7937271
0
LINE
8
DEFAULT_255_2_778
10
13.4519897
20
27.7937271
11
13.4519897
21
27.7937271
0
LINE
8
DEFAULT_255_2_778
10
18.0056897
20
28.0477271
11
17.8064897
21
28.0477271
0
LINE
8
DEFAULT_255_2_778
10
17.8064897
20
28.0477271
11
17.8064897
21
27.0584271
0
LINE
8
DEFAULT_255_2_778
10
17.8064897
20
27.0584271
11
18.0056897
21
27.0584271
0
LINE
8
DEFAULT_255_2_778
10
18.0056897
20
27.0584271
11
18.0056897
21
28.0477271
0
LINE
8
DEFAULT_255_2_778
10
18.0056897
20
28.0477271
11
18.0056897
21
28.0477271
0
LINE
8
DEFAULT_255_2_778
10
18.1681897
20
26.8936271
11
17.9689897
21
26.8936271
0
LINE
8
DEFAULT_255_2_778
10
17.9689897
20
26.8936271
11
17.9689897
21
25.9043271
0
LINE
8
DEFAULT_255_2_778
10
17.9689897
20
25.9043271
11
18.1681897
21
25.9043271
0
LINE
8
DEFAULT_255_2_778
10
18.1681897
20
25.9043271
11
18.1681897
21
26.8936271
0
LINE
8
DEFAULT_255_2_778
10
18.1681897
20
26.8936271
11
18.1681897
21
26.8936271
0
LINE
8
DEFAULT_255_2_778
10
19.9765897
20
28.0477271
11
19.7773897
21
28.0477271
0
LINE
8
DEFAULT_255_2_778
10
19.7773897
20
28.0477271
11
19.7773897
21
27.0584271
0
LINE
8
DEFAULT_255_2_778
10
19.7773897
20
27.0584271
11
19.9765897
21
27.0584271
0
LINE
8
DEFAULT_255_2_778
10
19.9765897
20
27.0584271
11
19.9765897
21
28.0477271
0
LINE
8
DEFAULT_255_2_778
10
19.9765897
20
28.0477271
11
19.9765897
21
28.0477271
0
LINE
8
DEFAULT_255_2_778
10
14.5298897
20
28.0477271
11
14.3306897
21
28.0477271
0
LINE
8
DEFAULT_255_2_778
10
14.3306897
20
28.0477271
11
14.3306897
21
27.0584271
0
LINE
8
DEFAULT_255_2_778
10
14.3306897
20
27.0584271
11
14.5298897
21
27.0584271
0
LINE
8
DEFAULT_255_2_778
10
14.5298897
20
27.0584271
11
14.5298897
21
28.0477271
0
LINE
8
DEFAULT_255_2_778
10
14.5298897
20
28.0477271
11
14.5298897
21
28.0477271
0
LINE
8
DEFAULT_255_2_778
10
19.4989897
20
27.6617271
11
19.1029897
21
27.6617271
0
LINE
8
DEFAULT_255_2_778
10
19.1029897
20
27.6617271
11
19.1029897
21
28.0474271
0
LINE
8
DEFAULT_255_2_778
10
19.1029897
20
28.0474271
11
18.9068897
21
28.0474271
0
LINE
8
DEFAULT_255_2_778
10
18.9068897
20
28.0474271
11
18.9068897
21
27.0584271
0
LINE
8
DEFAULT_255_2_778
10
18.9068897
20
27.0584271
11
19.1029897
21
27.0584271
0
LINE
8
DEFAULT_255_2_778
10
19.1029897
20
27.0584271
11
19.1029897
21
27.4902271
0
LINE
8
DEFAULT_255_2_778
10
19.1029897
20
27.4902271
11
19.4989897
21
27.4902271
0
LINE
8
DEFAULT_255_2_778
10
19.4989897
20
27.4902271
11
19.4989897
21
27.0584271
0
LINE
8
DEFAULT_255_2_778
10
19.4989897
20
27.0584271
11
19.6950897
21
27.0584271
0
LINE
8
DEFAULT_255_2_778
10
19.6950897
20
27.0584271
11
19.6950897
21
28.0474271
0
LINE
8
DEFAULT_255_2_778
10
19.6950897
20
28.0474271
11
19.4989897
21
28.0474271
0
LINE
8
DEFAULT_255_2_778
10
19.4989897
20
28.0474271
11
19.4989897
21
27.6617271
0
LINE
8
DEFAULT_255_2_778
10
19.4989897
20
27.6617271
11
19.4989897
21
27.6617271
0
LINE
8
DEFAULT_255_2_778
10
14.8246897
20
27.0584271
11
15.0280897
21
27.0584271
0
LINE
8
DEFAULT_255_2_778
10
15.0280897
20
27.0584271
11
15.0280897
21
27.8763271
0
LINE
8
DEFAULT_255_2_778
10
15.0280897
20
27.8763271
11
15.2696897
21
27.8763271
0
LINE
8
DEFAULT_255_2_778
10
15.2696897
20
27.8763271
11
15.2696897
21
28.0477271
0
LINE
8
DEFAULT_255_2_778
10
15.2696897
20
28.0477271
11
15.0280897
21
28.0477271
0
LINE
8
DEFAULT_255_2_778
10
15.0280897
20
28.0477271
11
14.8246897
21
28.0477271
0
LINE
8
DEFAULT_255_2_778
10
14.8246897
20
28.0477271
11
14.5830897
21
28.0477271
0
LINE
8
DEFAULT_255_2_778
10
14.5830897
20
28.0477271
11
14.5830897
21
27.8763271
0
LINE
8
DEFAULT_255_2_778
10
14.5830897
20
27.8763271
11
14.8246897
21
27.8763271
0
LINE
8
DEFAULT_255_2_778
10
14.8246897
20
27.8763271
11
14.8246897
21
27.0584271
0
LINE
8
DEFAULT_255_2_778
10
14.8246897
20
27.0584271
11
14.8246897
21
27.0584271
0
LINE
8
DEFAULT_255_2_778
10
16.6422897
20
25.9043271
11
16.8454897
21
25.9043271
0
LINE
8
DEFAULT_255_2_778
10
16.8454897
20
25.9043271
11
16.8454897
21
26.7219271
0
LINE
8
DEFAULT_255_2_778
10
16.8454897
20
26.7219271
11
17.0873897
21
26.7219271
0
LINE
8
DEFAULT_255_2_778
10
17.0873897
20
26.7219271
11
17.0873897
21
26.8936271
0
LINE
8
DEFAULT_255_2_778
10
17.0873897
20
26.8936271
11
16.8454897
21
26.8936271
0
LINE
8
DEFAULT_255_2_778
10
16.8454897
20
26.8936271
11
16.6422897
21
26.8936271
0
LINE
8
DEFAULT_255_2_778
10
16.6422897
20
26.8936271
11
16.4004897
21
26.8936271
0
LINE
8
DEFAULT_255_2_778
10
16.4004897
20
26.8936271
11
16.4004897
21
26.7219271
0
LINE
8
DEFAULT_255_2_778
10
16.4004897
20
26.7219271
11
16.6422897
21
26.7219271
0
LINE
8
DEFAULT_255_2_778
10
16.6422897
20
26.7219271
11
16.6422897
21
25.9040271
0
LINE
8
DEFAULT_255_2_778
10
16.6422897
20
25.9040271
11
16.6422897
21
25.9043271
0
LINE
8
DEFAULT_255_2_778
10
16.9007897
20
27.3669271
11
16.9007897
21
28.0474271
0
LINE
8
DEFAULT_255_2_778
10
16.9007897
20
28.0474271
11
16.7015897
21
28.0474271
0
LINE
8
DEFAULT_255_2_778
10
16.7015897
20
28.0474271
11
16.7015897
21
27.3492271
0
LINE
8
DEFAULT_255_2_778
10
16.3120897
20
27.3492271
11
16.3120897
21
28.0474271
0
LINE
8
DEFAULT_255_2_778
10
16.3120897
20
28.0474271
11
16.1162897
21
28.0474271
0
LINE
8
DEFAULT_255_2_778
10
16.1162897
20
28.0474271
11
16.1162897
21
27.3672271
0
LINE
8
DEFAULT_255_2_778
10
15.0000897
20
26.3396271
11
15.4730897
21
26.3396271
0
LINE
8
DEFAULT_255_2_778
10
15.4730897
20
26.3396271
11
15.4730897
21
26.5110271
0
LINE
8
DEFAULT_255_2_778
10
15.4730897
20
26.5110271
11
15.0000897
21
26.5110271
0
LINE
8
DEFAULT_255_2_778
10
15.0000897
20
26.5110271
11
15.0000897
21
26.7219271
0
LINE
8
DEFAULT_255_2_778
10
15.0000897
20
26.7219271
11
15.5320897
21
26.7219271
0
LINE
8
DEFAULT_255_2_778
10
15.5320897
20
26.7219271
11
15.5320897
21
26.8933271
0
LINE
8
DEFAULT_255_2_778
10
15.5320897
20
26.8933271
11
15.0000897
21
26.8933271
0
LINE
8
DEFAULT_255_2_778
10
15.0000897
20
26.8933271
11
14.7997897
21
26.8933271
0
LINE
8
DEFAULT_255_2_778
10
14.7997897
20
26.8933271
11
14.7997897
21
26.7219271
0
LINE
8
DEFAULT_255_2_778
10
14.7997897
20
26.7219271
11
14.7997897
21
26.0755271
0
LINE
8
DEFAULT_255_2_778
10
14.7997897
20
26.0755271
11
14.7997897
21
25.9040271
0
LINE
8
DEFAULT_255_2_778
10
14.7997897
20
25.9040271
11
15.0000897
21
25.9040271
0
LINE
8
DEFAULT_255_2_778
10
15.0000897
20
25.9040271
11
15.5461897
21
25.9040271
0
LINE
8
DEFAULT_255_2_778
10
15.5461897
20
25.9040271
11
15.5461897
21
26.0755271
0
LINE
8
DEFAULT_255_2_778
10
15.5461897
20
26.0755271
11
15.0000897
21
26.0755271
0
LINE
8
DEFAULT_255_2_778
10
15.0000897
20
26.0755271
11
15.0000897
21
26.3393271
0
LINE
8
DEFAULT_255_2_778
10
15.0000897
20
26.3393271
11
15.0000897
21
26.3396271
0
LINE
8
DEFAULT_255_2_778
10
17.4064897
20
27.6484271
11
17.1690897
21
27.6484271
0
LINE
8
DEFAULT_255_2_778
10
17.1690897
20
27.6484271
11
17.1690897
21
27.8900271
0
LINE
8
DEFAULT_255_2_778
10
17.1690897
20
27.8900271
11
17.4175897
21
27.8900271
0
LINE
8
DEFAULT_255_2_778
10
17.4175897
20
27.8900271
11
17.4175897
21
27.8903271
0
LINE
8
DEFAULT_255_2_778
10
17.4027897
20
27.2076271
11
17.1690897
21
27.2076271
0
LINE
8
DEFAULT_255_2_778
10
17.1690897
20
27.2076271
11
17.1690897
21
27.4947271
0
LINE
8
DEFAULT_255_2_778
10
17.1690897
20
27.4947271
11
17.4003897
21
27.4947271
0
LINE
8
DEFAULT_255_2_778
10
17.1767897
20
27.0584271
11
17.4622897
21
27.0584271
0
LINE
8
DEFAULT_255_2_778
10
17.4172897
20
28.0474271
11
17.1770897
21
28.0474271
0
LINE
8
DEFAULT_255_2_778
10
17.1770897
20
28.0474271
11
16.9722897
21
28.0474271
0
LINE
8
DEFAULT_255_2_778
10
16.9722897
20
28.0474271
11
16.9711897
21
28.0474271
0
LINE
8
DEFAULT_255_2_778
10
16.9711897
20
28.0474271
11
16.9711897
21
27.0584271
0
LINE
8
DEFAULT_255_2_778
10
16.9711897
20
27.0584271
11
16.9722897
21
27.0584271
0
LINE
8
DEFAULT_255_2_778
10
16.9722897
20
27.0584271
11
17.1770897
21
27.0584271
0
LINE
8
DEFAULT_255_2_778
10
17.1770897
20
27.0584271
11
17.1767897
21
27.0584271
0
LINE
8
DEFAULT_255_2_778
10
17.3368897
20
26.4541271
11
17.3368897
21
26.7235271
0
LINE
8
DEFAULT_255_2_778
10
17.3368897
20
26.7235271
11
17.5781897
21
26.7235271
0
LINE
8
DEFAULT_255_2_778
10
17.5842897
20
26.4544271
11
17.3370897
21
26.4544271
0
LINE
8
DEFAULT_255_2_778
10
17.3370897
20
26.4544271
11
17.3368897
21
26.4541271
0
LINE
8
DEFAULT_255_2_778
10
17.5879897
20
26.8946271
11
17.3368897
21
26.8946271
0
LINE
8
DEFAULT_255_2_778
10
17.3368897
20
26.8946271
11
17.1383897
21
26.8946271
0
LINE
8
DEFAULT_255_2_778
10
17.1383897
20
26.8946271
11
17.1362897
21
26.8946271
0
LINE
8
DEFAULT_255_2_778
10
17.1362897
20
26.8946271
11
17.1362897
21
25.9054271
0
LINE
8
DEFAULT_255_2_778
10
17.1362897
20
25.9054271
11
17.3368897
21
25.9054271
0
LINE
8
DEFAULT_255_2_778
10
17.3368897
20
25.9054271
11
17.3368897
21
26.2951271
0
LINE
8
DEFAULT_255_2_778
10
17.3368897
20
26.2951271
11
17.5069897
21
26.2951271
0
LINE
8
DEFAULT_255_2_778
10
17.7162897
20
25.9054271
11
17.9175897
21
25.9054271
0
LINE
8
DEFAULT_255_2_778
10
14.2763897
20
26.8936271
11
14.0760897
21
26.8936271
0
LINE
8
DEFAULT_255_2_778
10
14.0760897
20
26.8936271
11
14.0760897
21
26.0758271
0
LINE
8
DEFAULT_255_2_778
10
14.0760897
20
26.0758271
11
14.0760897
21
25.9043271
0
LINE
8
DEFAULT_255_2_778
10
14.0760897
20
25.9043271
11
14.2763897
21
25.9043271
0
LINE
8
DEFAULT_255_2_778
10
14.2763897
20
25.9043271
11
14.7428897
21
25.9043271
0
LINE
8
DEFAULT_255_2_778
10
14.7428897
20
25.9043271
11
14.7428897
21
26.0758271
0
LINE
8
DEFAULT_255_2_778
10
14.7428897
20
26.0758271
11
14.2763897
21
26.0758271
0
LINE
8
DEFAULT_255_2_778
10
14.2763897
20
26.0758271
11
14.2763897
21
26.8936271
0
LINE
8
DEFAULT_255_2_778
10
14.2763897
20
26.8936271
11
14.2763897
21
26.8936271
0
ARC
8
DEFAULT_255_2_778
10
15.4575771
20
26.5177956
40
0.9698658
50
72.4620651
51
81.2833515
0
ARC
8
DEFAULT_255_2_778
10
15.7159607
20
27.2959842
40
0.1504583
50
28.8891607
51
76.9893157
0
ARC
8
DEFAULT_255_2_778
10
15.7432326
20
27.3249516
40
0.1132432
50
358.9919729
51
22.7111137
0
ARC
8
DEFAULT_255_2_778
10
15.7394861
20
27.3291241
40
0.1171346
50
289.2958104
51
356.9831562
0
ARC
8
DEFAULT_255_2_778
10
15.6668261
20
27.4866205
40
0.2902651
50
268.4665462
51
292.5613311
0
ARC
8
DEFAULT_255_2_778
10
15.6496808
20
27.4274915
40
0.2312224
50
236.4875347
51
272.3243617
0
ARC
8
DEFAULT_255_2_778
10
15.6107698
20
27.3593795
40
0.1530366
50
178.9592034
51
234.5540767
0
ARC
8
DEFAULT_255_2_778
10
15.5655537
20
27.3497846
40
0.3001505
50
177.6371216
51
245.5669128
0
ARC
8
DEFAULT_255_2_778
10
15.6409795
20
27.5222262
40
0.4883547
50
245.8785255
51
267.1718948
0
ARC
8
DEFAULT_255_2_778
10
15.6671532
20
27.7736441
40
0.7408851
50
266.1094973
51
270.0545321
0
ARC
8
DEFAULT_255_2_778
10
15.6772894
20
27.6043458
40
0.5716642
50
269.0547216
51
287.7147747
0
ARC
8
DEFAULT_255_2_778
10
15.7598889
20
27.3586414
40
0.3125017
50
286.995984
51
325.1221533
0
ARC
8
DEFAULT_255_2_778
10
15.7678294
20
27.3420933
40
0.2966627
50
326.8673922
51
0.8625726
0
ARC
8
DEFAULT_255_2_778
10
15.7895107
20
27.3505445
40
0.2749766
50
359.1696101
51
76.9211962
0
ARC
8
DEFAULT_255_2_778
10
15.6698309
20
27.0695437
40
0.5782036
50
71.6631676
51
79.0705527
0
ARC
8
DEFAULT_255_2_778
10
14.2492968
20
19.7163992
40
8.0673056
50
79.0662148
51
79.6216572
0
ARC
8
DEFAULT_255_2_778
10
16.4356585
20
31.5940904
40
4.0099443
50
259.1227669
51
259.4665204
0
ARC
8
DEFAULT_255_2_778
10
15.7836732
20
28.2990465
40
0.6513291
50
249.9945768
51
260.7485895
0
ARC
8
DEFAULT_255_2_778
10
15.5880401
20
27.7880322
40
0.1046098
50
178.6705173
51
254.9333545
0
ARC
8
DEFAULT_255_2_778
10
15.6049957
20
27.7846011
40
0.1216785
50
93.288632
51
177.2403935
0
ARC
8
DEFAULT_255_2_778
10
15.6585677
20
27.5976075
40
0.3143588
50
89.6189463
51
101.1057977
0
ARC
8
DEFAULT_255_2_778
10
15.6722733
20
27.7094483
40
0.2028439
50
53.5634072
51
93.2825843
0
ARC
8
DEFAULT_255_2_778
10
15.7018505
20
27.7676467
40
0.1388739
50
357.1985816
51
49.1152298
0
ARC
8
DEFAULT_255_2_778
10
15.7254907
20
27.7608597
40
0.3087677
50
359.9999335
51
2.3703878
0
ARC
8
DEFAULT_255_2_778
10
15.7353555
20
27.762366
40
0.298851
50
2.1600756
51
60.1092229
0
ARC
8
DEFAULT_255_2_778
10
15.6766212
20
27.6557456
40
0.4205645
50
60.4106856
51
86.1444419
0
ARC
8
DEFAULT_255_2_778
10
15.6536151
20
27.4790551
40
0.5985046
50
85.0843314
51
90.0628677
0
ARC
8
DEFAULT_255_2_778
10
15.6529718
20
27.6024789
40
0.4750804
50
90.001616
51
92.2300394
0
ARC
8
DEFAULT_255_2_778
10
15.6281193
20
27.7076193
40
0.3696351
50
89.0131319
51
149.6364996
0
ARC
8
DEFAULT_255_2_778
10
15.5505461
20
27.7798378
40
0.2671974
50
154.5962367
51
180.4885883
0
ARC
8
DEFAULT_255_2_778
10
15.5651524
20
27.7783163
40
0.281795
50
180.1539064
51
255.1120325
0
ARC
8
DEFAULT_255_2_778
10
15.7094242
20
28.1011643
40
0.6333958
50
249.9962237
51
260.4976723
0
ARC
8
DEFAULT_255_2_778
10
18.2462459
20
26.5189328
40
0.9687465
50
72.4483464
51
81.2713299
0
ARC
8
DEFAULT_255_2_778
10
18.5044707
20
27.2960194
40
0.1504336
50
28.8790386
51
76.9704956
0
ARC
8
DEFAULT_255_2_778
10
18.5317145
20
27.3249508
40
0.1132614
50
358.9925053
51
22.7076787
0
ARC
8
DEFAULT_255_2_778
10
18.5280402
20
27.3290411
40
0.1170763
50
289.2761556
51
357.0223042
0
ARC
8
DEFAULT_255_2_778
10
18.4553612
20
27.4869159
40
0.2905613
50
268.4611814
51
292.5289055
0
ARC
8
DEFAULT_255_2_778
10
18.4381752
20
27.4283903
40
0.2321207
50
236.6616903
51
272.3167392
0
ARC
8
DEFAULT_255_2_778
10
18.3988848
20
27.3593717
40
0.1529518
50
178.9557035
51
234.7484264
0
ARC
8
DEFAULT_255_2_778
10
18.3539537
20
27.3497846
40
0.3001505
50
177.6371216
51
245.5669128
0
ARC
8
DEFAULT_255_2_778
10
18.4293795
20
27.5222262
40
0.4883547
50
245.8785255
51
267.1718948
0
ARC
8
DEFAULT_255_2_778
10
18.4555532
20
27.7736441
40
0.7408851
50
266.1094973
51
270.0545321
0
ARC
8
DEFAULT_255_2_778
10
18.4656836
20
27.6049774
40
0.5722957
50
269.0563423
51
287.7048702
0
ARC
8
DEFAULT_255_2_778
10
18.548344
20
27.3590005
40
0.312856
50
286.9832601
51
325.0871916
0
ARC
8
DEFAULT_255_2_778
10
18.5567708
20
27.3421179
40
0.2964208
50
326.8311942
51
0.8585267
0
ARC
8
DEFAULT_255_2_778
10
18.5782574
20
27.3506318
40
0.2749311
50
359.1512604
51
76.8815908
0
ARC
8
DEFAULT_255_2_778
10
18.4589274
20
27.0706685
40
0.5770808
50
71.6445163
51
79.0587821
0
ARC
8
DEFAULT_255_2_778
10
17.0173657
20
19.5943715
40
8.1910887
50
79.0843627
51
79.6321368
0
ARC
8
DEFAULT_255_2_778
10
19.2200266
20
31.57385
40
3.9892176
50
259.1314419
51
259.4772924
0
ARC
8
DEFAULT_255_2_778
10
18.5723251
20
28.2984454
40
0.6507003
50
249.9919323
51
260.7592458
0
ARC
8
DEFAULT_255_2_778
10
18.376901
20
27.7879869
40
0.1045718
50
178.6452075
51
254.9151907
0
ARC
8
DEFAULT_255_2_778
10
18.3939581
20
27.7845339
40
0.121744
50
93.2745253
51
177.21023
0
ARC
8
DEFAULT_255_2_778
10
18.4475726
20
27.5974375
40
0.3145287
50
89.6200387
51
101.1027534
0
ARC
8
DEFAULT_255_2_778
10
18.4613489
20
27.7107775
40
0.2015212
50
53.1490002
51
93.3256649
0
ARC
8
DEFAULT_255_2_778
10
18.4902755
20
27.7675842
40
0.1391455
50
357.2298228
51
48.6470447
0
ARC
8
DEFAULT_255_2_778
10
18.5137232
20
27.7608549
40
0.3092351
50
0.0008291
51
2.3676985
0
ARC
8
DEFAULT_255_2_778
10
18.5240744
20
27.762419
40
0.2988304
50
2.1500394
51
60.0956838
0
ARC
8
DEFAULT_255_2_778
10
18.4654399
20
27.6559232
40
0.4203859
50
60.40452
51
86.1455285
0
ARC
8
DEFAULT_255_2_778
10
18.4424157
20
27.4791009
40
0.5984588
50
85.0841409
51
90.0629301
0
ARC
8
DEFAULT_255_2_778
10
18.4417778
20
27.6020715
40
0.4754878
50
90.0023409
51
92.3231329
0
ARC
8
DEFAULT_255_2_778
10
18.4167555
20
27.7073927
40
0.3698206
50
89.1093915
51
149.6400816
0
ARC
8
DEFAULT_255_2_778
10
18.338761
20
27.779824
40
0.2669122
50
154.6001925
51
180.486137
0
ARC
8
DEFAULT_255_2_778
10
18.3537607
20
27.7784475
40
0.2819037
50
180.1805176
51
255.132702
0
ARC
8
DEFAULT_255_2_778
10
18.4982264
20
28.1017107
40
0.6339516
50
250.0026216
51
260.4967164
0
ARC
8
DEFAULT_255_2_778
10
16.008858
20
26.3086112
40
0.251919
50
190.2725934
51
267.3608934
0
ARC
8
DEFAULT_255_2_778
10
16.244178
20
26.3998799
40
0.5020278
50
179.6713748
51
195.7408976
0
ARC
8
DEFAULT_255_2_778
10
16.1792796
20
26.4153849
40
0.4373035
50
148.7090568
51
181.6544346
0
ARC
8
DEFAULT_255_2_778
10
15.9957834
20
26.5256146
40
0.2232496
50
89.6214531
51
148.4243849
0
ARC
8
DEFAULT_255_2_778
10
16.0061418
20
26.5478635
40
0.2011921
50
41.6366077
51
92.5306536
0
ARC
8
DEFAULT_255_2_778
10
15.9513724
20
26.5096409
40
0.2676346
50
15.1883611
51
39.9617259
0
ARC
8
DEFAULT_255_2_778
10
16.0282162
20
26.5202647
40
0.3934662
50
8.6968578
51
82.0666148
0
ARC
8
DEFAULT_255_2_778
10
15.9931251
20
26.3733984
40
0.5439629
50
80.5407744
51
90.1544913
0
ARC
8
DEFAULT_255_2_778
10
15.9818804
20
26.4623515
40
0.4551129
50
88.7689246
51
119.6437418
0
ARC
8
DEFAULT_255_2_778
10
16.0077717
20
26.4660969
40
0.4653013
50
122.644121
51
173.3997839
0
ARC
8
DEFAULT_255_2_778
10
16.2711934
20
26.401789
40
0.7351371
50
170.7798304
51
180.1348114
0
ARC
8
DEFAULT_255_2_778
10
16.137093
20
26.3864397
40
0.601189
50
178.7018809
51
210.5654151
0
ARC
8
DEFAULT_255_2_778
10
15.9705873
20
26.2960638
40
0.4119181
50
211.5187835
51
265.8653015
0
ARC
8
DEFAULT_255_2_778
10
15.9911821
20
26.4202784
40
0.5374192
50
264.6300756
51
270.0507769
0
ARC
8
DEFAULT_255_2_778
10
16.0023101
20
26.3525202
40
0.4697816
50
268.7007817
51
300.1246486
0
ARC
8
DEFAULT_255_2_778
10
16.0352856
20
26.2739874
40
0.3854599
50
301.7439582
51
353.7553423
0
ARC
8
DEFAULT_255_2_778
10
16.0016661
20
26.2679855
40
0.2110722
50
268.8034232
51
350.2000815
0
ARC
8
DEFAULT_255_2_778
10
18.6896209
20
26.3085652
40
0.251876
50
190.2637329
51
267.3461148
0
ARC
8
DEFAULT_255_2_778
10
18.9250485
20
26.3998832
40
0.5020983
50
179.6717961
51
195.7390202
0
ARC
8
DEFAULT_255_2_778
10
18.8602718
20
26.4154095
40
0.4374964
50
148.728187
51
181.6569288
0
ARC
8
DEFAULT_255_2_778
10
18.6764688
20
26.5257328
40
0.2231314
50
89.6174973
51
148.4413723
0
ARC
8
DEFAULT_255_2_778
10
18.6868815
20
26.5477529
40
0.2013043
50
42.5770871
51
92.5405522
0
ARC
8
DEFAULT_255_2_778
10
18.6344001
20
26.5112818
40
0.2647669
50
14.9889914
51
40.7044999
0
ARC
8
DEFAULT_255_2_778
10
18.7087162
20
26.5202647
40
0.3934662
50
8.6968578
51
82.0666148
0
ARC
8
DEFAULT_255_2_778
10
18.6736251
20
26.3733984
40
0.5439629
50
80.5407744
51
90.1544913
0
ARC
8
DEFAULT_255_2_778
10
18.6623804
20
26.4623515
40
0.4551129
50
88.7689246
51
119.6437418
0
ARC
8
DEFAULT_255_2_778
10
18.6882717
20
26.4660969
40
0.4653013
50
122.644121
51
173.3997839
0
ARC
8
DEFAULT_255_2_778
10
18.9516934
20
26.401789
40
0.7351371
50
170.7798304
51
180.1348114
0
ARC
8
DEFAULT_255_2_778
10
18.817593
20
26.3864397
40
0.601189
50
178.7018809
51
210.5654151
0
ARC
8
DEFAULT_255_2_778
10
18.6510873
20
26.2960638
40
0.4119181
50
211.5187835
51
265.8653015
0
ARC
8
DEFAULT_255_2_778
10
18.6716821
20
26.4202784
40
0.5374192
50
264.6300756
51
270.0507769
0
ARC
8
DEFAULT_255_2_778
10
18.6828101
20
26.3525202
40
0.4697816
50
268.7007817
51
300.1246486
0
ARC
8
DEFAULT_255_2_778
10
18.7157856
20
26.2739874
40
0.3854599
50
301.7439582
51
353.7553423
0
ARC
8
DEFAULT_255_2_778
10
18.6821524
20
26.2680071
40
0.2110894
50
268.8615529
51
350.1949424
0
LINE
8
DEFAULT_255_2_778
10
15.4577584
20
27.3621593
11
15.2656584
21
27.3621593
0
LINE
8
DEFAULT_255_2_778
10
15.8405584
20
27.7608593
11
16.0342584
21
27.7608593
0
LINE
8
DEFAULT_255_2_778
10
18.2459584
20
27.3621593
11
18.0540584
21
27.3621593
0
LINE
8
DEFAULT_255_2_778
10
18.6292584
20
27.7608593
11
18.8229584
21
27.7608593
0
LINE
8
DEFAULT_255_2_778
10
16.2096584
20
26.5797593
11
16.4171584
21
26.5797593
0
LINE
8
DEFAULT_255_2_778
10
16.4184584
20
26.2320593
11
16.2096584
21
26.2320593
0
LINE
8
DEFAULT_255_2_778
10
18.8901584
20
26.5797593
11
19.0976584
21
26.5797593
0
LINE
8
DEFAULT_255_2_778
10
19.0989584
20
26.2320593
11
18.8901584
21
26.2320593
0
LINE
8
DEFAULT_255_1_234
10
4.9274119
20
20.6366792
11
4.9274119
21
20.5154
0
LINE
8
DEFAULT_255_1_234
10
4.9274119
20
20.5154
11
4.161184
21
20.5154
0
LINE
8
DEFAULT_255_1_234
10
4.161184
20
20.5154
11
4.161184
21
20.6222221
0
LINE
8
DEFAULT_255_1_234
10
4.161184
20
20.6222221
11
4.5659836
21
21.0719995
0
LINE
8
DEFAULT_255_1_234
10
4.2872823
20
21.3402595
11
4.1386952
21
21.3402595
0
LINE
8
DEFAULT_255_1_234
10
4.6535296
20
20.9764218
11
4.3402918
21
20.6366792
0
LINE
8
DEFAULT_255_1_234
10
4.3402918
20
20.6366792
11
4.9274119
21
20.6366792
0
ARC
8
DEFAULT_255_1_234
10
3.216967
20
22.2649527
40
1.8008286
50
318.5132453
51
320.7828378
0
ARC
8
DEFAULT_255_1_234
10
3.7456644
20
21.8346426
40
1.1191493
50
320.7372736
51
323.9737074
0
ARC
8
DEFAULT_255_1_234
10
4.1376501
20
21.5506361
40
0.6350923
50
323.8961724
51
328.6421089
0
ARC
8
DEFAULT_255_1_234
10
4.3423096
20
21.4244031
40
0.3946393
50
328.8299013
51
331.789948
0
ARC
8
DEFAULT_255_1_234
10
4.4420274
20
21.3729509
40
0.2824501
50
331.4255242
51
352.9364833
0
ARC
8
DEFAULT_255_1_234
10
4.4556775
20
21.3698976
40
0.2685315
50
353.2248685
51
0.0169286
0
ARC
8
DEFAULT_255_1_234
10
4.4766652
20
21.372195
40
0.2475536
50
359.4866256
51
15.9339782
0
ARC
8
DEFAULT_255_1_234
10
4.5273637
20
21.3858286
40
0.1950618
50
16.1714718
51
43.5284424
0
ARC
8
DEFAULT_255_1_234
10
4.5350946
20
21.3935573
40
0.184134
50
43.4415429
51
83.1661404
0
ARC
8
DEFAULT_255_1_234
10
4.5216864
20
21.3198771
40
0.258926
50
82.160215
51
90.1505798
0
ARC
8
DEFAULT_255_1_234
10
4.5185291
20
21.2661865
40
0.3126255
50
89.5460705
51
102.5418777
0
ARC
8
DEFAULT_255_1_234
10
4.4942377
20
21.3692665
40
0.2067346
50
102.1739365
51
129.2061916
0
ARC
8
DEFAULT_255_1_234
10
4.4863449
20
21.3817094
40
0.1921118
50
129.7279328
51
135.7542026
0
ARC
8
DEFAULT_255_1_234
10
4.4984977
20
21.3720045
40
0.2075944
50
136.175737
51
166.3674722
0
ARC
8
DEFAULT_255_1_234
10
4.5991896
20
21.3450182
40
0.3118201
50
165.9092917
51
178.8683903
0
ARC
8
DEFAULT_255_1_234
10
4.6856757
20
21.3403179
40
0.3983935
50
178.438168
51
180.0083905
0
ARC
8
DEFAULT_255_1_234
10
4.5455359
20
21.3442231
40
0.4068601
50
163.2878735
51
180.5581814
0
ARC
8
DEFAULT_255_1_234
10
4.4653621
20
21.366284
40
0.3237344
50
133.454115
51
162.9470031
0
ARC
8
DEFAULT_255_1_234
10
4.4832162
20
21.3473
40
0.349795
50
100.7869394
51
133.4384016
0
ARC
8
DEFAULT_255_1_234
10
4.5179934
20
21.1924319
40
0.5084616
50
89.6605301
51
101.3704185
0
ARC
8
DEFAULT_255_1_234
10
4.5246273
20
21.1985496
40
0.502348
50
78.2171172
51
90.4130393
0
ARC
8
DEFAULT_255_1_234
10
4.5601351
20
21.3609637
40
0.3361092
50
55.9268222
51
78.4888551
0
ARC
8
DEFAULT_255_1_234
10
4.5797791
20
21.3948324
40
0.2970617
50
47.9292255
51
55.4054003
0
ARC
8
DEFAULT_255_1_234
10
4.5899352
20
21.4051502
40
0.2825983
50
4.3347696
51
48.0560701
0
ARC
8
DEFAULT_255_1_234
10
4.4803745
20
21.3881601
40
0.393225
50
359.925209
51
5.5967654
0
ARC
8
DEFAULT_255_1_234
10
4.5232637
20
21.3937816
40
0.3503892
50
337.8914096
51
358.9967724
0
ARC
8
DEFAULT_255_1_234
10
4.2519049
20
21.4984706
40
0.6412172
50
326.9135351
51
338.3505194
0
ARC
8
DEFAULT_255_1_234
10
3.8533353
20
21.7539284
40
1.1146189
50
319.6472867
51
327.095818
0
ARC
8
DEFAULT_255_1_234
10
3.4700356
20
22.0701
40
1.6114559
50
317.2586784
51
319.9046139
0
LINE
8
DEFAULT_255_1_234
10
5.7121127
20
21.6848211
11
5.7121127
21
20.908152
0
LINE
8
DEFAULT_255_1_234
10
5.7121127
20
20.908152
11
5.8743538
21
20.908152
0
LINE
8
DEFAULT_255_1_234
10
5.8743538
20
20.908152
11
5.8743538
21
20.7868728
0
LINE
8
DEFAULT_255_1_234
10
5.8743538
20
20.7868728
11
5.7121127
21
20.7868728
0
LINE
8
DEFAULT_255_1_234
10
5.7121127
20
20.7868728
11
5.7121127
21
20.5154
0
LINE
8
DEFAULT_255_1_234
10
5.7121127
20
20.5154
11
5.5627224
21
20.5154
0
LINE
8
DEFAULT_255_1_234
10
5.5627224
20
20.5154
11
5.5627224
21
20.7868728
0
LINE
8
DEFAULT_255_1_234
10
5.5627224
20
20.7868728
11
5.0302181
21
20.7868728
0
LINE
8
DEFAULT_255_1_234
10
5.0302181
20
20.7868728
11
5.0302181
21
20.8744187
0
LINE
8
DEFAULT_255_1_234
10
5.0302181
20
20.8744187
11
5.5538875
21
21.6848211
0
LINE
8
DEFAULT_255_1_234
10
5.5538875
20
21.6848211
11
5.7121127
21
21.6848211
0
LINE
8
DEFAULT_255_1_234
10
5.5450525
20
21.4494912
11
5.1988846
21
20.908152
0
LINE
8
DEFAULT_255_1_234
10
5.1988846
20
20.908152
11
5.5627224
21
20.908152
0
LINE
8
DEFAULT_255_1_234
10
5.5627224
20
20.908152
11
5.5627224
21
21.4816181
0
LINE
8
DEFAULT_255_1_234
10
5.5627224
20
21.4816181
11
5.5450525
21
21.4494912
0
LINE
8
DEFAULT_255_1_234
10
6.101652
20
21.6848211
11
6.434166
21
20.7202093
0
LINE
8
DEFAULT_255_1_234
10
6.434166
20
20.7202093
11
6.7682863
21
21.6848211
0
LINE
8
DEFAULT_255_1_234
10
6.7682863
20
21.6848211
11
6.9369528
21
21.6848211
0
LINE
8
DEFAULT_255_1_234
10
6.9369528
20
21.6848211
11
6.5032389
21
20.5154
0
LINE
8
DEFAULT_255_1_234
10
6.5032389
20
20.5154
11
6.3666994
21
20.5154
0
LINE
8
DEFAULT_255_1_234
10
6.3666994
20
20.5154
11
5.9337887
21
21.6848211
0
LINE
8
DEFAULT_255_1_234
10
5.9337887
20
21.6848211
11
6.101652
21
21.6848211
0
LINE
8
DEFAULT_255_1_234
10
4.3327902
20
5.8098211
11
4.3327902
21
4.6404
0
LINE
8
DEFAULT_255_1_234
10
4.3327902
20
4.6404
11
4.1785808
21
4.6404
0
LINE
8
DEFAULT_255_1_234
10
4.1785808
20
4.6404
11
4.1785808
21
5.8098211
0
LINE
8
DEFAULT_255_1_234
10
4.1785808
20
5.8098211
11
4.3327902
21
5.8098211
0
LINE
8
DEFAULT_255_1_234
10
5.2757163
20
5.3070343
11
5.2757163
21
5.180936
0
LINE
8
DEFAULT_255_1_234
10
5.2757163
20
5.180936
11
4.7689136
21
5.180936
0
LINE
8
DEFAULT_255_1_234
10
4.7689136
20
5.180936
11
4.7689136
21
4.7664983
0
LINE
8
DEFAULT_255_1_234
10
4.7689136
20
4.7664983
11
5.35764
21
4.7664983
0
LINE
8
DEFAULT_255_1_234
10
5.35764
20
4.7664983
11
5.35764
21
4.6404
0
LINE
8
DEFAULT_255_1_234
10
5.35764
20
4.6404
11
4.6147042
21
4.6404
0
LINE
8
DEFAULT_255_1_234
10
4.6147042
20
4.6404
11
4.6147042
21
5.8098211
0
LINE
8
DEFAULT_255_1_234
10
4.6147042
20
5.8098211
11
5.3496083
21
5.8098211
0
LINE
8
DEFAULT_255_1_234
10
5.3496083
20
5.8098211
11
5.3496083
21
5.6829196
0
LINE
8
DEFAULT_255_1_234
10
5.3496083
20
5.6829196
11
4.7689136
21
5.6829196
0
LINE
8
DEFAULT_255_1_234
10
4.7689136
20
5.6829196
11
4.7689136
21
5.3070343
0
LINE
8
DEFAULT_255_1_234
10
4.7689136
20
5.3070343
11
5.2757163
21
5.3070343
0
LINE
8
DEFAULT_255_1_234
10
4.7125344
20
13.0357091
11
4.4370458
21
13.0357091
0
LINE
8
DEFAULT_255_1_234
10
4.4370458
20
13.0357091
11
4.4370458
21
12.5779
0
LINE
8
DEFAULT_255_1_234
10
4.4370458
20
12.5779
11
4.2828364
21
12.5779
0
LINE
8
DEFAULT_255_1_234
10
4.2828364
20
12.5779
11
4.2828364
21
13.7473211
0
LINE
8
DEFAULT_255_1_234
10
4.2828364
20
13.7473211
11
4.7141407
21
13.7473211
0
LINE
8
DEFAULT_255_1_234
10
4.4370458
20
13.6204196
11
4.4370458
21
13.1618074
0
LINE
8
DEFAULT_255_1_234
10
4.4370458
20
13.1618074
11
4.7141407
21
13.1618074
0
LINE
8
DEFAULT_255_1_234
10
4.7229756
20
13.6204196
11
4.4370458
21
13.6204196
0
ARC
8
DEFAULT_255_1_234
10
4.7183534
20
13.1414195
40
0.6059162
50
78.8378113
51
90.3983573
0
ARC
8
DEFAULT_255_1_234
10
4.7599548
20
13.3434879
40
0.3996205
50
58.9632738
51
79.0810598
0
ARC
8
DEFAULT_255_1_234
10
4.790109
20
13.3994721
40
0.3361177
50
48.0197965
51
58.447194
0
ARC
8
DEFAULT_255_1_234
10
4.7989951
20
13.4080225
40
0.3238191
50
3.3375044
51
48.1766626
0
ARC
8
DEFAULT_255_1_234
10
4.675979
20
13.3903171
40
0.4477806
50
359.9477528
51
4.6829065
0
ARC
8
DEFAULT_255_1_234
10
4.6883107
20
13.3860628
40
0.4354656
50
346.1877825
51
0.5060252
0
ARC
8
DEFAULT_255_1_234
10
4.8241975
20
13.3507731
40
0.295089
50
310.8831995
51
346.5426355
0
ARC
8
DEFAULT_255_1_234
10
4.7933395
20
13.3924695
40
0.3468331
50
286.6925341
51
310.2288297
0
ARC
8
DEFAULT_255_1_234
10
4.7364226
20
13.5714882
40
0.5346654
50
274.6850312
51
287.0245141
0
ARC
8
DEFAULT_255_1_234
10
4.7138949
20
13.7923932
40
0.7566852
50
269.8969846
51
275.018904
0
ARC
8
DEFAULT_255_1_234
10
4.716654
20
13.5844707
40
0.4226708
50
269.6593078
51
279.4153575
0
ARC
8
DEFAULT_255_1_234
10
4.7423815
20
13.4354133
40
0.2714146
50
279.2049762
51
294.9900808
0
ARC
8
DEFAULT_255_1_234
10
4.7714141
20
13.3706508
40
0.2004525
50
295.2888114
51
311.2911209
0
ARC
8
DEFAULT_255_1_234
10
4.7785035
20
13.360122
40
0.1878703
50
311.7854996
51
347.2861051
0
ARC
8
DEFAULT_255_1_234
10
4.6801194
20
13.3854092
40
0.2894234
50
346.6893224
51
0.1059443
0
ARC
8
DEFAULT_255_1_234
10
4.6046089
20
13.3882685
40
0.3649409
50
359.6350983
51
0.0053152
0
ARC
8
DEFAULT_255_1_234
10
4.7016417
20
13.3907937
40
0.2679199
50
359.4672059
51
15.5933957
0
ARC
8
DEFAULT_255_1_234
10
4.7641306
20
13.4076779
40
0.2031932
50
15.7442113
51
46.6203375
0
ARC
8
DEFAULT_255_1_234
10
4.7493527
20
13.3906484
40
0.2257226
50
46.8628658
51
75.6676503
0
ARC
8
DEFAULT_255_1_234
10
4.7199347
20
13.2847718
40
0.3355939
50
75.276167
51
88.2915297
0
ARC
8
DEFAULT_255_1_234
10
4.7141054
20
13.1969524
40
0.4235602
50
87.8575022
51
88.8000139
0
LINE
8
DEFAULT_255_1_234
10
5.4755495
20
13.7473211
11
5.4755495
21
12.7039983
0
LINE
8
DEFAULT_255_1_234
10
5.4755495
20
12.7039983
11
6.0297395
21
12.7039983
0
LINE
8
DEFAULT_255_1_234
10
6.0297395
20
12.7039983
11
6.0297395
21
12.5779
0
LINE
8
DEFAULT_255_1_234
10
6.0297395
20
12.5779
11
5.320537
21
12.5779
0
LINE
8
DEFAULT_255_1_234
10
5.320537
20
12.5779
11
5.320537
21
13.7473211
0
LINE
8
DEFAULT_255_1_234
10
5.320537
20
13.7473211
11
5.4755495
21
13.7473211
0
LINE
8
DEFAULT_255_1_234
10
6.9815004
20
13.4091849
11
6.8264879
21
13.4091849
0
LINE
8
DEFAULT_255_1_234
10
6.1341521
20
12.9168394
11
6.2891646
21
12.9168394
0
ARC
8
DEFAULT_255_1_234
10
6.8923692
20
14.3038768
40
1.252368
50
248.9199003
51
254.1439814
0
ARC
8
DEFAULT_255_1_234
10
6.7243187
20
13.8712234
40
0.788226
50
241.633709
51
249.0064503
0
ARC
8
DEFAULT_255_1_234
10
6.5714581
20
13.5911317
40
0.4691427
50
230.498225
51
241.8087113
0
ARC
8
DEFAULT_255_1_234
10
6.4930155
20
13.4911906
40
0.3421437
50
227.4064532
51
229.9881192
0
ARC
8
DEFAULT_255_1_234
10
6.4442676
20
13.4436088
40
0.2741476
50
200.6781896
51
228.1763934
0
ARC
8
DEFAULT_255_1_234
10
6.4514987
20
13.4421077
40
0.2804109
50
179.5061581
51
199.8694617
0
ARC
8
DEFAULT_255_1_234
10
6.4505738
20
13.449521
40
0.2795204
50
132.4834203
51
181.0242172
0
ARC
8
DEFAULT_255_1_234
10
6.5101321
20
13.3932704
40
0.3612768
50
129.2532479
51
133.4242687
0
ARC
8
DEFAULT_255_1_234
10
6.524777
20
13.3712965
40
0.3875675
50
101.98776
51
128.8742646
0
ARC
8
DEFAULT_255_1_234
10
6.5646381
20
13.1991741
40
0.5642249
50
89.5906553
51
102.3169264
0
ARC
8
DEFAULT_255_1_234
10
6.5716873
20
13.2310148
40
0.5323783
50
77.2360837
51
90.3248275
0
ARC
8
DEFAULT_255_1_234
10
6.5923952
20
13.32774
40
0.4334697
50
63.837784
51
77.0809408
0
ARC
8
DEFAULT_255_1_234
10
6.6201714
20
13.3794911
40
0.3747796
50
45.9864267
51
64.1607727
0
ARC
8
DEFAULT_255_1_234
10
6.6462595
20
13.4092866
40
0.3352302
50
32.2747395
51
45.6547121
0
ARC
8
DEFAULT_255_1_234
10
6.6529036
20
13.411188
40
0.328603
50
359.6507365
51
32.6130309
0
ARC
8
DEFAULT_255_1_234
10
6.5586131
20
13.411666
40
0.2678863
50
359.469343
51
14.9832209
0
ARC
8
DEFAULT_255_1_234
10
6.6291194
20
13.4305539
40
0.1948938
50
14.9781179
51
48.2004265
0
ARC
8
DEFAULT_255_1_234
10
6.6126838
20
13.4098983
40
0.2212521
50
48.5927837
51
74.1241538
0
ARC
8
DEFAULT_255_1_234
10
6.5793327
20
13.2998248
40
0.3362561
50
73.7888341
51
86.6652678
0
ARC
8
DEFAULT_255_1_234
10
6.5690893
20
13.1790881
40
0.4573953
50
86.2640471
51
90.0526343
0
ARC
8
DEFAULT_255_1_234
10
6.5662605
20
13.2186192
40
0.4178709
50
89.6697524
51
99.2309573
0
ARC
8
DEFAULT_255_1_234
10
6.5420056
20
13.3630964
40
0.2713749
50
99.069534
51
113.7658566
0
ARC
8
DEFAULT_255_1_234
10
6.5146247
20
13.4276677
40
0.2012469
50
114.0401004
51
127.9850673
0
ARC
8
DEFAULT_255_1_234
10
6.4905811
20
13.457273
40
0.1631167
50
127.7287463
51
176.7105154
0
ARC
8
DEFAULT_255_1_234
10
6.5584529
20
13.4471693
40
0.2315392
50
175.1779447
51
180.0581938
0
ARC
8
DEFAULT_255_1_234
10
6.4741375
20
13.4459428
40
0.1472271
50
179.6142195
51
228.1246017
0
ARC
8
DEFAULT_255_1_234
10
6.5183044
20
13.4868308
40
0.2072299
50
226.5779593
51
230.8800004
0
ARC
8
DEFAULT_255_1_234
10
6.5654123
20
13.5493636
40
0.2854818
50
231.4635071
51
241.9260842
0
ARC
8
DEFAULT_255_1_234
10
6.6851301
20
13.76968
40
0.53622
50
241.7178533
51
248.3259551
0
ARC
8
DEFAULT_255_1_234
10
6.8236673
20
14.1129064
40
0.9063478
50
248.2007737
51
252.4528373
0
ARC
8
DEFAULT_255_1_234
10
6.9440398
20
14.4850441
40
1.2974635
50
252.3391078
51
254.3469452
0
ARC
8
DEFAULT_255_1_234
10
6.18981
20
11.7873148
40
1.5037162
50
71.0197183
51
74.4087047
0
ARC
8
DEFAULT_255_1_234
10
6.3592785
20
12.2765111
40
0.9859993
50
66.1847285
51
71.086374
0
ARC
8
DEFAULT_255_1_234
10
6.5149098
20
12.62692
40
0.6025855
50
59.3536294
51
66.2691831
0
ARC
8
DEFAULT_255_1_234
10
6.603775
20
12.7772609
40
0.4279449
50
49.1020879
51
59.3293958
0
ARC
8
DEFAULT_255_1_234
10
6.685649
20
12.8705834
40
0.3038015
50
32.7919921
51
49.2505539
0
ARC
8
DEFAULT_255_1_234
10
6.717758
20
12.8934191
40
0.264448
50
31.1181161
51
32.4005348
0
ARC
8
DEFAULT_255_1_234
10
6.7089118
20
12.8898779
40
0.2738556
50
8.1116974
51
30.7958831
0
ARC
8
DEFAULT_255_1_234
10
6.6278786
20
12.8760753
40
0.3560327
50
359.8389159
51
8.4706516
0
ARC
8
DEFAULT_255_1_234
10
6.6904577
20
12.8712137
40
0.2934776
50
337.4731098
51
0.7537279
0
ARC
8
DEFAULT_255_1_234
10
6.7083272
20
12.8692387
40
0.2762607
50
307.5917067
51
336.4315538
0
ARC
8
DEFAULT_255_1_234
10
6.66231
20
12.9205102
40
0.3449979
50
307.6551545
51
308.4529766
0
ARC
8
DEFAULT_255_1_234
10
6.6392819
20
12.956025
40
0.3871988
50
284.3734338
51
307.1424381
0
ARC
8
DEFAULT_255_1_234
10
6.5897649
20
13.1381932
40
0.5759636
50
272.4382747
51
284.646547
0
ARC
8
DEFAULT_255_1_234
10
6.5770858
20
13.3181893
40
0.7563528
50
269.9708387
51
272.8178037
0
ARC
8
DEFAULT_255_1_234
10
6.5727897
20
13.1143716
40
0.5525489
50
248.2707594
51
270.4055579
0
ARC
8
DEFAULT_255_1_234
10
6.5673639
20
13.0953192
40
0.5328452
50
246.1383403
51
248.0542782
0
ARC
8
DEFAULT_255_1_234
10
6.5255018
20
13.0073843
40
0.4355005
50
233.1670131
51
246.4950969
0
ARC
8
DEFAULT_255_1_234
10
6.4700922
20
12.9325812
40
0.3424126
50
215.3403242
51
233.0843104
0
ARC
8
DEFAULT_255_1_234
10
6.4428354
20
12.9127549
40
0.3087104
50
179.2419209
51
215.2648451
0
ARC
8
DEFAULT_255_1_234
10
6.5195948
20
12.9141666
40
0.2304457
50
179.335461
51
199.1045811
0
ARC
8
DEFAULT_255_1_234
10
6.4863624
20
12.9054766
40
0.1962176
50
199.8828939
51
232.7063202
0
ARC
8
DEFAULT_255_1_234
10
6.5335892
20
12.9648788
40
0.2720938
50
232.3738199
51
255.5136649
0
ARC
8
DEFAULT_255_1_234
10
6.5676759
20
13.0892835
40
0.4010747
50
255.2446292
51
267.5320849
0
ARC
8
DEFAULT_255_1_234
10
6.5764382
20
13.2125702
40
0.5246356
50
267.1557994
51
270.0286766
0
ARC
8
DEFAULT_255_1_234
10
6.5792155
20
13.168195
40
0.4802668
50
269.7000017
51
278.1660162
0
ARC
8
DEFAULT_255_1_234
10
6.604816
20
12.9951515
40
0.3053425
50
278.0231263
51
290.625471
0
ARC
8
DEFAULT_255_1_234
10
6.6395847
20
12.9024025
40
0.206291
50
290.6619762
51
307.0370976
0
ARC
8
DEFAULT_255_1_234
10
6.6696236
20
12.8655504
40
0.1587906
50
306.3943566
51
355.3030547
0
ARC
8
DEFAULT_255_1_234
10
6.6184167
20
12.8732113
40
0.2104809
50
354.3660432
51
0.0698737
0
ARC
8
DEFAULT_255_1_234
10
6.6326513
20
12.8754617
40
0.1962563
50
359.417946
51
16.1971788
0
ARC
8
DEFAULT_255_1_234
10
6.6781823
20
12.8879418
40
0.149053
50
16.4723299
51
52.6262157
0
ARC
8
DEFAULT_255_1_234
10
6.5960877
20
12.7795433
40
0.2850296
50
52.7386432
51
62.4979148
0
ARC
8
DEFAULT_255_1_234
10
6.4575954
20
12.5189283
40
0.5801521
50
62.2515216
51
68.1220564
0
ARC
8
DEFAULT_255_1_234
10
6.2855864
20
12.0961872
40
1.0365451
50
68.0062803
51
71.8053402
0
ARC
8
DEFAULT_255_1_234
10
6.1060236
20
11.5576758
40
1.6042013
50
71.7183119
51
73.9258742
0
LINE
8
DEFAULT_255_1_234
10
7.8641885
20
12.5779
11
7.6103855
21
13.0509694
0
LINE
8
DEFAULT_255_1_234
10
7.6103855
20
13.0509694
11
7.3357001
21
13.0509694
0
LINE
8
DEFAULT_255_1_234
10
7.3357001
20
13.0509694
11
7.3357001
21
12.5779
0
LINE
8
DEFAULT_255_1_234
10
7.3357001
20
12.5779
11
7.1806875
21
12.5779
0
LINE
8
DEFAULT_255_1_234
10
7.1806875
20
12.5779
11
7.1806875
21
13.7473211
0
LINE
8
DEFAULT_255_1_234
10
7.1806875
20
13.7473211
11
7.5678173
21
13.7473211
0
LINE
8
DEFAULT_255_1_234
10
7.7549568
20
13.0838995
11
8.0296423
21
12.5875381
0
LINE
8
DEFAULT_255_1_234
10
8.0296423
20
12.5875381
11
8.0296423
21
12.5779
0
LINE
8
DEFAULT_255_1_234
10
8.0296423
20
12.5779
11
7.8641885
21
12.5779
0
LINE
8
DEFAULT_255_1_234
10
7.3357001
20
13.6204196
11
7.3357001
21
13.1770677
0
LINE
8
DEFAULT_255_1_234
10
7.3357001
20
13.1770677
11
7.5726364
21
13.1770677
0
LINE
8
DEFAULT_255_1_234
10
7.5718332
20
13.6204196
11
7.3357001
21
13.6204196
0
ARC
8
DEFAULT_255_1_234
10
7.5719813
20
13.0511761
40
0.6961575
50
80.653586
51
90.3427061
0
ARC
8
DEFAULT_255_1_234
10
7.6139288
20
13.2974348
40
0.4463577
50
65.6987447
51
80.8329603
0
ARC
8
DEFAULT_255_1_234
10
7.6616928
20
13.4069322
40
0.3269094
50
50.0017161
51
65.4305835
0
ARC
8
DEFAULT_255_1_234
10
7.6835393
20
13.4364482
40
0.2902647
50
11.628416
51
49.5603263
0
ARC
8
DEFAULT_255_1_234
10
7.5299729
20
13.3989299
40
0.4482792
50
359.5655735
51
12.3691
0
ARC
8
DEFAULT_255_1_234
10
7.6376588
20
13.3926644
40
0.3405924
50
341.9983148
51
0.4822259
0
ARC
8
DEFAULT_255_1_234
10
7.6771428
20
13.3819471
40
0.2997359
50
323.8609373
51
341.61416
0
ARC
8
DEFAULT_255_1_234
10
7.6469672
20
13.4052484
40
0.3378487
50
296.7018614
51
323.6876402
0
ARC
8
DEFAULT_255_1_234
10
7.6028568
20
13.4841235
40
0.4281516
50
290.8086567
51
297.2323311
0
ARC
8
DEFAULT_255_1_234
10
7.5752097
20
13.5364351
40
0.3593766
50
269.589728
51
281.8058135
0
ARC
8
DEFAULT_255_1_234
10
7.6002996
20
13.4216743
40
0.2419125
50
281.5501019
51
303.9357432
0
ARC
8
DEFAULT_255_1_234
10
7.6140184
20
13.3978936
40
0.2145323
50
304.4415616
51
311.2106213
0
ARC
8
DEFAULT_255_1_234
10
7.6272289
20
13.3839632
40
0.1953505
50
310.9875673
51
356.2715578
0
ARC
8
DEFAULT_255_1_234
10
7.5515938
20
13.3952422
40
0.2716331
50
354.9348262
51
0.0609027
0
ARC
8
DEFAULT_255_1_234
10
7.5328812
20
13.3979435
40
0.2903554
50
359.5239371
51
12.8808918
0
ARC
8
DEFAULT_255_1_234
10
7.6306368
20
13.4218728
40
0.1897315
50
12.4173452
51
43.1022135
0
ARC
8
DEFAULT_255_1_234
10
7.6367972
20
13.4255724
40
0.1827118
50
43.5751728
51
48.203944
0
ARC
8
DEFAULT_255_1_234
10
7.6198464
20
13.4034302
40
0.2105272
50
48.7809703
51
72.6969569
0
ARC
8
DEFAULT_255_1_234
10
7.5844089
20
13.295882
40
0.3237537
50
72.3702241
51
84.8791103
0
ARC
8
DEFAULT_255_1_234
10
7.5696565
20
13.1616769
40
0.4587478
50
84.5400526
51
89.7281406
0
LINE
8
DEFAULT_255_1_234
10
22.1801119
20
20.6366792
11
22.1801119
21
20.5154
0
LINE
8
DEFAULT_255_1_234
10
22.1801119
20
20.5154
11
21.413884
21
20.5154
0
LINE
8
DEFAULT_255_1_234
10
21.413884
20
20.5154
11
21.413884
21
20.6222221
0
LINE
8
DEFAULT_255_1_234
10
21.413884
20
20.6222221
11
21.8186836
21
21.0719995
0
LINE
8
DEFAULT_255_1_234
10
21.5399823
20
21.3402595
11
21.3913952
21
21.3402595
0
LINE
8
DEFAULT_255_1_234
10
21.9062296
20
20.9764218
11
21.5929918
21
20.6366792
0
LINE
8
DEFAULT_255_1_234
10
21.5929918
20
20.6366792
11
22.1801119
21
20.6366792
0
ARC
8
DEFAULT_255_1_234
10
20.469667
20
22.2649527
40
1.8008286
50
318.5132453
51
320.7828378
0
ARC
8
DEFAULT_255_1_234
10
20.9983644
20
21.8346426
40
1.1191493
50
320.7372736
51
323.9737074
0
ARC
8
DEFAULT_255_1_234
10
21.3903501
20
21.5506361
40
0.6350923
50
323.8961724
51
328.6421089
0
ARC
8
DEFAULT_255_1_234
10
21.5950096
20
21.4244031
40
0.3946393
50
328.8299013
51
331.789948
0
ARC
8
DEFAULT_255_1_234
10
21.6947274
20
21.3729509
40
0.2824501
50
331.4255242
51
352.9364833
0
ARC
8
DEFAULT_255_1_234
10
21.7083775
20
21.3698976
40
0.2685315
50
353.2248685
51
0.0169286
0
ARC
8
DEFAULT_255_1_234
10
21.7293652
20
21.372195
40
0.2475536
50
359.4866256
51
15.9339782
0
ARC
8
DEFAULT_255_1_234
10
21.7800637
20
21.3858286
40
0.1950618
50
16.1714718
51
43.5284424
0
ARC
8
DEFAULT_255_1_234
10
21.7877946
20
21.3935573
40
0.184134
50
43.4415429
51
83.1661404
0
ARC
8
DEFAULT_255_1_234
10
21.7743864
20
21.3198771
40
0.258926
50
82.160215
51
90.1505798
0
ARC
8
DEFAULT_255_1_234
10
21.7712291
20
21.2661865
40
0.3126255
50
89.5460705
51
102.5418777
0
ARC
8
DEFAULT_255_1_234
10
21.7469377
20
21.3692665
40
0.2067346
50
102.1739365
51
129.2061916
0
ARC
8
DEFAULT_255_1_234
10
21.7390449
20
21.3817094
40
0.1921118
50
129.7279328
51
135.7542026
0
ARC
8
DEFAULT_255_1_234
10
21.7511977
20
21.3720045
40
0.2075944
50
136.175737
51
166.3674722
0
ARC
8
DEFAULT_255_1_234
10
21.8518896
20
21.3450182
40
0.3118201
50
165.9092917
51
178.8683903
0
ARC
8
DEFAULT_255_1_234
10
21.9383757
20
21.3403179
40
0.3983935
50
178.438168
51
180.0083905
0
ARC
8
DEFAULT_255_1_234
10
21.7982359
20
21.3442231
40
0.4068601
50
163.2878735
51
180.5581814
0
ARC
8
DEFAULT_255_1_234
10
21.7180621
20
21.366284
40
0.3237344
50
133.454115
51
162.9470031
0
ARC
8
DEFAULT_255_1_234
10
21.7359162
20
21.3473
40
0.349795
50
100.7869394
51
133.4384016
0
ARC
8
DEFAULT_255_1_234
10
21.7706934
20
21.1924319
40
0.5084616
50
89.6605301
51
101.3704185
0
ARC
8
DEFAULT_255_1_234
10
21.7773273
20
21.1985496
40
0.502348
50
78.2171172
51
90.4130393
0
ARC
8
DEFAULT_255_1_234
10
21.8128351
20
21.3609637
40
0.3361092
50
55.9268222
51
78.4888551
0
ARC
8
DEFAULT_255_1_234
10
21.8324791
20
21.3948324
40
0.2970617
50
47.9292255
51
55.4054003
0
ARC
8
DEFAULT_255_1_234
10
21.8426352
20
21.4051502
40
0.2825983
50
4.3347696
51
48.0560701
0
ARC
8
DEFAULT_255_1_234
10
21.7330745
20
21.3881601
40
0.393225
50
359.925209
51
5.5967654
0
ARC
8
DEFAULT_255_1_234
10
21.7759637
20
21.3937816
40
0.3503892
50
337.8914096
51
358.9967724
0
ARC
8
DEFAULT_255_1_234
10
21.5046049
20
21.4984706
40
0.6412172
50
326.9135351
51
338.3505194
0
ARC
8
DEFAULT_255_1_234
10
21.1060353
20
21.7539284
40
1.1146189
50
319.6472867
51
327.095818
0
ARC
8
DEFAULT_255_1_234
10
20.7227356
20
22.0701
40
1.6114559
50
317.2586784
51
319.9046139
0
LINE
8
DEFAULT_255_1_234
10
22.9648127
20
21.6848211
11
22.9648127
21
20.908152
0
LINE
8
DEFAULT_255_1_234
10
22.9648127
20
20.908152
11
23.1270538
21
20.908152
0
LINE
8
DEFAULT_255_1_234
10
23.1270538
20
20.908152
11
23.1270538
21
20.7868728
0
LINE
8
DEFAULT_255_1_234
10
23.1270538
20
20.7868728
11
22.9648127
21
20.7868728
0
LINE
8
DEFAULT_255_1_234
10
22.9648127
20
20.7868728
11
22.9648127
21
20.5154
0
LINE
8
DEFAULT_255_1_234
10
22.9648127
20
20.5154
11
22.8154224
21
20.5154
0
LINE
8
DEFAULT_255_1_234
10
22.8154224
20
20.5154
11
22.8154224
21
20.7868728
0
LINE
8
DEFAULT_255_1_234
10
22.8154224
20
20.7868728
11
22.2829181
21
20.7868728
0
LINE
8
DEFAULT_255_1_234
10
22.2829181
20
20.7868728
11
22.2829181
21
20.8744187
0
LINE
8
DEFAULT_255_1_234
10
22.2829181
20
20.8744187
11
22.8065875
21
21.6848211
0
LINE
8
DEFAULT_255_1_234
10
22.8065875
20
21.6848211
11
22.9648127
21
21.6848211
0
LINE
8
DEFAULT_255_1_234
10
22.7977525
20
21.4494912
11
22.4515846
21
20.908152
0
LINE
8
DEFAULT_255_1_234
10
22.4515846
20
20.908152
11
22.8154224
21
20.908152
0
LINE
8
DEFAULT_255_1_234
10
22.8154224
20
20.908152
11
22.8154224
21
21.4816181
0
LINE
8
DEFAULT_255_1_234
10
22.8154224
20
21.4816181
11
22.7977525
21
21.4494912
0
LINE
8
DEFAULT_255_1_234
10
24.163148
20
21.097701
11
24.163148
21
20.6688062
0
LINE
8
DEFAULT_255_1_234
10
23.261987
20
21.0438884
11
23.261987
21
21.1458915
0
LINE
8
DEFAULT_255_1_234
10
24.163148
20
21.3418659
11
24.0089387
21
21.3418659
0
LINE
8
DEFAULT_255_1_234
10
23.4169996
20
21.1499073
11
23.4169996
21
21.0543296
0
LINE
8
DEFAULT_255_1_234
10
24.0097418
20
20.7097681
11
24.0097418
21
20.9724059
0
LINE
8
DEFAULT_255_1_234
10
24.0097418
20
20.9724059
11
23.7390723
21
20.9724059
0
LINE
8
DEFAULT_255_1_234
10
23.7390723
20
20.9724059
11
23.7390723
21
21.097701
0
LINE
8
DEFAULT_255_1_234
10
23.7390723
20
21.097701
11
24.163148
21
21.097701
0
ARC
8
DEFAULT_255_1_234
10
23.8799987
20
20.8681396
40
0.3462765
50
295.8437914
51
324.8549609
0
ARC
8
DEFAULT_255_1_234
10
23.8383954
20
20.9434567
40
0.4322211
50
291.5695085
51
296.4549398
0
ARC
8
DEFAULT_255_1_234
10
23.7873205
20
21.0799275
40
0.5779178
50
278.6622409
51
291.3045483
0
ARC
8
DEFAULT_255_1_234
10
23.7533697
20
21.2947408
40
0.7953952
50
270.020006
51
278.7494541
0
ARC
8
DEFAULT_255_1_234
10
23.7495621
20
21.4264036
40
0.927067
50
269.9969998
51
270.2524872
0
ARC
8
DEFAULT_255_1_234
10
23.7457334
20
21.0180589
40
0.5187361
50
253.5786322
51
270.4175299
0
ARC
8
DEFAULT_255_1_234
10
23.728399
20
20.9509236
40
0.4494451
50
238.8203306
51
253.2788235
0
ARC
8
DEFAULT_255_1_234
10
23.7264363
20
20.9458231
40
0.4440665
50
206.7883783
51
238.6962764
0
ARC
8
DEFAULT_255_1_234
10
23.8038273
20
20.9922405
40
0.5341121
50
206.1129412
51
207.4916643
0
ARC
8
DEFAULT_255_1_234
10
23.8635188
20
21.0176488
40
0.5989041
50
188.6921119
51
205.7821245
0
ARC
8
DEFAULT_255_1_234
10
24.049155
20
21.049223
40
0.7871862
50
180.3882829
51
188.9219216
0
ARC
8
DEFAULT_255_1_234
10
24.1719364
20
21.1515464
40
0.909967
50
170.2024264
51
180.3560651
0
ARC
8
DEFAULT_255_1_234
10
23.8555882
20
21.2081237
40
0.5886083
50
154.2857445
51
170.3893044
0
ARC
8
DEFAULT_255_1_234
10
23.7274085
20
21.266795
40
0.4476743
50
139.8401567
51
153.9332699
0
ARC
8
DEFAULT_255_1_234
10
23.6914821
20
21.2955577
40
0.4016697
50
98.4190291
51
139.6707122
0
ARC
8
DEFAULT_255_1_234
10
23.7294339
20
21.1110328
40
0.5898566
50
89.7659205
51
99.4415478
0
ARC
8
DEFAULT_255_1_234
10
23.7359588
20
21.1175844
40
0.5833147
50
78.0551672
51
90.4042112
0
ARC
8
DEFAULT_255_1_234
10
23.7764098
20
21.2994644
40
0.3970055
50
54.6380464
51
78.3339173
0
ARC
8
DEFAULT_255_1_234
10
23.7954154
20
21.3314795
40
0.3599102
50
50.031736
51
54.1558201
0
ARC
8
DEFAULT_255_1_234
10
23.7846942
20
21.3218766
40
0.3741624
50
18.1092409
51
49.7180913
0
ARC
8
DEFAULT_255_1_234
10
23.6390142
20
21.2685089
40
0.5292424
50
7.9672797
51
18.6984571
0
ARC
8
DEFAULT_255_1_234
10
23.654062
20
21.2808504
40
0.3600838
50
9.7557294
51
27.3215714
0
ARC
8
DEFAULT_255_1_234
10
23.7668092
20
21.3371912
40
0.2340608
50
27.7361077
51
84.5257964
0
ARC
8
DEFAULT_255_1_234
10
23.7340479
20
21.172864
40
0.4011215
50
82.106034
51
90.2001166
0
ARC
8
DEFAULT_255_1_234
10
23.7290696
20
21.2236215
40
0.3503799
50
89.4150119
51
105.5823402
0
ARC
8
DEFAULT_255_1_234
10
23.7033694
20
21.3171867
40
0.2533503
50
105.6678618
51
144.2648758
0
ARC
8
DEFAULT_255_1_234
10
23.7926949
20
21.2536289
40
0.3629787
50
144.3561283
51
162.8564086
0
ARC
8
DEFAULT_255_1_234
10
24.0010858
20
21.1867017
40
0.5818441
50
162.6076014
51
173.6780284
0
ARC
8
DEFAULT_255_1_234
10
24.3072002
20
21.149489
40
0.8902007
50
173.4670142
51
179.9730753
0
ARC
8
DEFAULT_255_1_234
10
24.1163673
20
21.050126
40
0.6993804
50
179.6556203
51
190.0080463
0
ARC
8
DEFAULT_255_1_234
10
23.8847502
20
21.0076375
40
0.4639066
50
189.8116607
51
206.6796816
0
ARC
8
DEFAULT_255_1_234
10
23.8002654
20
20.9682503
40
0.3707421
50
207.1031645
51
217.7074368
0
ARC
8
DEFAULT_255_1_234
10
23.7368343
20
20.9130559
40
0.2868417
50
216.7345547
51
265.6812148
0
ARC
8
DEFAULT_255_1_234
10
23.7499134
20
21.0034855
40
0.3780509
50
264.7366618
51
270.0611241
0
ARC
8
DEFAULT_255_1_234
10
23.7522397
20
21.2875111
40
0.662079
50
269.8335834
51
276.0539546
0
ARC
8
DEFAULT_255_1_234
10
23.7729402
20
21.097356
40
0.4708016
50
275.9894168
51
284.4615085
0
ARC
8
DEFAULT_255_1_234
10
23.7927409
20
21.0140663
40
0.3852094
50
284.7034461
51
286.4953897
0
ARC
8
DEFAULT_255_1_234
10
23.8334422
20
20.8829965
40
0.2479842
50
286.0770838
51
304.2625829
0
ARC
8
DEFAULT_255_1_234
10
23.8467836
20
20.8611594
40
0.2224291
50
304.5891602
51
317.1073298
0
ENDSEC
0
EOF