0
SECTION
2
HEADER
9
$MEASUREMENT
70
1
0
ENDSEC
0
SECTION
2
TABLES
0
TABLE
2
LTYPE
0
LTYPE
72
65
70
64
2
CONTINUOUS
3
______
73
0
40
0
0
ENDTAB
0
TABLE
2
LAYER
0
LAYER
2
DEFAULT_255_2_778
70
0
62
255
6
CONTINUOUS
0
LAYER
2
DEFAULT_255_1_388
70
0
62
255
6
CONTINUOUS
0
ENDTAB
0
ENDSEC
0
SECTION
2
ENTITIES
0
ARC
8
DEFAULT_255_2_778
10
3.5700693
20
20.2426538
40
0.7914215
50
129.1312896
51
180.1450914
0
ARC
8
DEFAULT_255_2_778
10
3.5703345
20
20.2431409
40
0.7912112
50
89.854026
51
129.1684493
0
ARC
8
DEFAULT_255_2_778
10
25.7993937
20
20.2428275
40
0.7915249
50
39.4792447
51
90.147911
0
ARC
8
DEFAULT_255_2_778
10
25.7999935
20
20.2426741
40
0.7911595
50
359.8533901
51
39.5154338
0
ARC
8
DEFAULT_255_2_778
10
25.7996693
20
-1.9863985
40
0.7914836
50
309.4761667
51
0.1482649
0
ARC
8
DEFAULT_255_2_778
10
25.799398
20
-1.9868295
40
0.7913235
50
269.8517415
51
309.511178
0
ARC
8
DEFAULT_255_2_778
10
3.570342
20
-1.9867714
40
0.7913815
50
219.1282118
51
270.1454017
0
ARC
8
DEFAULT_255_2_778
10
3.5700247
20
-1.9863889
40
0.7913769
50
179.8524075
51
219.1641908
0
LINE
8
DEFAULT_255_2_778
10
3.5723503
20
21.0343497
11
25.7973503
21
21.0343497
0
LINE
8
DEFAULT_255_2_778
10
26.5911503
20
20.2406497
11
26.5911503
21
-1.9843503
0
LINE
8
DEFAULT_255_2_778
10
25.7973503
20
-2.7781503
11
3.5723503
21
-2.7781503
0
LINE
8
DEFAULT_255_2_778
10
2.7786503
20
-1.9843503
11
2.7786503
21
20.2406497
0
LINE
8
DEFAULT_255_1_388
10
13.0311661
20
0.0595589
11
13.0311661
21
-0.0244726
0
LINE
8
DEFAULT_255_1_388
10
12.8007571
20
-0.5684184
11
13.0356839
21
-0.7527456
0
LINE
8
DEFAULT_255_1_388
10
13.0356839
20
-0.7527456
11
12.9173169
21
-0.8620769
0
LINE
8
DEFAULT_255_1_388
10
12.9173169
20
-0.8620769
11
12.6399227
21
-0.6416071
0
LINE
8
DEFAULT_255_1_388
10
11.9721885
20
-0.0362189
11
11.9721885
21
0.0586553
0
LINE
8
DEFAULT_255_1_388
10
12.8576817
20
-0.0371225
11
12.8576817
21
0.0604625
0
LINE
8
DEFAULT_255_1_388
10
12.1456729
20
0.0722088
11
12.1456729
21
-0.0244726
0
ARC
8
DEFAULT_255_1_388
10
12.023854
20
-0.0288471
40
1.0073215
50
351.4530536
51
0.2488167
0
ARC
8
DEFAULT_255_1_388
10
12.3146709
20
-0.0738251
40
0.7130509
50
338.6860608
51
351.554089
0
ARC
8
DEFAULT_255_1_388
10
12.4199166
20
-0.1110427
40
0.6014866
50
336.2886209
51
338.3448103
0
ARC
8
DEFAULT_255_1_388
10
12.457941
20
-0.1319048
40
0.5582958
50
321.1168943
51
336.6796496
0
ARC
8
DEFAULT_255_1_388
10
12.5290183
20
-0.1866356
40
0.4686152
50
305.4418419
51
320.8706891
0
ARC
8
DEFAULT_255_1_388
10
12.5069048
20
-0.1025508
40
0.5552257
50
271.6372169
51
283.8614231
0
ARC
8
DEFAULT_255_1_388
10
12.5026501
20
-0.0284729
40
0.6293984
50
269.993693
51
271.8317035
0
ARC
8
DEFAULT_255_1_388
10
12.4984326
20
-0.119632
40
0.5382553
50
252.5221437
51
270.441579
0
ARC
8
DEFAULT_255_1_388
10
12.4822576
20
-0.1802954
40
0.4755426
50
237.5349961
51
252.1858334
0
ARC
8
DEFAULT_255_1_388
10
12.4922952
20
-0.167488
40
0.4917393
50
209.0632754
51
237.3492577
0
ARC
8
DEFAULT_255_1_388
10
12.5902278
20
-0.1059896
40
0.6072464
50
205.118533
51
209.6465345
0
ARC
8
DEFAULT_255_1_388
10
12.679828
20
-0.0679826
40
0.7045164
50
188.7216633
51
204.8239753
0
ARC
8
DEFAULT_255_1_388
10
12.9045056
20
-0.0301613
40
0.9323368
50
180.3722704
51
188.9253909
0
ARC
8
DEFAULT_255_1_388
10
12.9014617
20
0.0631416
40
0.929284
50
169.5253055
51
180.2766048
0
ARC
8
DEFAULT_255_1_388
10
12.6874416
20
0.1025024
40
0.7116745
50
155.8314601
51
169.5088611
0
ARC
8
DEFAULT_255_1_388
10
12.5433879
20
0.1693312
40
0.5528904
50
139.6259579
51
156.0379072
0
ARC
8
DEFAULT_255_1_388
10
12.4770413
20
0.2227143
40
0.4677708
50
122.6414784
51
139.3431662
0
ARC
8
DEFAULT_255_1_388
10
12.4883668
20
0.2020787
40
0.4912586
50
93.0224537
51
122.4556091
0
ARC
8
DEFAULT_255_1_388
10
12.5005189
20
0.0934776
40
0.6003837
50
89.9756766
51
93.6340839
0
ARC
8
DEFAULT_255_1_388
10
12.5048886
20
0.1362547
40
0.5576216
50
73.9666049
51
90.4228101
0
ARC
8
DEFAULT_255_1_388
10
12.5255535
20
0.2167139
40
0.4745905
50
57.5177173
51
73.6814962
0
ARC
8
DEFAULT_255_1_388
10
12.5205759
20
0.2126592
40
0.4806881
50
28.7260666
51
57.2767723
0
ARC
8
DEFAULT_255_1_388
10
12.4181166
20
0.1493397
40
0.6010032
50
24.2451459
51
29.3250018
0
ARC
8
DEFAULT_255_1_388
10
12.3139631
20
0.1062744
40
0.713663
50
9.0643887
51
23.9639114
0
ARC
8
DEFAULT_255_1_388
10
12.0602068
20
0.0636505
40
0.9709678
50
359.7585581
51
9.1891216
0
ARC
8
DEFAULT_255_1_388
10
11.9190656
20
0.0651562
40
0.9386278
50
359.7134836
51
7.9655743
0
ARC
8
DEFAULT_255_1_388
10
12.2523355
20
0.1132391
40
0.6019121
50
7.8289718
51
20.0423308
0
ARC
8
DEFAULT_255_1_388
10
12.4350823
20
0.1797145
40
0.4074504
50
20.0676743
51
35.9162425
0
ARC
8
DEFAULT_255_1_388
10
12.5222702
20
0.2445196
40
0.2988273
50
35.659429
51
85.1578517
0
ARC
8
DEFAULT_255_1_388
10
12.5014864
20
0.1190214
40
0.4257521
50
83.7963246
51
90.0959039
0
ARC
8
DEFAULT_255_1_388
10
12.4966408
20
0.2015384
40
0.3432594
50
89.3101324
51
109.9889786
0
ARC
8
DEFAULT_255_1_388
10
12.4873598
20
0.2415665
40
0.3025108
50
110.9286914
51
143.9411475
0
ARC
8
DEFAULT_255_1_388
10
12.59209
20
0.1614455
40
0.434348
50
143.5289166
51
163.2980252
0
ARC
8
DEFAULT_255_1_388
10
12.8067187
20
0.0939685
40
0.659321
50
163.0418884
51
174.3139873
0
ARC
8
DEFAULT_255_1_388
10
13.0772152
20
0.0627378
40
0.9315905
50
174.050934
51
179.4174954
0
ARC
8
DEFAULT_255_1_388
10
13.0193866
20
-0.0293078
40
0.8737271
50
179.6829249
51
188.9631837
0
ARC
8
DEFAULT_255_1_388
10
12.7189597
20
-0.0782352
40
0.569348
50
188.8098723
51
202.9300437
0
ARC
8
DEFAULT_255_1_388
10
12.5821329
20
-0.1339032
40
0.4216493
50
203.2071737
51
215.7877161
0
ARC
8
DEFAULT_255_1_388
10
12.4866612
20
-0.209415
40
0.3000949
50
214.7520738
51
264.283405
0
ARC
8
DEFAULT_255_1_388
10
12.5019203
20
-0.1132355
40
0.3973553
50
263.4754673
51
270.0952411
0
ARC
8
DEFAULT_255_1_388
10
12.5066596
20
-0.1426192
40
0.3679937
50
269.3649295
51
287.5149684
0
ARC
8
DEFAULT_255_1_388
10
12.5267037
20
-0.2154286
40
0.2925408
50
288.0629019
51
323.8115617
0
ARC
8
DEFAULT_255_1_388
10
12.4287013
20
-0.1423246
40
0.4148018
50
323.6546541
51
342.6591359
0
ARC
8
DEFAULT_255_1_388
10
12.2001671
20
-0.067972
40
0.6551163
50
342.4092446
51
353.6451501
0
ARC
8
DEFAULT_255_1_388
10
11.8816465
20
-0.0283435
40
0.9760748
50
353.4027553
51
359.4846611
0
LINE
8
DEFAULT_255_1_388
10
13.6627576
20
-0.6398
11
13.2986211
21
-0.6398
0
LINE
8
DEFAULT_255_1_388
10
13.2986211
20
-0.6398
11
13.2986211
21
0.6757898
0
LINE
8
DEFAULT_255_1_388
10
13.2986211
20
0.6757898
11
13.6699861
21
0.6757898
0
LINE
8
DEFAULT_255_1_388
10
14.2500745
20
0.0622696
11
14.2500745
21
-0.0217619
0
LINE
8
DEFAULT_255_1_388
10
13.674504
20
0.5330267
11
13.4721055
21
0.5330267
0
LINE
8
DEFAULT_255_1_388
10
13.4721055
20
0.5330267
11
13.4721055
21
-0.4979404
0
LINE
8
DEFAULT_255_1_388
10
13.4721055
20
-0.4979404
11
13.6546255
21
-0.4979404
0
LINE
8
DEFAULT_255_1_388
10
14.0783973
20
-0.0181477
11
14.0783973
21
0.0586553
0
ARC
8
DEFAULT_255_1_388
10
13.6743656
20
0.0159436
40
0.6598608
50
75.4100343
51
90.3802731
0
ARC
8
DEFAULT_255_1_388
10
13.7001902
20
0.1235691
40
0.5492049
50
60.1455157
51
75.1889627
0
ARC
8
DEFAULT_255_1_388
10
13.7180493
20
0.1546914
40
0.5133226
50
26.525419
51
60.1451222
0
ARC
8
DEFAULT_255_1_388
10
13.5920279
20
0.0878642
40
0.6559324
50
7.4029944
51
26.832209
0
ARC
8
DEFAULT_255_1_388
10
13.4126677
20
0.0599229
40
0.8374103
50
0.1605597
51
7.7176135
0
ARC
8
DEFAULT_255_1_388
10
13.4311077
20
-0.0260679
40
0.8189782
50
348.7289744
51
0.30125
0
ARC
8
DEFAULT_255_1_388
10
13.6174541
20
-0.0630844
40
0.628991
50
333.0706936
51
348.7181455
0
ARC
8
DEFAULT_255_1_388
10
13.7262169
20
-0.1221551
40
0.5052808
50
299.2531435
51
333.4571133
0
ARC
8
DEFAULT_255_1_388
10
13.68562
20
-0.0450371
40
0.5924066
50
278.1072193
51
299.0340218
0
ARC
8
DEFAULT_255_1_388
10
13.6568249
20
0.1245979
40
0.7644209
50
270.4446841
51
278.4508355
0
ARC
8
DEFAULT_255_1_388
10
13.6591732
20
0.02003
40
0.5179903
50
269.4969684
51
284.0204874
0
ARC
8
DEFAULT_255_1_388
10
13.6991451
20
-0.1335585
40
0.3592968
50
283.7699076
51
318.1557121
0
ARC
8
DEFAULT_255_1_388
10
13.6611996
20
-0.1051601
40
0.4065308
50
318.7417595
51
343.687252
0
ARC
8
DEFAULT_255_1_388
10
13.4582575
20
-0.0417725
40
0.6191194
50
343.3324891
51
355.8548594
0
ARC
8
DEFAULT_255_1_388
10
13.2221612
20
-0.0193281
40
0.856237
50
355.4988754
51
0.0789913
0
ARC
8
DEFAULT_255_1_388
10
13.3102411
20
0.063408
40
0.7681709
50
359.6455047
51
9.8607559
0
ARC
8
DEFAULT_255_1_388
10
13.5758135
20
0.1113664
40
0.498312
50
9.6573037
51
26.1931522
0
ARC
8
DEFAULT_255_1_388
10
13.6802209
20
0.1598587
40
0.3832303
50
26.5777895
51
40.1533752
0
ARC
8
DEFAULT_255_1_388
10
13.7089874
20
0.182302
40
0.3467742
50
40.3839958
51
80.1430923
0
ARC
8
DEFAULT_255_1_388
10
13.672213
20
0.0192486
40
0.5137832
50
79.2153636
51
89.7445174
0
LINE
8
DEFAULT_255_1_388
10
15.0949073
20
0.6766934
11
15.1247249
21
0.6766934
0
LINE
8
DEFAULT_255_1_388
10
15.1247249
20
0.6766934
11
15.1247249
21
0.5348338
0
LINE
8
DEFAULT_255_1_388
10
15.1247249
20
0.5348338
11
15.0940037
21
0.5348338
0
LINE
8
DEFAULT_255_1_388
10
14.4786763
20
-0.1392253
11
14.4786763
21
-0.0750722
0
LINE
8
DEFAULT_255_1_388
10
14.6467393
20
-0.0967578
11
14.6467393
21
-0.1582001
0
ARC
8
DEFAULT_255_1_388
10
15.0998929
20
-0.0274174
40
0.562282
50
90.6001079
51
104.5146616
0
ARC
8
DEFAULT_255_1_388
10
15.0561888
20
0.13511
40
0.3939917
50
104.2855758
51
133.8630124
0
ARC
8
DEFAULT_255_1_388
10
15.0746141
20
0.1229243
40
0.4155734
50
134.5304124
51
161.6210222
0
ARC
8
DEFAULT_255_1_388
10
15.2606073
20
0.0573421
40
0.6127682
50
161.2850533
51
174.2074364
0
ARC
8
DEFAULT_255_1_388
10
15.419564
20
0.0354437
40
0.7731446
50
173.7817938
51
174.9251711
0
ARC
8
DEFAULT_255_1_388
10
14.9069834
20
-0.120073
40
0.3412588
50
95.8332067
51
138.995412
0
ARC
8
DEFAULT_255_1_388
10
14.9321114
20
-0.2639305
40
0.4870358
50
89.8755506
51
97.0540979
0
ARC
8
DEFAULT_255_1_388
10
14.9374503
20
-0.1699159
40
0.3930432
50
71.6407016
51
90.6240821
0
ARC
8
DEFAULT_255_1_388
10
14.9543896
20
-0.1075567
40
0.3285421
50
39.6368051
51
71.0190743
0
ARC
8
DEFAULT_255_1_388
10
14.8827804
20
-0.1694414
40
0.4231706
50
10.6588054
51
39.9044509
0
ARC
8
DEFAULT_255_1_388
10
14.708635
20
-0.2072777
40
0.60133
50
359.6827842
51
11.1326896
0
ARC
8
DEFAULT_255_1_388
10
14.7041685
20
-0.2152285
40
0.6058047
50
347.2485908
51
0.4371098
0
ARC
8
DEFAULT_255_1_388
10
14.8917471
20
-0.2603621
40
0.4128987
50
318.1408565
51
347.6118497
0
ARC
8
DEFAULT_255_1_388
10
14.9283067
20
-0.2904097
40
0.3656244
50
275.6342406
51
317.824739
0
ARC
8
DEFAULT_255_1_388
10
14.9034588
20
-0.1442173
40
0.513655
50
269.8872513
51
276.7916069
0
ARC
8
DEFAULT_255_1_388
10
14.8972781
20
-0.2595819
40
0.398323
50
246.9139443
51
270.7436787
0
ARC
8
DEFAULT_255_1_388
10
14.8979977
20
-0.2755956
40
0.3839368
50
218.1665534
51
245.8780431
0
ARC
8
DEFAULT_255_1_388
10
14.9969349
20
-0.1928097
40
0.5128958
50
191.4115343
51
218.6077624
0
ARC
8
DEFAULT_255_1_388
10
15.2149665
20
-0.1439223
40
0.7363054
50
179.6344971
51
191.7836758
0
ARC
8
DEFAULT_255_1_388
10
15.842954
20
-0.0675505
40
1.3642984
50
171.4523743
51
180.3158856
0
ARC
8
DEFAULT_255_1_388
10
15.3485267
20
0.0093895
40
0.8639311
50
157.9802296
51
171.6246761
0
ARC
8
DEFAULT_255_1_388
10
15.0994617
20
0.1087038
40
0.5958004
50
141.4299236
51
157.8541251
0
ARC
8
DEFAULT_255_1_388
10
15.0272701
20
0.1597746
40
0.5075416
50
102.871586
51
140.8564533
0
ARC
8
DEFAULT_255_1_388
10
15.1001253
20
-0.1147057
40
0.7914163
50
90.377773
51
103.5868422
0
ARC
8
DEFAULT_255_1_388
10
14.9045775
20
-0.1827457
40
0.2667015
50
89.8751238
51
126.2072139
0
ARC
8
DEFAULT_255_1_388
10
14.9097246
20
-0.2001153
40
0.2838229
50
124.9742447
51
144.8960197
0
ARC
8
DEFAULT_255_1_388
10
14.8899491
20
-0.1840019
40
0.2583845
50
145.2974778
51
160.2660922
0
ARC
8
DEFAULT_255_1_388
10
15.2355979
20
-0.1617849
40
0.5888695
50
179.6512124
51
190.285571
0
ARC
8
DEFAULT_255_1_388
10
15.0450459
20
-0.1977032
40
0.3949683
50
190.0944895
51
207.5099647
0
ARC
8
DEFAULT_255_1_388
10
14.981404
20
-0.2279823
40
0.3245464
50
207.9585471
51
216.325377
0
ARC
8
DEFAULT_255_1_388
10
14.9431678
20
-0.2594288
40
0.2751259
50
215.7661336
51
232.5457193
0
ARC
8
DEFAULT_255_1_388
10
14.9000793
20
-0.3141727
40
0.2054668
50
232.8005815
51
270.6605497
0
ARC
8
DEFAULT_255_1_388
10
14.9052218
20
-0.2732147
40
0.2464268
50
269.3550767
51
288.474612
0
ARC
8
DEFAULT_255_1_388
10
14.9156725
20
-0.3125279
40
0.2058436
50
289.1831976
51
322.9685307
0
ARC
8
DEFAULT_255_1_388
10
14.8468826
20
-0.2582721
40
0.2934408
50
322.6007085
51
346.5183319
0
ARC
8
DEFAULT_255_1_388
10
14.7166582
20
-0.2250566
40
0.4278249
50
346.2584622
51
358.7739592
0
ARC
8
DEFAULT_255_1_388
10
14.6015158
20
-0.2188171
40
0.5430876
50
358.3757628
51
0.0082477
0
ARC
8
DEFAULT_255_1_388
10
14.6871976
20
-0.2157144
40
0.4574157
50
359.6211417
51
11.28403
0
ARC
8
DEFAULT_255_1_388
10
14.8308582
20
-0.1857465
40
0.3106708
50
11.0483152
51
31.8145585
0
ARC
8
DEFAULT_255_1_388
10
14.8656288
20
-0.1668955
40
0.2711963
50
32.3028554
51
38.0820598
0
ARC
8
DEFAULT_255_1_388
10
14.9129521
20
-0.1240283
40
0.2075566
50
36.8249851
51
85.741667
0
ARC
8
DEFAULT_255_1_388
10
14.9053933
20
-0.1803935
40
0.2643487
50
85.0150021
51
90.050843
0
LINE
8
DEFAULT_255_1_388
10
16.3698367
20
-0.5033618
11
16.3698367
21
-0.6398
0
LINE
8
DEFAULT_255_1_388
10
16.3698367
20
-0.6398
11
15.5078362
21
-0.6398
0
LINE
8
DEFAULT_255_1_388
10
15.5078362
20
-0.6398
11
15.5078362
21
-0.5196259
0
LINE
8
DEFAULT_255_1_388
10
15.5078362
20
-0.5196259
11
15.9632327
21
-0.0136298
0
LINE
8
DEFAULT_255_1_388
10
15.6496958
20
0.2881607
11
15.4825364
21
0.2881607
0
LINE
8
DEFAULT_255_1_388
10
16.0617212
20
-0.121154
11
15.7093311
21
-0.5033618
0
LINE
8
DEFAULT_255_1_388
10
15.7093311
20
-0.5033618
11
16.3698367
21
-0.5033618
0
ARC
8
DEFAULT_255_1_388
10
14.4456387
20
1.3283983
40
2.0258655
50
318.5132526
51
320.7829045
0
ARC
8
DEFAULT_255_1_388
10
15.0404344
20
0.8442929
40
1.2589638
50
320.7372878
51
323.9739031
0
ARC
8
DEFAULT_255_1_388
10
15.4813275
20
0.5248554
40
0.7145141
50
323.8962701
51
328.64194
0
ARC
8
DEFAULT_255_1_388
10
15.7115533
20
0.3828545
40
0.4440242
50
328.8294576
51
331.7891185
0
ARC
8
DEFAULT_255_1_388
10
15.8237853
20
0.3249374
40
0.3177517
50
331.4254512
51
352.9365785
0
ARC
8
DEFAULT_255_1_388
10
15.8390853
20
0.321505
40
0.3021496
50
353.2257659
51
0.0166158
0
ARC
8
DEFAULT_255_1_388
10
15.8627614
20
0.3240894
40
0.2784847
50
359.486299
51
15.9343185
0
ARC
8
DEFAULT_255_1_388
10
15.919788
20
0.3394269
40
0.2194403
50
16.1712913
51
43.5286088
0
ARC
8
DEFAULT_255_1_388
10
15.9284825
20
0.3481191
40
0.2071504
50
43.4417391
51
83.1661095
0
ARC
8
DEFAULT_255_1_388
10
15.9133986
20
0.2652316
40
0.2912888
50
82.160179
51
90.1505708
0
ARC
8
DEFAULT_255_1_388
10
15.9098468
20
0.2048279
40
0.3517025
50
89.5460741
51
102.5418361
0
ARC
8
DEFAULT_255_1_388
10
15.8825188
20
0.3207933
40
0.2325748
50
102.1738499
51
129.206123
0
ARC
8
DEFAULT_255_1_388
10
15.8736641
20
0.3347664
40
0.2161591
50
129.72865
51
135.753947
0
ARC
8
DEFAULT_255_1_388
10
15.8873123
20
0.3238728
40
0.2335433
50
136.1757367
51
166.3673339
0
ARC
8
DEFAULT_255_1_388
10
16.0005812
20
0.2935148
40
0.3507873
50
165.9090694
51
178.8684636
0
ARC
8
DEFAULT_255_1_388
10
16.0981583
20
0.2882263
40
0.4484624
50
178.4391136
51
180.0083808
0
ARC
8
DEFAULT_255_1_388
10
15.9402285
20
0.2926197
40
0.4577138
50
163.2878482
51
180.5581842
0
ARC
8
DEFAULT_255_1_388
10
15.8500326
20
0.3174393
40
0.3641968
50
133.4540601
51
162.947111
0
ARC
8
DEFAULT_255_1_388
10
15.8701208
20
0.2960789
40
0.3935189
50
100.7869829
51
133.4382499
0
ARC
8
DEFAULT_255_1_388
10
15.9092453
20
0.1218399
40
0.5720313
50
89.660664
51
101.3702276
0
ARC
8
DEFAULT_255_1_388
10
15.9167061
20
0.1287263
40
0.5651495
50
78.2172678
51
90.412935
0
ARC
8
DEFAULT_255_1_388
10
15.9566527
20
0.3114511
40
0.378122
50
55.9269121
51
78.4888449
0
ARC
8
DEFAULT_255_1_388
10
15.9787242
20
0.3495187
40
0.3342379
50
47.929771
51
55.4049217
0
ARC
8
DEFAULT_255_1_388
10
15.9901773
20
0.3611618
40
0.3179217
50
4.334829
51
48.0560205
0
ARC
8
DEFAULT_255_1_388
10
15.8669574
20
0.3420487
40
0.442341
50
359.9251713
51
5.5971671
0
ARC
8
DEFAULT_255_1_388
10
15.9151729
20
0.3483728
40
0.3941854
50
337.8914027
51
358.9967534
0
ARC
8
DEFAULT_255_1_388
10
15.6099299
20
0.4661295
40
0.7213271
50
326.9132501
51
338.3508308
0
ARC
8
DEFAULT_255_1_388
10
15.1615411
20
0.7535105
40
1.2538973
50
319.6471833
51
327.0959558
0
ARC
8
DEFAULT_255_1_388
10
14.7302069
20
1.109305
40
1.8129975
50
317.2588228
51
319.9045804
0
LINE
8
DEFAULT_255_1_388
10
11.4195661
20
15.2731589
11
11.4195661
21
15.1891274
0
LINE
8
DEFAULT_255_1_388
10
11.1891571
20
14.6451816
11
11.4240839
21
14.4608544
0
LINE
8
DEFAULT_255_1_388
10
11.4240839
20
14.4608544
11
11.3057169
21
14.3515231
0
LINE
8
DEFAULT_255_1_388
10
11.3057169
20
14.3515231
11
11.0283227
21
14.5719929
0
LINE
8
DEFAULT_255_1_388
10
10.3605885
20
15.1773811
11
10.3605885
21
15.2722553
0
LINE
8
DEFAULT_255_1_388
10
11.2460817
20
15.1764775
11
11.2460817
21
15.2740625
0
LINE
8
DEFAULT_255_1_388
10
10.5340729
20
15.2858088
11
10.5340729
21
15.1891274
0
ARC
8
DEFAULT_255_1_388
10
10.412254
20
15.1847529
40
1.0073215
50
351.4530536
51
0.2488167
0
ARC
8
DEFAULT_255_1_388
10
10.7030709
20
15.1397749
40
0.7130509
50
338.6860608
51
351.554089
0
ARC
8
DEFAULT_255_1_388
10
10.8083166
20
15.1025573
40
0.6014866
50
336.2886209
51
338.3448103
0
ARC
8
DEFAULT_255_1_388
10
10.846341
20
15.0816952
40
0.5582958
50
321.1168943
51
336.6796496
0
ARC
8
DEFAULT_255_1_388
10
10.9174183
20
15.0269644
40
0.4686152
50
305.4418419
51
320.8706891
0
ARC
8
DEFAULT_255_1_388
10
10.8953048
20
15.1110492
40
0.5552257
50
271.6372169
51
283.8614231
0
ARC
8
DEFAULT_255_1_388
10
10.8910501
20
15.1851271
40
0.6293984
50
269.993693
51
271.8317035
0
ARC
8
DEFAULT_255_1_388
10
10.8868326
20
15.093968
40
0.5382553
50
252.5221437
51
270.441579
0
ARC
8
DEFAULT_255_1_388
10
10.8706576
20
15.0333046
40
0.4755426
50
237.5349961
51
252.1858334
0
ARC
8
DEFAULT_255_1_388
10
10.8806952
20
15.046112
40
0.4917393
50
209.0632754
51
237.3492577
0
ARC
8
DEFAULT_255_1_388
10
10.9786278
20
15.1076104
40
0.6072464
50
205.118533
51
209.6465345
0
ARC
8
DEFAULT_255_1_388
10
11.068228
20
15.1456174
40
0.7045164
50
188.7216633
51
204.8239753
0
ARC
8
DEFAULT_255_1_388
10
11.2929056
20
15.1834387
40
0.9323368
50
180.3722704
51
188.9253909
0
ARC
8
DEFAULT_255_1_388
10
11.2898617
20
15.2767416
40
0.929284
50
169.5253055
51
180.2766048
0
ARC
8
DEFAULT_255_1_388
10
11.0758416
20
15.3161024
40
0.7116745
50
155.8314601
51
169.5088611
0
ARC
8
DEFAULT_255_1_388
10
10.9317879
20
15.3829312
40
0.5528904
50
139.6259579
51
156.0379072
0
ARC
8
DEFAULT_255_1_388
10
10.8654413
20
15.4363143
40
0.4677708
50
122.6414784
51
139.3431662
0
ARC
8
DEFAULT_255_1_388
10
10.8767668
20
15.4156787
40
0.4912586
50
93.0224537
51
122.4556091
0
ARC
8
DEFAULT_255_1_388
10
10.8889189
20
15.3070776
40
0.6003837
50
89.9756766
51
93.6340839
0
ARC
8
DEFAULT_255_1_388
10
10.8932886
20
15.3498547
40
0.5576216
50
73.9666049
51
90.4228101
0
ARC
8
DEFAULT_255_1_388
10
10.9139535
20
15.4303139
40
0.4745905
50
57.5177173
51
73.6814962
0
ARC
8
DEFAULT_255_1_388
10
10.9089759
20
15.4262592
40
0.4806881
50
28.7260666
51
57.2767723
0
ARC
8
DEFAULT_255_1_388
10
10.8065166
20
15.3629397
40
0.6010032
50
24.2451459
51
29.3250018
0
ARC
8
DEFAULT_255_1_388
10
10.7023631
20
15.3198744
40
0.713663
50
9.0643887
51
23.9639114
0
ARC
8
DEFAULT_255_1_388
10
10.4486068
20
15.2772505
40
0.9709678
50
359.7585581
51
9.1891216
0
ARC
8
DEFAULT_255_1_388
10
10.3074656
20
15.2787562
40
0.9386278
50
359.7134836
51
7.9655743
0
ARC
8
DEFAULT_255_1_388
10
10.6407355
20
15.3268391
40
0.6019121
50
7.8289718
51
20.0423308
0
ARC
8
DEFAULT_255_1_388
10
10.8234823
20
15.3933145
40
0.4074504
50
20.0676743
51
35.9162425
0
ARC
8
DEFAULT_255_1_388
10
10.9106702
20
15.4581196
40
0.2988273
50
35.659429
51
85.1578517
0
ARC
8
DEFAULT_255_1_388
10
10.8898864
20
15.3326214
40
0.4257521
50
83.7963246
51
90.0959039
0
ARC
8
DEFAULT_255_1_388
10
10.8850408
20
15.4151384
40
0.3432594
50
89.3101324
51
109.9889786
0
ARC
8
DEFAULT_255_1_388
10
10.8757598
20
15.4551665
40
0.3025108
50
110.9286914
51
143.9411475
0
ARC
8
DEFAULT_255_1_388
10
10.98049
20
15.3750455
40
0.434348
50
143.5289166
51
163.2980252
0
ARC
8
DEFAULT_255_1_388
10
11.1951187
20
15.3075685
40
0.659321
50
163.0418884
51
174.3139873
0
ARC
8
DEFAULT_255_1_388
10
11.4656152
20
15.2763378
40
0.9315905
50
174.050934
51
179.4174954
0
ARC
8
DEFAULT_255_1_388
10
11.4077866
20
15.1842922
40
0.8737271
50
179.6829249
51
188.9631837
0
ARC
8
DEFAULT_255_1_388
10
11.1073597
20
15.1353648
40
0.569348
50
188.8098723
51
202.9300437
0
ARC
8
DEFAULT_255_1_388
10
10.9705329
20
15.0796968
40
0.4216493
50
203.2071737
51
215.7877161
0
ARC
8
DEFAULT_255_1_388
10
10.8750612
20
15.004185
40
0.3000949
50
214.7520738
51
264.283405
0
ARC
8
DEFAULT_255_1_388
10
10.8903203
20
15.1003645
40
0.3973553
50
263.4754673
51
270.0952411
0
ARC
8
DEFAULT_255_1_388
10
10.8950596
20
15.0709808
40
0.3679937
50
269.3649295
51
287.5149684
0
ARC
8
DEFAULT_255_1_388
10
10.9151037
20
14.9981714
40
0.2925408
50
288.0629019
51
323.8115617
0
ARC
8
DEFAULT_255_1_388
10
10.8171013
20
15.0712754
40
0.4148018
50
323.6546541
51
342.6591359
0
ARC
8
DEFAULT_255_1_388
10
10.5885671
20
15.145628
40
0.6551163
50
342.4092446
51
353.6451501
0
ARC
8
DEFAULT_255_1_388
10
10.2700465
20
15.1852565
40
0.9760748
50
353.4027553
51
359.4846611
0
LINE
8
DEFAULT_255_1_388
10
12.4667973
20
15.2008737
11
12.4667973
21
15.0644355
0
LINE
8
DEFAULT_255_1_388
10
12.4667973
20
15.0644355
11
12.0258578
21
15.0644355
0
LINE
8
DEFAULT_255_1_388
10
12.0258578
20
15.0644355
11
12.0258578
21
15.2008737
0
LINE
8
DEFAULT_255_1_388
10
12.0258578
20
15.2008737
11
12.4667973
21
15.2008737
0
LINE
8
DEFAULT_255_1_388
10
13.9865927
20
15.5089892
11
13.8122047
21
15.5089892
0
LINE
8
DEFAULT_255_1_388
10
13.0333322
20
14.9551042
11
13.2077201
21
14.9551042
0
ARC
8
DEFAULT_255_1_388
10
13.8862774
20
16.5153821
40
1.4087688
50
248.9196578
51
254.1442424
0
ARC
8
DEFAULT_255_1_388
10
13.6972655
20
16.0287805
40
0.8867498
50
241.6337352
51
249.0064643
0
ARC
8
DEFAULT_255_1_388
10
13.5252968
20
15.7136764
40
0.5277799
50
230.4982261
51
241.8087583
0
ARC
8
DEFAULT_255_1_388
10
13.4370739
20
15.6012686
40
0.3849419
50
227.4062979
51
229.9877433
0
ARC
8
DEFAULT_255_1_388
10
13.3822085
20
15.5477155
40
0.3084129
50
200.6782127
51
228.1765252
0
ARC
8
DEFAULT_255_1_388
10
13.3903454
20
15.5460277
40
0.315461
50
179.506278
51
199.8695278
0
ARC
8
DEFAULT_255_1_388
10
13.3893043
20
15.5543671
40
0.3144584
50
132.4834401
51
181.0242352
0
ARC
8
DEFAULT_255_1_388
10
13.4562247
20
15.4911788
40
0.4063094
50
129.2526113
51
133.4249077
0
ARC
8
DEFAULT_255_1_388
10
13.472784
20
15.4663619
40
0.436014
50
101.9878945
51
128.8741833
0
ARC
8
DEFAULT_255_1_388
10
13.5176255
20
15.272736
40
0.6347415
50
89.5906376
51
102.3170567
0
ARC
8
DEFAULT_255_1_388
10
13.5255567
20
15.3085586
40
0.5989122
50
77.2359491
51
90.3248968
0
ARC
8
DEFAULT_255_1_388
10
13.5488498
20
15.4173554
40
0.4876594
50
63.8379856
51
77.0808925
0
ARC
8
DEFAULT_255_1_388
10
13.5801031
20
15.4755882
40
0.4216191
50
45.9863127
51
64.1608798
0
ARC
8
DEFAULT_255_1_388
10
13.6094425
20
15.509099
40
0.3771394
50
32.2747934
51
45.6544796
0
ARC
8
DEFAULT_255_1_388
10
13.6169231
20
15.5112426
40
0.3696765
50
359.6507495
51
32.6129943
0
ARC
8
DEFAULT_255_1_388
10
13.5108414
20
15.5117788
40
0.3013762
50
359.469654
51
14.983205
0
ARC
8
DEFAULT_255_1_388
10
13.5901666
20
15.5330288
40
0.2192542
50
14.9781954
51
48.2004799
0
ARC
8
DEFAULT_255_1_388
10
13.5716777
20
15.5097937
40
0.2489048
50
48.5926661
51
74.1242559
0
ARC
8
DEFAULT_255_1_388
10
13.534158
20
15.3859607
40
0.3782845
50
73.7889321
51
86.6653996
0
ARC
8
DEFAULT_255_1_388
10
13.5226394
20
15.2501955
40
0.5145025
50
86.2642725
51
90.0533288
0
ARC
8
DEFAULT_255_1_388
10
13.5194487
20
15.2946376
40
0.4700681
50
89.669455
51
99.2313411
0
ARC
8
DEFAULT_255_1_388
10
13.4921647
20
15.4571401
40
0.3052945
50
99.0695987
51
113.7659242
0
ARC
8
DEFAULT_255_1_388
10
13.4613641
20
15.5297772
40
0.226407
50
114.0402885
51
127.9848946
0
ARC
8
DEFAULT_255_1_388
10
13.4343117
20
15.5630884
40
0.1835045
50
127.7287217
51
176.7106493
0
ARC
8
DEFAULT_255_1_388
10
13.5106782
20
15.551721
40
0.2604907
50
175.1780759
51
180.0581213
0
ARC
8
DEFAULT_255_1_388
10
13.4158126
20
15.5503411
40
0.1656287
50
179.6140658
51
228.124674
0
ARC
8
DEFAULT_255_1_388
10
13.4655483
20
15.596394
40
0.2332038
50
226.5785315
51
230.8792476
0
ARC
8
DEFAULT_255_1_388
10
13.518497
20
15.6666908
40
0.3211664
50
231.4636401
51
241.9261664
0
ARC
8
DEFAULT_255_1_388
10
13.6531753
20
15.9145349
40
0.6032345
50
241.7177136
51
248.3259138
0
ARC
8
DEFAULT_255_1_388
10
13.8090348
20
16.3006771
40
1.0196417
50
248.2007377
51
252.4527713
0
ARC
8
DEFAULT_255_1_388
10
13.9443875
20
16.7191092
40
1.4594143
50
252.3388938
51
254.347037
0
ARC
8
DEFAULT_255_1_388
10
13.0959175
20
13.6843095
40
1.6917621
50
71.0197462
51
74.4085467
0
ARC
8
DEFAULT_255_1_388
10
13.2866263
20
14.2348144
40
1.1091618
50
66.1845203
51
71.086519
0
ARC
8
DEFAULT_255_1_388
10
13.4616812
20
14.6289439
40
0.6779073
50
59.3537334
51
66.269255
0
ARC
8
DEFAULT_255_1_388
10
13.5616538
20
14.7980777
40
0.4814366
50
49.1021732
51
59.3294421
0
ARC
8
DEFAULT_255_1_388
10
13.6537526
20
14.9030575
40
0.3417875
50
32.7924183
51
49.2503526
0
ARC
8
DEFAULT_255_1_388
10
13.6887141
20
14.9280311
40
0.2988789
50
31.121225
51
32.3977355
0
ARC
8
DEFAULT_255_1_388
10
13.6799319
20
14.9247728
40
0.3080861
50
8.1116803
51
30.7958224
0
ARC
8
DEFAULT_255_1_388
10
13.5887664
20
14.9092437
40
0.4005385
50
359.8390945
51
8.4707348
0
ARC
8
DEFAULT_255_1_388
10
13.6591712
20
14.9037751
40
0.3301608
50
337.4732479
51
0.7538283
0
ARC
8
DEFAULT_255_1_388
10
13.6792737
20
14.9015554
40
0.3107929
50
307.5917028
51
336.4313755
0
ARC
8
DEFAULT_255_1_388
10
13.6281795
20
14.9583509
40
0.3870096
50
307.6560665
51
308.4561779
0
ARC
8
DEFAULT_255_1_388
10
13.6016011
20
14.9991832
40
0.435591
50
284.3733666
51
307.1426212
0
ARC
8
DEFAULT_255_1_388
10
13.5458906
20
15.2041391
40
0.6479685
50
272.4384566
51
284.6464689
0
ARC
8
DEFAULT_255_1_388
10
13.531629
20
15.4065434
40
0.8508149
50
269.9708517
51
272.8180721
0
ARC
8
DEFAULT_255_1_388
10
13.5267973
20
15.1773283
40
0.6216151
50
248.2707343
51
270.4054609
0
ARC
8
DEFAULT_255_1_388
10
13.5206844
20
15.1558673
40
0.5994203
50
246.1380358
51
248.054058
0
ARC
8
DEFAULT_255_1_388
10
13.4735987
20
15.0569705
40
0.4899388
50
233.1671897
51
246.4951656
0
ARC
8
DEFAULT_255_1_388
10
13.4112622
20
14.9728137
40
0.3852115
50
215.3403381
51
233.084328
0
ARC
8
DEFAULT_255_1_388
10
13.3805986
20
14.9505093
40
0.3472969
50
179.2419235
51
215.2648426
0
ARC
8
DEFAULT_255_1_388
10
13.4669537
20
14.9520979
40
0.259251
50
179.3355796
51
199.1045873
0
ARC
8
DEFAULT_255_1_388
10
13.4295679
20
14.9423223
40
0.2207454
50
199.8830064
51
232.7061328
0
ARC
8
DEFAULT_255_1_388
10
13.4826953
20
15.0091456
40
0.306101
50
232.3736206
51
255.5136621
0
ARC
8
DEFAULT_255_1_388
10
13.5210459
20
15.1491177
40
0.4512213
50
255.2447928
51
267.5318292
0
ARC
8
DEFAULT_255_1_388
10
13.5308926
20
15.2877709
40
0.5901825
50
267.1564563
51
270.0294721
0
ARC
8
DEFAULT_255_1_388
10
13.5340251
20
15.2378623
40
0.5402814
50
269.6999944
51
278.1662446
0
ARC
8
DEFAULT_255_1_388
10
13.5628279
20
15.0431974
40
0.3435003
50
278.0229022
51
290.6255326
0
ARC
8
DEFAULT_255_1_388
10
13.6019446
20
14.9388547
40
0.2320666
50
290.6616368
51
307.0374127
0
ARC
8
DEFAULT_255_1_388
10
13.6357345
20
14.897404
40
0.1786372
50
306.3942078
51
355.303191
0
ARC
8
DEFAULT_255_1_388
10
13.5781639
20
14.9060186
40
0.2367516
50
354.3662092
51
0.0709489
0
ARC
8
DEFAULT_255_1_388
10
13.5941507
20
14.9085561
40
0.2207761
50
359.4175379
51
16.1975911
0
ARC
8
DEFAULT_255_1_388
10
13.6453625
20
14.9225954
40
0.1676828
50
16.4721294
51
52.6261798
0
ARC
8
DEFAULT_255_1_388
10
13.5530133
20
14.8006606
40
0.3206412
50
52.7381828
51
62.4979144
0
ARC
8
DEFAULT_255_1_388
10
13.3971885
20
14.5074236
40
0.6527035
50
62.2517425
51
68.1219454
0
ARC
8
DEFAULT_255_1_388
10
13.2037373
20
14.0319951
40
1.1659797
50
68.006043
51
71.8055127
0
ARC
8
DEFAULT_255_1_388
10
13.0017281
20
13.4261723
40
1.8045908
50
71.718361
51
73.9260743
0
LINE
8
DEFAULT_255_1_388
10
14.1429093
20
15.0355214
11
14.1429093
21
15.0662426
0
LINE
8
DEFAULT_255_1_388
10
14.9723815
20
15.0843139
11
14.9723815
21
15.0147395
0
LINE
8
DEFAULT_255_1_388
10
14.9723815
20
15.0147395
11
14.3100688
21
15.0147395
0
LINE
8
DEFAULT_255_1_388
10
14.8576288
20
14.8240874
11
14.9597316
21
14.7445737
0
LINE
8
DEFAULT_255_1_388
10
14.3154901
20
15.1520813
11
14.8052221
21
15.1520813
0
LINE
8
DEFAULT_255_1_388
10
14.8052221
20
15.1520813
11
14.8052221
21
15.1647312
0
ARC
8
DEFAULT_255_1_388
10
14.5860854
20
15.048021
40
0.4923176
50
252.326534
51
270.5809615
0
ARC
8
DEFAULT_255_1_388
10
14.5630319
20
14.964694
40
0.4059384
50
223.3000488
51
251.8562489
0
ARC
8
DEFAULT_255_1_388
10
14.5868099
20
14.9877898
40
0.4390832
50
190.9374369
51
223.3654369
0
ARC
8
DEFAULT_255_1_388
10
14.7808777
20
15.0316598
40
0.63798
50
179.6531919
51
191.4988561
0
ARC
8
DEFAULT_255_1_388
10
14.7945804
20
15.0698571
40
0.6516811
50
167.4005523
51
180.3177836
0
ARC
8
DEFAULT_255_1_388
10
14.6762475
20
15.0948853
40
0.5307402
50
154.1835149
51
167.2508278
0
ARC
8
DEFAULT_255_1_388
10
14.6052066
20
15.1322925
40
0.4505076
50
134.3150225
51
154.5315008
0
ARC
8
DEFAULT_255_1_388
10
14.5807401
20
15.153755
40
0.4180662
50
122.8617482
51
133.9707159
0
ARC
8
DEFAULT_255_1_388
10
14.5691008
20
15.1787882
40
0.3907416
50
89.8248474
51
123.4199325
0
ARC
8
DEFAULT_255_1_388
10
14.5747306
20
15.1060352
40
0.4635141
50
74.7874349
51
90.5482648
0
ARC
8
DEFAULT_255_1_388
10
14.607777
20
15.2280987
40
0.3370565
50
39.8178888
51
74.7634383
0
ARC
8
DEFAULT_255_1_388
10
14.5501012
20
15.1831356
40
0.4101553
50
16.8990848
51
39.4830125
0
ARC
8
DEFAULT_255_1_388
10
14.3369627
20
15.1148711
40
0.6339427
50
4.9634768
51
17.2027767
0
ARC
8
DEFAULT_255_1_388
10
14.0649031
20
15.08616
40
0.9074803
50
359.8834402
51
5.2832409
0
ARC
8
DEFAULT_255_1_388
10
14.7441389
20
15.0221981
40
0.4341343
50
180.9844233
51
194.9402766
0
ARC
8
DEFAULT_255_1_388
10
14.6260555
20
14.989917
40
0.3117211
50
194.8030557
51
222.0412897
0
ARC
8
DEFAULT_255_1_388
10
14.5918427
20
14.9559715
40
0.2635903
50
221.541578
51
268.8616004
0
ARC
8
DEFAULT_255_1_388
10
14.6000548
20
15.032028
40
0.3398611
50
267.7321071
51
270.009808
0
ARC
8
DEFAULT_255_1_388
10
14.6020611
20
15.0547178
40
0.3625561
50
269.6921218
51
280.4122297
0
ARC
8
DEFAULT_255_1_388
10
14.6219023
20
14.9513767
40
0.2573323
50
280.2257165
51
298.633539
0
ARC
8
DEFAULT_255_1_388
10
14.6344436
20
14.9249578
40
0.2281403
50
299.0485543
51
300.4624141
0
ARC
8
DEFAULT_255_1_388
10
14.5585417
20
15.0514796
40
0.3756797
50
300.6578578
51
322.037749
0
ARC
8
DEFAULT_255_1_388
10
14.5214938
20
15.0838266
40
0.4247956
50
321.671786
51
322.3059078
0
ARC
8
DEFAULT_255_1_388
10
14.6238501
20
14.9544267
40
0.3960488
50
276.9729088
51
328.0035579
0
ARC
8
DEFAULT_255_1_388
10
14.5926972
20
15.1209609
40
0.5652345
50
269.8358003
51
278.0581296
0
ARC
8
DEFAULT_255_1_388
10
14.5671271
20
15.204782
40
0.2274263
50
89.2017936
51
117.2852353
0
ARC
8
DEFAULT_255_1_388
10
14.5731021
20
15.2000637
40
0.2343798
50
118.0546404
51
137.4544511
0
ARC
8
DEFAULT_255_1_388
10
14.6152665
20
15.1617556
40
0.2913471
50
137.5109688
51
158.8516701
0
ARC
8
DEFAULT_255_1_388
10
14.7432765
20
15.1100902
40
0.4293804
50
158.5845496
51
170.1719753
0
ARC
8
DEFAULT_255_1_388
10
14.8749101
20
15.0839519
40
0.5635533
50
169.8378964
51
173.0563877
0
ARC
8
DEFAULT_255_1_388
10
14.3464385
20
15.1414187
40
0.4593755
50
2.9089079
51
12.88469
0
ARC
8
DEFAULT_255_1_388
10
14.5006304
20
15.1777082
40
0.3009753
50
12.6957404
51
28.6405841
0
ARC
8
DEFAULT_255_1_388
10
14.5615801
20
15.2092577
40
0.232366
50
29.016559
51
41.1492981
0
ARC
8
DEFAULT_255_1_388
10
14.584378
20
15.229108
40
0.2021373
50
41.1646967
51
85.001362
0
ARC
8
DEFAULT_255_1_388
10
14.5707784
20
15.1464775
40
0.2857091
50
83.728216
51
90.0968824
0
LINE
8
DEFAULT_255_1_388
10
15.6383085
20
15.5568781
11
15.6383085
21
15.401465
0
LINE
8
DEFAULT_255_1_388
10
15.3329037
20
15.2677375
11
15.3329037
21
14.5738
0
LINE
8
DEFAULT_255_1_388
10
15.3329037
20
14.5738
11
15.1657443
21
14.5738
0
LINE
8
DEFAULT_255_1_388
10
15.1657443
20
14.5738
11
15.1657443
21
15.5514567
0
LINE
8
DEFAULT_255_1_388
10
15.1657443
20
15.5514567
11
15.3283859
21
15.5514567
0
LINE
8
DEFAULT_255_1_388
10
15.3283859
20
15.5514567
11
15.3310966
21
15.4385112
0
ARC
8
DEFAULT_255_1_388
10
15.5633245
20
14.9448068
40
0.4627735
50
80.6751522
51
86.893806
0
ARC
8
DEFAULT_255_1_388
10
15.5565075
20
14.8356103
40
0.5721798
50
86.8046851
51
90.0423898
0
ARC
8
DEFAULT_255_1_388
10
15.5523494
20
15.1123197
40
0.2954939
50
89.2758283
51
106.6212906
0
ARC
8
DEFAULT_255_1_388
10
15.5293519
20
15.1959009
40
0.2088351
50
107.1347109
51
157.6456887
0
ARC
8
DEFAULT_255_1_388
10
15.6061581
20
15.1531908
40
0.296292
50
155.6557383
51
157.256838
0
ARC
8
DEFAULT_255_1_388
10
15.5841195
20
15.2842472
40
0.296341
50
127.8167201
51
148.6300223
0
ARC
8
DEFAULT_255_1_388
10
15.5555942
20
15.3135066
40
0.2557782
50
91.3329934
51
126.7875218
0
ARC
8
DEFAULT_255_1_388
10
15.564133
20
15.2331718
40
0.3363561
50
89.9858247
51
92.4688453
0
ARC
8
DEFAULT_255_1_388
10
15.5650823
20
15.2640114
40
0.3055179
50
85.3587643
51
90.1624243
0
ARC
8
DEFAULT_255_1_388
10
15.5745888
20
15.3769458
40
0.1921848
50
78.4019195
51
85.4592653
0
ARC
8
DEFAULT_255_1_388
10
15.5908949
20
15.4547142
40
0.1127267
50
67.7849217
51
78.573798
0
ARC
8
DEFAULT_255_1_388
10
15.6030583
20
15.4862374
40
0.0789473
50
63.4805074
51
67.3074739
0
LINE
8
DEFAULT_255_1_388
10
15.9735309
20
15.5514567
11
15.9735309
21
14.5738
0
LINE
8
DEFAULT_255_1_388
10
15.9735309
20
14.5738
11
15.8063715
21
14.5738
0
LINE
8
DEFAULT_255_1_388
10
15.8063715
20
14.5738
11
15.8063715
21
15.5514567
0
LINE
8
DEFAULT_255_1_388
10
15.8063715
20
15.5514567
11
15.9735309
21
15.5514567
0
ARC
8
DEFAULT_255_1_388
10
15.9029077
20
15.8118428
40
0.1100948
50
161.4148232
51
180.5532607
0
ARC
8
DEFAULT_255_1_388
10
15.8889387
20
15.8156875
40
0.0956324
50
138.1830164
51
160.9307633
0
ARC
8
DEFAULT_255_1_388
10
15.8765574
20
15.8264313
40
0.0792417
50
104.6371663
51
138.0036136
0
ARC
8
DEFAULT_255_1_388
10
15.8886113
20
15.7851963
40
0.1221906
50
92.0601206
51
105.2198859
0
ARC
8
DEFAULT_255_1_388
10
15.8912477
20
15.7463583
40
0.161103
50
89.9790681
51
92.5006086
0
ARC
8
DEFAULT_255_1_388
10
15.8923653
20
15.7719998
40
0.1354654
50
78.0234649
51
90.4478111
0
ARC
8
DEFAULT_255_1_388
10
15.9027237
20
15.8185203
40
0.0878096
50
55.0521508
51
78.336297
0
ARC
8
DEFAULT_255_1_388
10
15.9083772
20
15.8280168
40
0.0767913
50
42.0506198
51
54.4508489
0
ARC
8
DEFAULT_255_1_388
10
15.8931805
20
15.8140821
40
0.0974091
50
1.7493657
51
42.1498724
0
ARC
8
DEFAULT_255_1_388
10
15.864571
20
15.8108166
40
0.1261276
50
359.9832635
51
2.8353994
0
ARC
8
DEFAULT_255_1_388
10
15.883212
20
15.8097412
40
0.1074916
50
342.1062453
51
0.5535864
0
ARC
8
DEFAULT_255_1_388
10
15.8992544
20
15.8053197
40
0.0908695
50
316.7110111
51
341.6513114
0
ARC
8
DEFAULT_255_1_388
10
15.9067976
20
15.7985607
40
0.0807447
50
285.4398289
51
316.5320129
0
ARC
8
DEFAULT_255_1_388
10
15.8944147
20
15.8397023
40
0.1237022
50
272.3543902
51
285.8951677
0
ARC
8
DEFAULT_255_1_388
10
15.8913857
20
15.8812742
40
0.1653687
50
269.9725761
51
272.8112722
0
ARC
8
DEFAULT_255_1_388
10
15.8902909
20
15.8561727
40
0.1402709
50
258.8433431
51
270.4148607
0
ARC
8
DEFAULT_255_1_388
10
15.8801689
20
15.8071739
40
0.0902407
50
238.54281
51
259.1289544
0
ARC
8
DEFAULT_255_1_388
10
15.872501
20
15.7932694
40
0.0743817
50
222.5056676
51
237.9918132
0
ARC
8
DEFAULT_255_1_388
10
15.8868604
20
15.8063295
40
0.0937918
50
184.1070774
51
222.4604165
0
ARC
8
DEFAULT_255_1_388
10
15.9171017
20
15.8106538
40
0.1242838
50
179.9419581
51
185.0970785
0
LINE
8
DEFAULT_255_1_388
10
16.1985185
20
15.0355214
11
16.1985185
21
15.0662426
0
LINE
8
DEFAULT_255_1_388
10
17.0279906
20
15.0843139
11
17.0279906
21
15.0147395
0
LINE
8
DEFAULT_255_1_388
10
17.0279906
20
15.0147395
11
16.3656779
21
15.0147395
0
LINE
8
DEFAULT_255_1_388
10
16.9132379
20
14.8240874
11
17.0153407
21
14.7445737
0
LINE
8
DEFAULT_255_1_388
10
16.3710993
20
15.1520813
11
16.8608312
21
15.1520813
0
LINE
8
DEFAULT_255_1_388
10
16.8608312
20
15.1520813
11
16.8608312
21
15.1647312
0
ARC
8
DEFAULT_255_1_388
10
16.6416946
20
15.048021
40
0.4923176
50
252.326534
51
270.5809615
0
ARC
8
DEFAULT_255_1_388
10
16.618641
20
14.964694
40
0.4059384
50
223.3000488
51
251.8562489
0
ARC
8
DEFAULT_255_1_388
10
16.642419
20
14.9877898
40
0.4390832
50
190.9374369
51
223.3654369
0
ARC
8
DEFAULT_255_1_388
10
16.8364868
20
15.0316598
40
0.63798
50
179.6531919
51
191.4988561
0
ARC
8
DEFAULT_255_1_388
10
16.8501895
20
15.0698571
40
0.6516811
50
167.4005523
51
180.3177836
0
ARC
8
DEFAULT_255_1_388
10
16.7318566
20
15.0948853
40
0.5307402
50
154.1835149
51
167.2508278
0
ARC
8
DEFAULT_255_1_388
10
16.6608157
20
15.1322925
40
0.4505076
50
134.3150225
51
154.5315008
0
ARC
8
DEFAULT_255_1_388
10
16.6363492
20
15.153755
40
0.4180662
50
122.8617482
51
133.9707159
0
ARC
8
DEFAULT_255_1_388
10
16.62471
20
15.1787882
40
0.3907416
50
89.8248474
51
123.4199325
0
ARC
8
DEFAULT_255_1_388
10
16.6303398
20
15.1060352
40
0.4635141
50
74.7874349
51
90.5482648
0
ARC
8
DEFAULT_255_1_388
10
16.6633861
20
15.2280987
40
0.3370565
50
39.8178888
51
74.7634383
0
ARC
8
DEFAULT_255_1_388
10
16.6057104
20
15.1831356
40
0.4101553
50
16.8990848
51
39.4830125
0
ARC
8
DEFAULT_255_1_388
10
16.3925718
20
15.1148711
40
0.6339427
50
4.9634768
51
17.2027767
0
ARC
8
DEFAULT_255_1_388
10
16.1205123
20
15.08616
40
0.9074803
50
359.8834402
51
5.2832409
0
ARC
8
DEFAULT_255_1_388
10
16.7997481
20
15.0221981
40
0.4341343
50
180.9844233
51
194.9402766
0
ARC
8
DEFAULT_255_1_388
10
16.6816646
20
14.989917
40
0.3117211
50
194.8030557
51
222.0412897
0
ARC
8
DEFAULT_255_1_388
10
16.6474518
20
14.9559715
40
0.2635903
50
221.541578
51
268.8616004
0
ARC
8
DEFAULT_255_1_388
10
16.6556639
20
15.032028
40
0.3398611
50
267.7321071
51
270.009808
0
ARC
8
DEFAULT_255_1_388
10
16.6576703
20
15.0547178
40
0.3625561
50
269.6921218
51
280.4122297
0
ARC
8
DEFAULT_255_1_388
10
16.6775114
20
14.9513767
40
0.2573323
50
280.2257165
51
298.633539
0
ARC
8
DEFAULT_255_1_388
10
16.6900528
20
14.9249578
40
0.2281403
50
299.0485543
51
300.4624141
0
ARC
8
DEFAULT_255_1_388
10
16.6141508
20
15.0514796
40
0.3756797
50
300.6578578
51
322.037749
0
ARC
8
DEFAULT_255_1_388
10
16.577103
20
15.0838266
40
0.4247956
50
321.671786
51
322.3059078
0
ARC
8
DEFAULT_255_1_388
10
16.6794592
20
14.9544267
40
0.3960488
50
276.9729088
51
328.0035579
0
ARC
8
DEFAULT_255_1_388
10
16.6483063
20
15.1209609
40
0.5652345
50
269.8358003
51
278.0581296
0
ARC
8
DEFAULT_255_1_388
10
16.6227362
20
15.204782
40
0.2274263
50
89.2017936
51
117.2852353
0
ARC
8
DEFAULT_255_1_388
10
16.6287113
20
15.2000637
40
0.2343798
50
118.0546404
51
137.4544511
0
ARC
8
DEFAULT_255_1_388
10
16.6708756
20
15.1617556
40
0.2913471
50
137.5109688
51
158.8516701
0
ARC
8
DEFAULT_255_1_388
10
16.7988857
20
15.1100902
40
0.4293804
50
158.5845496
51
170.1719753
0
ARC
8
DEFAULT_255_1_388
10
16.9305192
20
15.0839519
40
0.5635533
50
169.8378964
51
173.0563877
0
ARC
8
DEFAULT_255_1_388
10
16.4020476
20
15.1414187
40
0.4593755
50
2.9089079
51
12.88469
0
ARC
8
DEFAULT_255_1_388
10
16.5562396
20
15.1777082
40
0.3009753
50
12.6957404
51
28.6405841
0
ARC
8
DEFAULT_255_1_388
10
16.6171892
20
15.2092577
40
0.232366
50
29.016559
51
41.1492981
0
ARC
8
DEFAULT_255_1_388
10
16.6399871
20
15.229108
40
0.2021373
50
41.1646967
51
85.001362
0
ARC
8
DEFAULT_255_1_388
10
16.6263876
20
15.1464775
40
0.2857091
50
83.728216
51
90.0968824
0
LINE
8
DEFAULT_255_1_388
10
17.9487228
20
15.2641232
11
17.7806598
21
15.2641232
0
LINE
8
DEFAULT_255_1_388
10
17.180693
20
14.874687
11
17.3478524
21
14.874687
0
ARC
8
DEFAULT_255_1_388
10
17.6469889
20
14.8347935
40
0.1436198
50
359.3335374
51
18.5869869
0
ARC
8
DEFAULT_255_1_388
10
17.6704628
20
14.8410015
40
0.1194022
50
19.3538149
51
54.6486387
0
ARC
8
DEFAULT_255_1_388
10
17.6137616
20
14.7628077
40
0.2159877
50
54.3821575
51
65.0627557
0
ARC
8
DEFAULT_255_1_388
10
17.5272963
20
14.5809032
40
0.4173927
50
64.8282172
51
71.4204388
0
ARC
8
DEFAULT_255_1_388
10
17.4257859
20
14.2830782
40
0.7320403
50
71.3166092
51
75.8005927
0
ARC
8
DEFAULT_255_1_388
10
17.3311744
20
13.9185881
40
1.108605
50
75.6810806
51
78.0063886
0
ARC
8
DEFAULT_255_1_388
10
17.8316333
20
16.278753
40
1.3040363
50
254.69024
51
258.0465557
0
ARC
8
DEFAULT_255_1_388
10
17.7148202
20
15.8557742
40
0.8652254
50
249.9010634
51
254.7555005
0
ARC
8
DEFAULT_255_1_388
10
17.6019254
20
15.549168
40
0.5384962
50
243.3097375
51
249.970939
0
ARC
8
DEFAULT_255_1_388
10
17.5311668
20
15.4080721
40
0.380652
50
234.4047808
51
243.2861752
0
ARC
8
DEFAULT_255_1_388
10
17.4611304
20
15.3113645
40
0.2612502
50
220.8665526
51
234.5497192
0
ARC
8
DEFAULT_255_1_388
10
17.4226303
20
15.2763203
40
0.2092097
50
214.3063391
51
220.5075055
0
ARC
8
DEFAULT_255_1_388
10
17.4197417
20
15.2728577
40
0.2048755
50
186.9131438
51
213.9617385
0
ARC
8
DEFAULT_255_1_388
10
17.4795806
20
15.2825431
40
0.2654563
50
179.8802037
51
187.4338578
0
ARC
8
DEFAULT_255_1_388
10
17.4621771
20
15.2848049
40
0.2480581
50
132.0053393
51
180.3942351
0
ARC
8
DEFAULT_255_1_388
10
17.5360684
20
15.2165997
40
0.3483116
50
129.2317021
51
133.5294826
0
ARC
8
DEFAULT_255_1_388
10
17.5420653
20
15.2060383
40
0.360291
50
100.440976
51
128.9081567
0
ARC
8
DEFAULT_255_1_388
10
17.572877
20
15.0614357
40
0.5080996
50
89.6985063
51
100.9029043
0
ARC
8
DEFAULT_255_1_388
10
17.5792925
20
15.0433739
40
0.5261675
50
77.6967144
51
90.4074623
0
ARC
8
DEFAULT_255_1_388
10
17.6165278
20
15.2039503
40
0.3613511
50
50.7278431
51
78.0397473
0
ARC
8
DEFAULT_255_1_388
10
17.6665321
20
15.2622173
40
0.2845966
50
25.754382
51
51.0957456
0
ARC
8
DEFAULT_255_1_388
10
17.6666688
20
15.2678311
40
0.2820785
50
359.2468358
51
24.7393861
0
ARC
8
DEFAULT_255_1_388
10
17.6346575
20
15.2646204
40
0.1460032
50
359.8048924
51
45.1543866
0
ARC
8
DEFAULT_255_1_388
10
17.5888308
20
15.2254291
40
0.2061641
50
43.8053172
51
49.625485
0
ARC
8
DEFAULT_255_1_388
10
17.5897751
20
15.2255849
40
0.2054344
50
49.7979696
51
82.121802
0
ARC
8
DEFAULT_255_1_388
10
17.5763834
20
15.1528473
40
0.2793404
50
81.4458692
51
90.1707936
0
ARC
8
DEFAULT_255_1_388
10
17.5736411
20
15.0936478
40
0.3385438
50
89.6768097
51
99.1267111
0
ARC
8
DEFAULT_255_1_388
10
17.5543392
20
15.2099405
40
0.2206627
50
98.9679878
51
113.4573418
0
ARC
8
DEFAULT_255_1_388
10
17.5323073
20
15.2626193
40
0.1635691
50
113.7230234
51
127.4758155
0
ARC
8
DEFAULT_255_1_388
10
17.5133655
20
15.2851433
40
0.1341757
50
126.9086647
51
150.3160891
0
ARC
8
DEFAULT_255_1_388
10
17.5079986
20
15.290868
40
0.1266992
50
151.363328
51
180.0701537
0
ARC
8
DEFAULT_255_1_388
10
17.5390207
20
15.288523
40
0.1577364
50
179.2045432
51
180.0012892
0
ARC
8
DEFAULT_255_1_388
10
17.5021318
20
15.2870515
40
0.1208564
50
179.3040542
51
198.4225767
0
ARC
8
DEFAULT_255_1_388
10
17.480546
20
15.2814337
40
0.0986126
50
199.2893055
51
238.6036855
0
ARC
8
DEFAULT_255_1_388
10
17.5483553
20
15.3878752
40
0.2248082
50
237.9844191
51
246.8751643
0
ARC
8
DEFAULT_255_1_388
10
17.6448413
20
15.6085861
40
0.4656832
50
246.6226408
51
251.8174794
0
ARC
8
DEFAULT_255_1_388
10
17.760888
20
15.9570909
40
0.8329993
50
251.7140983
51
255.0775146
0
ARC
8
DEFAULT_255_1_388
10
17.8958404
20
16.4597708
40
1.3534786
50
255.0370864
51
257.4701577
0
ARC
8
DEFAULT_255_1_388
10
17.3210949
20
13.8703535
40
1.298957
50
73.6835762
51
77.5015749
0
ARC
8
DEFAULT_255_1_388
10
17.4435863
20
14.2865699
40
0.8650912
50
68.7042835
51
73.7249997
0
ARC
8
DEFAULT_255_1_388
10
17.5451428
20
14.5482853
40
0.584363
50
63.5907059
51
68.6622978
0
ARC
8
DEFAULT_255_1_388
10
17.6319169
20
14.7213157
40
0.3907955
50
54.7106507
51
63.7018033
0
ARC
8
DEFAULT_255_1_388
10
17.7021556
20
14.8194287
40
0.2701345
50
41.0624597
51
54.8488532
0
ARC
8
DEFAULT_255_1_388
10
17.7405335
20
14.8546439
40
0.2180695
50
34.4952722
51
40.7097584
0
ARC
8
DEFAULT_255_1_388
10
17.74583
20
14.8601204
40
0.2106083
50
9.3761233
51
34.0834046
0
ARC
8
DEFAULT_255_1_388
10
17.6723429
20
14.8460174
40
0.2854177
50
359.7695264
51
9.7660556
0
ARC
8
DEFAULT_255_1_388
10
17.6945722
20
14.8411841
40
0.2632121
50
335.8653103
51
0.8022272
0
ARC
8
DEFAULT_255_1_388
10
17.7030127
20
14.8426951
40
0.2561728
50
307.7357819
51
334.7849324
0
ARC
8
DEFAULT_255_1_388
10
17.6584768
20
14.8926553
40
0.3229737
50
307.0217048
51
308.5596894
0
ARC
8
DEFAULT_255_1_388
10
17.6289353
20
14.9368063
40
0.3760237
50
282.9361285
51
306.5649033
0
ARC
8
DEFAULT_255_1_388
10
17.5882414
20
15.1018871
40
0.5460314
50
271.1026197
51
283.2199962
0
ARC
8
DEFAULT_255_1_388
10
17.5810603
20
15.2419744
40
0.6862456
50
269.9926344
51
271.4770056
0
ARC
8
DEFAULT_255_1_388
10
17.5781173
20
15.1202633
40
0.5645418
50
259.0723633
51
270.2897324
0
ARC
8
DEFAULT_255_1_388
10
17.5542398
20
14.9945887
40
0.4366198
50
245.4965026
51
259.0225745
0
ARC
8
DEFAULT_255_1_388
10
17.5229614
20
14.9291491
40
0.3641037
50
228.9686619
51
245.7042678
0
ARC
8
DEFAULT_255_1_388
10
17.4930889
20
14.8923573
40
0.3167435
50
214.4015391
51
228.6759028
0
ARC
8
DEFAULT_255_1_388
10
17.4605386
20
14.8745429
40
0.2798456
50
179.9704983
51
215.1574389
0
ARC
8
DEFAULT_255_1_388
10
17.5393599
20
14.8828148
40
0.1916798
50
182.430239
51
203.0329751
0
ARC
8
DEFAULT_255_1_388
10
17.5186195
20
14.8764675
40
0.1701248
50
203.7987464
51
232.5483345
0
ARC
8
DEFAULT_255_1_388
10
17.5497279
20
14.9160049
40
0.2204299
50
232.3784541
51
256.3934343
0
ARC
8
DEFAULT_255_1_388
10
17.5756426
20
15.0161359
40
0.3238512
50
256.1048329
51
268.4627478
0
ARC
8
DEFAULT_255_1_388
10
17.5808846
20
15.1065297
40
0.4143627
50
268.0734924
51
270.0121004
0
ARC
8
DEFAULT_255_1_388
10
17.5829564
20
15.0751191
40
0.3829573
50
269.7031202
51
278.8338867
0
ARC
8
DEFAULT_255_1_388
10
17.6034428
20
14.9479553
40
0.2541568
50
278.6727378
51
292.82331
0
ARC
8
DEFAULT_255_1_388
10
17.6259975
20
14.8915546
40
0.1934264
50
293.1457581
51
303.6656964
0
ARC
8
DEFAULT_255_1_388
10
17.6558048
20
14.8492159
40
0.1416713
50
303.1245849
51
321.7434683
0
ARC
8
DEFAULT_255_1_388
10
17.6767129
20
14.830878
40
0.1139081
50
322.4747616
51
1.1293039
0
LINE
8
DEFAULT_255_2_778
10
10.5738396
20
17.0868073
11
9.3932396
21
17.0868073
0
LINE
8
DEFAULT_255_2_778
10
9.3932396
20
17.0868073
11
9.9837396
21
18.1094073
0
LINE
8
DEFAULT_255_2_778
10
9.9837396
20
18.1094073
11
11.1643396
21
18.1094073
0
LINE
8
DEFAULT_255_2_778
10
11.1643396
20
18.1094073
11
10.5738396
21
17.0868073
0
LINE
8
DEFAULT_255_2_778
10
10.5738396
20
17.0868073
11
10.5738396
21
17.0868073
0
LINE
8
DEFAULT_255_2_778
10
11.7546396
20
17.0868073
11
12.9354396
21
17.0868073
0
LINE
8
DEFAULT_255_2_778
10
12.9354396
20
17.0868073
11
12.3451396
21
18.1094073
0
LINE
8
DEFAULT_255_2_778
10
12.3451396
20
18.1094073
11
11.1643396
21
18.1094073
0
LINE
8
DEFAULT_255_2_778
10
11.1643396
20
18.1094073
11
11.7546396
21
17.0868073
0
LINE
8
DEFAULT_255_2_778
10
11.7546396
20
17.0868073
11
11.7546396
21
17.0868073
0
LINE
8
DEFAULT_255_2_778
10
11.7545823
20
19.1320146
11
11.1642823
21
20.1546146
0
LINE
8
DEFAULT_255_2_778
10
11.1642823
20
20.1546146
11
10.5737823
21
19.1320146
0
LINE
8
DEFAULT_255_2_778
10
10.5737823
20
19.1320146
11
11.1642823
21
18.1094146
0
LINE
8
DEFAULT_255_2_778
10
11.1642823
20
18.1094146
11
11.7545823
21
19.1320146
0
LINE
8
DEFAULT_255_2_778
10
11.7545823
20
19.1320146
11
11.7545823
21
19.1320146
0
ARC
8
DEFAULT_255_2_778
10
16.5183731
20
18.7782426
40
0.5650491
50
268.7543645
51
289.1417717
0
ARC
8
DEFAULT_255_2_778
10
16.606208
20
18.5230531
40
0.2951681
50
289.2776255
51
3.7648372
0
ARC
8
DEFAULT_255_2_778
10
16.3901618
20
18.5496085
40
0.5106278
50
359.1949826
51
0.0020862
0
ARC
8
DEFAULT_255_2_778
10
16.547449
20
18.5355832
40
0.1541914
50
280.2616216
51
358.5297855
0
ARC
8
DEFAULT_255_2_778
10
16.5080075
20
18.648155
40
0.2726346
50
269.5969454
51
284.2065679
0
ARC
8
DEFAULT_255_2_778
10
16.4981883
20
18.6323788
40
0.2569732
50
246.5218562
51
271.7619895
0
ARC
8
DEFAULT_255_2_778
10
16.4527498
20
18.5244164
40
0.1398527
50
188.0764216
51
245.9747848
0
ARC
8
DEFAULT_255_2_778
10
16.4833113
20
18.5314608
40
0.1711218
50
179.9443312
51
188.9740498
0
ARC
8
DEFAULT_255_2_778
10
16.4924507
20
18.5382849
40
0.3763411
50
178.2272621
51
205.8283807
0
ARC
8
DEFAULT_255_2_778
10
16.4132476
20
18.5205833
40
0.2979176
50
209.4028057
51
263.0375728
0
ARC
8
DEFAULT_255_2_778
10
16.5005111
20
18.8952629
40
0.6816586
50
259.5722942
51
270.4689037
0
ARC
8
DEFAULT_255_2_778
10
17.411252
20
18.9514767
40
0.1217154
50
2.0482843
51
87.015299
0
ARC
8
DEFAULT_255_2_778
10
17.4057913
20
18.9558868
40
0.1270984
50
353.0742102
51
359.9730821
0
ARC
8
DEFAULT_255_2_778
10
17.4111345
20
18.9526717
40
0.1214332
50
270.7420557
51
354.2761882
0
ARC
8
DEFAULT_255_2_778
10
17.4065072
20
18.9892509
40
0.1581238
50
269.9936646
51
272.2471507
0
ARC
8
DEFAULT_255_2_778
10
17.414084
20
18.5380295
40
0.1400686
50
358.2807293
51
95.6106825
0
ARC
8
DEFAULT_255_2_778
10
17.4103233
20
18.5341963
40
0.1437669
50
266.9962473
51
359.8528392
0
ARC
8
DEFAULT_255_2_778
10
17.4725249
20
18.5744988
40
0.3335288
50
268.2414507
51
302.0223478
0
ARC
8
DEFAULT_255_2_778
10
17.5091261
20
18.499183
40
0.2504234
50
304.0600275
51
2.0468005
0
ARC
8
DEFAULT_255_2_778
10
17.4835388
20
18.505988
40
0.2758592
50
0.4442832
51
66.1293704
0
ARC
8
DEFAULT_255_2_778
10
17.5193244
20
18.570936
40
0.202088
50
67.956084
51
75.8901834
0
ARC
8
DEFAULT_255_2_778
10
17.5042026
20
18.978222
40
0.2208874
50
286.9473417
51
358.0074963
0
ARC
8
DEFAULT_255_2_778
10
17.4710866
20
18.9870045
40
0.2544031
50
356.2897886
51
0.0050857
0
ARC
8
DEFAULT_255_2_778
10
17.497262
20
18.9920946
40
0.2282839
50
358.7280137
51
81.8073164
0
ARC
8
DEFAULT_255_2_778
10
17.4216369
20
18.7406283
40
0.4895182
50
77.2355086
51
90.5088275
0
ARC
8
DEFAULT_255_2_778
10
17.5842747
20
17.7760989
40
0.1302704
50
89.9972707
51
92.6773048
0
ARC
8
DEFAULT_255_2_778
10
17.5844071
20
17.77687
40
0.1294993
50
45.0546048
51
90.0558451
0
ARC
8
DEFAULT_255_2_778
10
17.5844118
20
17.776719
40
0.1296029
50
0.001866
51
45.1031959
0
ARC
8
DEFAULT_255_2_778
10
17.5845123
20
17.7767202
40
0.1295026
50
357.4803735
51
0.0013544
0
ARC
8
DEFAULT_255_2_778
10
17.5901979
20
17.7728512
40
0.1237052
50
339.8672523
51
359.1550732
0
ARC
8
DEFAULT_255_2_778
10
17.5794513
20
17.7700079
40
0.1329691
50
272.0853006
51
342.6124646
0
ARC
8
DEFAULT_255_2_778
10
17.6596145
20
17.8082661
40
0.2575135
50
286.787355
51
290.6121696
0
ARC
8
DEFAULT_255_2_778
10
17.6689461
20
17.7939533
40
0.24086
50
289.7330405
51
342.3216972
0
ARC
8
DEFAULT_255_2_778
10
17.641261
20
17.7987954
40
0.268735
50
343.130572
51
0.3905272
0
ARC
8
DEFAULT_255_2_778
10
17.6578783
20
17.8161767
40
0.2525904
50
356.4706028
51
80.1788963
0
ARC
8
DEFAULT_255_2_778
10
17.5921649
20
17.5892163
40
0.4881286
50
77.1212301
51
90.4900821
0
ARC
8
DEFAULT_255_2_778
10
17.5166337
20
17.291536
40
0.1865405
50
50.1507009
51
92.9634648
0
ARC
8
DEFAULT_255_2_778
10
17.5301354
20
17.3198678
40
0.1563319
50
12.621233
51
47.2950617
0
ARC
8
DEFAULT_255_2_778
10
16.8485884
20
17.1869726
40
0.8506657
50
2.8173892
51
11.3253986
0
ARC
8
DEFAULT_255_2_778
10
-29.2295733
20
13.6906175
40
47.060992
50
4.3048394
51
4.3117143
0
ARC
8
DEFAULT_255_2_778
10
18.5500859
20
17.263084
40
0.8523717
50
182.6850102
51
191.2954256
0
ARC
8
DEFAULT_255_2_778
10
17.9656837
20
17.1567399
40
0.2586603
50
193.5512904
51
195.3825538
0
ARC
8
DEFAULT_255_2_778
10
19.3507425
20
17.4156408
40
1.4700994
50
182.6283124
51
192.8725697
0
ARC
8
DEFAULT_255_2_778
10
17.6207606
20
17.3427215
40
0.261487
50
1.2064311
51
30.4123358
0
ARC
8
DEFAULT_255_2_778
10
17.6663626
20
17.357776
40
0.2147766
50
33.1081154
51
71.7312197
0
LINE
8
DEFAULT_255_2_778
10
13.4657897
20
17.5223271
11
13.9385897
21
17.5223271
0
LINE
8
DEFAULT_255_2_778
10
13.9385897
20
17.5223271
11
13.9385897
21
17.6937271
0
LINE
8
DEFAULT_255_2_778
10
13.9385897
20
17.6937271
11
13.4657897
21
17.6937271
0
LINE
8
DEFAULT_255_2_778
10
13.4657897
20
17.6937271
11
13.4657897
21
17.9046271
0
LINE
8
DEFAULT_255_2_778
10
13.4657897
20
17.9046271
11
13.9977897
21
17.9046271
0
LINE
8
DEFAULT_255_2_778
10
13.9977897
20
17.9046271
11
13.9977897
21
18.0760271
0
LINE
8
DEFAULT_255_2_778
10
13.9977897
20
18.0760271
11
13.4657897
21
18.0760271
0
LINE
8
DEFAULT_255_2_778
10
13.4657897
20
18.0760271
11
13.2651897
21
18.0760271
0
LINE
8
DEFAULT_255_2_778
10
13.2651897
20
18.0760271
11
13.2651897
21
17.9046271
0
LINE
8
DEFAULT_255_2_778
10
13.2651897
20
17.9046271
11
13.2651897
21
17.2582271
0
LINE
8
DEFAULT_255_2_778
10
13.2651897
20
17.2582271
11
13.2651897
21
17.0867271
0
LINE
8
DEFAULT_255_2_778
10
13.2651897
20
17.0867271
11
13.4657897
21
17.0867271
0
LINE
8
DEFAULT_255_2_778
10
13.4657897
20
17.0867271
11
14.0118897
21
17.0867271
0
LINE
8
DEFAULT_255_2_778
10
14.0118897
20
17.0867271
11
14.0118897
21
17.2582271
0
LINE
8
DEFAULT_255_2_778
10
14.0118897
20
17.2582271
11
13.4657897
21
17.2582271
0
LINE
8
DEFAULT_255_2_778
10
13.4657897
20
17.2582271
11
13.4657897
21
17.5220271
0
LINE
8
DEFAULT_255_2_778
10
13.4657897
20
17.5220271
11
13.4657897
21
17.5223271
0
LINE
8
DEFAULT_255_2_778
10
13.4519897
20
18.9764271
11
13.6620897
21
18.2411271
0
LINE
8
DEFAULT_255_2_778
10
13.6620897
20
18.2411271
11
13.6704897
21
18.2411271
0
LINE
8
DEFAULT_255_2_778
10
13.6704897
20
18.2411271
11
13.8464897
21
18.2411271
0
LINE
8
DEFAULT_255_2_778
10
13.8464897
20
18.2411271
11
13.8546897
21
18.2411271
0
LINE
8
DEFAULT_255_2_778
10
13.8546897
20
18.2411271
11
14.0647897
21
18.9764271
0
LINE
8
DEFAULT_255_2_778
10
14.0647897
20
18.9764271
11
14.0647897
21
18.2411271
0
LINE
8
DEFAULT_255_2_778
10
14.0647897
20
18.2411271
11
14.2515897
21
18.2411271
0
LINE
8
DEFAULT_255_2_778
10
14.2515897
20
18.2411271
11
14.2515897
21
19.2304271
0
LINE
8
DEFAULT_255_2_778
10
14.2515897
20
19.2304271
11
14.1496897
21
19.2304271
0
LINE
8
DEFAULT_255_2_778
10
14.1496897
20
19.2304271
11
14.0615897
21
19.2304271
0
LINE
8
DEFAULT_255_2_778
10
14.0615897
20
19.2304271
11
13.9655897
21
19.2304271
0
LINE
8
DEFAULT_255_2_778
10
13.9655897
20
19.2304271
11
13.7583897
21
18.5361271
0
LINE
8
DEFAULT_255_2_778
10
13.7583897
20
18.5361271
11
13.5511897
21
19.2304271
0
LINE
8
DEFAULT_255_2_778
10
13.5511897
20
19.2304271
11
13.4551897
21
19.2304271
0
LINE
8
DEFAULT_255_2_778
10
13.4551897
20
19.2304271
11
13.3670897
21
19.2304271
0
LINE
8
DEFAULT_255_2_778
10
13.3670897
20
19.2304271
11
13.2651897
21
19.2304271
0
LINE
8
DEFAULT_255_2_778
10
13.2651897
20
19.2304271
11
13.2651897
21
18.2411271
0
LINE
8
DEFAULT_255_2_778
10
13.2651897
20
18.2411271
11
13.4519897
21
18.2411271
0
LINE
8
DEFAULT_255_2_778
10
13.4519897
20
18.2411271
11
13.4519897
21
18.9764271
0
LINE
8
DEFAULT_255_2_778
10
13.4519897
20
18.9764271
11
13.4519897
21
18.9764271
0
LINE
8
DEFAULT_255_2_778
10
18.0057897
20
19.2304271
11
17.8064897
21
19.2304271
0
LINE
8
DEFAULT_255_2_778
10
17.8064897
20
19.2304271
11
17.8064897
21
18.2411271
0
LINE
8
DEFAULT_255_2_778
10
17.8064897
20
18.2411271
11
18.0057897
21
18.2411271
0
LINE
8
DEFAULT_255_2_778
10
18.0057897
20
18.2411271
11
18.0057897
21
19.2304271
0
LINE
8
DEFAULT_255_2_778
10
18.0057897
20
19.2304271
11
18.0057897
21
19.2304271
0
LINE
8
DEFAULT_255_2_778
10
18.1681897
20
18.0763271
11
17.9689897
21
18.0763271
0
LINE
8
DEFAULT_255_2_778
10
17.9689897
20
18.0763271
11
17.9689897
21
17.0870271
0
LINE
8
DEFAULT_255_2_778
10
17.9689897
20
17.0870271
11
18.1681897
21
17.0870271
0
LINE
8
DEFAULT_255_2_778
10
18.1681897
20
17.0870271
11
18.1681897
21
18.0763271
0
LINE
8
DEFAULT_255_2_778
10
18.1681897
20
18.0763271
11
18.1681897
21
18.0763271
0
LINE
8
DEFAULT_255_2_778
10
19.9765897
20
19.2304271
11
19.7773897
21
19.2304271
0
LINE
8
DEFAULT_255_2_778
10
19.7773897
20
19.2304271
11
19.7773897
21
18.2411271
0
LINE
8
DEFAULT_255_2_778
10
19.7773897
20
18.2411271
11
19.9765897
21
18.2411271
0
LINE
8
DEFAULT_255_2_778
10
19.9765897
20
18.2411271
11
19.9765897
21
19.2304271
0
LINE
8
DEFAULT_255_2_778
10
19.9765897
20
19.2304271
11
19.9765897
21
19.2304271
0
LINE
8
DEFAULT_255_2_778
10
14.5298897
20
19.2304271
11
14.3306897
21
19.2304271
0
LINE
8
DEFAULT_255_2_778
10
14.3306897
20
19.2304271
11
14.3306897
21
18.2411271
0
LINE
8
DEFAULT_255_2_778
10
14.3306897
20
18.2411271
11
14.5298897
21
18.2411271
0
LINE
8
DEFAULT_255_2_778
10
14.5298897
20
18.2411271
11
14.5298897
21
19.2304271
0
LINE
8
DEFAULT_255_2_778
10
14.5298897
20
19.2304271
11
14.5298897
21
19.2304271
0
LINE
8
DEFAULT_255_2_778
10
19.4989897
20
18.8444271
11
19.1029897
21
18.8444271
0
LINE
8
DEFAULT_255_2_778
10
19.1029897
20
18.8444271
11
19.1029897
21
19.2301271
0
LINE
8
DEFAULT_255_2_778
10
19.1029897
20
19.2301271
11
18.9068897
21
19.2301271
0
LINE
8
DEFAULT_255_2_778
10
18.9068897
20
19.2301271
11
18.9068897
21
18.2411271
0
LINE
8
DEFAULT_255_2_778
10
18.9068897
20
18.2411271
11
19.1029897
21
18.2411271
0
LINE
8
DEFAULT_255_2_778
10
19.1029897
20
18.2411271
11
19.1029897
21
18.6729271
0
LINE
8
DEFAULT_255_2_778
10
19.1029897
20
18.6729271
11
19.4989897
21
18.6729271
0
LINE
8
DEFAULT_255_2_778
10
19.4989897
20
18.6729271
11
19.4989897
21
18.2411271
0
LINE
8
DEFAULT_255_2_778
10
19.4989897
20
18.2411271
11
19.6950897
21
18.2411271
0
LINE
8
DEFAULT_255_2_778
10
19.6950897
20
18.2411271
11
19.6950897
21
19.2301271
0
LINE
8
DEFAULT_255_2_778
10
19.6950897
20
19.2301271
11
19.4989897
21
19.2301271
0
LINE
8
DEFAULT_255_2_778
10
19.4989897
20
19.2301271
11
19.4989897
21
18.8444271
0
LINE
8
DEFAULT_255_2_778
10
19.4989897
20
18.8444271
11
19.4989897
21
18.8444271
0
LINE
8
DEFAULT_255_2_778
10
14.8246897
20
18.2411271
11
15.0280897
21
18.2411271
0
LINE
8
DEFAULT_255_2_778
10
15.0280897
20
18.2411271
11
15.0280897
21
19.0590271
0
LINE
8
DEFAULT_255_2_778
10
15.0280897
20
19.0590271
11
15.2696897
21
19.0590271
0
LINE
8
DEFAULT_255_2_778
10
15.2696897
20
19.0590271
11
15.2696897
21
19.2304271
0
LINE
8
DEFAULT_255_2_778
10
15.2696897
20
19.2304271
11
15.0280897
21
19.2304271
0
LINE
8
DEFAULT_255_2_778
10
15.0280897
20
19.2304271
11
14.8246897
21
19.2304271
0
LINE
8
DEFAULT_255_2_778
10
14.8246897
20
19.2304271
11
14.5830897
21
19.2304271
0
LINE
8
DEFAULT_255_2_778
10
14.5830897
20
19.2304271
11
14.5830897
21
19.0590271
0
LINE
8
DEFAULT_255_2_778
10
14.5830897
20
19.0590271
11
14.8246897
21
19.0590271
0
LINE
8
DEFAULT_255_2_778
10
14.8246897
20
19.0590271
11
14.8246897
21
18.2411271
0
LINE
8
DEFAULT_255_2_778
10
14.8246897
20
18.2411271
11
14.8246897
21
18.2411271
0
LINE
8
DEFAULT_255_2_778
10
16.6422897
20
17.0870271
11
16.8454897
21
17.0870271
0
LINE
8
DEFAULT_255_2_778
10
16.8454897
20
17.0870271
11
16.8454897
21
17.9048271
0
LINE
8
DEFAULT_255_2_778
10
16.8454897
20
17.9048271
11
17.0873897
21
17.9048271
0
LINE
8
DEFAULT_255_2_778
10
17.0873897
20
17.9048271
11
17.0873897
21
18.0766271
0
LINE
8
DEFAULT_255_2_778
10
17.0873897
20
18.0766271
11
16.8454897
21
18.0766271
0
LINE
8
DEFAULT_255_2_778
10
16.8454897
20
18.0766271
11
16.6422897
21
18.0766271
0
LINE
8
DEFAULT_255_2_778
10
16.6422897
20
18.0766271
11
16.4004897
21
18.0766271
0
LINE
8
DEFAULT_255_2_778
10
16.4004897
20
18.0766271
11
16.4004897
21
17.9048271
0
LINE
8
DEFAULT_255_2_778
10
16.4004897
20
17.9048271
11
16.6422897
21
17.9048271
0
LINE
8
DEFAULT_255_2_778
10
16.6422897
20
17.9048271
11
16.6422897
21
17.0870271
0
LINE
8
DEFAULT_255_2_778
10
16.6422897
20
17.0870271
11
16.6422897
21
17.0870271
0
LINE
8
DEFAULT_255_2_778
10
16.9007897
20
18.5496271
11
16.9007897
21
19.2301271
0
LINE
8
DEFAULT_255_2_778
10
16.9007897
20
19.2301271
11
16.7015897
21
19.2301271
0
LINE
8
DEFAULT_255_2_778
10
16.7015897
20
19.2301271
11
16.7015897
21
18.5316271
0
LINE
8
DEFAULT_255_2_778
10
16.3121897
20
18.5316271
11
16.3121897
21
19.2301271
0
LINE
8
DEFAULT_255_2_778
10
16.3121897
20
19.2301271
11
16.1162897
21
19.2301271
0
LINE
8
DEFAULT_255_2_778
10
16.1162897
20
19.2301271
11
16.1162897
21
18.5499271
0
LINE
8
DEFAULT_255_2_778
10
15.0000897
20
17.5223271
11
15.4730897
21
17.5223271
0
LINE
8
DEFAULT_255_2_778
10
15.4730897
20
17.5223271
11
15.4730897
21
17.6937271
0
LINE
8
DEFAULT_255_2_778
10
15.4730897
20
17.6937271
11
15.0000897
21
17.6937271
0
LINE
8
DEFAULT_255_2_778
10
15.0000897
20
17.6937271
11
15.0000897
21
17.9046271
0
LINE
8
DEFAULT_255_2_778
10
15.0000897
20
17.9046271
11
15.5321897
21
17.9046271
0
LINE
8
DEFAULT_255_2_778
10
15.5321897
20
17.9046271
11
15.5321897
21
18.0760271
0
LINE
8
DEFAULT_255_2_778
10
15.5321897
20
18.0760271
11
15.0000897
21
18.0760271
0
LINE
8
DEFAULT_255_2_778
10
15.0000897
20
18.0760271
11
14.7997897
21
18.0760271
0
LINE
8
DEFAULT_255_2_778
10
14.7997897
20
18.0760271
11
14.7997897
21
17.9046271
0
LINE
8
DEFAULT_255_2_778
10
14.7997897
20
17.9046271
11
14.7997897
21
17.2582271
0
LINE
8
DEFAULT_255_2_778
10
14.7997897
20
17.2582271
11
14.7997897
21
17.0867271
0
LINE
8
DEFAULT_255_2_778
10
14.7997897
20
17.0867271
11
15.0000897
21
17.0867271
0
LINE
8
DEFAULT_255_2_778
10
15.0000897
20
17.0867271
11
15.5461897
21
17.0867271
0
LINE
8
DEFAULT_255_2_778
10
15.5461897
20
17.0867271
11
15.5461897
21
17.2582271
0
LINE
8
DEFAULT_255_2_778
10
15.5461897
20
17.2582271
11
15.0000897
21
17.2582271
0
LINE
8
DEFAULT_255_2_778
10
15.0000897
20
17.2582271
11
15.0000897
21
17.5220271
0
LINE
8
DEFAULT_255_2_778
10
15.0000897
20
17.5220271
11
15.0000897
21
17.5223271
0
LINE
8
DEFAULT_255_2_778
10
17.4064897
20
18.8311271
11
17.1690897
21
18.8311271
0
LINE
8
DEFAULT_255_2_778
10
17.1690897
20
18.8311271
11
17.1690897
21
19.0727271
0
LINE
8
DEFAULT_255_2_778
10
17.1690897
20
19.0727271
11
17.4175897
21
19.0727271
0
LINE
8
DEFAULT_255_2_778
10
17.4175897
20
19.0727271
11
17.4175897
21
19.0730271
0
LINE
8
DEFAULT_255_2_778
10
17.4027897
20
18.3903271
11
17.1690897
21
18.3903271
0
LINE
8
DEFAULT_255_2_778
10
17.1690897
20
18.3903271
11
17.1690897
21
18.6774271
0
LINE
8
DEFAULT_255_2_778
10
17.1690897
20
18.6774271
11
17.4003897
21
18.6774271
0
LINE
8
DEFAULT_255_2_778
10
17.1767897
20
18.2411271
11
17.4622897
21
18.2411271
0
LINE
8
DEFAULT_255_2_778
10
17.4172897
20
19.2301271
11
17.1770897
21
19.2301271
0
LINE
8
DEFAULT_255_2_778
10
17.1770897
20
19.2301271
11
16.9722897
21
19.2301271
0
LINE
8
DEFAULT_255_2_778
10
16.9722897
20
19.2301271
11
16.9711897
21
19.2301271
0
LINE
8
DEFAULT_255_2_778
10
16.9711897
20
19.2301271
11
16.9711897
21
18.2411271
0
LINE
8
DEFAULT_255_2_778
10
16.9711897
20
18.2411271
11
16.9722897
21
18.2411271
0
LINE
8
DEFAULT_255_2_778
10
16.9722897
20
18.2411271
11
17.1770897
21
18.2411271
0
LINE
8
DEFAULT_255_2_778
10
17.1770897
20
18.2411271
11
17.1767897
21
18.2411271
0
LINE
8
DEFAULT_255_2_778
10
17.3368897
20
17.6368271
11
17.3368897
21
17.9062271
0
LINE
8
DEFAULT_255_2_778
10
17.3368897
20
17.9062271
11
17.5781897
21
17.9062271
0
LINE
8
DEFAULT_255_2_778
10
17.5842897
20
17.6371271
11
17.3370897
21
17.6371271
0
LINE
8
DEFAULT_255_2_778
10
17.3370897
20
17.6371271
11
17.3368897
21
17.6368271
0
LINE
8
DEFAULT_255_2_778
10
17.5879897
20
18.0773271
11
17.3368897
21
18.0773271
0
LINE
8
DEFAULT_255_2_778
10
17.3368897
20
18.0773271
11
17.1383897
21
18.0773271
0
LINE
8
DEFAULT_255_2_778
10
17.1383897
20
18.0773271
11
17.1362897
21
18.0773271
0
LINE
8
DEFAULT_255_2_778
10
17.1362897
20
18.0773271
11
17.1362897
21
17.0881271
0
LINE
8
DEFAULT_255_2_778
10
17.1362897
20
17.0881271
11
17.3368897
21
17.0881271
0
LINE
8
DEFAULT_255_2_778
10
17.3368897
20
17.0881271
11
17.3368897
21
17.4778271
0
LINE
8
DEFAULT_255_2_778
10
17.3368897
20
17.4778271
11
17.5069897
21
17.4778271
0
LINE
8
DEFAULT_255_2_778
10
17.7162897
20
17.0881271
11
17.9175897
21
17.0881271
0
LINE
8
DEFAULT_255_2_778
10
14.2763897
20
18.0763271
11
14.0760897
21
18.0763271
0
LINE
8
DEFAULT_255_2_778
10
14.0760897
20
18.0763271
11
14.0760897
21
17.2585271
0
LINE
8
DEFAULT_255_2_778
10
14.0760897
20
17.2585271
11
14.0760897
21
17.0870271
0
LINE
8
DEFAULT_255_2_778
10
14.0760897
20
17.0870271
11
14.2763897
21
17.0870271
0
LINE
8
DEFAULT_255_2_778
10
14.2763897
20
17.0870271
11
14.7428897
21
17.0870271
0
LINE
8
DEFAULT_255_2_778
10
14.7428897
20
17.0870271
11
14.7428897
21
17.2585271
0
LINE
8
DEFAULT_255_2_778
10
14.7428897
20
17.2585271
11
14.2763897
21
17.2585271
0
LINE
8
DEFAULT_255_2_778
10
14.2763897
20
17.2585271
11
14.2763897
21
18.0763271
0
LINE
8
DEFAULT_255_2_778
10
14.2763897
20
18.0763271
11
14.2763897
21
18.0763271
0
ARC
8
DEFAULT_255_2_778
10
15.4584271
20
17.7021969
40
0.9681224
50
72.4822103
51
81.3184214
0
ARC
8
DEFAULT_255_2_778
10
15.7160297
20
18.4788918
40
0.1503783
50
28.8883513
51
77.0092434
0
ARC
8
DEFAULT_255_2_778
10
15.7432379
20
18.5078196
40
0.113238
50
358.9917455
51
22.7117017
0
ARC
8
DEFAULT_255_2_778
10
15.7394861
20
18.5119918
40
0.1171346
50
289.2958104
51
356.9831562
0
ARC
8
DEFAULT_255_2_778
10
15.6668261
20
18.6694882
40
0.2902651
50
268.4665462
51
292.5613311
0
ARC
8
DEFAULT_255_2_778
10
15.6496856
20
18.6104179
40
0.2312808
50
236.4956947
51
272.3225735
0
ARC
8
DEFAULT_255_2_778
10
15.6106646
20
18.5421839
40
0.1529307
50
178.9722202
51
234.5742435
0
ARC
8
DEFAULT_255_2_778
10
15.5656113
20
18.5326079
40
0.3002058
50
177.6481608
51
245.5596397
0
ARC
8
DEFAULT_255_2_778
10
15.6409971
20
18.7048561
40
0.488217
50
245.8690375
51
267.169035
0
ARC
8
DEFAULT_255_2_778
10
15.6671503
20
18.9558916
40
0.7403648
50
266.1069867
51
270.0547972
0
ARC
8
DEFAULT_255_2_778
10
15.6772894
20
18.7871135
40
0.5716642
50
269.0547216
51
287.7147747
0
ARC
8
DEFAULT_255_2_778
10
15.7598889
20
18.5414091
40
0.3125017
50
286.995984
51
325.1221533
0
ARC
8
DEFAULT_255_2_778
10
15.7678294
20
18.524861
40
0.2966627
50
326.8673922
51
0.8625726
0
ARC
8
DEFAULT_255_2_778
10
15.7898286
20
18.5334409
40
0.2746606
50
359.1417932
51
76.9739731
0
ARC
8
DEFAULT_255_2_778
10
15.6705461
20
18.2525719
40
0.577616
50
71.7185727
51
79.1315439
0
ARC
8
DEFAULT_255_2_778
10
14.2492968
20
10.898967
40
8.0673056
50
79.0662148
51
79.6216572
0
ARC
8
DEFAULT_255_2_778
10
16.4356585
20
22.7766581
40
4.0099443
50
259.1227669
51
259.4665204
0
ARC
8
DEFAULT_255_2_778
10
15.7836732
20
19.4816142
40
0.6513291
50
249.9945768
51
260.7485895
0
ARC
8
DEFAULT_255_2_778
10
15.5880401
20
18.9705999
40
0.1046098
50
178.6705173
51
254.9333545
0
ARC
8
DEFAULT_255_2_778
10
15.6049957
20
18.9671688
40
0.1216785
50
93.288632
51
177.2403935
0
ARC
8
DEFAULT_255_2_778
10
15.6585677
20
18.7801752
40
0.3143588
50
89.6189463
51
101.1057977
0
ARC
8
DEFAULT_255_2_778
10
15.6722733
20
18.892016
40
0.2028439
50
53.5634072
51
93.2825843
0
ARC
8
DEFAULT_255_2_778
10
15.7018505
20
18.9502144
40
0.1388739
50
357.1985816
51
49.1152298
0
ARC
8
DEFAULT_255_2_778
10
15.7254907
20
18.9434274
40
0.3087677
50
359.9999335
51
2.3703878
0
ARC
8
DEFAULT_255_2_778
10
15.7353555
20
18.9449337
40
0.298851
50
2.1600756
51
60.1092229
0
ARC
8
DEFAULT_255_2_778
10
15.6766212
20
18.8383133
40
0.4205645
50
60.4106856
51
86.1444419
0
ARC
8
DEFAULT_255_2_778
10
15.6536151
20
18.6616228
40
0.5985046
50
85.0843314
51
90.0628677
0
ARC
8
DEFAULT_255_2_778
10
15.6529718
20
18.7850466
40
0.4750804
50
90.001616
51
92.2300394
0
ARC
8
DEFAULT_255_2_778
10
15.6281193
20
18.890187
40
0.3696351
50
89.0131319
51
149.6364996
0
ARC
8
DEFAULT_255_2_778
10
15.5505461
20
18.9624055
40
0.2671974
50
154.5962367
51
180.4885883
0
ARC
8
DEFAULT_255_2_778
10
15.5651524
20
18.960884
40
0.281795
50
180.1539064
51
255.1120325
0
ARC
8
DEFAULT_255_2_778
10
15.7094242
20
19.283732
40
0.6333958
50
249.9962237
51
260.4976723
0
ARC
8
DEFAULT_255_2_778
10
18.2470963
20
17.7033351
40
0.967002
50
72.4685023
51
81.3064395
0
ARC
8
DEFAULT_255_2_778
10
18.5045397
20
18.478927
40
0.1503535
50
28.8782248
51
76.9904304
0
ARC
8
DEFAULT_255_2_778
10
18.5317197
20
18.5078189
40
0.1132561
50
358.9922779
51
22.7082666
0
ARC
8
DEFAULT_255_2_778
10
18.5280402
20
18.5119088
40
0.1170763
50
289.2761556
51
357.0223042
0
ARC
8
DEFAULT_255_2_778
10
18.4553612
20
18.6697836
40
0.2905613
50
268.4611814
51
292.5289055
0
ARC
8
DEFAULT_255_2_778
10
18.4381801
20
18.6113175
40
0.2321799
50
236.6698634
51
272.3149402
0
ARC
8
DEFAULT_255_2_778
10
18.39878
20
18.5421762
40
0.1528464
50
178.9687581
51
234.7686008
0
ARC
8
DEFAULT_255_2_778
10
18.3540113
20
18.5326079
40
0.3002058
50
177.6481608
51
245.5596397
0
ARC
8
DEFAULT_255_2_778
10
18.4293971
20
18.7048561
40
0.488217
50
245.8690375
51
267.169035
0
ARC
8
DEFAULT_255_2_778
10
18.4555503
20
18.9558916
40
0.7403648
50
266.1069867
51
270.0547972
0
ARC
8
DEFAULT_255_2_778
10
18.4656836
20
18.7877451
40
0.5722957
50
269.0563423
51
287.7048702
0
ARC
8
DEFAULT_255_2_778
10
18.548344
20
18.5417682
40
0.312856
50
286.9832601
51
325.0871916
0
ARC
8
DEFAULT_255_2_778
10
18.5567708
20
18.5248856
40
0.2964208
50
326.8311942
51
0.8585267
0
ARC
8
DEFAULT_255_2_778
10
18.5785756
20
18.5335282
40
0.2746149
50
359.1234265
51
76.9343785
0
ARC
8
DEFAULT_255_2_778
10
18.4596421
20
18.2536965
40
0.5764934
50
71.6999697
51
79.1198353
0
ARC
8
DEFAULT_255_2_778
10
17.0173657
20
10.7769392
40
8.1910887
50
79.0843627
51
79.6321368
0
ARC
8
DEFAULT_255_2_778
10
19.2200266
20
22.7564177
40
3.9892176
50
259.1314419
51
259.4772924
0
ARC
8
DEFAULT_255_2_778
10
18.5723251
20
19.4810131
40
0.6507003
50
249.9919323
51
260.7592458
0
ARC
8
DEFAULT_255_2_778
10
18.376901
20
18.9705546
40
0.1045718
50
178.6452075
51
254.9151907
0
ARC
8
DEFAULT_255_2_778
10
18.3939581
20
18.9671016
40
0.121744
50
93.2745253
51
177.21023
0
ARC
8
DEFAULT_255_2_778
10
18.4475726
20
18.7800052
40
0.3145287
50
89.6200387
51
101.1027534
0
ARC
8
DEFAULT_255_2_778
10
18.4613489
20
18.8933453
40
0.2015212
50
53.1490002
51
93.3256649
0
ARC
8
DEFAULT_255_2_778
10
18.4902753
20
18.9501519
40
0.1391457
50
357.2298288
51
48.6469881
0
ARC
8
DEFAULT_255_2_778
10
18.5137232
20
18.9434226
40
0.3092351
50
0.0008291
51
2.3676985
0
ARC
8
DEFAULT_255_2_778
10
18.5240744
20
18.9449868
40
0.2988304
50
2.1500394
51
60.0956838
0
ARC
8
DEFAULT_255_2_778
10
18.4654399
20
18.8384909
40
0.4203859
50
60.40452
51
86.1455285
0
ARC
8
DEFAULT_255_2_778
10
18.4424157
20
18.6616686
40
0.5984588
50
85.0841409
51
90.0629301
0
ARC
8
DEFAULT_255_2_778
10
18.4417778
20
18.7846392
40
0.4754878
50
90.0023409
51
92.3231329
0
ARC
8
DEFAULT_255_2_778
10
18.4167555
20
18.8899604
40
0.3698206
50
89.1093915
51
149.6400816
0
ARC
8
DEFAULT_255_2_778
10
18.338761
20
18.9623917
40
0.2669122
50
154.6001925
51
180.486137
0
ARC
8
DEFAULT_255_2_778
10
18.3537607
20
18.9610152
40
0.2819037
50
180.1805176
51
255.132702
0
ARC
8
DEFAULT_255_2_778
10
18.4982264
20
19.2842784
40
0.6339516
50
250.0026216
51
260.4967164
0
ARC
8
DEFAULT_255_2_778
10
16.008917
20
17.4914283
40
0.2519711
50
190.2626864
51
267.3480013
0
ARC
8
DEFAULT_255_2_778
10
16.2443543
20
17.5827548
40
0.5022041
50
179.6723028
51
195.7380858
0
ARC
8
DEFAULT_255_2_778
10
16.1790511
20
17.5982671
40
0.4370755
50
148.7005643
51
181.6572045
0
ARC
8
DEFAULT_255_2_778
10
15.9957576
20
17.7083723
40
0.2232598
50
89.6148479
51
148.4074796
0
ARC
8
DEFAULT_255_2_778
10
16.0060936
20
17.730449
40
0.201372
50
41.9769772
51
92.5146611
0
ARC
8
DEFAULT_255_2_778
10
15.9522078
20
17.6927523
40
0.2667646
50
15.1848537
51
40.2549591
0
ARC
8
DEFAULT_255_2_778
10
16.028123
20
17.7030326
40
0.3935735
50
8.7091682
51
82.0550801
0
ARC
8
DEFAULT_255_2_778
10
15.9931241
20
17.5565871
40
0.543642
50
80.5350289
51
90.1544743
0
ARC
8
DEFAULT_255_2_778
10
15.9818804
20
17.6452192
40
0.4551129
50
88.7689246
51
119.6437418
0
ARC
8
DEFAULT_255_2_778
10
16.0077717
20
17.6489647
40
0.4653013
50
122.644121
51
173.3997839
0
ARC
8
DEFAULT_255_2_778
10
16.2711934
20
17.5846568
40
0.7351371
50
170.7798304
51
180.1348114
0
ARC
8
DEFAULT_255_2_778
10
16.1377257
20
17.5692615
40
0.6018225
50
178.6988735
51
210.5289552
0
ARC
8
DEFAULT_255_2_778
10
15.970325
20
17.4784953
40
0.4115783
50
211.4828222
51
265.8686737
0
ARC
8
DEFAULT_255_2_778
10
15.9909864
20
17.6032011
40
0.5375742
50
264.6297133
51
270.0503073
0
ARC
8
DEFAULT_255_2_778
10
16.0020995
20
17.5350749
40
0.4695684
50
268.7014824
51
300.1403067
0
ARC
8
DEFAULT_255_2_778
10
16.0350333
20
17.4566852
40
0.385394
50
301.7580058
51
353.77968
0
ARC
8
DEFAULT_255_2_778
10
16.0012256
20
17.4510219
40
0.2113379
50
268.8430278
51
350.1661143
0
ARC
8
DEFAULT_255_2_778
10
18.6896799
20
17.4913824
40
0.2519281
50
190.2538303
51
267.3332171
0
ARC
8
DEFAULT_255_2_778
10
18.9252249
20
17.5827581
40
0.5022746
50
179.672724
51
195.7362088
0
ARC
8
DEFAULT_255_2_778
10
18.8600432
20
17.5982917
40
0.4372682
50
148.7196987
51
181.6596982
0
ARC
8
DEFAULT_255_2_778
10
18.676443
20
17.7084906
40
0.2231415
50
89.6108896
51
148.4244661
0
ARC
8
DEFAULT_255_2_778
10
18.686876
20
17.730467
40
0.2013576
50
42.5913083
51
92.5383066
0
ARC
8
DEFAULT_255_2_778
10
18.6345542
20
17.6940973
40
0.2646316
50
15.0085433
51
40.7215892
0
ARC
8
DEFAULT_255_2_778
10
18.708623
20
17.7030326
40
0.3935735
50
8.7091682
51
82.0550801
0
ARC
8
DEFAULT_255_2_778
10
18.6736241
20
17.5565871
40
0.543642
50
80.5350289
51
90.1544743
0
ARC
8
DEFAULT_255_2_778
10
18.6623804
20
17.6452192
40
0.4551129
50
88.7689246
51
119.6437418
0
ARC
8
DEFAULT_255_2_778
10
18.6882717
20
17.6489647
40
0.4653013
50
122.644121
51
173.3997839
0
ARC
8
DEFAULT_255_2_778
10
18.9516934
20
17.5846568
40
0.7351371
50
170.7798304
51
180.1348114
0
ARC
8
DEFAULT_255_2_778
10
18.8177822
20
17.56932
40
0.6013778
50
178.7034849
51
210.5604279
0
ARC
8
DEFAULT_255_2_778
10
18.6511312
20
17.4788377
40
0.4119265
50
211.5090145
51
265.8592607
0
ARC
8
DEFAULT_255_2_778
10
18.6716883
20
17.6029521
40
0.5373252
50
264.628472
51
270.0501277
0
ARC
8
DEFAULT_255_2_778
10
18.682837
20
17.5348685
40
0.4693629
50
268.6963312
51
300.2191972
0
ARC
8
DEFAULT_255_2_778
10
18.7155684
20
17.4569124
40
0.3856821
50
301.8465101
51
353.7503927
0
ARC
8
DEFAULT_255_2_778
10
18.6820648
20
17.4508604
40
0.2111733
50
268.8857714
51
350.2028431
0
LINE
8
DEFAULT_255_2_778
10
15.4577584
20
18.5449271
11
15.2656584
21
18.5449271
0
LINE
8
DEFAULT_255_2_778
10
15.8405584
20
18.9434271
11
16.0342584
21
18.9434271
0
LINE
8
DEFAULT_255_2_778
10
18.2459584
20
18.5449271
11
18.0540584
21
18.5449271
0
LINE
8
DEFAULT_255_2_778
10
18.6292584
20
18.9434271
11
18.8229584
21
18.9434271
0
LINE
8
DEFAULT_255_2_778
10
16.2096584
20
17.7626271
11
16.4171584
21
17.7626271
0
LINE
8
DEFAULT_255_2_778
10
16.4181584
20
17.4149271
11
16.2094584
21
17.4149271
0
LINE
8
DEFAULT_255_2_778
10
18.8901584
20
17.7626271
11
19.0976584
21
17.7626271
0
LINE
8
DEFAULT_255_2_778
10
19.0989584
20
17.4149271
11
18.8901584
21
17.4149271
0
LINE
8
DEFAULT_255_1_388
10
4.8805318
20
12.7258382
11
4.8805318
21
12.5894
0
LINE
8
DEFAULT_255_1_388
10
4.8805318
20
12.5894
11
4.0185313
21
12.5894
0
LINE
8
DEFAULT_255_1_388
10
4.0185313
20
12.5894
11
4.0185313
21
12.7095741
0
LINE
8
DEFAULT_255_1_388
10
4.0185313
20
12.7095741
11
4.4739278
21
13.2155702
0
LINE
8
DEFAULT_255_1_388
10
4.1603909
20
13.5173607
11
3.9932315
21
13.5173607
0
LINE
8
DEFAULT_255_1_388
10
4.5724163
20
13.108046
11
4.2200262
21
12.7258382
0
LINE
8
DEFAULT_255_1_388
10
4.2200262
20
12.7258382
11
4.8805318
21
12.7258382
0
ARC
8
DEFAULT_255_1_388
10
2.9563337
20
14.5575983
40
2.0258655
50
318.5132526
51
320.7829045
0
ARC
8
DEFAULT_255_1_388
10
3.5511294
20
14.0734929
40
1.2589638
50
320.7372878
51
323.9739031
0
ARC
8
DEFAULT_255_1_388
10
3.9920226
20
13.7540554
40
0.7145141
50
323.8962701
51
328.64194
0
ARC
8
DEFAULT_255_1_388
10
4.2222484
20
13.6120545
40
0.4440242
50
328.8294576
51
331.7891185
0
ARC
8
DEFAULT_255_1_388
10
4.3344804
20
13.5541374
40
0.3177517
50
331.4254512
51
352.9365785
0
ARC
8
DEFAULT_255_1_388
10
4.3497804
20
13.550705
40
0.3021496
50
353.2257659
51
0.0166158
0
ARC
8
DEFAULT_255_1_388
10
4.3734564
20
13.5532894
40
0.2784847
50
359.486299
51
15.9343185
0
ARC
8
DEFAULT_255_1_388
10
4.4304831
20
13.5686269
40
0.2194403
50
16.1712913
51
43.5286088
0
ARC
8
DEFAULT_255_1_388
10
4.4391776
20
13.5773191
40
0.2071504
50
43.4417391
51
83.1661095
0
ARC
8
DEFAULT_255_1_388
10
4.4240937
20
13.4944316
40
0.2912888
50
82.160179
51
90.1505708
0
ARC
8
DEFAULT_255_1_388
10
4.4205418
20
13.4340279
40
0.3517025
50
89.5460741
51
102.5418361
0
ARC
8
DEFAULT_255_1_388
10
4.3932138
20
13.5499933
40
0.2325748
50
102.1738499
51
129.206123
0
ARC
8
DEFAULT_255_1_388
10
4.3843592
20
13.5639664
40
0.2161591
50
129.72865
51
135.753947
0
ARC
8
DEFAULT_255_1_388
10
4.3980074
20
13.5530728
40
0.2335433
50
136.1757367
51
166.3673339
0
ARC
8
DEFAULT_255_1_388
10
4.5112762
20
13.5227148
40
0.3507873
50
165.9090694
51
178.8684636
0
ARC
8
DEFAULT_255_1_388
10
4.6088534
20
13.5174263
40
0.4484624
50
178.4391136
51
180.0083808
0
ARC
8
DEFAULT_255_1_388
10
4.4509235
20
13.5218197
40
0.4577138
50
163.2878482
51
180.5581842
0
ARC
8
DEFAULT_255_1_388
10
4.3607276
20
13.5466393
40
0.3641968
50
133.4540601
51
162.947111
0
ARC
8
DEFAULT_255_1_388
10
4.3808158
20
13.5252789
40
0.3935189
50
100.7869829
51
133.4382499
0
ARC
8
DEFAULT_255_1_388
10
4.4199403
20
13.3510399
40
0.5720313
50
89.660664
51
101.3702276
0
ARC
8
DEFAULT_255_1_388
10
4.4274012
20
13.3579263
40
0.5651495
50
78.2172678
51
90.412935
0
ARC
8
DEFAULT_255_1_388
10
4.4673478
20
13.5406511
40
0.378122
50
55.9269121
51
78.4888449
0
ARC
8
DEFAULT_255_1_388
10
4.4894193
20
13.5787187
40
0.3342379
50
47.929771
51
55.4049217
0
ARC
8
DEFAULT_255_1_388
10
4.5008723
20
13.5903618
40
0.3179217
50
4.334829
51
48.0560205
0
ARC
8
DEFAULT_255_1_388
10
4.3776525
20
13.5712487
40
0.442341
50
359.9251713
51
5.5971671
0
ARC
8
DEFAULT_255_1_388
10
4.425868
20
13.5775728
40
0.3941854
50
337.8914027
51
358.9967534
0
ARC
8
DEFAULT_255_1_388
10
4.120625
20
13.6953295
40
0.7213271
50
326.9132501
51
338.3508308
0
ARC
8
DEFAULT_255_1_388
10
3.6722362
20
13.9827105
40
1.2538973
50
319.6471833
51
327.0959558
0
ARC
8
DEFAULT_255_1_388
10
3.240902
20
14.338505
40
1.8129975
50
317.2588228
51
319.9045804
0
LINE
8
DEFAULT_255_1_388
10
5.7633143
20
13.9049898
11
5.7633143
21
13.031243
0
LINE
8
DEFAULT_255_1_388
10
5.7633143
20
13.031243
11
5.9458343
21
13.031243
0
LINE
8
DEFAULT_255_1_388
10
5.9458343
20
13.031243
11
5.9458343
21
12.8948048
0
LINE
8
DEFAULT_255_1_388
10
5.9458343
20
12.8948048
11
5.7633143
21
12.8948048
0
LINE
8
DEFAULT_255_1_388
10
5.7633143
20
12.8948048
11
5.7633143
21
12.5894
0
LINE
8
DEFAULT_255_1_388
10
5.7633143
20
12.5894
11
5.5952513
21
12.5894
0
LINE
8
DEFAULT_255_1_388
10
5.5952513
20
12.5894
11
5.5952513
21
12.8948048
0
LINE
8
DEFAULT_255_1_388
10
5.5952513
20
12.8948048
11
4.996188
21
12.8948048
0
LINE
8
DEFAULT_255_1_388
10
4.996188
20
12.8948048
11
4.996188
21
12.9932933
0
LINE
8
DEFAULT_255_1_388
10
4.996188
20
12.9932933
11
5.5853121
21
13.9049898
0
LINE
8
DEFAULT_255_1_388
10
5.5853121
20
13.9049898
11
5.7633143
21
13.9049898
0
LINE
8
DEFAULT_255_1_388
10
5.5753729
20
13.6402455
11
5.1859366
21
13.031243
0
LINE
8
DEFAULT_255_1_388
10
5.1859366
20
13.031243
11
5.5952513
21
13.031243
0
LINE
8
DEFAULT_255_1_388
10
5.5952513
20
13.031243
11
5.5952513
21
13.676388
0
LINE
8
DEFAULT_255_1_388
10
5.5952513
20
13.676388
11
5.5753729
21
13.6402455
0
LINE
8
DEFAULT_255_1_388
10
6.201543
20
13.9049898
11
6.5756187
21
12.8198089
0
LINE
8
DEFAULT_255_1_388
10
6.5756187
20
12.8198089
11
6.9515015
21
13.9049898
0
LINE
8
DEFAULT_255_1_388
10
6.9515015
20
13.9049898
11
7.14125
21
13.9049898
0
LINE
8
DEFAULT_255_1_388
10
7.14125
20
13.9049898
11
6.6533252
21
12.5894
0
LINE
8
DEFAULT_255_1_388
10
6.6533252
20
12.5894
11
6.4997193
21
12.5894
0
LINE
8
DEFAULT_255_1_388
10
6.4997193
20
12.5894
11
6.012698
21
13.9049898
0
LINE
8
DEFAULT_255_1_388
10
6.012698
20
13.9049898
11
6.201543
21
13.9049898
0
LINE
8
DEFAULT_255_1_388
10
4.784732
20
5.0693468
11
4.9591199
21
5.0693468
0
LINE
8
DEFAULT_255_1_388
10
3.9462242
20
5.2482525
11
3.9462242
21
5.3747516
0
LINE
8
DEFAULT_255_1_388
10
4.9591199
20
5.5446217
11
4.784732
21
5.5446217
0
LINE
8
DEFAULT_255_1_388
10
4.1206121
20
5.3702337
11
4.1206121
21
5.2428312
0
ARC
8
DEFAULT_255_1_388
10
4.3425433
20
5.1365329
40
0.6202263
50
340.1774904
51
353.7812217
0
ARC
8
DEFAULT_255_1_388
10
4.5193286
20
5.0706893
40
0.4315926
50
311.4560052
51
340.4420756
0
ARC
8
DEFAULT_255_1_388
10
4.5155826
20
5.0831665
40
0.4434573
50
282.4332229
51
310.7514507
0
ARC
8
DEFAULT_255_1_388
10
4.4661644
20
5.2873703
40
0.6535262
50
269.9358869
51
282.8096729
0
ARC
8
DEFAULT_255_1_388
10
4.4603583
20
5.4386329
40
0.8048043
50
269.9995752
51
270.3612856
0
ARC
8
DEFAULT_255_1_388
10
4.4544073
20
5.1587781
40
0.5249831
50
250.7885263
51
270.6488451
0
ARC
8
DEFAULT_255_1_388
10
4.4354898
20
5.0870853
40
0.4510942
50
219.3628377
51
250.0611024
0
ARC
8
DEFAULT_255_1_388
10
4.5287772
20
5.1663653
40
0.5735046
50
193.5480293
51
219.5755675
0
ARC
8
DEFAULT_255_1_388
10
4.7955981
20
5.235652
40
0.849146
50
181.1220183
51
193.8754971
0
ARC
8
DEFAULT_255_1_388
10
5.0279214
20
5.2480914
40
1.0816971
50
179.9914644
51
181.5398227
0
ARC
8
DEFAULT_255_1_388
10
4.8202525
20
5.3789586
40
0.8740384
50
169.5837606
51
180.275782
0
ARC
8
DEFAULT_255_1_388
10
4.6135873
20
5.4171439
40
0.6638751
50
155.0367033
51
169.6002779
0
ARC
8
DEFAULT_255_1_388
10
4.4858331
20
5.4787336
40
0.5220662
50
136.7831557
51
155.2472983
0
ARC
8
DEFAULT_255_1_388
10
4.4420122
20
5.5159577
40
0.4646502
50
121.7633063
51
136.4281161
0
ARC
8
DEFAULT_255_1_388
10
4.4571962
20
5.4879049
40
0.4964979
50
95.6460018
51
121.5489589
0
ARC
8
DEFAULT_255_1_388
10
4.4748936
20
5.3631704
40
0.6223912
50
89.9245727
51
96.1375919
0
ARC
8
DEFAULT_255_1_388
10
4.4805641
20
5.3765721
40
0.6090084
50
76.6779212
51
90.456405
0
ARC
8
DEFAULT_255_1_388
10
4.5248454
20
5.555506
40
0.42469
50
47.4858803
51
76.9287069
0
ARC
8
DEFAULT_255_1_388
10
4.5083068
20
5.5442623
40
0.4441778
50
16.5424081
51
46.8934505
0
ARC
8
DEFAULT_255_1_388
10
4.3274118
20
5.4848265
40
0.6345318
50
5.4072971
51
17.0363711
0
ARC
8
DEFAULT_255_1_388
10
4.1655843
20
5.4588304
40
0.6250632
50
7.8888693
51
15.9242022
0
ARC
8
DEFAULT_255_1_388
10
4.3890828
20
5.5237309
40
0.3923364
50
15.7650676
51
27.9410069
0
ARC
8
DEFAULT_255_1_388
10
4.5132997
20
5.5902317
40
0.2514401
50
27.8167196
51
46.4007942
0
ARC
8
DEFAULT_255_1_388
10
4.5188839
20
5.5895882
40
0.2480958
50
47.4372362
51
75.0695672
0
ARC
8
DEFAULT_255_1_388
10
4.4841675
20
5.4687277
40
0.3738281
50
74.7009379
51
87.8124314
0
ARC
8
DEFAULT_255_1_388
10
4.4759292
20
5.3503659
40
0.4924321
50
87.3802571
51
90.0251599
0
ARC
8
DEFAULT_255_1_388
10
4.4715939
20
5.4823997
40
0.3604218
50
89.3451886
51
108.5744412
0
ARC
8
DEFAULT_255_1_388
10
4.4561931
20
5.5401836
40
0.3007661
50
109.2998307
51
143.3037387
0
ARC
8
DEFAULT_255_1_388
10
4.5419221
20
5.4742584
40
0.4089031
50
143.075267
51
163.1918576
0
ARC
8
DEFAULT_255_1_388
10
4.7615055
20
5.4049652
40
0.6391492
50
162.9375929
51
174.6208776
0
ARC
8
DEFAULT_255_1_388
10
5.0569437
20
5.3725711
40
0.9363344
50
174.342123
51
180.1430283
0
ARC
8
DEFAULT_255_1_388
10
4.9521978
20
5.2382117
40
0.8315986
50
179.6817261
51
189.150555
0
ARC
8
DEFAULT_255_1_388
10
4.6708727
20
5.1913559
40
0.5464044
50
188.9911061
51
203.5772363
0
ARC
8
DEFAULT_255_1_388
10
4.5494019
20
5.1409539
40
0.4149206
50
203.9075402
51
215.1312435
0
ARC
8
DEFAULT_255_1_388
10
4.4455817
20
5.0604907
40
0.2837747
50
213.9071511
51
263.8848919
0
ARC
8
DEFAULT_255_1_388
10
4.459681
20
5.1487519
40
0.3730641
50
263.1757928
51
270.1031044
0
ARC
8
DEFAULT_255_1_388
10
4.463289
20
5.2890511
40
0.5133712
50
269.6722503
51
279.0606936
0
ARC
8
DEFAULT_255_1_388
10
4.4933045
20
5.107615
40
0.3294739
50
278.8749101
51
293.6349581
0
ARC
8
DEFAULT_255_1_388
10
4.5293249
20
5.0230251
40
0.2375405
50
293.8553806
51
310.0518171
0
ARC
8
DEFAULT_255_1_388
10
4.5298758
20
5.0160021
40
0.2318463
50
311.0644687
51
332.0111037
0
ARC
8
DEFAULT_255_1_388
10
4.3957431
20
5.0899702
40
0.3850112
50
331.6586806
51
343.2877423
0
ARC
8
DEFAULT_255_1_388
10
4.1636896
20
5.1612806
40
0.6277712
50
343.1446576
51
351.0103568
0
ARC
8
DEFAULT_255_1_388
10
4.000422
20
5.1912873
40
0.7937327
50
350.71248
51
351.1626997
0
LINE
8
DEFAULT_255_1_388
10
6.207846
20
5.3503553
11
6.207846
21
5.2672274
0
LINE
8
DEFAULT_255_1_388
10
5.149772
20
5.2554811
11
5.149772
21
5.3503553
0
LINE
8
DEFAULT_255_1_388
10
6.0352652
20
5.2545775
11
6.0352652
21
5.3521625
0
LINE
8
DEFAULT_255_1_388
10
5.3223528
20
5.3639088
11
5.3223528
21
5.2672274
0
ARC
8
DEFAULT_255_1_388
10
5.2356198
20
5.2627726
40
0.9722364
50
350.4878118
51
0.2625322
0
ARC
8
DEFAULT_255_1_388
10
5.4936158
20
5.2183994
40
0.7104556
50
336.0277991
51
350.5787241
0
ARC
8
DEFAULT_255_1_388
10
5.6449265
20
5.1500243
40
0.544417
50
319.887443
51
336.1331163
0
ARC
8
DEFAULT_255_1_388
10
5.7127077
20
5.0957733
40
0.4576311
50
302.4806296
51
319.6144102
0
ARC
8
DEFAULT_255_1_388
10
5.6997699
20
5.1207067
40
0.4856183
50
275.8196423
51
302.1885521
0
ARC
8
DEFAULT_255_1_388
10
5.681056
20
5.2492466
40
0.6154183
50
269.9169897
51
276.339506
0
ARC
8
DEFAULT_255_1_388
10
5.6760161
20
5.172068
40
0.5382553
50
252.5221437
51
270.441579
0
ARC
8
DEFAULT_255_1_388
10
5.6598411
20
5.1114046
40
0.4755426
50
237.5349961
51
252.1858334
0
ARC
8
DEFAULT_255_1_388
10
5.6698787
20
5.124212
40
0.4917393
50
209.0632754
51
237.3492577
0
ARC
8
DEFAULT_255_1_388
10
5.7678113
20
5.1857104
40
0.6072464
50
205.118533
51
209.6465345
0
ARC
8
DEFAULT_255_1_388
10
5.8574115
20
5.2237174
40
0.7045164
50
188.7216633
51
204.8239753
0
ARC
8
DEFAULT_255_1_388
10
6.0820891
20
5.2615387
40
0.9323368
50
180.3722704
51
188.9253909
0
ARC
8
DEFAULT_255_1_388
10
6.0790452
20
5.3548416
40
0.929284
50
169.5253055
51
180.2766048
0
ARC
8
DEFAULT_255_1_388
10
5.8650251
20
5.3942024
40
0.7116745
50
155.8314601
51
169.5088611
0
ARC
8
DEFAULT_255_1_388
10
5.7209714
20
5.4610312
40
0.5528904
50
139.6259579
51
156.0379072
0
ARC
8
DEFAULT_255_1_388
10
5.6546248
20
5.5144143
40
0.4677708
50
122.6414784
51
139.3431662
0
ARC
8
DEFAULT_255_1_388
10
5.6659503
20
5.4937787
40
0.4912586
50
93.0224537
51
122.4556091
0
ARC
8
DEFAULT_255_1_388
10
5.6781023
20
5.3851776
40
0.6003837
50
89.9756766
51
93.6340839
0
ARC
8
DEFAULT_255_1_388
10
5.6824621
20
5.4300879
40
0.5554884
50
73.7463329
51
90.4234008
0
ARC
8
DEFAULT_255_1_388
10
5.7022094
20
5.5065772
40
0.4765353
50
57.663051
51
73.4516911
0
ARC
8
DEFAULT_255_1_388
10
5.7013132
20
5.5090108
40
0.4749629
50
29.1441355
51
57.4146687
0
ARC
8
DEFAULT_255_1_388
10
5.5960943
20
5.4433046
40
0.5988917
50
24.0985653
51
29.732054
0
ARC
8
DEFAULT_255_1_388
10
5.4798575
20
5.3951154
40
0.7246823
50
8.6654943
51
23.8241215
0
ARC
8
DEFAULT_255_1_388
10
5.2284994
20
5.3541037
40
0.9793537
50
359.7807044
51
8.8218476
0
ARC
8
DEFAULT_255_1_388
10
5.0994698
20
5.3569731
40
0.9358078
50
359.7054632
51
8.0359751
0
ARC
8
DEFAULT_255_1_388
10
5.4369749
20
5.4061252
40
0.5947474
50
7.8926278
51
20.2962188
0
ARC
8
DEFAULT_255_1_388
10
5.62006
20
5.4736367
40
0.3996117
50
20.3231056
51
36.4990255
0
ARC
8
DEFAULT_255_1_388
10
5.6971897
20
5.5330399
40
0.3022818
50
36.1436715
51
85.6627846
0
ARC
8
DEFAULT_255_1_388
10
5.6789152
20
5.4160881
40
0.4203853
50
84.3845912
51
90.076054
0
ARC
8
DEFAULT_255_1_388
10
5.6741507
20
5.4903416
40
0.346157
50
89.3037228
51
109.9046209
0
ARC
8
DEFAULT_255_1_388
10
5.663734
20
5.5333379
40
0.3022217
50
110.8229774
51
143.917961
0
ARC
8
DEFAULT_255_1_388
10
5.76877
20
5.4531455
40
0.434348
50
143.5289166
51
163.2980252
0
ARC
8
DEFAULT_255_1_388
10
5.9833987
20
5.3856685
40
0.659321
50
163.0418884
51
174.3139873
0
ARC
8
DEFAULT_255_1_388
10
6.2538951
20
5.3544378
40
0.9315905
50
174.050934
51
179.4174954
0
ARC
8
DEFAULT_255_1_388
10
6.1970895
20
5.2625382
40
0.8747493
50
179.6928582
51
188.7908948
0
ARC
8
DEFAULT_255_1_388
10
5.8974695
20
5.2146086
40
0.5713262
50
188.6328449
51
202.5630732
0
ARC
8
DEFAULT_255_1_388
10
5.7563532
20
5.1579142
40
0.4192612
50
202.8078931
51
216.1195888
0
ARC
8
DEFAULT_255_1_388
10
5.6653049
20
5.0846479
40
0.3025752
50
215.0755613
51
264.6379773
0
ARC
8
DEFAULT_255_1_388
10
5.6795887
20
5.1781376
40
0.3970284
50
263.8464302
51
270.0830805
0
ARC
8
DEFAULT_255_1_388
10
5.6842431
20
5.1490808
40
0.3679937
50
269.3649295
51
287.5149684
0
ARC
8
DEFAULT_255_1_388
10
5.7042872
20
5.0762714
40
0.2925408
50
288.0629019
51
323.8115617
0
ARC
8
DEFAULT_255_1_388
10
5.6062848
20
5.1493754
40
0.4148018
50
323.6546541
51
342.6591359
0
ARC
8
DEFAULT_255_1_388
10
5.3777506
20
5.223728
40
0.6551163
50
342.4092446
51
353.6451501
0
ARC
8
DEFAULT_255_1_388
10
5.05923
20
5.2633565
40
0.9760748
50
353.4027553
51
359.4846611
0
LINE
8
DEFAULT_255_1_388
10
7.4791612
20
5.9674898
11
7.4791612
21
4.6519
0
LINE
8
DEFAULT_255_1_388
10
7.4791612
20
4.6519
11
7.3047732
21
4.6519
0
LINE
8
DEFAULT_255_1_388
10
7.3047732
20
4.6519
11
6.6424605
21
5.6656993
0
LINE
8
DEFAULT_255_1_388
10
6.6424605
20
5.6656993
11
6.6424605
21
4.6519
0
LINE
8
DEFAULT_255_1_388
10
6.6424605
20
4.6519
11
6.4680726
21
4.6519
0
LINE
8
DEFAULT_255_1_388
10
6.4680726
20
4.6519
11
6.4680726
21
5.9674898
0
LINE
8
DEFAULT_255_1_388
10
6.4680726
20
5.9674898
11
6.6424605
21
5.9674898
0
LINE
8
DEFAULT_255_1_388
10
6.6424605
20
5.9674898
11
7.3065804
21
4.9491727
0
LINE
8
DEFAULT_255_1_388
10
7.3065804
20
4.9491727
11
7.3065804
21
5.9674898
0
LINE
8
DEFAULT_255_1_388
10
7.3065804
20
5.9674898
11
7.4791612
21
5.9674898
0
LINE
8
DEFAULT_255_1_388
10
8.2932728
20
5.9738148
11
8.2932728
21
4.6519
0
LINE
8
DEFAULT_255_1_388
10
8.2932728
20
4.6519
11
8.1252098
21
4.6519
0
LINE
8
DEFAULT_255_1_388
10
8.1252098
20
4.6519
11
8.1252098
21
5.765995
0
LINE
8
DEFAULT_255_1_388
10
8.1252098
20
5.765995
11
7.7881802
21
5.6422066
0
LINE
8
DEFAULT_255_1_388
10
7.7881802
20
5.6422066
11
7.7881802
21
5.7940055
0
LINE
8
DEFAULT_255_1_388
10
7.7881802
20
5.7940055
11
8.2670694
21
5.9738148
0
LINE
8
DEFAULT_255_1_388
10
8.2670694
20
5.9738148
11
8.2932728
21
5.9738148
0
LINE
8
DEFAULT_255_1_388
10
22.0759318
20
12.7258382
11
22.0759318
21
12.5894
0
LINE
8
DEFAULT_255_1_388
10
22.0759318
20
12.5894
11
21.2139313
21
12.5894
0
LINE
8
DEFAULT_255_1_388
10
21.2139313
20
12.5894
11
21.2139313
21
12.7095741
0
LINE
8
DEFAULT_255_1_388
10
21.2139313
20
12.7095741
11
21.6693278
21
13.2155702
0
LINE
8
DEFAULT_255_1_388
10
21.3557909
20
13.5173607
11
21.1886315
21
13.5173607
0
LINE
8
DEFAULT_255_1_388
10
21.7678163
20
13.108046
11
21.4154262
21
12.7258382
0
LINE
8
DEFAULT_255_1_388
10
21.4154262
20
12.7258382
11
22.0759318
21
12.7258382
0
ARC
8
DEFAULT_255_1_388
10
20.1517337
20
14.5575983
40
2.0258655
50
318.5132526
51
320.7829045
0
ARC
8
DEFAULT_255_1_388
10
20.7465294
20
14.0734929
40
1.2589638
50
320.7372878
51
323.9739031
0
ARC
8
DEFAULT_255_1_388
10
21.1874226
20
13.7540554
40
0.7145141
50
323.8962701
51
328.64194
0
ARC
8
DEFAULT_255_1_388
10
21.4176484
20
13.6120545
40
0.4440242
50
328.8294576
51
331.7891185
0
ARC
8
DEFAULT_255_1_388
10
21.5298804
20
13.5541374
40
0.3177517
50
331.4254512
51
352.9365785
0
ARC
8
DEFAULT_255_1_388
10
21.5451804
20
13.550705
40
0.3021496
50
353.2257659
51
0.0166158
0
ARC
8
DEFAULT_255_1_388
10
21.5688564
20
13.5532894
40
0.2784847
50
359.486299
51
15.9343185
0
ARC
8
DEFAULT_255_1_388
10
21.6258831
20
13.5686269
40
0.2194403
50
16.1712913
51
43.5286088
0
ARC
8
DEFAULT_255_1_388
10
21.6345776
20
13.5773191
40
0.2071504
50
43.4417391
51
83.1661095
0
ARC
8
DEFAULT_255_1_388
10
21.6194937
20
13.4944316
40
0.2912888
50
82.160179
51
90.1505708
0
ARC
8
DEFAULT_255_1_388
10
21.6159418
20
13.4340279
40
0.3517025
50
89.5460741
51
102.5418361
0
ARC
8
DEFAULT_255_1_388
10
21.5886138
20
13.5499933
40
0.2325748
50
102.1738499
51
129.206123
0
ARC
8
DEFAULT_255_1_388
10
21.5797592
20
13.5639664
40
0.2161591
50
129.72865
51
135.753947
0
ARC
8
DEFAULT_255_1_388
10
21.5934074
20
13.5530728
40
0.2335433
50
136.1757367
51
166.3673339
0
ARC
8
DEFAULT_255_1_388
10
21.7066762
20
13.5227148
40
0.3507873
50
165.9090694
51
178.8684636
0
ARC
8
DEFAULT_255_1_388
10
21.8042534
20
13.5174263
40
0.4484624
50
178.4391136
51
180.0083808
0
ARC
8
DEFAULT_255_1_388
10
21.6463235
20
13.5218197
40
0.4577138
50
163.2878482
51
180.5581842
0
ARC
8
DEFAULT_255_1_388
10
21.5561276
20
13.5466393
40
0.3641968
50
133.4540601
51
162.947111
0
ARC
8
DEFAULT_255_1_388
10
21.5762158
20
13.5252789
40
0.3935189
50
100.7869829
51
133.4382499
0
ARC
8
DEFAULT_255_1_388
10
21.6153403
20
13.3510399
40
0.5720313
50
89.660664
51
101.3702276
0
ARC
8
DEFAULT_255_1_388
10
21.6228012
20
13.3579263
40
0.5651495
50
78.2172678
51
90.412935
0
ARC
8
DEFAULT_255_1_388
10
21.6627478
20
13.5406511
40
0.378122
50
55.9269121
51
78.4888449
0
ARC
8
DEFAULT_255_1_388
10
21.6848193
20
13.5787187
40
0.3342379
50
47.929771
51
55.4049217
0
ARC
8
DEFAULT_255_1_388
10
21.6962723
20
13.5903618
40
0.3179217
50
4.334829
51
48.0560205
0
ARC
8
DEFAULT_255_1_388
10
21.5730525
20
13.5712487
40
0.442341
50
359.9251713
51
5.5971671
0
ARC
8
DEFAULT_255_1_388
10
21.621268
20
13.5775728
40
0.3941854
50
337.8914027
51
358.9967534
0
ARC
8
DEFAULT_255_1_388
10
21.316025
20
13.6953295
40
0.7213271
50
326.9132501
51
338.3508308
0
ARC
8
DEFAULT_255_1_388
10
20.8676362
20
13.9827105
40
1.2538973
50
319.6471833
51
327.0959558
0
ARC
8
DEFAULT_255_1_388
10
20.436302
20
14.338505
40
1.8129975
50
317.2588228
51
319.9045804
0
LINE
8
DEFAULT_255_1_388
10
22.9587143
20
13.9049898
11
22.9587143
21
13.031243
0
LINE
8
DEFAULT_255_1_388
10
22.9587143
20
13.031243
11
23.1412343
21
13.031243
0
LINE
8
DEFAULT_255_1_388
10
23.1412343
20
13.031243
11
23.1412343
21
12.8948048
0
LINE
8
DEFAULT_255_1_388
10
23.1412343
20
12.8948048
11
22.9587143
21
12.8948048
0
LINE
8
DEFAULT_255_1_388
10
22.9587143
20
12.8948048
11
22.9587143
21
12.5894
0
LINE
8
DEFAULT_255_1_388
10
22.9587143
20
12.5894
11
22.7906513
21
12.5894
0
LINE
8
DEFAULT_255_1_388
10
22.7906513
20
12.5894
11
22.7906513
21
12.8948048
0
LINE
8
DEFAULT_255_1_388
10
22.7906513
20
12.8948048
11
22.191588
21
12.8948048
0
LINE
8
DEFAULT_255_1_388
10
22.191588
20
12.8948048
11
22.191588
21
12.9932933
0
LINE
8
DEFAULT_255_1_388
10
22.191588
20
12.9932933
11
22.7807121
21
13.9049898
0
LINE
8
DEFAULT_255_1_388
10
22.7807121
20
13.9049898
11
22.9587143
21
13.9049898
0
LINE
8
DEFAULT_255_1_388
10
22.7707729
20
13.6402455
11
22.3813366
21
13.031243
0
LINE
8
DEFAULT_255_1_388
10
22.3813366
20
13.031243
11
22.7906513
21
13.031243
0
LINE
8
DEFAULT_255_1_388
10
22.7906513
20
13.031243
11
22.7906513
21
13.676388
0
LINE
8
DEFAULT_255_1_388
10
22.7906513
20
13.676388
11
22.7707729
21
13.6402455
0
LINE
8
DEFAULT_255_1_388
10
24.3068324
20
13.2444842
11
24.3068324
21
12.7619808
0
LINE
8
DEFAULT_255_1_388
10
23.2930331
20
13.1839454
11
23.2930331
21
13.2986981
0
LINE
8
DEFAULT_255_1_388
10
24.3068324
20
13.5191678
11
24.133348
21
13.5191678
0
LINE
8
DEFAULT_255_1_388
10
23.467421
20
13.3032159
11
23.467421
21
13.1956917
0
LINE
8
DEFAULT_255_1_388
10
24.1342516
20
12.8080626
11
24.1342516
21
13.1035282
0
LINE
8
DEFAULT_255_1_388
10
24.1342516
20
13.1035282
11
23.8297504
21
13.1035282
0
LINE
8
DEFAULT_255_1_388
10
23.8297504
20
13.1035282
11
23.8297504
21
13.2444842
0
LINE
8
DEFAULT_255_1_388
10
23.8297504
20
13.2444842
11
24.3068324
21
13.2444842
0
ARC
8
DEFAULT_255_1_388
10
23.9882925
20
12.9862284
40
0.3895571
50
295.8437277
51
324.8549962
0
ARC
8
DEFAULT_255_1_388
10
23.9415307
20
13.0708619
40
0.4861381
50
291.5691164
51
296.4556269
0
ARC
8
DEFAULT_255_1_388
10
23.8840309
20
13.2244801
40
0.6501442
50
278.6622213
51
291.3047061
0
ARC
8
DEFAULT_255_1_388
10
23.8458342
20
13.4661557
40
0.8948168
50
270.0200506
51
278.7494673
0
ARC
8
DEFAULT_255_1_388
10
23.8414546
20
13.6507453
40
1.0794166
50
270.0022372
51
270.2490917
0
ARC
8
DEFAULT_255_1_388
10
23.8372438
20
13.1548827
40
0.5835695
50
253.5785313
51
270.4175629
0
ARC
8
DEFAULT_255_1_388
10
23.8177434
20
13.0793625
40
0.5056241
50
238.8203954
51
253.2788387
0
ARC
8
DEFAULT_255_1_388
10
23.815535
20
13.0736224
40
0.4995712
50
206.7883476
51
238.696262
0
ARC
8
DEFAULT_255_1_388
10
23.9030746
20
13.1260847
40
0.6014056
50
206.1137778
51
207.4912776
0
ARC
8
DEFAULT_255_1_388
10
23.9697581
20
13.1544284
40
0.6737692
50
188.6922336
51
205.782076
0
ARC
8
DEFAULT_255_1_388
10
24.1785941
20
13.1899455
40
0.8855812
50
180.3881972
51
188.9218085
0
ARC
8
DEFAULT_255_1_388
10
24.3167098
20
13.3050622
40
1.0236965
50
170.2024645
51
180.3561986
0
ARC
8
DEFAULT_255_1_388
10
23.9608248
20
13.3687101
40
0.6621746
50
154.2856519
51
170.3893388
0
ARC
8
DEFAULT_255_1_388
10
23.8166212
20
13.4347192
40
0.5036209
50
139.8400879
51
153.9334639
0
ARC
8
DEFAULT_255_1_388
10
23.7762116
20
13.4670716
40
0.4518751
50
98.4190017
51
139.6707015
0
ARC
8
DEFAULT_255_1_388
10
23.8189083
20
13.2594755
40
0.6635912
50
89.7660128
51
99.4415389
0
ARC
8
DEFAULT_255_1_388
10
23.826248
20
13.2668517
40
0.6562258
50
78.0552044
51
90.4042252
0
ARC
8
DEFAULT_255_1_388
10
23.8717543
20
13.4714661
40
0.4466287
50
54.6380186
51
78.3338577
0
ARC
8
DEFAULT_255_1_388
10
23.8931842
20
13.5075444
40
0.4048184
50
50.0313964
51
54.1562739
0
ARC
8
DEFAULT_255_1_388
10
23.8810735
20
13.4966798
40
0.4209308
50
18.1092229
51
49.7179911
0
ARC
8
DEFAULT_255_1_388
10
23.7171816
20
13.4366399
40
0.5953982
50
7.967396
51
18.698492
0
ARC
8
DEFAULT_255_1_388
10
23.7341077
20
13.4505236
40
0.4050986
50
9.7558763
51
27.3214087
0
ARC
8
DEFAULT_255_1_388
10
23.8609541
20
13.5139087
40
0.2633168
50
27.736147
51
84.5257861
0
ARC
8
DEFAULT_255_1_388
10
23.8240951
20
13.3289988
40
0.4513019
50
82.1064239
51
90.1997295
0
ARC
8
DEFAULT_255_1_388
10
23.8184967
20
13.3861501
40
0.3941684
50
89.4148952
51
105.5824837
0
ARC
8
DEFAULT_255_1_388
10
23.7895848
20
13.4914043
40
0.2850167
50
105.6678541
51
144.2649156
0
ARC
8
DEFAULT_255_1_388
10
23.890074
20
13.4199024
40
0.4083468
50
144.3560675
51
162.8564185
0
ARC
8
DEFAULT_255_1_388
10
24.1245183
20
13.3446083
40
0.6545749
50
162.6076338
51
173.6779811
0
ARC
8
DEFAULT_255_1_388
10
24.4689298
20
13.3027422
40
1.0015089
50
173.4670996
51
179.9729015
0
ARC
8
DEFAULT_255_1_388
10
24.2542169
20
13.1909636
40
0.78681
50
179.6556955
51
190.007958
0
ARC
8
DEFAULT_255_1_388
10
23.993645
20
13.143166
40
0.5218997
50
189.8117884
51
206.6795375
0
ARC
8
DEFAULT_255_1_388
10
23.8985896
20
13.0988514
40
0.4170788
50
207.1031171
51
217.7074698
0
ARC
8
DEFAULT_255_1_388
10
23.8272327
20
13.0367596
40
0.3226945
50
216.7345117
51
265.6812141
0
ARC
8
DEFAULT_255_1_388
10
23.8419469
20
13.138503
40
0.4253149
50
264.7367524
51
270.0610826
0
ARC
8
DEFAULT_255_1_388
10
23.8445654
20
13.4580173
40
0.7448321
50
269.8334494
51
276.0538364
0
ARC
8
DEFAULT_255_1_388
10
23.8678517
20
13.2440924
40
0.5296446
50
275.9894423
51
284.4615914
0
ARC
8
DEFAULT_255_1_388
10
23.890003
20
13.150857
40
0.4338353
50
284.7038488
51
286.4938196
0
ARC
8
DEFAULT_255_1_388
10
23.9359179
20
13.0029371
40
0.2789738
50
286.0770429
51
304.2629628
0
ARC
8
DEFAULT_255_1_388
10
23.9509337
20
12.978368
40
0.2502188
50
304.5886247
51
317.1074126
0
ENDSEC
0
EOF