0
SECTION
2
HEADER
9
$MEASUREMENT
70
1
0
ENDSEC
0
SECTION
2
TABLES
0
TABLE
2
LTYPE
0
LTYPE
72
65
70
64
2
CONTINUOUS
3
______
73
0
40
0
0
ENDTAB
0
TABLE
2
LAYER
0
LAYER
2
DEFAULT_255_2_778
70
0
62
255
6
CONTINUOUS
0
ENDTAB
0
ENDSEC
0
SECTION
2
ENTITIES
0
ARC
8
DEFAULT_255_2_778
10
17.9016561
20
94.4031312
40
0.800141
50
314.9955306
51
359.9907439
0
ARC
8
DEFAULT_255_2_778
10
17.9015678
20
94.403043
40
0.800141
50
270.0092561
51
315.0044694
0
LINE
8
DEFAULT_255_2_778
10
17.9016971
20
99.003002
11
17.9020738
21
99.0030021
0
ARC
8
DEFAULT_255_2_778
10
17.9019157
20
98.2037003
40
0.7993017
50
44.9706146
51
89.9886663
0
ARC
8
DEFAULT_255_2_778
10
17.9011327
20
98.2025559
40
0.8006645
50
0.0247655
51
44.9889512
0
ARC
8
DEFAULT_255_2_778
10
17.2018445
20
101.3030998
40
0.4997474
50
134.9793514
51
180.0112208
0
ARC
8
DEFAULT_255_2_778
10
17.2020753
20
101.3034121
40
0.4996898
50
89.9974993
51
135.0233811
0
ARC
8
DEFAULT_255_2_778
10
17.7021507
20
101.3030063
40
0.5000956
50
44.9958871
51
89.9946851
0
ARC
8
DEFAULT_255_2_778
10
17.7025497
20
101.3030998
40
0.4997474
50
359.9887792
51
45.0206486
0
ARC
8
DEFAULT_255_2_778
10
14.7023299
20
101.3030692
40
0.5000329
50
90.0266806
51
180.007706
0
ARC
8
DEFAULT_255_2_778
10
15.2021507
20
101.3030063
40
0.5000956
50
44.9958871
51
89.9946851
0
ARC
8
DEFAULT_255_2_778
10
15.2021255
20
101.3030656
40
0.5000716
50
359.9927127
51
44.9890432
0
LINE
8
DEFAULT_255_2_778
10
2.7767971
20
97.377902
11
3.2307971
21
94.803002
0
LINE
8
DEFAULT_255_2_778
10
17.9016971
20
93.602902
11
16.7017971
21
93.602902
0
LINE
8
DEFAULT_255_2_778
10
16.7017971
20
93.602902
11
16.7017971
21
99.003002
0
LINE
8
DEFAULT_255_2_778
10
16.7017971
20
99.003002
11
17.9016971
21
99.003002
0
LINE
8
DEFAULT_255_2_778
10
18.7017971
20
98.202902
11
18.7017971
21
94.403002
0
LINE
8
DEFAULT_255_2_778
10
15.7019971
20
99.303102
11
15.2018971
21
99.303102
0
LINE
8
DEFAULT_255_2_778
10
15.2018971
20
99.303102
11
15.2018971
21
93.303102
0
LINE
8
DEFAULT_255_2_778
10
15.2018971
20
93.303102
11
15.7019971
21
93.303102
0
LINE
8
DEFAULT_255_2_778
10
15.7019971
20
93.303102
11
15.7019971
21
99.303102
0
LINE
8
DEFAULT_255_2_778
10
15.7019971
20
95.803102
11
16.7017971
21
96.803302
0
LINE
8
DEFAULT_255_2_778
10
16.7020971
20
99.803102
11
16.7020971
21
101.303002
0
LINE
8
DEFAULT_255_2_778
10
17.2020971
20
101.803102
11
17.7021971
21
101.803102
0
LINE
8
DEFAULT_255_2_778
10
18.2022971
20
101.303002
11
18.2022971
21
99.803102
0
LINE
8
DEFAULT_255_2_778
10
14.2022971
20
99.803102
11
14.2022971
21
101.303002
0
LINE
8
DEFAULT_255_2_778
10
14.7020971
20
101.803102
11
15.2021971
21
101.803102
0
LINE
8
DEFAULT_255_2_778
10
15.7021971
20
101.303002
11
15.7021971
21
99.803102
0
ARC
8
DEFAULT_255_2_778
10
132.7017507
20
99.3033143
40
0.5000969
50
359.9996485
51
90.0003515
0
LINE
8
DEFAULT_255_2_778
10
6.7019476
20
97.8032112
11
7.2308476
21
94.8030112
0
LINE
8
DEFAULT_255_2_778
10
6.2018476
20
97.8032112
11
6.7307476
21
94.8030112
0
LINE
8
DEFAULT_255_2_778
10
5.7017476
20
97.8032112
11
6.2306476
21
94.8030112
0
LINE
8
DEFAULT_255_2_778
10
5.2017476
20
97.8032112
11
5.7306476
21
94.8030112
0
LINE
8
DEFAULT_255_2_778
10
4.7016476
20
97.8032112
11
5.2305476
21
94.8030112
0
LINE
8
DEFAULT_255_2_778
10
4.2016476
20
97.8032112
11
4.7305476
21
94.8030112
0
LINE
8
DEFAULT_255_2_778
10
3.7015476
20
97.8032112
11
4.2304476
21
94.8030112
0
LINE
8
DEFAULT_255_2_778
10
7.3014476
20
94.8030112
11
3.2020476
21
94.8030112
0
LINE
8
DEFAULT_255_2_778
10
3.2020476
20
94.8030112
11
2.7019476
21
95.3031112
0
LINE
8
DEFAULT_255_2_778
10
2.7019476
20
95.3031112
11
2.7019476
21
97.3031112
0
LINE
8
DEFAULT_255_2_778
10
2.7019476
20
97.3031112
11
3.2020476
21
97.8032112
0
LINE
8
DEFAULT_255_2_778
10
3.2020476
20
97.8032112
11
3.7309476
21
94.8030112
0
LINE
8
DEFAULT_255_2_778
10
13.8020476
20
99.8031112
11
13.8020476
21
91.8032112
0
LINE
8
DEFAULT_255_2_778
10
13.8020476
20
91.8032112
11
19.9019476
21
91.8032112
0
LINE
8
DEFAULT_255_2_778
10
19.9019476
20
91.8032112
11
67.5097476
21
99.0033112
0
LINE
8
DEFAULT_255_2_778
10
67.5097476
20
99.0033112
11
115.2019476
21
99.0033112
0
LINE
8
DEFAULT_255_2_778
10
115.2019476
20
99.0033112
11
117.6067476
21
99.8034112
0
LINE
8
DEFAULT_255_2_778
10
117.6067476
20
99.8034112
11
132.7017476
21
99.8034112
0
LINE
8
DEFAULT_255_2_778
10
133.2018476
20
99.3033112
11
133.2018476
21
84.8034112
0
LINE
8
DEFAULT_255_2_778
10
133.2018476
20
84.8034112
11
129.0018476
21
84.8034112
0
ARC
8
DEFAULT_255_2_778
10
17.0021449
20
0.5032721
40
0.7001487
50
180.0121552
51
269.9960194
0
ARC
8
DEFAULT_255_2_778
10
132.5020623
20
2.5032575
40
0.7002339
50
270.0109655
51
359.9890444
0
ARC
8
DEFAULT_255_2_778
10
30.5020301
20
101.1028899
40
0.7002337
50
90.0109457
51
179.9890584
0
ARC
8
DEFAULT_255_2_778
10
7.8016743
20
99.3034342
40
0.4996894
50
89.997483
51
135.0234031
0
ARC
8
DEFAULT_255_2_778
10
7.8013856
20
99.3031455
40
0.4996893
50
134.9765888
51
180.002517
0
ARC
8
DEFAULT_255_2_778
10
3.2018984
20
92.1032762
40
0.4997474
50
89.9887792
51
135.0206486
0
ARC
8
DEFAULT_255_2_778
10
3.2016437
20
92.1030215
40
0.4997474
50
134.9793514
51
180.0112208
0
ARC
8
DEFAULT_255_2_778
10
3.4014272
20
44.0369706
40
0.699531
50
179.9792773
51
240.0221844
0
ARC
8
DEFAULT_255_2_778
10
3.5022707
20
42.3628487
40
0.6998257
50
0.006132
51
60.0176971
0
ARC
8
DEFAULT_255_2_778
10
3.5025125
20
35.1711588
40
0.6995838
50
299.9708602
51
0.0053036
0
ARC
8
DEFAULT_255_2_778
10
3.4022993
20
33.4966731
40
0.7004031
50
120.0190352
51
179.9795092
0
LINE
8
DEFAULT_255_2_778
10
10.8565963
20
1.8030236
11
16.3019963
21
1.8030236
0
LINE
8
DEFAULT_255_2_778
10
16.3019963
20
1.8030236
11
16.3019963
21
0.5031236
0
LINE
8
DEFAULT_255_2_778
10
17.0020963
20
-0.1968764
11
128.0021963
21
-0.1968764
0
LINE
8
DEFAULT_255_2_778
10
128.0021963
20
-0.1968764
11
129.0022963
21
1.8030236
0
LINE
8
DEFAULT_255_2_778
10
129.0022963
20
1.8030236
11
132.5021963
21
1.8030236
0
LINE
8
DEFAULT_255_2_778
10
133.2022963
20
2.5031236
11
133.2022963
21
84.3030236
0
LINE
8
DEFAULT_255_2_778
10
133.2022963
20
84.3030236
11
129.0022963
21
84.3030236
0
LINE
8
DEFAULT_255_2_778
10
129.0022963
20
84.3030236
11
129.0022963
21
99.8031236
0
LINE
8
DEFAULT_255_2_778
10
129.0022963
20
99.8031236
11
128.0018963
21
101.8031236
0
LINE
8
DEFAULT_255_2_778
10
128.0018963
20
101.8031236
11
30.5018963
21
101.8031236
0
LINE
8
DEFAULT_255_2_778
10
29.8017963
20
101.1030236
11
29.8017963
21
99.8031236
0
LINE
8
DEFAULT_255_2_778
10
29.8017963
20
99.8031236
11
7.8016963
21
99.8031236
0
LINE
8
DEFAULT_255_2_778
10
7.3016963
20
99.3031236
11
7.3016963
21
92.6030236
0
LINE
8
DEFAULT_255_2_778
10
7.3016963
20
92.6030236
11
3.2019963
21
92.6030236
0
LINE
8
DEFAULT_255_2_778
10
2.7018963
20
92.1029236
11
2.7018963
21
44.0372236
0
LINE
8
DEFAULT_255_2_778
10
3.0518963
20
43.4310236
11
3.8519963
21
42.9690236
0
LINE
8
DEFAULT_255_2_778
10
4.2020963
20
42.3629236
11
4.2020963
21
35.1712236
0
LINE
8
DEFAULT_255_2_778
10
3.8519963
20
34.5651236
11
3.0518963
21
34.1031236
0
LINE
8
DEFAULT_255_2_778
10
2.7018963
20
33.4969236
11
2.7018963
21
5.2672236
0
LINE
8
DEFAULT_255_2_778
10
2.7018963
20
5.2672236
11
4.7018963
21
1.3032236
0
LINE
8
DEFAULT_255_2_778
10
4.7018963
20
1.3032236
11
6.2017963
21
1.3032236
0
LINE
8
DEFAULT_255_2_778
10
6.2017963
20
1.3032236
11
6.2017963
21
3.8033236
0
ARC
8
DEFAULT_255_2_778
10
11.3569155
20
0.3031352
40
0.5000116
50
180.0013268
51
270.0101312
0
ARC
8
DEFAULT_255_2_778
10
11.8571138
20
0.3031136
40
0.4999901
50
269.9988673
51
0.0011385
0
ARC
8
DEFAULT_255_2_778
10
0.7021626
20
10.0707613
40
0.5002589
50
120.0170857
51
179.9699564
0
ARC
8
DEFAULT_255_2_778
10
0.7019797
20
6.8031993
40
0.5000758
50
180.008676
51
270.0027763
0
LINE
8
DEFAULT_255_2_778
10
4.4498039
20
1.8030236
11
6.2021039
21
1.8030236
0
LINE
8
DEFAULT_255_2_778
10
3.4409039
20
3.8030236
11
9.7023039
21
3.8030236
0
LINE
8
DEFAULT_255_2_778
10
9.7023039
20
3.8030236
11
10.8569039
21
1.8030236
0
LINE
8
DEFAULT_255_2_778
10
10.8569039
20
1.8030236
11
10.8569039
21
0.3031236
0
LINE
8
DEFAULT_255_2_778
10
11.3570039
20
-0.1968764
11
11.8571039
21
-0.1968764
0
LINE
8
DEFAULT_255_2_778
10
12.3571039
20
0.3031236
11
12.3571039
21
1.8030236
0
LINE
8
DEFAULT_255_2_778
10
2.7019039
20
11.8030236
11
0.4519039
21
10.5039236
0
LINE
8
DEFAULT_255_2_778
10
0.2019039
20
10.0710236
11
0.2019039
21
6.8031236
0
LINE
8
DEFAULT_255_2_778
10
0.7020039
20
6.3031236
11
2.7019039
21
6.3031236
0
LINE
8
DEFAULT_255_2_778
10
133.2019039
20
68.9781236
11
133.9419039
21
68.9781236
0
LINE
8
DEFAULT_255_2_778
10
133.9419039
20
68.9781236
11
133.9419039
21
10.4980236
0
LINE
8
DEFAULT_255_2_778
10
133.9419039
20
10.4980236
11
133.2019039
21
10.4980236
0
LINE
8
DEFAULT_255_2_778
10
99.7019039
20
-0.1968764
11
99.7019039
21
99.0030236
0
LINE
8
DEFAULT_255_2_778
10
99.7019039
20
99.5031236
11
99.7019039
21
101.8031236
0
LINE
8
DEFAULT_255_2_778
10
115.7020039
20
99.1694236
11
115.7020039
21
99.5031236
0
LINE
8
DEFAULT_255_2_778
10
115.7020039
20
99.5031236
11
67.4722039
21
99.5031236
0
LINE
8
DEFAULT_255_2_778
10
67.4722039
20
99.5031236
11
19.8644039
21
92.3030236
0
LINE
8
DEFAULT_255_2_778
10
19.8644039
20
92.3030236
11
14.3021039
21
92.3030236
0
LINE
8
DEFAULT_255_2_778
10
14.3021039
20
92.3030236
11
14.3021039
21
99.5031236
0
LINE
8
DEFAULT_255_2_778
10
14.3021039
20
99.5031236
11
13.8020039
21
99.5031236
0
LINE
8
DEFAULT_255_2_778
10
131.3019039
20
84.3030236
11
131.3019039
21
84.8031236
0
LINE
8
DEFAULT_255_2_778
10
130.8018039
20
84.8031236
11
130.8018039
21
84.3030236
0
LINE
8
DEFAULT_255_2_778
10
132.0202039
20
1.8030236
11
132.0202039
21
84.3030236
0
LINE
8
DEFAULT_255_2_778
10
132.0202039
20
84.8031236
11
132.0202039
21
99.8031236
0
LINE
8
DEFAULT_255_2_778
10
3.2020039
20
97.8031236
11
7.3020039
21
97.8031236
0
LINE
8
DEFAULT_255_2_778
10
14.3017773
20
97.8029727
11
15.2018773
21
97.8029727
0
LINE
8
DEFAULT_255_2_778
10
15.7019773
20
98.8030727
11
16.7020773
21
98.8030727
0
LINE
8
DEFAULT_255_2_778
10
14.3020773
20
94.8030727
11
15.2021773
21
94.8030727
0
LINE
8
DEFAULT_255_2_778
10
15.7021773
20
93.8029727
11
16.7023773
21
93.8029727
0
LINE
8
DEFAULT_255_2_778
10
103.2017773
20
19.5532727
11
105.4017773
21
19.5532727
0
LINE
8
DEFAULT_255_2_778
10
105.4017773
20
19.5532727
11
105.4017773
21
19.8032727
0
LINE
8
DEFAULT_255_2_778
10
103.6478773
20
10.0533727
11
103.6478773
21
19.5532727
0
LINE
8
DEFAULT_255_2_778
10
103.2017773
20
10.0533727
11
105.4017773
21
10.0533727
0
LINE
8
DEFAULT_255_2_778
10
105.4017773
20
10.0533727
11
105.4017773
21
9.8033727
0
LINE
8
DEFAULT_255_2_778
10
105.4017773
20
18.5533727
11
104.2018773
21
18.5533727
0
LINE
8
DEFAULT_255_2_778
10
104.2018773
20
18.5533727
11
104.2018773
21
11.0534727
0
LINE
8
DEFAULT_255_2_778
10
104.2018773
20
11.0534727
11
105.4017773
21
11.0534727
0
LINE
8
DEFAULT_255_2_778
10
105.4017773
20
11.0534727
11
105.4017773
21
18.5533727
0
LINE
8
DEFAULT_255_2_778
10
103.2017773
20
19.8032727
11
105.7017773
21
19.8032727
0
LINE
8
DEFAULT_255_2_778
10
105.7017773
20
19.8032727
11
105.7017773
21
9.8033727
0
LINE
8
DEFAULT_255_2_778
10
105.7017773
20
9.8033727
11
103.2017773
21
9.8033727
0
LINE
8
DEFAULT_255_2_778
10
103.2017773
20
9.8033727
11
103.2017773
21
19.8032727
0
LINE
8
DEFAULT_255_2_778
10
103.2017773
20
94.5530727
11
105.4017773
21
94.5530727
0
LINE
8
DEFAULT_255_2_778
10
105.4017773
20
94.5530727
11
105.4017773
21
94.8030727
0
LINE
8
DEFAULT_255_2_778
10
103.6478773
20
85.0531727
11
103.6478773
21
94.5530727
0
LINE
8
DEFAULT_255_2_778
10
103.2017773
20
85.0529727
11
105.4017773
21
85.0529727
0
LINE
8
DEFAULT_255_2_778
10
105.4017773
20
85.0529727
11
105.4017773
21
84.8028727
0
LINE
8
DEFAULT_255_2_778
10
104.2018773
20
93.5529727
11
105.4017773
21
93.5529727
0
LINE
8
DEFAULT_255_2_778
10
105.4017773
20
93.5529727
11
105.4017773
21
86.0527727
0
LINE
8
DEFAULT_255_2_778
10
105.4017773
20
86.0527727
11
104.2018773
21
86.0527727
0
LINE
8
DEFAULT_255_2_778
10
104.2018773
20
86.0527727
11
104.2018773
21
93.5531727
0
LINE
8
DEFAULT_255_2_778
10
105.7017773
20
94.8030727
11
103.2017773
21
94.8030727
0
LINE
8
DEFAULT_255_2_778
10
103.2017773
20
94.8030727
11
103.2017773
21
84.8031727
0
LINE
8
DEFAULT_255_2_778
10
103.2017773
20
84.8031727
11
105.7017773
21
84.8031727
0
LINE
8
DEFAULT_255_2_778
10
105.7017773
20
84.8031727
11
105.7017773
21
94.8030727
0
ENDSEC
0
EOF