0
SECTION
2
HEADER
9
$MEASUREMENT
70
1
0
ENDSEC
0
SECTION
2
TABLES
0
TABLE
2
LTYPE
0
LTYPE
72
65
70
64
2
CONTINUOUS
3
______
73
0
40
0
0
ENDTAB
0
TABLE
2
LAYER
0
LAYER
2
DEFAULT_255_2_778
70
0
62
255
6
CONTINUOUS
0
ENDTAB
0
ENDSEC
0
SECTION
2
ENTITIES
0
ARC
8
DEFAULT_255_2_778
10
3.1469969
20
90.5731231
40
0.5000956
50
134.9958871
51
179.9946851
0
ARC
8
DEFAULT_255_2_778
10
3.1469034
20
90.573522
40
0.4997474
50
89.9887792
51
135.0206486
0
ARC
8
DEFAULT_255_2_778
10
7.7466487
20
97.7730673
40
0.4997474
50
134.9793514
51
180.0112208
0
ARC
8
DEFAULT_255_2_778
10
7.7470476
20
97.7729738
40
0.5000956
50
90.0053149
51
135.0041129
0
ARC
8
DEFAULT_255_2_778
10
92.6470043
20
97.7729725
40
0.5000969
50
359.9996485
51
90.0003515
0
LINE
8
DEFAULT_255_2_778
10
6.1468013
20
2.2729695
11
6.1468013
21
-0.2270305
0
LINE
8
DEFAULT_255_2_778
10
6.1468013
20
-0.2270305
11
4.6469013
21
-0.2270305
0
LINE
8
DEFAULT_255_2_778
10
4.6469013
20
-0.2270305
11
2.6469013
21
3.7368695
0
LINE
8
DEFAULT_255_2_778
10
2.6469013
20
3.7368695
11
2.6469013
21
31.1210695
0
LINE
8
DEFAULT_255_2_778
10
2.6469013
20
31.1210695
11
4.1468013
21
31.9869695
0
LINE
8
DEFAULT_255_2_778
10
4.1468013
20
31.9869695
11
4.1468013
21
40.4869695
0
LINE
8
DEFAULT_255_2_778
10
4.1468013
20
40.4869695
11
2.6469013
21
41.3529695
0
LINE
8
DEFAULT_255_2_778
10
2.6469013
20
41.3529695
11
2.6469013
21
90.5731695
0
LINE
8
DEFAULT_255_2_778
10
3.1470013
20
91.0732695
11
7.2469013
21
91.0732695
0
LINE
8
DEFAULT_255_2_778
10
7.2469013
20
91.0732695
11
7.2469013
21
97.7729695
0
LINE
8
DEFAULT_255_2_778
10
7.7470013
20
98.2730695
11
92.6470013
21
98.2730695
0
LINE
8
DEFAULT_255_2_778
10
93.1471013
20
97.7729695
11
93.1471013
21
83.2730695
0
LINE
8
DEFAULT_255_2_778
10
93.1471013
20
83.2730695
11
88.9471013
21
83.2730695
0
LINE
8
DEFAULT_255_2_778
10
88.9471013
20
83.2730695
11
88.9471013
21
98.2730695
0
LINE
8
DEFAULT_255_2_778
10
66.1323352
20
98.2730382
11
19.8469352
21
91.2729382
0
LINE
8
DEFAULT_255_2_778
10
19.8469352
20
91.2729382
11
13.7469352
21
91.2729382
0
LINE
8
DEFAULT_255_2_778
10
13.7469352
20
91.2729382
11
13.7469352
21
98.2730382
0
LINE
8
DEFAULT_255_2_778
10
3.3856352
20
2.2729382
11
9.6470352
21
2.2729382
0
LINE
8
DEFAULT_255_2_778
10
9.6470352
20
2.2729382
11
10.8016352
21
0.2729382
0
LINE
8
DEFAULT_255_2_778
10
4.1423352
20
0.7730382
11
6.1468352
21
0.7730382
0
ARC
8
DEFAULT_255_2_778
10
91.4468872
20
97.7729725
40
0.5000969
50
359.9996485
51
90.0003515
0
ARC
8
DEFAULT_255_2_778
10
92.1469931
20
-0.0270216
40
0.200009
50
180.0025728
51
269.9974129
0
LINE
8
DEFAULT_255_2_778
10
59.6468841
20
98.2730695
11
59.6468841
21
0.2729695
0
LINE
8
DEFAULT_255_2_778
10
105.6970841
20
1.7731695
11
103.4465841
21
1.7731695
0
LINE
8
DEFAULT_255_2_778
10
103.4465841
20
1.7731695
11
103.4465841
21
6.2395695
0
LINE
8
DEFAULT_255_2_778
10
110.7468841
20
14.9232695
11
110.7468841
21
2.1232695
0
LINE
8
DEFAULT_255_2_778
10
110.7468841
20
2.1232695
11
114.9468841
21
2.1232695
0
LINE
8
DEFAULT_255_2_778
10
110.7468841
20
2.7730695
11
105.6967841
21
2.7730695
0
LINE
8
DEFAULT_255_2_778
10
105.6967841
20
2.7730695
11
105.6967841
21
0.2729695
0
LINE
8
DEFAULT_255_2_778
10
94.9464841
20
0.2732695
11
94.9464841
21
9.1031695
0
LINE
8
DEFAULT_255_2_778
10
94.9464841
20
9.1031695
11
103.4465841
21
9.1031695
0
LINE
8
DEFAULT_255_2_778
10
103.4465841
20
9.1031695
11
103.4465841
21
13.8799695
0
LINE
8
DEFAULT_255_2_778
10
103.4465841
20
13.8799695
11
101.5983841
21
13.8799695
0
LINE
8
DEFAULT_255_2_778
10
91.9469841
20
97.7729695
11
91.9469841
21
-0.0270305
0
LINE
8
DEFAULT_255_2_778
10
92.1469841
20
-0.2270305
11
96.1468841
21
-0.2270305
0
LINE
8
DEFAULT_255_2_778
10
96.1468841
20
-0.2270305
11
96.1468841
21
0.2729695
0
ARC
8
DEFAULT_255_2_778
10
0.647129
20
8.5409334
40
0.5002589
50
120.0170857
51
179.9699564
0
ARC
8
DEFAULT_255_2_778
10
0.6469673
20
5.2733927
40
0.5000969
50
179.9996485
51
270.0003515
0
LINE
8
DEFAULT_255_2_778
10
93.1468703
20
0.2729957
11
93.1468703
21
82.7729957
0
LINE
8
DEFAULT_255_2_778
10
94.9465703
20
2.2131957
11
97.9466703
21
3.2362957
0
LINE
8
DEFAULT_255_2_778
10
97.9466703
20
3.2362957
11
97.9466703
21
9.1031957
0
LINE
8
DEFAULT_255_2_778
10
114.9469703
20
80.9229957
11
112.0468703
21
80.9229957
0
LINE
8
DEFAULT_255_2_778
10
112.0468703
20
80.9229957
11
112.0468703
21
2.1229957
0
LINE
8
DEFAULT_255_2_778
10
2.6468703
20
10.2731957
11
0.3968703
21
8.9740957
0
LINE
8
DEFAULT_255_2_778
10
0.1468703
20
8.5411957
11
0.1468703
21
5.2733957
0
LINE
8
DEFAULT_255_2_778
10
0.6469703
20
4.7732957
11
2.6468703
21
4.7732957
0
ARC
8
DEFAULT_255_2_778
10
114.4468587
20
82.2728988
40
0.5000969
50
359.9996485
51
90.0003515
0
ARC
8
DEFAULT_255_2_778
10
114.4468587
20
0.7730927
40
0.5000969
50
269.9996485
51
0.0003515
0
LINE
8
DEFAULT_255_2_778
10
91.9469556
20
82.7729957
11
114.4468556
21
82.7729957
0
LINE
8
DEFAULT_255_2_778
10
114.9469556
20
82.2728957
11
114.9469556
21
0.7730957
0
LINE
8
DEFAULT_255_2_778
10
114.4468556
20
0.2729957
11
10.8016556
21
0.2729957
0
ARC
8
DEFAULT_255_2_778
10
89.6466104
20
49.2730515
40
0.5000755
50
359.9971846
51
89.9913517
0
ARC
8
DEFAULT_255_2_778
10
69.6465615
20
49.2730513
40
0.5000757
50
90.0086621
51
180.0027902
0
ARC
8
DEFAULT_255_2_778
10
69.64654
20
47.2730811
40
0.5000541
50
180.0061976
51
269.9938024
0
ARC
8
DEFAULT_255_2_778
10
89.6466319
20
47.2730809
40
0.500054
50
270.0061838
51
359.9938162
0
ARC
8
DEFAULT_255_2_778
10
89.6466104
20
53.2730515
40
0.5000755
50
359.9971846
51
89.9913517
0
ARC
8
DEFAULT_255_2_778
10
69.6465615
20
53.2730513
40
0.5000757
50
90.0086621
51
180.0027902
0
ARC
8
DEFAULT_255_2_778
10
69.6465615
20
51.2730025
40
0.5000756
50
179.9971984
51
269.9913379
0
ARC
8
DEFAULT_255_2_778
10
89.6466104
20
51.2730024
40
0.5000754
50
270.0086483
51
0.0028154
0
LINE
8
DEFAULT_255_2_778
10
59.6468859
20
17.273027
11
57.6468859
21
17.273027
0
LINE
8
DEFAULT_255_2_778
10
57.6468859
20
17.273027
11
57.6468859
21
9.273027
0
LINE
8
DEFAULT_255_2_778
10
57.6468859
20
9.273027
11
59.6468859
21
9.273027
0
LINE
8
DEFAULT_255_2_778
10
59.6468859
20
84.273227
11
57.6468859
21
84.273227
0
LINE
8
DEFAULT_255_2_778
10
57.6468859
20
84.273227
11
57.6468859
21
92.273127
0
LINE
8
DEFAULT_255_2_778
10
57.6468859
20
92.273127
11
59.6468859
21
92.273127
0
LINE
8
DEFAULT_255_2_778
10
63.1967859
20
85.023027
11
63.1967859
21
91.523027
0
LINE
8
DEFAULT_255_2_778
10
65.5967859
20
91.523027
11
63.0967859
21
91.523027
0
LINE
8
DEFAULT_255_2_778
10
63.0967859
20
91.523027
11
63.0967859
21
85.023027
0
LINE
8
DEFAULT_255_2_778
10
63.0967859
20
85.023027
11
65.5967859
21
85.023027
0
LINE
8
DEFAULT_255_2_778
10
65.5967859
20
85.023027
11
65.5967859
21
91.523027
0
LINE
8
DEFAULT_255_2_778
10
63.6468859
20
91.273027
11
63.6468859
21
85.273027
0
LINE
8
DEFAULT_255_2_778
10
63.1967859
20
85.273027
11
65.5946859
21
85.273027
0
LINE
8
DEFAULT_255_2_778
10
65.5946859
20
85.273027
11
65.5946859
21
86.273127
0
LINE
8
DEFAULT_255_2_778
10
65.5946859
20
86.273127
11
64.1968859
21
86.273127
0
LINE
8
DEFAULT_255_2_778
10
64.1968859
20
86.273127
11
64.1968859
21
87.773127
0
LINE
8
DEFAULT_255_2_778
10
64.1968859
20
87.773127
11
65.5946859
21
87.773127
0
LINE
8
DEFAULT_255_2_778
10
65.5946859
20
87.773127
11
65.5946859
21
88.773227
0
LINE
8
DEFAULT_255_2_778
10
65.5946859
20
88.773227
11
64.1968859
21
88.773227
0
LINE
8
DEFAULT_255_2_778
10
64.1968859
20
88.773227
11
64.1968859
21
90.273127
0
LINE
8
DEFAULT_255_2_778
10
64.1968859
20
90.273127
11
65.5946859
21
90.273127
0
LINE
8
DEFAULT_255_2_778
10
65.5946859
20
90.273127
11
65.5946859
21
91.273227
0
LINE
8
DEFAULT_255_2_778
10
65.5946859
20
91.273227
11
63.1967859
21
91.273227
0
LINE
8
DEFAULT_255_2_778
10
89.6466859
20
49.773127
11
69.6464859
21
49.773127
0
LINE
8
DEFAULT_255_2_778
10
69.1464859
20
49.273027
11
69.1464859
21
47.273027
0
LINE
8
DEFAULT_255_2_778
10
69.6464859
20
46.773027
11
89.6466859
21
46.773027
0
LINE
8
DEFAULT_255_2_778
10
90.1466859
20
47.273027
11
90.1466859
21
49.273027
0
LINE
8
DEFAULT_255_2_778
10
89.6466859
20
53.773127
11
69.6464859
21
53.773127
0
LINE
8
DEFAULT_255_2_778
10
69.1464859
20
53.273027
11
69.1464859
21
51.273027
0
LINE
8
DEFAULT_255_2_778
10
69.6464859
20
50.772927
11
89.6466859
21
50.772927
0
LINE
8
DEFAULT_255_2_778
10
90.1466859
20
51.273027
11
90.1466859
21
53.273027
0
LINE
8
DEFAULT_255_2_778
10
63.1967859
20
16.523227
11
63.1967859
21
10.023127
0
LINE
8
DEFAULT_255_2_778
10
65.5967859
20
16.523227
11
63.0967859
21
16.523227
0
LINE
8
DEFAULT_255_2_778
10
63.0967859
20
16.523227
11
63.0967859
21
10.023127
0
LINE
8
DEFAULT_255_2_778
10
63.0967859
20
10.023127
11
65.5967859
21
10.023127
0
LINE
8
DEFAULT_255_2_778
10
65.5967859
20
10.023127
11
65.5967859
21
16.523227
0
LINE
8
DEFAULT_255_2_778
10
63.6468859
20
16.273127
11
63.6468859
21
10.273227
0
LINE
8
DEFAULT_255_2_778
10
63.1967859
20
10.273227
11
65.5946859
21
10.273227
0
LINE
8
DEFAULT_255_2_778
10
65.5946859
20
10.273227
11
65.5946859
21
11.273327
0
LINE
8
DEFAULT_255_2_778
10
65.5946859
20
11.273327
11
64.1968859
21
11.273327
0
LINE
8
DEFAULT_255_2_778
10
64.1968859
20
11.273327
11
64.1968859
21
12.773227
0
LINE
8
DEFAULT_255_2_778
10
64.1968859
20
12.773227
11
65.5946859
21
12.773227
0
LINE
8
DEFAULT_255_2_778
10
65.5946859
20
12.773227
11
65.5946859
21
13.773327
0
LINE
8
DEFAULT_255_2_778
10
65.5946859
20
13.773327
11
64.1968859
21
13.773327
0
LINE
8
DEFAULT_255_2_778
10
64.1968859
20
13.773327
11
64.1968859
21
15.273327
0
LINE
8
DEFAULT_255_2_778
10
64.1968859
20
15.273327
11
65.5946859
21
15.273327
0
LINE
8
DEFAULT_255_2_778
10
65.5946859
20
15.273327
11
65.5946859
21
16.273427
0
LINE
8
DEFAULT_255_2_778
10
65.5946859
20
16.273427
11
63.1967859
21
16.273427
0
LINE
8
DEFAULT_255_2_778
10
101.5984065
20
6.2396165
11
110.7469065
21
6.2396165
0
LINE
8
DEFAULT_255_2_778
10
101.7640065
20
7.2397165
11
110.7469065
21
7.2397165
0
LINE
8
DEFAULT_255_2_778
10
103.4465065
20
10.2401165
11
94.9465065
21
10.2401165
0
LINE
8
DEFAULT_255_2_778
10
94.9465065
20
10.2401165
11
94.9465065
21
16.7232165
0
LINE
8
DEFAULT_255_2_778
10
94.9465065
20
16.7232165
11
103.4465065
21
16.7232165
0
LINE
8
DEFAULT_255_2_778
10
103.4465065
20
16.7232165
11
103.4465065
21
18.3088165
0
LINE
8
DEFAULT_255_2_778
10
94.9465448
20
10.9272489
11
97.9466448
21
11.4376489
0
LINE
8
DEFAULT_255_2_778
10
97.9466448
20
11.4376489
11
97.9466448
21
16.7229489
0
LINE
8
DEFAULT_255_2_778
10
99.9159303
20
31.9629977
11
99.9159303
21
17.3743977
0
LINE
8
DEFAULT_255_2_778
10
99.9159303
20
17.3743977
11
98.9158303
21
17.3743977
0
LINE
8
DEFAULT_255_2_778
10
98.9158303
20
17.3743977
11
98.9158303
21
31.9629977
0
LINE
8
DEFAULT_255_2_778
10
103.4462303
20
17.8601977
11
99.9156303
21
17.8601977
0
LINE
8
DEFAULT_255_2_778
10
98.9158303
20
17.8598977
11
94.9465303
21
17.8598977
0
LINE
8
DEFAULT_255_2_778
10
94.9465303
20
17.8598977
11
94.9465303
21
24.3429977
0
LINE
8
DEFAULT_255_2_778
10
94.9465303
20
24.3429977
11
98.9158303
21
24.3429977
0
LINE
8
DEFAULT_255_2_778
10
94.9465448
20
18.5472489
11
97.9466448
21
19.0576489
0
LINE
8
DEFAULT_255_2_778
10
97.9466448
20
19.0576489
11
97.9466448
21
24.3429489
0
LINE
8
DEFAULT_255_2_778
10
112.0468252
20
22.5432738
11
110.4058252
21
22.5432738
0
LINE
8
DEFAULT_255_2_778
10
112.0470252
20
23.7631738
11
110.1619252
21
23.7631738
0
LINE
8
DEFAULT_255_2_778
10
98.9158252
20
25.4800738
11
94.9465252
21
25.4800738
0
LINE
8
DEFAULT_255_2_778
10
94.9465252
20
25.4800738
11
94.9465252
21
31.9631738
0
LINE
8
DEFAULT_255_2_778
10
94.9465252
20
31.9631738
11
103.4465252
21
31.9631738
0
LINE
8
DEFAULT_255_2_778
10
103.4465252
20
31.9631738
11
103.4465252
21
36.7399738
0
LINE
8
DEFAULT_255_2_778
10
103.4465252
20
36.7399738
11
101.5984252
21
36.7399738
0
LINE
8
DEFAULT_255_2_778
10
103.4465252
20
27.1808738
11
103.4465252
21
29.1196738
0
LINE
8
DEFAULT_255_2_778
10
103.4465252
20
29.1196738
11
101.5984252
21
29.1196738
0
LINE
8
DEFAULT_255_2_778
10
103.446498
20
33.1001363
11
94.946498
21
33.1001363
0
LINE
8
DEFAULT_255_2_778
10
94.946498
20
33.1001363
11
94.946498
21
39.5832363
0
LINE
8
DEFAULT_255_2_778
10
94.946498
20
39.5832363
11
103.446498
21
39.5832363
0
LINE
8
DEFAULT_255_2_778
10
103.446498
20
39.5832363
11
103.446498
21
44.3600363
0
LINE
8
DEFAULT_255_2_778
10
103.446498
20
44.3600363
11
101.598398
21
44.3600363
0
LINE
8
DEFAULT_255_2_778
10
103.446498
20
40.7201363
11
94.946498
21
40.7201363
0
LINE
8
DEFAULT_255_2_778
10
94.946498
20
40.7201363
11
94.946498
21
47.2032363
0
LINE
8
DEFAULT_255_2_778
10
94.946498
20
47.2032363
11
103.446498
21
47.2032363
0
LINE
8
DEFAULT_255_2_778
10
103.446498
20
47.2032363
11
103.446498
21
51.9800363
0
LINE
8
DEFAULT_255_2_778
10
103.446498
20
51.9800363
11
101.598398
21
51.9800363
0
LINE
8
DEFAULT_255_2_778
10
103.446498
20
48.3397821
11
94.946498
21
48.3397821
0
LINE
8
DEFAULT_255_2_778
10
94.946498
20
48.3397821
11
94.946498
21
54.8027821
0
LINE
8
DEFAULT_255_2_778
10
94.946498
20
54.8027821
11
103.446498
21
54.8027821
0
LINE
8
DEFAULT_255_2_778
10
103.446498
20
54.8027821
11
103.446498
21
59.5795821
0
LINE
8
DEFAULT_255_2_778
10
103.446498
20
59.5795821
11
101.598398
21
59.5795821
0
LINE
8
DEFAULT_255_2_778
10
103.446498
20
55.9400582
11
94.946498
21
55.9400582
0
LINE
8
DEFAULT_255_2_778
10
94.946498
20
55.9400582
11
94.946498
21
62.4429582
0
LINE
8
DEFAULT_255_2_778
10
94.946498
20
62.4429582
11
103.446498
21
62.4429582
0
LINE
8
DEFAULT_255_2_778
10
103.446498
20
62.4429582
11
103.446498
21
67.2197582
0
LINE
8
DEFAULT_255_2_778
10
103.446498
20
67.2197582
11
101.598398
21
67.2197582
0
LINE
8
DEFAULT_255_2_778
10
103.446498
20
63.5800999
11
94.946498
21
63.5800999
0
LINE
8
DEFAULT_255_2_778
10
94.946498
20
63.5800999
11
94.946498
21
71.2000999
0
LINE
8
DEFAULT_255_2_778
10
94.946498
20
71.2000999
11
103.446498
21
71.2000999
0
LINE
8
DEFAULT_255_2_778
10
94.9465448
20
26.1672489
11
97.9466448
21
26.6776489
0
LINE
8
DEFAULT_255_2_778
10
97.9466448
20
26.6776489
11
97.9466448
21
31.9629489
0
LINE
8
DEFAULT_255_2_778
10
94.9465448
20
33.7872489
11
97.9466448
21
34.2976489
0
LINE
8
DEFAULT_255_2_778
10
97.9466448
20
34.2976489
11
97.9466448
21
39.5829489
0
LINE
8
DEFAULT_255_2_778
10
94.9465448
20
41.4072489
11
97.9466448
21
41.9176489
0
LINE
8
DEFAULT_255_2_778
10
97.9466448
20
41.9176489
11
97.9466448
21
47.2029489
0
LINE
8
DEFAULT_255_2_778
10
94.9465448
20
49.0272489
11
97.9466448
21
49.5376489
0
LINE
8
DEFAULT_255_2_778
10
97.9466448
20
49.5376489
11
97.9466448
21
54.8229489
0
LINE
8
DEFAULT_255_2_778
10
94.9465448
20
56.627103
11
97.9466448
21
57.137503
0
LINE
8
DEFAULT_255_2_778
10
97.9466448
20
57.137503
11
97.9466448
21
62.442903
0
LINE
8
DEFAULT_255_2_778
10
94.9465448
20
64.2672489
11
97.9466448
21
64.7776489
0
LINE
8
DEFAULT_255_2_778
10
97.9466448
20
64.7776489
11
97.9466448
21
70.0629489
0
ARC
8
DEFAULT_255_2_778
10
99.4364713
20
2.2316475
40
25.2807512
50
85.8512714
51
88.9132371
0
ARC
8
DEFAULT_255_2_778
10
99.5433412
20
3.6925971
40
23.8158984
50
82.9620014
51
85.8534279
0
ARC
8
DEFAULT_255_2_778
10
99.7730043
20
5.5350196
40
21.9592184
50
79.9126335
51
82.9677025
0
ARC
8
DEFAULT_255_2_778
10
100.1627137
20
7.7154799
40
19.7442066
50
76.7492632
51
79.9177942
0
ARC
8
DEFAULT_255_2_778
10
100.7047071
20
10.0142099
40
17.3824453
50
73.5760631
51
76.751455
0
ARC
8
DEFAULT_255_2_778
10
101.3803901
20
12.3002036
40
14.9986854
50
70.1594856
51
73.5828071
0
ARC
8
DEFAULT_255_2_778
10
102.1767511
20
14.5029027
40
12.656449
50
66.4653407
51
70.1662165
0
ARC
8
DEFAULT_255_2_778
10
103.0727673
20
16.5535188
40
10.4186236
50
62.2074398
51
66.4800007
0
ARC
8
DEFAULT_255_2_778
10
104.0385835
20
18.3812418
40
8.3514113
50
57.3142931
51
62.2224328
0
ARC
8
DEFAULT_255_2_778
10
105.018902
20
19.9044868
40
6.5399775
50
51.5160173
51
57.336039
0
ARC
8
DEFAULT_255_2_778
10
105.9770049
20
21.1048141
40
5.0041602
50
44.3333712
51
51.5506772
0
ARC
8
DEFAULT_255_2_778
10
106.8669091
20
21.9700426
40
3.7629763
50
35.1391383
51
44.3791692
0
ARC
8
DEFAULT_255_2_778
10
107.6537153
20
22.5177062
40
2.8043493
50
21.7024866
51
35.2413294
0
ARC
8
DEFAULT_255_2_778
10
108.2082939
20
22.7378503
40
2.2076749
50
0.1816933
51
21.716409
0
ARC
8
DEFAULT_255_2_778
10
108.1504703
20
22.7599716
40
2.2655376
50
332.9419859
51
359.6175987
0
ARC
8
DEFAULT_255_2_778
10
107.4215344
20
23.1100644
40
3.0740074
50
321.6930613
51
333.3112897
0
ARC
8
DEFAULT_255_2_778
10
106.6002245
20
23.7528371
40
4.1169314
50
313.1729082
51
321.7588076
0
ARC
8
DEFAULT_255_2_778
10
105.6963397
20
24.7085536
40
5.4323706
50
306.7222456
51
313.2287307
0
ARC
8
DEFAULT_255_2_778
10
104.7528358
20
25.9685194
40
7.006444
50
301.3044969
51
306.7457974
0
ARC
8
DEFAULT_255_2_778
10
103.7807103
20
27.5624602
40
8.8734392
50
296.6004806
51
301.3200711
0
ARC
8
DEFAULT_255_2_778
10
102.8347275
20
29.4444693
40
10.9798185
50
292.5546348
51
296.6169191
0
ARC
8
DEFAULT_255_2_778
10
101.993778
20
31.4587561
40
13.1625997
50
289.1810246
51
292.5721354
0
ARC
8
DEFAULT_255_2_778
10
101.2472929
20
33.6041769
40
15.4341785
50
285.8372083
51
289.1816105
0
ARC
8
DEFAULT_255_2_778
10
100.6038207
20
35.8648821
40
17.7846765
50
282.7471733
51
285.8439376
0
ARC
8
DEFAULT_255_2_778
10
100.0935468
20
38.1177567
40
20.0946165
50
279.6319127
51
282.7488898
0
ARC
8
DEFAULT_255_2_778
10
99.7302456
20
40.2478601
40
22.255479
50
276.6008737
51
279.6364833
0
ARC
8
DEFAULT_255_2_778
10
99.5146164
20
42.1014617
40
24.1215802
50
273.4704951
51
276.6035436
0
ARC
8
DEFAULT_255_2_778
10
99.4315751
20
43.4003709
40
25.4231346
50
271.0917123
51
273.4800961
0
LINE
8
DEFAULT_255_2_778
10
94.9465575
20
70.0629512
11
103.4465575
21
70.0629512
0
LINE
8
DEFAULT_255_2_778
10
103.4465575
20
70.0629512
11
103.4465575
21
79.7731512
0
LINE
8
DEFAULT_255_2_778
10
103.4465575
20
79.7731512
11
112.0468575
21
79.7731512
0
LINE
8
DEFAULT_255_2_778
10
110.7469575
20
22.5432512
11
110.7469575
21
16.1432512
0
LINE
8
DEFAULT_255_2_778
10
112.0468575
20
77.1032512
11
110.7469575
21
77.1032512
0
LINE
8
DEFAULT_255_2_778
10
110.7469575
20
77.1032512
11
110.7469575
21
79.7731512
0
LINE
8
DEFAULT_255_2_778
10
104.9464575
20
14.9232512
11
104.9464575
21
16.1432512
0
LINE
8
DEFAULT_255_2_778
10
112.0468727
20
14.9232969
11
103.4465727
21
14.9232969
0
LINE
8
DEFAULT_255_2_778
10
103.4465727
20
14.9232969
11
103.4465727
21
16.1432969
0
LINE
8
DEFAULT_255_2_778
10
103.4465727
20
16.1432969
11
112.0468727
21
16.1432969
0
LINE
8
DEFAULT_255_2_778
10
104.9464
20
30.1632969
11
104.9464
21
31.3832969
0
LINE
8
DEFAULT_255_2_778
10
112.0468727
20
30.1632969
11
103.4465727
21
30.1632969
0
LINE
8
DEFAULT_255_2_778
10
103.4465727
20
30.1632969
11
103.4465727
21
31.3832969
0
LINE
8
DEFAULT_255_2_778
10
103.4465727
20
31.3832969
11
112.0468727
21
31.3832969
0
LINE
8
DEFAULT_255_2_778
10
104.9464
20
37.7832969
11
104.9464
21
39.0032969
0
LINE
8
DEFAULT_255_2_778
10
112.0468727
20
37.7832969
11
103.4465727
21
37.7832969
0
LINE
8
DEFAULT_255_2_778
10
103.4465727
20
37.7832969
11
103.4465727
21
39.0032969
0
LINE
8
DEFAULT_255_2_778
10
103.4465727
20
39.0032969
11
112.0468727
21
39.0032969
0
LINE
8
DEFAULT_255_2_778
10
104.9464
20
45.4032969
11
104.9464
21
46.6232969
0
LINE
8
DEFAULT_255_2_778
10
112.0468727
20
45.4032969
11
103.4465727
21
45.4032969
0
LINE
8
DEFAULT_255_2_778
10
103.4465727
20
45.4032969
11
103.4465727
21
46.6232969
0
LINE
8
DEFAULT_255_2_778
10
103.4465727
20
46.6232969
11
112.0468727
21
46.6232969
0
LINE
8
DEFAULT_255_2_778
10
104.9464
20
53.0232969
11
104.9464
21
54.2432969
0
LINE
8
DEFAULT_255_2_778
10
112.0468727
20
53.0232969
11
103.4465727
21
53.0232969
0
LINE
8
DEFAULT_255_2_778
10
103.4465727
20
53.0232969
11
103.4465727
21
54.2432969
0
LINE
8
DEFAULT_255_2_778
10
103.4465727
20
54.2432969
11
112.0468727
21
54.2432969
0
LINE
8
DEFAULT_255_2_778
10
104.9464
20
60.6431969
11
104.9464
21
61.8631969
0
LINE
8
DEFAULT_255_2_778
10
112.0468727
20
60.6431969
11
103.4465727
21
60.6431969
0
LINE
8
DEFAULT_255_2_778
10
103.4465727
20
60.6431969
11
103.4465727
21
61.8631969
0
LINE
8
DEFAULT_255_2_778
10
103.4465727
20
61.8631969
11
112.0468727
21
61.8631969
0
LINE
8
DEFAULT_255_2_778
10
104.9464
20
68.2631969
11
104.9464
21
69.4831969
0
ARC
8
DEFAULT_255_2_778
10
101.7937666
20
73.5705129
40
5.0030046
50
358.4215541
51
359.9998379
0
ARC
8
DEFAULT_255_2_778
10
101.7969621
20
73.5705809
40
4.999809
50
359.9990583
51
21.7981856
0
ARC
8
DEFAULT_255_2_778
10
102.7984759
20
73.5703102
40
4.9985968
50
359.9999083
51
21.807085
0
ARC
8
DEFAULT_255_2_778
10
105.7968889
20
75.3829395
40
0.5000838
50
0.0071844
51
72.5473678
0
ARC
8
DEFAULT_255_2_778
10
107.2967758
20
75.1829053
40
0.5000969
50
359.9996485
51
90.0003515
0
ARC
8
DEFAULT_255_2_778
10
107.2965824
20
70.1830926
40
0.4999904
50
269.9988949
51
0.0010993
0
ARC
8
DEFAULT_255_2_778
10
101.7967653
20
71.7955035
40
4.9997058
50
338.2015877
51
0.000241
0
ARC
8
DEFAULT_255_2_778
10
101.7948844
20
71.7955109
40
5.0015867
50
0.0001552
51
1.5786702
0
ARC
8
DEFAULT_255_2_778
10
102.7976698
20
71.7957953
40
4.9986029
50
338.1929288
51
0.0000784
0
ARC
8
DEFAULT_255_2_778
10
108.5352828
20
74.4331877
40
1.0000144
50
16.966364
51
90.0005745
0
ARC
8
DEFAULT_255_2_778
10
108.5352827
20
70.9334167
40
1.0000145
50
269.9994272
51
343.0336315
0
ARC
8
DEFAULT_255_2_778
10
102.797779
20
72.6832468
40
6.9984188
50
343.0384778
51
0.0004532
0
ARC
8
DEFAULT_255_2_778
10
102.797779
20
72.6833575
40
6.9984188
50
359.9995468
51
16.9615222
0
ARC
8
DEFAULT_255_2_778
10
105.7960914
20
69.9833629
40
0.5000813
50
287.4524303
51
0.0045019
0
LINE
8
DEFAULT_255_2_778
10
112.0468727
20
69.4833022
11
103.4465727
21
69.4833022
0
LINE
8
DEFAULT_255_2_778
10
103.4465727
20
69.4833022
11
103.4465727
21
68.2633022
0
LINE
8
DEFAULT_255_2_778
10
103.4465727
20
68.2633022
11
112.0468727
21
68.2633022
0
LINE
8
DEFAULT_255_2_778
10
110.7469727
20
30.1633022
11
110.7469727
21
23.7633022
0
LINE
8
DEFAULT_255_2_778
10
110.7469727
20
8.5233022
11
105.9465727
21
8.5233022
0
LINE
8
DEFAULT_255_2_778
10
105.9465727
20
8.5233022
11
105.9465727
21
14.9233022
0
LINE
8
DEFAULT_255_2_778
10
106.2966727
20
73.2994022
11
106.7948727
21
73.4327022
0
LINE
8
DEFAULT_255_2_778
10
106.4392727
20
75.4272022
11
106.3368727
21
75.6830022
0
LINE
8
DEFAULT_255_2_778
10
108.4347727
20
71.3208022
11
109.7970727
21
72.6832022
0
LINE
8
DEFAULT_255_2_778
10
109.7970727
20
72.6832022
11
108.4347727
21
74.0455022
0
LINE
8
DEFAULT_255_2_778
10
107.4393727
20
75.4272022
11
107.3369727
21
75.6830022
0
LINE
8
DEFAULT_255_2_778
10
107.2967727
20
75.6830022
11
106.2966727
21
75.6830022
0
LINE
8
DEFAULT_255_2_778
10
106.2966727
20
75.6830022
11
106.2966727
21
69.6831022
0
LINE
8
DEFAULT_255_2_778
10
107.2965727
20
69.6831022
11
106.3365727
21
69.6831022
0
LINE
8
DEFAULT_255_2_778
10
106.3365727
20
69.6831022
11
106.4389727
21
69.9389022
0
LINE
8
DEFAULT_255_2_778
10
106.7945727
20
71.9333022
11
106.2963727
21
72.0667022
0
LINE
8
DEFAULT_255_2_778
10
107.4385727
20
69.9389022
11
107.3361727
21
69.6831022
0
LINE
8
DEFAULT_255_2_778
10
112.0465727
20
75.8830022
11
105.9460727
21
75.8830022
0
LINE
8
DEFAULT_255_2_778
10
105.9460727
20
75.8830022
11
105.9460727
21
69.4830022
0
LINE
8
DEFAULT_255_2_778
10
107.7960727
20
71.9331022
11
107.2959727
21
72.1831022
0
LINE
8
DEFAULT_255_2_778
10
107.2959727
20
72.1831022
11
107.2959727
21
73.1832022
0
LINE
8
DEFAULT_255_2_778
10
107.2959727
20
73.1832022
11
107.7960727
21
73.4333022
0
LINE
8
DEFAULT_255_2_778
10
108.5352727
20
75.4332022
11
107.7960727
21
75.4332022
0
LINE
8
DEFAULT_255_2_778
10
107.7960727
20
75.4332022
11
107.7960727
21
69.9334022
0
LINE
8
DEFAULT_255_2_778
10
107.7960727
20
69.9334022
11
108.5352727
21
69.9334022
0
LINE
8
DEFAULT_255_2_778
10
109.4917727
20
74.7250022
11
109.4917727
21
74.7250022
0
LINE
8
DEFAULT_255_2_778
10
110.7464727
20
75.8833022
11
110.7464727
21
69.4833022
0
ARC
8
DEFAULT_255_2_778
10
101.7937293
20
65.9504461
40
5.0030046
50
358.4215541
51
359.9998379
0
ARC
8
DEFAULT_255_2_778
10
101.7969249
20
65.9505141
40
4.999809
50
359.9990583
51
21.7981856
0
ARC
8
DEFAULT_255_2_778
10
102.7984375
20
65.9502437
40
4.998598
50
359.9999042
51
21.807076
0
ARC
8
DEFAULT_255_2_778
10
105.7968417
20
67.7629704
40
0.4999938
50
359.9959799
51
72.5429149
0
ARC
8
DEFAULT_255_2_778
10
108.5356774
20
63.3134415
40
1.0001062
50
270.0033267
51
343.0297463
0
ARC
8
DEFAULT_255_2_778
10
102.7982417
20
65.06318
40
6.9984188
50
343.0384778
51
0.0004532
0
ARC
8
DEFAULT_255_2_778
10
102.7982417
20
65.0632907
40
6.9984188
50
359.9995468
51
16.9615222
0
ARC
8
DEFAULT_255_2_778
10
108.5356776
20
66.8130295
40
1.000106
50
16.9702369
51
89.9966839
0
ARC
8
DEFAULT_255_2_778
10
107.2964597
20
67.5633596
40
0.5000758
50
0.008676
51
90.0027763
0
ARC
8
DEFAULT_255_2_778
10
107.2962451
20
62.5635257
40
0.4999904
50
269.9989007
51
0.0011051
0
ARC
8
DEFAULT_255_2_778
10
101.7925793
20
64.1766463
40
5.0036358
50
338.2108336
51
0.0005207
0
ARC
8
DEFAULT_255_2_778
10
101.7921698
20
64.1766942
40
5.0040452
50
359.9999714
51
1.5704475
0
ARC
8
DEFAULT_255_2_778
10
102.7953314
20
64.1768829
40
5.0007041
50
338.1944847
51
359.9925803
0
ARC
8
DEFAULT_255_2_778
10
105.7961675
20
62.363408
40
0.499868
50
287.4465042
51
359.9881255
0
LINE
8
DEFAULT_255_2_778
10
106.2960355
20
62.3633044
11
106.2960355
21
62.3635353
0
LINE
8
DEFAULT_255_2_778
10
106.2966355
20
65.6793353
11
106.7948355
21
65.8126353
0
LINE
8
DEFAULT_255_2_778
10
106.4392355
20
67.8071353
11
106.3368355
21
68.0629353
0
LINE
8
DEFAULT_255_2_778
10
108.4347355
20
63.7007353
11
109.7970355
21
65.0631353
0
LINE
8
DEFAULT_255_2_778
10
109.7970355
20
65.0631353
11
108.4347355
21
66.4254353
0
LINE
8
DEFAULT_255_2_778
10
107.4393355
20
67.8071353
11
107.3369355
21
68.0629353
0
LINE
8
DEFAULT_255_2_778
10
105.9468355
20
61.8629353
11
105.9468355
21
68.2629353
0
LINE
8
DEFAULT_255_2_778
10
107.7968355
20
64.3130353
11
107.2967355
21
64.5630353
0
LINE
8
DEFAULT_255_2_778
10
107.2967355
20
64.5630353
11
107.2967355
21
65.5631353
0
LINE
8
DEFAULT_255_2_778
10
107.2967355
20
65.5631353
11
107.7968355
21
65.8132353
0
LINE
8
DEFAULT_255_2_778
10
110.7471355
20
68.2632353
11
110.7471355
21
61.8632353
0
LINE
8
DEFAULT_255_2_778
10
108.5357355
20
67.8131353
11
107.7965355
21
67.8131353
0
LINE
8
DEFAULT_255_2_778
10
107.7965355
20
67.8131353
11
107.7965355
21
62.3133353
0
LINE
8
DEFAULT_255_2_778
10
107.7965355
20
62.3133353
11
108.5357355
21
62.3133353
0
LINE
8
DEFAULT_255_2_778
10
107.2964355
20
68.0634353
11
106.2963355
21
68.0634353
0
LINE
8
DEFAULT_255_2_778
10
106.2963355
20
68.0634353
11
106.2963355
21
62.0635353
0
LINE
8
DEFAULT_255_2_778
10
107.2962355
20
62.0635353
11
106.3363355
21
62.0635353
0
LINE
8
DEFAULT_255_2_778
10
106.3363355
20
62.0635353
11
106.4387355
21
62.3193353
0
LINE
8
DEFAULT_255_2_778
10
106.7943355
20
64.3138353
11
106.2960355
21
64.4471353
0
LINE
8
DEFAULT_255_2_778
10
107.4382355
20
62.3193353
11
107.3359355
21
62.0635353
0
ARC
8
DEFAULT_255_2_778
10
101.7950928
20
58.3304273
40
5.0016411
50
358.4213391
51
359.9998518
0
ARC
8
DEFAULT_255_2_778
10
101.7965669
20
58.3304451
40
5.000167
50
359.9996469
51
21.7973957
0
ARC
8
DEFAULT_255_2_778
10
102.7984375
20
58.3302437
40
4.998598
50
359.9999042
51
21.807076
0
ARC
8
DEFAULT_255_2_778
10
105.7968417
20
60.1429704
40
0.4999938
50
359.9959799
51
72.5429149
0
ARC
8
DEFAULT_255_2_778
10
108.5356774
20
55.6934415
40
1.0001062
50
270.0033267
51
343.0297463
0
ARC
8
DEFAULT_255_2_778
10
102.7982417
20
57.44318
40
6.9984188
50
343.0384778
51
0.0004532
0
ARC
8
DEFAULT_255_2_778
10
102.7982417
20
57.4432907
40
6.9984188
50
359.9995468
51
16.9615222
0
ARC
8
DEFAULT_255_2_778
10
108.5356776
20
59.1930295
40
1.000106
50
16.9702369
51
89.9966839
0
ARC
8
DEFAULT_255_2_778
10
107.2964597
20
59.9433596
40
0.5000758
50
0.008676
51
90.0027763
0
ARC
8
DEFAULT_255_2_778
10
107.2962451
20
54.9435257
40
0.4999904
50
269.9989007
51
0.0011051
0
ARC
8
DEFAULT_255_2_778
10
101.7929373
20
56.5565774
40
5.0032778
50
338.2100445
51
0.0011092
0
ARC
8
DEFAULT_255_2_778
10
101.7907947
20
56.5566754
40
5.0054204
50
359.999987
51
1.570232
0
ARC
8
DEFAULT_255_2_778
10
102.7953314
20
56.5568829
40
5.0007041
50
338.1944847
51
359.9925803
0
ARC
8
DEFAULT_255_2_778
10
105.7961675
20
54.743408
40
0.499868
50
287.4465042
51
359.9881255
0
LINE
8
DEFAULT_255_2_778
10
106.2960355
20
54.7433044
11
106.2960355
21
54.7435353
0
LINE
8
DEFAULT_255_2_778
10
106.2966355
20
58.0593353
11
106.7948355
21
58.1926353
0
LINE
8
DEFAULT_255_2_778
10
106.4392355
20
60.1871353
11
106.3368355
21
60.4429353
0
LINE
8
DEFAULT_255_2_778
10
108.4347355
20
56.0807353
11
109.7970355
21
57.4431353
0
LINE
8
DEFAULT_255_2_778
10
109.7970355
20
57.4431353
11
108.4347355
21
58.8054353
0
LINE
8
DEFAULT_255_2_778
10
107.4393355
20
60.1871353
11
107.3369355
21
60.4429353
0
LINE
8
DEFAULT_255_2_778
10
105.9468355
20
54.2429353
11
105.9468355
21
60.6429353
0
LINE
8
DEFAULT_255_2_778
10
107.7968355
20
56.6930353
11
107.2967355
21
56.9430353
0
LINE
8
DEFAULT_255_2_778
10
107.2967355
20
56.9430353
11
107.2967355
21
57.9431353
0
LINE
8
DEFAULT_255_2_778
10
107.2967355
20
57.9431353
11
107.7968355
21
58.1932353
0
LINE
8
DEFAULT_255_2_778
10
110.7471355
20
60.6432353
11
110.7471355
21
54.2432353
0
LINE
8
DEFAULT_255_2_778
10
108.5357355
20
60.1931353
11
107.7965355
21
60.1931353
0
LINE
8
DEFAULT_255_2_778
10
107.7965355
20
60.1931353
11
107.7965355
21
54.6933353
0
LINE
8
DEFAULT_255_2_778
10
107.7965355
20
54.6933353
11
108.5357355
21
54.6933353
0
LINE
8
DEFAULT_255_2_778
10
107.2964355
20
60.4434353
11
106.2963355
21
60.4434353
0
LINE
8
DEFAULT_255_2_778
10
106.2963355
20
60.4434353
11
106.2963355
21
54.4435353
0
LINE
8
DEFAULT_255_2_778
10
107.2962355
20
54.4435353
11
106.3363355
21
54.4435353
0
LINE
8
DEFAULT_255_2_778
10
106.3363355
20
54.4435353
11
106.4387355
21
54.6993353
0
LINE
8
DEFAULT_255_2_778
10
106.7943355
20
56.6938353
11
106.2960355
21
56.8271353
0
LINE
8
DEFAULT_255_2_778
10
107.4382355
20
54.6993353
11
107.3359355
21
54.4435353
0
ARC
8
DEFAULT_255_2_778
10
101.7950928
20
50.710495
40
5.0016411
50
358.4213391
51
359.9998518
0
ARC
8
DEFAULT_255_2_778
10
101.7965669
20
50.7105128
40
5.000167
50
359.9996469
51
21.7973957
0
ARC
8
DEFAULT_255_2_778
10
102.7984375
20
50.7103114
40
4.998598
50
359.9999042
51
21.807076
0
ARC
8
DEFAULT_255_2_778
10
105.7968417
20
52.5230381
40
0.4999938
50
359.9959799
51
72.5429149
0
ARC
8
DEFAULT_255_2_778
10
108.5356774
20
48.0735092
40
1.0001062
50
270.0033267
51
343.0297463
0
ARC
8
DEFAULT_255_2_778
10
102.7982417
20
49.8232477
40
6.9984188
50
343.0384778
51
0.0004532
0
ARC
8
DEFAULT_255_2_778
10
102.7982417
20
49.8233584
40
6.9984188
50
359.9995468
51
16.9615222
0
ARC
8
DEFAULT_255_2_778
10
108.5356776
20
51.5730972
40
1.000106
50
16.9702369
51
89.9966839
0
ARC
8
DEFAULT_255_2_778
10
107.2964597
20
52.3234273
40
0.5000758
50
0.008676
51
90.0027763
0
ARC
8
DEFAULT_255_2_778
10
107.2962451
20
47.3235934
40
0.4999904
50
269.9989007
51
0.0011051
0
ARC
8
DEFAULT_255_2_778
10
101.7925793
20
48.936714
40
5.0036358
50
338.2108336
51
0.0005207
0
ARC
8
DEFAULT_255_2_778
10
101.7921698
20
48.9367619
40
5.0040452
50
359.9999714
51
1.5704475
0
ARC
8
DEFAULT_255_2_778
10
102.7953314
20
48.9369506
40
5.0007041
50
338.1944847
51
359.9925803
0
ARC
8
DEFAULT_255_2_778
10
105.7961675
20
47.1234758
40
0.499868
50
287.4465042
51
359.9881255
0
LINE
8
DEFAULT_255_2_778
10
106.2960355
20
47.1233722
11
106.2960355
21
47.123603
0
LINE
8
DEFAULT_255_2_778
10
106.2966355
20
50.439403
11
106.7948355
21
50.572703
0
LINE
8
DEFAULT_255_2_778
10
106.4392355
20
52.567203
11
106.3368355
21
52.823003
0
LINE
8
DEFAULT_255_2_778
10
108.4347355
20
48.460803
11
109.7970355
21
49.823203
0
LINE
8
DEFAULT_255_2_778
10
109.7970355
20
49.823203
11
108.4347355
21
51.185503
0
LINE
8
DEFAULT_255_2_778
10
107.4393355
20
52.567203
11
107.3369355
21
52.823003
0
LINE
8
DEFAULT_255_2_778
10
107.7968355
20
49.073103
11
107.2967355
21
49.323103
0
LINE
8
DEFAULT_255_2_778
10
107.2967355
20
49.323103
11
107.2967355
21
50.323203
0
LINE
8
DEFAULT_255_2_778
10
107.2967355
20
50.323203
11
107.7968355
21
50.573303
0
LINE
8
DEFAULT_255_2_778
10
105.9468355
20
46.623303
11
105.9468355
21
53.023303
0
LINE
8
DEFAULT_255_2_778
10
110.7471355
20
53.023303
11
110.7471355
21
46.623303
0
LINE
8
DEFAULT_255_2_778
10
108.5357355
20
52.573203
11
107.7965355
21
52.573203
0
LINE
8
DEFAULT_255_2_778
10
107.7965355
20
52.573203
11
107.7965355
21
47.073403
0
LINE
8
DEFAULT_255_2_778
10
107.7965355
20
47.073403
11
108.5357355
21
47.073403
0
LINE
8
DEFAULT_255_2_778
10
107.2964355
20
52.823503
11
106.2963355
21
52.823503
0
LINE
8
DEFAULT_255_2_778
10
106.2963355
20
52.823503
11
106.2963355
21
46.823603
0
LINE
8
DEFAULT_255_2_778
10
107.2962355
20
46.823603
11
106.3363355
21
46.823603
0
LINE
8
DEFAULT_255_2_778
10
106.3363355
20
46.823603
11
106.4387355
21
47.079403
0
LINE
8
DEFAULT_255_2_778
10
106.7943355
20
49.073903
11
106.2960355
21
49.207203
0
LINE
8
DEFAULT_255_2_778
10
107.4382355
20
47.079403
11
107.3359355
21
46.823603
0
ARC
8
DEFAULT_255_2_778
10
101.7950928
20
43.090495
40
5.0016411
50
358.4213391
51
359.9998518
0
ARC
8
DEFAULT_255_2_778
10
101.7965669
20
43.0905128
40
5.000167
50
359.9996469
51
21.7973957
0
ARC
8
DEFAULT_255_2_778
10
102.7984375
20
43.0903114
40
4.998598
50
359.9999042
51
21.807076
0
ARC
8
DEFAULT_255_2_778
10
105.7968417
20
44.9030381
40
0.4999938
50
359.9959799
51
72.5429149
0
ARC
8
DEFAULT_255_2_778
10
108.5356774
20
40.4535092
40
1.0001062
50
270.0033267
51
343.0297463
0
ARC
8
DEFAULT_255_2_778
10
102.7982417
20
42.2032477
40
6.9984188
50
343.0384778
51
0.0004532
0
ARC
8
DEFAULT_255_2_778
10
102.7982417
20
42.2033584
40
6.9984188
50
359.9995468
51
16.9615222
0
ARC
8
DEFAULT_255_2_778
10
108.5356776
20
43.9530972
40
1.000106
50
16.9702369
51
89.9966839
0
ARC
8
DEFAULT_255_2_778
10
107.2964597
20
44.7034273
40
0.5000758
50
0.008676
51
90.0027763
0
ARC
8
DEFAULT_255_2_778
10
107.2962451
20
39.7035934
40
0.4999904
50
269.9989007
51
0.0011051
0
ARC
8
DEFAULT_255_2_778
10
101.7925793
20
41.316714
40
5.0036358
50
338.2108336
51
0.0005207
0
ARC
8
DEFAULT_255_2_778
10
101.7921698
20
41.3167619
40
5.0040452
50
359.9999714
51
1.5704475
0
ARC
8
DEFAULT_255_2_778
10
102.7953314
20
41.3169506
40
5.0007041
50
338.1944847
51
359.9925803
0
ARC
8
DEFAULT_255_2_778
10
105.7961675
20
39.5034758
40
0.499868
50
287.4465042
51
359.9881255
0
LINE
8
DEFAULT_255_2_778
10
106.2960355
20
39.5033722
11
106.2960355
21
39.503603
0
LINE
8
DEFAULT_255_2_778
10
106.2966355
20
42.819403
11
106.7948355
21
42.952703
0
LINE
8
DEFAULT_255_2_778
10
106.4392355
20
44.947203
11
106.3368355
21
45.203003
0
LINE
8
DEFAULT_255_2_778
10
108.4347355
20
40.840803
11
109.7970355
21
42.203203
0
LINE
8
DEFAULT_255_2_778
10
109.7970355
20
42.203203
11
108.4347355
21
43.565503
0
LINE
8
DEFAULT_255_2_778
10
107.4393355
20
44.947203
11
107.3369355
21
45.203003
0
LINE
8
DEFAULT_255_2_778
10
107.7968355
20
41.453103
11
107.2967355
21
41.703103
0
LINE
8
DEFAULT_255_2_778
10
107.2967355
20
41.703103
11
107.2967355
21
42.703203
0
LINE
8
DEFAULT_255_2_778
10
107.2967355
20
42.703203
11
107.7968355
21
42.953303
0
LINE
8
DEFAULT_255_2_778
10
105.9468355
20
39.003303
11
105.9468355
21
45.403303
0
LINE
8
DEFAULT_255_2_778
10
110.7471355
20
45.403303
11
110.7471355
21
39.003303
0
LINE
8
DEFAULT_255_2_778
10
108.5357355
20
44.953203
11
107.7965355
21
44.953203
0
LINE
8
DEFAULT_255_2_778
10
107.7965355
20
44.953203
11
107.7965355
21
39.453403
0
LINE
8
DEFAULT_255_2_778
10
107.7965355
20
39.453403
11
108.5357355
21
39.453403
0
LINE
8
DEFAULT_255_2_778
10
107.2964355
20
45.203503
11
106.2963355
21
45.203503
0
LINE
8
DEFAULT_255_2_778
10
106.2963355
20
45.203503
11
106.2963355
21
39.203603
0
LINE
8
DEFAULT_255_2_778
10
107.2962355
20
39.203603
11
106.3363355
21
39.203603
0
LINE
8
DEFAULT_255_2_778
10
106.3363355
20
39.203603
11
106.4387355
21
39.459403
0
LINE
8
DEFAULT_255_2_778
10
106.7943355
20
41.453903
11
106.2960355
21
41.587203
0
LINE
8
DEFAULT_255_2_778
10
107.4382355
20
39.459403
11
107.3359355
21
39.203603
0
ARC
8
DEFAULT_255_2_778
10
101.7927325
20
35.46985
40
5.0040441
50
358.4295524
51
0.0000285
0
ARC
8
DEFAULT_255_2_778
10
101.7940136
20
35.469966
40
5.002763
50
359.9987001
51
21.7910903
0
ARC
8
DEFAULT_255_2_778
10
102.7953915
20
35.4696185
40
5.0017056
50
0.0079083
51
21.8002197
0
ARC
8
DEFAULT_255_2_778
10
105.7967803
20
37.2829537
40
0.5001168
50
359.9948705
51
72.5325798
0
ARC
8
DEFAULT_255_2_778
10
108.5355506
20
32.8336285
40
1.0003196
50
270.0141177
51
343.0266829
0
ARC
8
DEFAULT_255_2_778
10
102.7983194
20
34.5832507
40
6.9984025
50
343.0384611
51
359.9910614
0
LINE
8
DEFAULT_255_2_778
10
109.796722
20
34.5821589
11
109.7967221
21
34.5832964
0
ARC
8
DEFAULT_255_2_778
10
102.7990719
20
34.5833788
40
6.9976502
50
359.9993249
51
16.9624606
0
ARC
8
DEFAULT_255_2_778
10
108.5357334
20
36.3331362
40
1.0000727
50
16.9628434
51
89.996352
0
ARC
8
DEFAULT_255_2_778
10
107.2965855
20
37.0831973
40
0.5000116
50
0.0013268
51
90.0101312
0
ARC
8
DEFAULT_255_2_778
10
107.2962001
20
32.0834058
40
0.5000969
50
269.9996485
51
0.0003515
0
ARC
8
DEFAULT_255_2_778
10
101.7960284
20
33.6957991
40
5.000167
50
338.2026043
51
0.0003531
0
ARC
8
DEFAULT_255_2_778
10
101.7945544
20
33.695817
40
5.0016411
50
0.0001482
51
1.5786609
0
ARC
8
DEFAULT_255_2_778
10
102.7953943
20
33.6966564
40
5.0007028
50
338.1944799
51
359.992581
0
ARC
8
DEFAULT_255_2_778
10
105.7961035
20
31.8832738
40
0.4999936
50
287.4570609
51
0.0040209
0
ARC
8
DEFAULT_255_2_778
10
101.7927325
20
27.84985
40
5.0040441
50
358.4295524
51
0.0000285
0
ARC
8
DEFAULT_255_2_778
10
101.7940136
20
27.849966
40
5.002763
50
359.9987001
51
21.7910903
0
ARC
8
DEFAULT_255_2_778
10
102.7953915
20
27.8496185
40
5.0017056
50
0.0079083
51
21.8002197
0
ARC
8
DEFAULT_255_2_778
10
105.7967803
20
29.6629536
40
0.5001168
50
359.9948755
51
72.5325779
0
ARC
8
DEFAULT_255_2_778
10
107.2967216
20
29.4629335
40
0.5000755
50
359.9971846
51
89.9913517
0
ARC
8
DEFAULT_255_2_778
10
108.5343398
20
25.2142354
40
1.0017425
50
331.3217611
51
342.9972866
0
ARC
8
DEFAULT_255_2_778
10
102.7983033
20
26.9629535
40
6.9984188
50
343.0384778
51
0.0004532
0
ARC
8
DEFAULT_255_2_778
10
102.7983033
20
26.9630643
40
6.9984188
50
359.9995468
51
16.9615222
0
ARC
8
DEFAULT_255_2_778
10
108.5357393
20
28.7128029
40
1.0001059
50
16.9702468
51
89.996693
0
ARC
8
DEFAULT_255_2_778
10
107.2965001
20
16.8434058
40
0.5000969
50
269.9996485
51
0.0003515
0
ARC
8
DEFAULT_255_2_778
10
101.7963284
20
18.4557991
40
5.000167
50
338.2026043
51
0.0003531
0
ARC
8
DEFAULT_255_2_778
10
101.7948544
20
18.455817
40
5.0016411
50
0.0001482
51
1.5786609
0
ARC
8
DEFAULT_255_2_778
10
102.7956932
20
18.4563873
40
5.0006039
50
338.1973469
51
359.9956638
0
ARC
8
DEFAULT_255_2_778
10
105.7964391
20
16.6432791
40
0.499958
50
287.4420531
51
0.0034116
0
ARC
8
DEFAULT_255_2_778
10
108.5355911
20
17.5934686
40
0.9998597
50
270.0003403
51
343.0461946
0
ARC
8
DEFAULT_255_2_778
10
102.7996554
20
19.3432538
40
6.9967511
50
343.036879
51
0.0024261
0
ARC
8
DEFAULT_255_2_778
10
102.7936976
20
19.3435667
40
7.0027088
50
359.9998638
51
0.6210674
0
ARC
8
DEFAULT_255_2_778
10
102.7918197
20
19.3434553
40
7.0045876
50
0.6218118
51
13.2836106
0
ARC
8
DEFAULT_255_2_778
10
101.7927325
20
12.60985
40
5.0040441
50
358.4295524
51
0.0000285
0
ARC
8
DEFAULT_255_2_778
10
101.7940136
20
12.609966
40
5.002763
50
359.9987001
51
21.7910903
0
ARC
8
DEFAULT_255_2_778
10
102.7953915
20
12.6096185
40
5.0017056
50
0.0079083
51
21.8002197
0
ARC
8
DEFAULT_255_2_778
10
105.7967803
20
14.4229536
40
0.5001168
50
359.9948755
51
72.5325779
0
ARC
8
DEFAULT_255_2_778
10
108.5358505
20
9.9736287
40
1.0003198
50
270.0141227
51
343.0266754
0
ARC
8
DEFAULT_255_2_778
10
102.7969529
20
11.7232421
40
6.9999941
50
343.0425083
51
359.9911343
0
LINE
8
DEFAULT_255_2_778
10
109.796947
20
11.7221589
11
109.7969471
21
11.7232964
0
ARC
8
DEFAULT_255_2_778
10
102.7976984
20
11.7233871
40
6.9992487
50
359.9992575
51
16.9583993
0
ARC
8
DEFAULT_255_2_778
10
108.5360332
20
13.4731359
40
1.000073
50
16.9628592
51
89.9963396
0
ARC
8
DEFAULT_255_2_778
10
107.2967216
20
14.2234335
40
0.5000755
50
359.9971846
51
89.9913517
0
ARC
8
DEFAULT_255_2_778
10
107.2965855
20
9.2236205
40
0.5000116
50
269.9898688
51
359.9986732
0
ARC
8
DEFAULT_255_2_778
10
101.7967897
20
10.8360102
40
4.9997058
50
338.2015877
51
0.000241
0
ARC
8
DEFAULT_255_2_778
10
101.7949088
20
10.8360176
40
5.0015867
50
0.0001552
51
1.5786702
0
ARC
8
DEFAULT_255_2_778
10
102.7956932
20
10.8366873
40
5.0006039
50
338.1973469
51
359.9956638
0
ARC
8
DEFAULT_255_2_778
10
105.7962235
20
9.0236373
40
0.5001735
50
287.460182
51
359.9967477
0
ARC
8
DEFAULT_255_2_778
10
99.2968001
20
5.4134058
40
0.5000969
50
269.9996485
51
0.0003515
0
ARC
8
DEFAULT_255_2_778
10
93.7966284
20
7.0257991
40
5.000167
50
338.2026043
51
0.0003531
0
ARC
8
DEFAULT_255_2_778
10
93.7951544
20
7.025817
40
5.0016411
50
0.0001482
51
1.5786609
0
ARC
8
DEFAULT_255_2_778
10
94.7979958
20
7.0260019
40
4.9986012
50
338.1929233
51
0.0000802
0
ARC
8
DEFAULT_255_2_778
10
97.796703
20
5.2132741
40
0.499994
50
287.4571079
51
0.0039898
0
ARC
8
DEFAULT_255_2_778
10
100.5358969
20
6.1630017
40
0.9998928
50
270.0000086
51
343.0387995
0
ARC
8
DEFAULT_255_2_778
10
94.7967775
20
7.9129944
40
6.9998901
50
343.0418008
51
359.99971
0
ARC
8
DEFAULT_255_2_778
10
94.7987937
20
7.9129668
40
6.9978738
50
359.9999363
51
1.1836447
0
ARC
8
DEFAULT_255_2_778
10
94.7983229
20
7.9129735
40
6.9983445
50
1.1835101
51
9.7879586
0
ARC
8
DEFAULT_255_2_778
10
99.2965855
20
13.0330205
40
0.5000116
50
270.0013268
51
0.0101312
0
ARC
8
DEFAULT_255_2_778
10
93.7934039
20
14.6461307
40
5.0031728
50
338.2098128
51
0.0004105
0
ARC
8
DEFAULT_255_2_778
10
93.7925638
20
14.6461683
40
5.0040128
50
359.9999801
51
1.5704516
0
ARC
8
DEFAULT_255_2_778
10
94.7958219
20
14.6464318
40
5.0005752
50
338.1941988
51
359.9917173
0
ARC
8
DEFAULT_255_2_778
10
97.7961879
20
12.8331321
40
0.5002093
50
287.4751802
51
359.997346
0
ARC
8
DEFAULT_255_2_778
10
100.5355333
20
13.7823818
40
1.0000729
50
270.003653
51
343.0371436
0
ARC
8
DEFAULT_255_2_778
10
94.798481
20
15.5317714
40
6.9979168
50
343.0413515
51
0.0007704
0
ARC
8
DEFAULT_255_2_778
10
94.7971784
20
15.5318727
40
6.9992195
50
359.9999409
51
1.1955183
0
ARC
8
DEFAULT_255_2_778
10
94.796175
20
15.5318326
40
7.0002235
50
1.1956747
51
9.7881367
0
ARC
8
DEFAULT_255_2_778
10
97.7965801
20
20.4530644
40
0.5001171
50
287.4674337
51
0.0050941
0
ARC
8
DEFAULT_255_2_778
10
93.7970897
20
22.2655102
40
4.9997058
50
338.2015877
51
0.000241
0
ARC
8
DEFAULT_255_2_778
10
93.7952088
20
22.2655176
40
5.0015867
50
0.0001552
51
1.5786702
0
ARC
8
DEFAULT_255_2_778
10
93.7952088
20
29.8860176
40
5.0015867
50
0.0001552
51
1.5786702
0
ARC
8
DEFAULT_255_2_778
10
93.7970897
20
29.8860102
40
4.9997058
50
338.2015877
51
0.000241
0
ARC
8
DEFAULT_255_2_778
10
97.7968235
20
28.0736373
40
0.5001735
50
287.460182
51
359.9967477
0
ARC
8
DEFAULT_255_2_778
10
100.5357084
20
29.0234153
40
1.0001064
50
270.0108074
51
343.0357275
0
ARC
8
DEFAULT_255_2_778
10
94.7973685
20
30.7732064
40
6.9992991
50
343.0410792
51
0.0002225
0
ARC
8
DEFAULT_255_2_778
10
94.7961501
20
30.773222
40
7.0005175
50
0.0000947
51
1.1823107
0
ARC
8
DEFAULT_255_2_778
10
94.7981587
20
30.7732614
40
6.9985084
50
1.1823272
51
9.7878275
0
ARC
8
DEFAULT_255_2_778
10
99.2965855
20
35.8930205
40
0.5000116
50
270.0013268
51
0.0101312
0
ARC
8
DEFAULT_255_2_778
10
93.7934039
20
37.5061307
40
5.0031728
50
338.2098128
51
0.0004105
0
ARC
8
DEFAULT_255_2_778
10
93.7925638
20
37.5061683
40
5.0040128
50
359.9999801
51
1.5704516
0
ARC
8
DEFAULT_255_2_778
10
94.7958219
20
37.5064318
40
5.0005752
50
338.1941988
51
359.9917173
0
ARC
8
DEFAULT_255_2_778
10
97.7961878
20
35.6931321
40
0.5002093
50
287.4751893
51
359.9973425
0
ARC
8
DEFAULT_255_2_778
10
100.5354416
20
36.6430053
40
1.0001964
50
270.0089027
51
343.0319097
0
ARC
8
DEFAULT_255_2_778
10
94.7982068
20
38.3923122
40
6.998191
50
343.0416863
51
0.0007971
0
ARC
8
DEFAULT_255_2_778
10
94.7964067
20
38.3923987
40
6.9999912
50
0.0000896
51
1.1644491
0
ARC
8
DEFAULT_255_2_778
10
94.7971299
20
38.3924182
40
6.9992678
50
1.1644091
51
9.7887752
0
LINE
8
DEFAULT_255_2_778
10
106.2966971
20
35.1993089
11
106.7948971
21
35.3327089
0
LINE
8
DEFAULT_255_2_778
10
106.4392971
20
37.3271089
11
106.3368971
21
37.5830089
0
LINE
8
DEFAULT_255_2_778
10
108.4346971
20
33.2208089
11
109.7970971
21
34.5831089
0
LINE
8
DEFAULT_255_2_778
10
109.7970971
20
34.5831089
11
108.4346971
21
35.9455089
0
LINE
8
DEFAULT_255_2_778
10
107.4393971
20
37.3271089
11
107.3369971
21
37.5830089
0
LINE
8
DEFAULT_255_2_778
10
107.7967971
20
33.8330089
11
107.2967971
21
34.0831089
0
LINE
8
DEFAULT_255_2_778
10
107.2967971
20
34.0831089
11
107.2967971
21
35.0832089
0
LINE
8
DEFAULT_255_2_778
10
107.2967971
20
35.0832089
11
107.7967971
21
35.3332089
0
LINE
8
DEFAULT_255_2_778
10
105.9468971
20
31.3833089
11
105.9468971
21
37.7833089
0
LINE
8
DEFAULT_255_2_778
10
110.7471971
20
37.7833089
11
110.7471971
21
31.3833089
0
LINE
8
DEFAULT_255_2_778
10
108.5357971
20
37.3332089
11
107.7965971
21
37.3332089
0
LINE
8
DEFAULT_255_2_778
10
107.7965971
20
37.3332089
11
107.7965971
21
31.8333089
0
LINE
8
DEFAULT_255_2_778
10
107.7965971
20
31.8333089
11
108.5357971
21
31.8333089
0
LINE
8
DEFAULT_255_2_778
10
107.2964971
20
37.5832089
11
106.2963971
21
37.5832089
0
LINE
8
DEFAULT_255_2_778
10
106.2963971
20
37.5832089
11
106.2963971
21
31.5833089
0
LINE
8
DEFAULT_255_2_778
10
107.2961971
20
31.5833089
11
106.3362971
21
31.5833089
0
LINE
8
DEFAULT_255_2_778
10
106.3362971
20
31.5833089
11
106.4386971
21
31.8391089
0
LINE
8
DEFAULT_255_2_778
10
106.7942971
20
33.8336089
11
106.2960971
21
33.9669089
0
LINE
8
DEFAULT_255_2_778
10
107.4382971
20
31.8391089
11
107.3358971
21
31.5833089
0
LINE
8
DEFAULT_255_2_778
10
106.2966971
20
27.5793089
11
106.7948971
21
27.7127089
0
LINE
8
DEFAULT_255_2_778
10
106.4392971
20
29.7071089
11
106.3368971
21
29.9630089
0
LINE
8
DEFAULT_255_2_778
10
108.4346971
20
25.6008089
11
109.7970971
21
26.9631089
0
LINE
8
DEFAULT_255_2_778
10
109.7970971
20
26.9631089
11
108.4346971
21
28.3255089
0
LINE
8
DEFAULT_255_2_778
10
107.4393971
20
29.7071089
11
107.3369971
21
29.9630089
0
LINE
8
DEFAULT_255_2_778
10
107.2967971
20
29.9630089
11
106.2966971
21
29.9630089
0
LINE
8
DEFAULT_255_2_778
10
106.2966971
20
29.9630089
11
106.2966971
21
26.4644089
0
LINE
8
DEFAULT_255_2_778
10
107.7965971
20
26.2130089
11
107.2964971
21
26.4631089
0
LINE
8
DEFAULT_255_2_778
10
107.2964971
20
26.4631089
11
107.2964971
21
27.4632089
0
LINE
8
DEFAULT_255_2_778
10
107.2964971
20
27.4632089
11
107.7965971
21
27.7132089
0
LINE
8
DEFAULT_255_2_778
10
108.5357971
20
29.7129089
11
107.7965971
21
29.7129089
0
LINE
8
DEFAULT_255_2_778
10
107.7965971
20
29.7129089
11
107.7965971
21
25.8326089
0
LINE
8
DEFAULT_255_2_778
10
105.9465971
20
26.5811089
11
105.9465971
21
30.1630089
0
LINE
8
DEFAULT_255_2_778
10
107.2964971
20
16.3433089
11
106.3365971
21
16.3433089
0
LINE
8
DEFAULT_255_2_778
10
106.3365971
20
16.3433089
11
106.4389971
21
16.5991089
0
LINE
8
DEFAULT_255_2_778
10
106.7945971
20
18.5936089
11
106.2963971
21
18.7269089
0
LINE
8
DEFAULT_255_2_778
10
107.4385971
20
16.5991089
11
107.3361971
21
16.3433089
0
LINE
8
DEFAULT_255_2_778
10
106.2963971
20
16.3433089
11
106.2963971
21
19.0248089
0
LINE
8
DEFAULT_255_2_778
10
105.9462971
20
16.1433089
11
105.9462971
21
18.9082089
0
LINE
8
DEFAULT_255_2_778
10
108.4339971
20
17.9811089
11
109.7962971
21
19.3434089
0
LINE
8
DEFAULT_255_2_778
10
109.7962971
20
19.3434089
11
108.8477971
21
20.2919089
0
LINE
8
DEFAULT_255_2_778
10
107.7962971
20
18.5936089
11
107.2961971
21
18.8436089
0
LINE
8
DEFAULT_255_2_778
10
107.2961971
20
18.8436089
11
107.2961971
21
19.4188089
0
LINE
8
DEFAULT_255_2_778
10
107.7962971
20
19.6569089
11
107.7962971
21
16.5936089
0
LINE
8
DEFAULT_255_2_778
10
107.7962971
20
16.5936089
11
108.5355971
21
16.5936089
0
LINE
8
DEFAULT_255_2_778
10
106.2966971
20
12.3393089
11
106.7948971
21
12.4727089
0
LINE
8
DEFAULT_255_2_778
10
106.4392971
20
14.4671089
11
106.3368971
21
14.7230089
0
LINE
8
DEFAULT_255_2_778
10
108.4346971
20
10.3608089
11
109.7970971
21
11.7231089
0
LINE
8
DEFAULT_255_2_778
10
109.7970971
20
11.7231089
11
108.4346971
21
13.0855089
0
LINE
8
DEFAULT_255_2_778
10
107.4393971
20
14.4671089
11
107.3369971
21
14.7230089
0
LINE
8
DEFAULT_255_2_778
10
107.7967971
20
10.9730089
11
107.2967971
21
11.2231089
0
LINE
8
DEFAULT_255_2_778
10
107.2967971
20
11.2231089
11
107.2967971
21
12.2232089
0
LINE
8
DEFAULT_255_2_778
10
107.2967971
20
12.2232089
11
107.7967971
21
12.4732089
0
LINE
8
DEFAULT_255_2_778
10
108.5360971
20
14.4732089
11
107.7967971
21
14.4732089
0
LINE
8
DEFAULT_255_2_778
10
107.7967971
20
14.4732089
11
107.7967971
21
8.9733089
0
LINE
8
DEFAULT_255_2_778
10
107.7967971
20
8.9733089
11
108.5360971
21
8.9733089
0
LINE
8
DEFAULT_255_2_778
10
107.2967971
20
14.7235089
11
106.2966971
21
14.7235089
0
LINE
8
DEFAULT_255_2_778
10
106.2966971
20
14.7235089
11
106.2966971
21
8.7236089
0
LINE
8
DEFAULT_255_2_778
10
107.2964971
20
8.7236089
11
106.3365971
21
8.7236089
0
LINE
8
DEFAULT_255_2_778
10
106.3365971
20
8.7236089
11
106.4389971
21
8.9794089
0
LINE
8
DEFAULT_255_2_778
10
106.7945971
20
10.9738089
11
106.2963971
21
11.1072089
0
LINE
8
DEFAULT_255_2_778
10
107.4385971
20
8.9794089
11
107.3361971
21
8.7236089
0
LINE
8
DEFAULT_255_2_778
10
100.4345971
20
6.5511089
11
101.7968971
21
7.9134089
0
LINE
8
DEFAULT_255_2_778
10
101.7968971
20
7.9134089
11
100.6069971
21
9.1032089
0
LINE
8
DEFAULT_255_2_778
10
99.7968971
20
8.8005089
11
99.7875971
21
9.1032089
0
LINE
8
DEFAULT_255_2_778
10
99.2967971
20
4.9133089
11
98.3368971
21
4.9133089
0
LINE
8
DEFAULT_255_2_778
10
98.3368971
20
4.9133089
11
98.4392971
21
5.1691089
0
LINE
8
DEFAULT_255_2_778
10
98.7948971
20
7.1636089
11
98.2966971
21
7.2969089
0
LINE
8
DEFAULT_255_2_778
10
99.4388971
20
5.1691089
11
99.3364971
21
4.9133089
0
LINE
8
DEFAULT_255_2_778
10
98.2966971
20
4.9133089
11
98.2966971
21
9.1030089
0
LINE
8
DEFAULT_255_2_778
10
98.2966971
20
8.5291089
11
98.7948971
21
8.6624089
0
LINE
8
DEFAULT_255_2_778
10
98.7948971
20
8.6624089
11
98.7874971
21
9.1027089
0
LINE
8
DEFAULT_255_2_778
10
99.7965971
20
7.1630089
11
99.2965971
21
7.4131089
0
LINE
8
DEFAULT_255_2_778
10
99.2965971
20
7.4131089
11
99.2965971
21
8.4132089
0
LINE
8
DEFAULT_255_2_778
10
99.2965971
20
8.4132089
11
99.7965971
21
8.6632089
0
LINE
8
DEFAULT_255_2_778
10
99.7965971
20
9.1030089
11
99.7965971
21
5.1631089
0
LINE
8
DEFAULT_255_2_778
10
99.7965971
20
5.1631089
11
100.5358971
21
5.1631089
0
LINE
8
DEFAULT_255_2_778
10
99.2965971
20
12.5330089
11
98.3366971
21
12.5330089
0
LINE
8
DEFAULT_255_2_778
10
98.3366971
20
12.5330089
11
98.4390971
21
12.7889089
0
LINE
8
DEFAULT_255_2_778
10
98.7946971
20
14.7833089
11
98.2963971
21
14.9167089
0
LINE
8
DEFAULT_255_2_778
10
99.4385971
20
12.7889089
11
99.3362971
21
12.5330089
0
LINE
8
DEFAULT_255_2_778
10
98.2963971
20
12.5330089
11
98.2963971
21
16.7227089
0
LINE
8
DEFAULT_255_2_778
10
98.2963971
20
16.1488089
11
98.7946971
21
16.2822089
0
LINE
8
DEFAULT_255_2_778
10
98.7946971
20
16.2822089
11
98.7871971
21
16.7224089
0
LINE
8
DEFAULT_255_2_778
10
100.6064971
20
16.7224089
11
101.7963971
21
15.5326089
0
LINE
8
DEFAULT_255_2_778
10
101.7963971
20
15.5326089
11
100.4339971
21
14.1703089
0
LINE
8
DEFAULT_255_2_778
10
99.7963971
20
16.7222089
11
99.7963971
21
12.7823089
0
LINE
8
DEFAULT_255_2_778
10
99.7963971
20
12.7823089
11
100.5355971
21
12.7823089
0
LINE
8
DEFAULT_255_2_778
10
99.7963971
20
14.7822089
11
99.2962971
21
15.0323089
0
LINE
8
DEFAULT_255_2_778
10
99.2962971
20
15.0323089
11
99.2962971
21
16.0324089
0
LINE
8
DEFAULT_255_2_778
10
99.2962971
20
16.0324089
11
99.7963971
21
16.2824089
0
LINE
8
DEFAULT_255_2_778
10
98.2966971
20
23.7691089
11
98.7948971
21
23.9024089
0
LINE
8
DEFAULT_255_2_778
10
98.7948971
20
23.9024089
11
98.7874971
21
24.3427089
0
LINE
8
DEFAULT_255_2_778
10
98.2966971
20
20.1530089
11
98.2966971
21
24.3427089
0
LINE
8
DEFAULT_255_2_778
10
98.9160971
20
20.1530089
11
98.3368971
21
20.1530089
0
LINE
8
DEFAULT_255_2_778
10
98.3368971
20
20.1530089
11
98.4392971
21
20.4089089
0
LINE
8
DEFAULT_255_2_778
10
98.7948971
20
22.4033089
11
98.2966971
21
22.5367089
0
LINE
8
DEFAULT_255_2_778
10
98.2966971
20
30.1572089
11
98.7948971
21
30.0238089
0
LINE
8
DEFAULT_255_2_778
10
98.4392971
20
28.0294089
11
98.3368971
21
27.7736089
0
LINE
8
DEFAULT_255_2_778
10
98.2969971
20
31.3896089
11
98.7951971
21
31.5230089
0
LINE
8
DEFAULT_255_2_778
10
98.7951971
20
31.5230089
11
98.7877971
21
31.9632089
0
LINE
8
DEFAULT_255_2_778
10
100.6069971
20
31.9632089
11
101.7968971
21
30.7734089
0
LINE
8
DEFAULT_255_2_778
10
101.7968971
20
30.7734089
11
100.4345971
21
29.4111089
0
LINE
8
DEFAULT_255_2_778
10
99.9159971
20
28.0233089
11
100.5358971
21
28.0233089
0
LINE
8
DEFAULT_255_2_778
10
98.9157971
20
27.7733089
11
98.2963971
21
27.7733089
0
LINE
8
DEFAULT_255_2_778
10
98.2963971
20
27.7733089
11
98.2963971
21
31.9630089
0
LINE
8
DEFAULT_255_2_778
10
99.2965971
20
35.3930089
11
98.3366971
21
35.3930089
0
LINE
8
DEFAULT_255_2_778
10
98.3366971
20
35.3930089
11
98.4390971
21
35.6489089
0
LINE
8
DEFAULT_255_2_778
10
98.7946971
20
37.6433089
11
98.2963971
21
37.7767089
0
LINE
8
DEFAULT_255_2_778
10
99.4385971
20
35.6489089
11
99.3362971
21
35.3930089
0
LINE
8
DEFAULT_255_2_778
10
98.2963971
20
39.0091089
11
98.7946971
21
39.1424089
0
LINE
8
DEFAULT_255_2_778
10
98.7946971
20
39.1424089
11
98.7871971
21
39.5827089
0
LINE
8
DEFAULT_255_2_778
10
99.7963971
20
39.5827089
11
99.7963971
21
35.6428089
0
LINE
8
DEFAULT_255_2_778
10
99.7963971
20
35.6428089
11
100.5355971
21
35.6428089
0
LINE
8
DEFAULT_255_2_778
10
98.2963971
20
35.3928089
11
98.2963971
21
39.5824089
0
LINE
8
DEFAULT_255_2_778
10
100.6067971
20
39.5824089
11
101.7965971
21
38.3926089
0
LINE
8
DEFAULT_255_2_778
10
101.7965971
20
38.3926089
11
100.4342971
21
37.0303089
0
LINE
8
DEFAULT_255_2_778
10
99.7965971
20
37.6425089
11
99.2965971
21
37.8925089
0
LINE
8
DEFAULT_255_2_778
10
99.2965971
20
37.8925089
11
99.2965971
21
38.8927089
0
LINE
8
DEFAULT_255_2_778
10
99.2965971
20
38.8927089
11
99.7965971
21
39.1427089
0
ARC
8
DEFAULT_255_2_778
10
99.296593
20
43.5129532
40
0.5000116
50
270.0013268
51
0.0101312
0
ARC
8
DEFAULT_255_2_778
10
93.7938212
20
45.1259845
40
5.002763
50
338.2089097
51
0.0012999
0
ARC
8
DEFAULT_255_2_778
10
93.7925401
20
45.1261005
40
5.0040441
50
359.9999715
51
1.5704476
0
ARC
8
DEFAULT_255_2_778
10
94.7962159
20
45.12629
40
5.0001888
50
338.1933465
51
359.9925703
0
ARC
8
DEFAULT_255_2_778
10
97.7962878
20
43.3129971
40
0.500117
50
287.4674172
51
0.0051005
0
ARC
8
DEFAULT_255_2_778
10
100.5355408
20
44.2628145
40
1.0000729
50
270.003653
51
343.0371436
0
ARC
8
DEFAULT_255_2_778
10
94.7982144
20
46.012245
40
6.998191
50
343.0416863
51
0.0007971
0
ARC
8
DEFAULT_255_2_778
10
94.7964143
20
46.0123314
40
6.9999912
50
0.0000896
51
1.1644491
0
ARC
8
DEFAULT_255_2_778
10
94.7971375
20
46.012351
40
6.9992678
50
1.1644091
51
9.7887752
0
LINE
8
DEFAULT_255_2_778
10
99.2966046
20
43.0129416
11
98.3367046
21
43.0129416
0
LINE
8
DEFAULT_255_2_778
10
98.3367046
20
43.0129416
11
98.4391046
21
43.2688416
0
LINE
8
DEFAULT_255_2_778
10
98.7947046
20
45.2632416
11
98.2964046
21
45.3966416
0
LINE
8
DEFAULT_255_2_778
10
99.4386046
20
43.2688416
11
99.3363046
21
43.0129416
0
LINE
8
DEFAULT_255_2_778
10
98.2964046
20
46.6290416
11
98.7947046
21
46.7623416
0
LINE
8
DEFAULT_255_2_778
10
98.7947046
20
46.7623416
11
98.7872046
21
47.2026416
0
LINE
8
DEFAULT_255_2_778
10
99.7964046
20
47.2026416
11
99.7964046
21
43.2627416
0
LINE
8
DEFAULT_255_2_778
10
99.7964046
20
43.2627416
11
100.5356046
21
43.2627416
0
LINE
8
DEFAULT_255_2_778
10
100.6065046
20
47.2023416
11
101.7964046
21
46.0125416
0
LINE
8
DEFAULT_255_2_778
10
101.7964046
20
46.0125416
11
100.4340046
21
44.6502416
0
LINE
8
DEFAULT_255_2_778
10
99.7964046
20
45.2624416
11
99.2963046
21
45.5124416
0
LINE
8
DEFAULT_255_2_778
10
99.2963046
20
45.5124416
11
99.2963046
21
46.5126416
0
LINE
8
DEFAULT_255_2_778
10
99.2963046
20
46.5126416
11
99.7964046
21
46.7626416
0
LINE
8
DEFAULT_255_2_778
10
98.2964046
20
43.0127416
11
98.2964046
21
47.2023416
0
ARC
8
DEFAULT_255_2_778
10
99.296593
20
51.1329532
40
0.5000116
50
270.0013268
51
0.0101312
0
ARC
8
DEFAULT_255_2_778
10
93.7934114
20
52.7460634
40
5.0031728
50
338.2098128
51
0.0004105
0
ARC
8
DEFAULT_255_2_778
10
93.7925714
20
52.746101
40
5.0040128
50
359.9999801
51
1.5704516
0
ARC
8
DEFAULT_255_2_778
10
94.7958294
20
52.7463645
40
5.0005752
50
338.1941988
51
359.9917173
0
ARC
8
DEFAULT_255_2_778
10
97.7962878
20
50.9329971
40
0.500117
50
287.4674172
51
0.0051005
0
ARC
8
DEFAULT_255_2_778
10
100.5355408
20
51.8828145
40
1.0000729
50
270.003653
51
343.0371436
0
ARC
8
DEFAULT_255_2_778
10
94.7982144
20
53.632245
40
6.998191
50
343.0416863
51
0.0007971
0
ARC
8
DEFAULT_255_2_778
10
94.7964143
20
53.6323314
40
6.9999912
50
0.0000896
51
1.1644491
0
ARC
8
DEFAULT_255_2_778
10
94.7971375
20
53.632351
40
6.9992678
50
1.1644091
51
9.7887752
0
LINE
8
DEFAULT_255_2_778
10
99.2966046
20
50.6329416
11
98.3367046
21
50.6329416
0
LINE
8
DEFAULT_255_2_778
10
98.3367046
20
50.6329416
11
98.4391046
21
50.8888416
0
LINE
8
DEFAULT_255_2_778
10
98.7947046
20
52.8832416
11
98.2964046
21
53.0166416
0
LINE
8
DEFAULT_255_2_778
10
99.4386046
20
50.8888416
11
99.3363046
21
50.6329416
0
LINE
8
DEFAULT_255_2_778
10
98.2964046
20
54.2490416
11
98.7947046
21
54.3823416
0
LINE
8
DEFAULT_255_2_778
10
98.7947046
20
54.3823416
11
98.7872046
21
54.8226416
0
LINE
8
DEFAULT_255_2_778
10
99.7964046
20
54.8226416
11
99.7964046
21
50.8827416
0
LINE
8
DEFAULT_255_2_778
10
99.7964046
20
50.8827416
11
100.5356046
21
50.8827416
0
LINE
8
DEFAULT_255_2_778
10
100.6065046
20
54.8223416
11
101.7964046
21
53.6325416
0
LINE
8
DEFAULT_255_2_778
10
101.7964046
20
53.6325416
11
100.4340046
21
52.2702416
0
LINE
8
DEFAULT_255_2_778
10
99.7964046
20
52.8824416
11
99.2963046
21
53.1324416
0
LINE
8
DEFAULT_255_2_778
10
99.2963046
20
53.1324416
11
99.2963046
21
54.1326416
0
LINE
8
DEFAULT_255_2_778
10
99.2963046
20
54.1326416
11
99.7964046
21
54.3826416
0
LINE
8
DEFAULT_255_2_778
10
98.2964046
20
50.6327416
11
98.2964046
21
54.8223416
0
ARC
8
DEFAULT_255_2_778
10
99.2968655
20
58.7530001
40
0.4999262
50
269.9915458
51
0.0084542
0
ARC
8
DEFAULT_255_2_778
10
93.7935985
20
60.3660957
40
5.0031728
50
338.2098128
51
0.0004105
0
ARC
8
DEFAULT_255_2_778
10
93.7927585
20
60.3661333
40
5.0040128
50
359.9999801
51
1.5704516
0
ARC
8
DEFAULT_255_2_778
10
94.7958892
20
60.3664213
40
5.0007026
50
338.1944796
51
359.992582
0
ARC
8
DEFAULT_255_2_778
10
97.7968491
20
58.5528546
40
0.4997426
50
287.4359523
51
359.9986587
0
LINE
8
DEFAULT_255_2_778
10
98.2965918
20
58.5528429
11
98.2965917
21
58.5530739
0
ARC
8
DEFAULT_255_2_778
10
100.5355452
20
59.5030937
40
1.0003198
50
270.0141227
51
343.0266754
0
ARC
8
DEFAULT_255_2_778
10
94.7983584
20
61.2522837
40
6.9982341
50
343.0417386
51
0.0009533
0
ARC
8
DEFAULT_255_2_778
10
94.79717
20
61.2524079
40
6.9994225
50
359.9999367
51
1.1847812
0
ARC
8
DEFAULT_255_2_778
10
94.7962151
20
61.2523866
40
7.0003777
50
1.1847939
51
9.7880111
0
LINE
8
DEFAULT_255_2_778
10
100.4344917
20
59.8907739
11
101.7967917
21
61.2531739
0
LINE
8
DEFAULT_255_2_778
10
101.7967917
20
61.2531739
11
100.6069917
21
62.4429739
0
LINE
8
DEFAULT_255_2_778
10
99.7967917
20
62.1402739
11
99.7875917
21
62.4429739
0
LINE
8
DEFAULT_255_2_778
10
99.2967917
20
58.2530739
11
98.3368917
21
58.2530739
0
LINE
8
DEFAULT_255_2_778
10
98.3368917
20
58.2530739
11
98.4392917
21
58.5088739
0
LINE
8
DEFAULT_255_2_778
10
98.7948917
20
60.5032739
11
98.2965917
21
60.6366739
0
LINE
8
DEFAULT_255_2_778
10
99.4387917
20
58.5088739
11
99.3364917
21
58.2530739
0
LINE
8
DEFAULT_255_2_778
10
98.2965917
20
61.8690739
11
98.7948917
21
62.0024739
0
LINE
8
DEFAULT_255_2_778
10
98.7948917
20
62.0024739
11
98.7873917
21
62.4426739
0
LINE
8
DEFAULT_255_2_778
10
99.7965917
20
62.4426739
11
99.7965917
21
58.5027739
0
LINE
8
DEFAULT_255_2_778
10
99.7965917
20
58.5027739
11
100.5357917
21
58.5027739
0
LINE
8
DEFAULT_255_2_778
10
99.7965917
20
60.5024739
11
99.2964917
21
60.7525739
0
LINE
8
DEFAULT_255_2_778
10
99.2964917
20
60.7525739
11
99.2964917
21
61.7526739
0
LINE
8
DEFAULT_255_2_778
10
99.2964917
20
61.7526739
11
99.7965917
21
62.0026739
0
LINE
8
DEFAULT_255_2_778
10
98.2965917
20
58.2527739
11
98.2965917
21
62.4424739
0
ARC
8
DEFAULT_255_2_778
10
99.2968655
20
66.3732001
40
0.4999262
50
269.9915458
51
0.0084542
0
ARC
8
DEFAULT_255_2_778
10
93.7935985
20
67.9862957
40
5.0031728
50
338.2098128
51
0.0004105
0
ARC
8
DEFAULT_255_2_778
10
93.7927585
20
67.9863333
40
5.0040128
50
359.9999801
51
1.5704516
0
ARC
8
DEFAULT_255_2_778
10
94.7958892
20
67.9866213
40
5.0007026
50
338.1944796
51
359.992582
0
ARC
8
DEFAULT_255_2_778
10
97.7968491
20
66.1730546
40
0.4997426
50
287.4359523
51
359.9986587
0
LINE
8
DEFAULT_255_2_778
10
98.2965918
20
66.1730429
11
98.2965917
21
66.1732739
0
ARC
8
DEFAULT_255_2_778
10
100.5355452
20
67.1232937
40
1.0003198
50
270.0141227
51
343.0266754
0
ARC
8
DEFAULT_255_2_778
10
94.7983584
20
68.8724837
40
6.9982341
50
343.0417386
51
0.0009533
0
ARC
8
DEFAULT_255_2_778
10
94.79717
20
68.8726079
40
6.9994225
50
359.9999367
51
1.1847812
0
ARC
8
DEFAULT_255_2_778
10
94.7962151
20
68.8725866
40
7.0003777
50
1.1847939
51
9.7880111
0
LINE
8
DEFAULT_255_2_778
10
100.4344917
20
67.5109739
11
101.7967917
21
68.8733739
0
LINE
8
DEFAULT_255_2_778
10
101.7967917
20
68.8733739
11
100.6069917
21
70.0631739
0
LINE
8
DEFAULT_255_2_778
10
99.7967917
20
69.7604739
11
99.7875917
21
70.0631739
0
LINE
8
DEFAULT_255_2_778
10
99.2967917
20
65.8732739
11
98.3368917
21
65.8732739
0
LINE
8
DEFAULT_255_2_778
10
98.3368917
20
65.8732739
11
98.4392917
21
66.1290739
0
LINE
8
DEFAULT_255_2_778
10
98.7948917
20
68.1234739
11
98.2965917
21
68.2568739
0
LINE
8
DEFAULT_255_2_778
10
99.4387917
20
66.1290739
11
99.3364917
21
65.8732739
0
LINE
8
DEFAULT_255_2_778
10
98.2965917
20
69.4892739
11
98.7948917
21
69.6226739
0
LINE
8
DEFAULT_255_2_778
10
98.7948917
20
69.6226739
11
98.7873917
21
70.0628739
0
LINE
8
DEFAULT_255_2_778
10
99.7965917
20
70.0628739
11
99.7965917
21
66.1229739
0
LINE
8
DEFAULT_255_2_778
10
99.7965917
20
66.1229739
11
100.5357917
21
66.1229739
0
LINE
8
DEFAULT_255_2_778
10
99.7965917
20
68.1226739
11
99.2964917
21
68.3727739
0
LINE
8
DEFAULT_255_2_778
10
99.2964917
20
68.3727739
11
99.2964917
21
69.3728739
0
LINE
8
DEFAULT_255_2_778
10
99.2964917
20
69.3728739
11
99.7965917
21
69.6228739
0
LINE
8
DEFAULT_255_2_778
10
98.2965917
20
65.8729739
11
98.2965917
21
70.0626739
0
ENDSEC
0
EOF