0
SECTION
2
HEADER
9
$MEASUREMENT
70
1
0
ENDSEC
0
SECTION
2
TABLES
0
TABLE
2
LTYPE
0
LTYPE
72
65
70
64
2
CONTINUOUS
3
______
73
0
40
0
0
ENDTAB
0
TABLE
2
LAYER
0
LAYER
2
DEFAULT_255_2_778
70
0
62
255
6
CONTINUOUS
0
LAYER
2
DEFAULT_255_1_234
70
0
62
255
6
CONTINUOUS
0
LAYER
2
DEFAULT_255_2_778_1
70
0
62
255
6
CONTINUOUS
0
ENDTAB
0
ENDSEC
0
SECTION
2
ENTITIES
0
ARC
8
DEFAULT_255_2_778
10
3.5700693
20
131.3676523
40
0.7914215
50
129.1312896
51
180.1450914
0
ARC
8
DEFAULT_255_2_778
10
3.5703345
20
131.3681394
40
0.7912112
50
89.854026
51
129.1684493
0
ARC
8
DEFAULT_255_2_778
10
25.7993937
20
131.3678259
40
0.7915249
50
39.4792447
51
90.147911
0
ARC
8
DEFAULT_255_2_778
10
25.7999935
20
131.3676726
40
0.7911595
50
359.8533901
51
39.5154338
0
ARC
8
DEFAULT_255_2_778
10
25.7996693
20
-1.9864
40
0.7914836
50
309.4761667
51
0.1482649
0
ARC
8
DEFAULT_255_2_778
10
25.799398
20
-1.9868311
40
0.7913235
50
269.8517415
51
309.511178
0
ARC
8
DEFAULT_255_2_778
10
3.570342
20
-1.9867729
40
0.7913815
50
219.1282118
51
270.1454017
0
ARC
8
DEFAULT_255_2_778
10
3.5700247
20
-1.9863904
40
0.7913769
50
179.8524075
51
219.1641908
0
LINE
8
DEFAULT_255_2_778
10
3.5723503
20
132.1593481
11
25.7973503
21
132.1593481
0
LINE
8
DEFAULT_255_2_778
10
26.5911503
20
131.3656481
11
26.5911503
21
-1.9843519
0
LINE
8
DEFAULT_255_2_778
10
25.7973503
20
-2.7781519
11
3.5723503
21
-2.7781519
0
LINE
8
DEFAULT_255_2_778
10
2.7786503
20
-1.9843519
11
2.7786503
21
131.3656481
0
LINE
8
DEFAULT_255_1_234
10
11.8442657
20
-0.0296435
11
11.8442657
21
-0.1043386
0
LINE
8
DEFAULT_255_1_234
10
11.6394563
20
-0.5878493
11
11.8482815
21
-0.7516967
0
LINE
8
DEFAULT_255_1_234
10
11.8482815
20
-0.7516967
11
11.7430658
21
-0.8488808
0
LINE
8
DEFAULT_255_1_234
10
11.7430658
20
-0.8488808
11
11.4964914
21
-0.6529063
0
LINE
8
DEFAULT_255_1_234
10
10.9029459
20
-0.1147799
11
10.9029459
21
-0.0304466
0
LINE
8
DEFAULT_255_1_234
10
11.6900563
20
-0.1155831
11
11.6900563
21
-0.0288403
0
LINE
8
DEFAULT_255_1_234
10
11.0571553
20
-0.018399
11
11.0571553
21
-0.1043386
0
ARC
8
DEFAULT_255_1_234
10
10.9488909
20
-0.1082293
40
0.8953833
50
351.453011
51
0.2489685
0
ARC
8
DEFAULT_255_1_234
10
11.2073709
20
-0.1482067
40
0.6338333
50
338.6861641
51
351.5540711
0
ARC
8
DEFAULT_255_1_234
10
11.3007593
20
-0.1812172
40
0.5348431
50
336.2887631
51
338.3442418
0
ARC
8
DEFAULT_255_1_234
10
11.3347215
20
-0.1998302
40
0.4962747
50
321.1170344
51
336.6795229
0
ARC
8
DEFAULT_255_1_234
10
11.3979044
20
-0.2484794
40
0.4165565
50
305.4419708
51
320.8705636
0
ARC
8
DEFAULT_255_1_234
10
11.3782514
20
-0.1737293
40
0.4935497
50
271.6373023
51
283.8611969
0
ARC
8
DEFAULT_255_1_234
10
11.3744767
20
-0.1081428
40
0.5592206
50
269.9930596
51
271.8318864
0
ARC
8
DEFAULT_255_1_234
10
11.370721
20
-0.1889319
40
0.4784458
50
252.5219675
51
270.4416499
0
ARC
8
DEFAULT_255_1_234
10
11.3563469
20
-0.2428408
40
0.422716
50
237.5352116
51
252.1857531
0
ARC
8
DEFAULT_255_1_234
10
11.3652665
20
-0.2314637
40
0.4371052
50
209.063312
51
237.3492538
0
ARC
8
DEFAULT_255_1_234
10
11.4522513
20
-0.1768315
40
0.5397041
50
205.1183774
51
209.6470015
0
ARC
8
DEFAULT_255_1_234
10
11.531955
20
-0.143017
40
0.6262326
50
188.7215458
51
204.8240747
0
ARC
8
DEFAULT_255_1_234
10
11.7317078
20
-0.1093933
40
0.8287794
50
180.3723947
51
188.9252049
0
ARC
8
DEFAULT_255_1_234
10
11.728983
20
-0.0264598
40
0.8260467
50
169.5253763
51
180.2765336
0
ARC
8
DEFAULT_255_1_234
10
11.5387279
20
0.0085309
40
0.6326007
50
155.8315255
51
169.5089989
0
ARC
8
DEFAULT_255_1_234
10
11.410678
20
0.0679348
40
0.4914567
50
139.6258461
51
156.0379525
0
ARC
8
DEFAULT_255_1_234
10
11.3517113
20
0.1153799
40
0.4158054
50
122.6416387
51
139.3430715
0
ARC
8
DEFAULT_255_1_234
10
11.3617733
20
0.0970451
40
0.4366739
50
93.0223692
51
122.455762
0
ARC
8
DEFAULT_255_1_234
10
11.372573
20
0.0005709
40
0.5336137
50
89.975342
51
93.6341897
0
ARC
8
DEFAULT_255_1_234
10
11.3764616
20
0.0385375
40
0.4956606
50
73.9665422
51
90.4229648
0
ARC
8
DEFAULT_255_1_234
10
11.3948263
20
0.1100451
40
0.4218674
50
57.5178019
51
73.6813337
0
ARC
8
DEFAULT_255_1_234
10
11.3904046
20
0.1064462
40
0.4272816
50
28.7261108
51
57.2767933
0
ARC
8
DEFAULT_255_1_234
10
11.2993378
20
0.0501688
40
0.534218
50
24.2448911
51
29.3248482
0
ARC
8
DEFAULT_255_1_234
10
11.2067479
20
0.0118819
40
0.6343711
50
9.064382
51
23.9639114
0
ARC
8
DEFAULT_255_1_234
10
10.9811807
20
-0.0260075
40
0.8630926
50
359.7586264
51
9.1891435
0
ARC
8
DEFAULT_255_1_234
10
10.8557287
20
-0.0246657
40
0.834338
50
359.7133237
51
7.96545
0
ARC
8
DEFAULT_255_1_234
10
11.1519504
20
0.0180681
40
0.5350538
50
7.8291991
51
20.0421623
0
ARC
8
DEFAULT_255_1_234
10
11.3144067
20
0.0771606
40
0.3621841
50
20.0677553
51
35.9161685
0
ARC
8
DEFAULT_255_1_234
10
11.3919105
20
0.134767
40
0.2656263
50
35.6594382
51
85.1578074
0
ARC
8
DEFAULT_255_1_234
10
11.3734361
20
0.0232378
40
0.3784238
50
83.7959068
51
90.095906
0
ARC
8
DEFAULT_255_1_234
10
11.3691295
20
0.0965601
40
0.3051229
50
89.3102392
51
109.9889877
0
ARC
8
DEFAULT_255_1_234
10
11.3608778
20
0.1321433
40
0.2688988
50
110.9285147
51
143.9411762
0
ARC
8
DEFAULT_255_1_234
10
11.4539724
20
0.0609236
40
0.3860887
50
143.5289163
51
163.2980757
0
ARC
8
DEFAULT_255_1_234
10
11.6447545
20
0.0009433
40
0.5860659
50
163.0418846
51
174.3140048
0
ARC
8
DEFAULT_255_1_234
10
11.8851657
20
-0.0268146
40
0.8280531
50
174.0509143
51
179.4176892
0
ARC
8
DEFAULT_255_1_234
10
11.8337992
20
-0.1086366
40
0.7766558
50
179.6829237
51
188.9631324
0
ARC
8
DEFAULT_255_1_234
10
11.5667553
20
-0.1521248
40
0.5060992
50
188.8100743
51
202.9300012
0
ARC
8
DEFAULT_255_1_234
10
11.4451182
20
-0.2016145
40
0.3747967
50
203.2069261
51
215.7876482
0
ARC
8
DEFAULT_255_1_234
10
11.3602579
20
-0.2687329
40
0.2667526
50
214.7521006
51
264.2834488
0
ARC
8
DEFAULT_255_1_234
10
11.3738234
20
-0.183222
40
0.3532247
50
263.4755397
51
270.0949833
0
ARC
8
DEFAULT_255_1_234
10
11.3780345
20
-0.2093626
40
0.3271036
50
269.3649385
51
287.5152008
0
ARC
8
DEFAULT_255_1_234
10
11.3958503
20
-0.2740762
40
0.2600406
50
288.0630309
51
323.8113348
0
ARC
8
DEFAULT_255_1_234
10
11.3087345
20
-0.2090951
40
0.3687189
50
323.6547608
51
342.6590488
0
ARC
8
DEFAULT_255_1_234
10
11.105596
20
-0.1430048
40
0.5823286
50
342.4091907
51
353.6451149
0
ARC
8
DEFAULT_255_1_234
10
10.8224471
20
-0.107781
40
0.8676442
50
353.4029884
51
359.4847795
0
LINE
8
DEFAULT_255_1_234
10
12.6000522
20
0.5189243
11
12.626557
21
0.5189243
0
LINE
8
DEFAULT_255_1_234
10
12.626557
20
0.5189243
11
12.626557
21
0.392826
0
LINE
8
DEFAULT_255_1_234
10
12.626557
20
0.392826
11
12.5992491
21
0.392826
0
LINE
8
DEFAULT_255_1_234
10
12.0522877
20
-0.2063417
11
12.0522877
21
-0.1493164
0
LINE
8
DEFAULT_255_1_234
10
12.201678
20
-0.1685925
11
12.201678
21
-0.2232083
0
ARC
8
DEFAULT_255_1_234
10
12.6044839
20
-0.1069545
40
0.4998079
50
90.6001036
51
104.514704
0
ARC
8
DEFAULT_255_1_234
10
12.5656354
20
0.0375131
40
0.3502176
50
104.2855254
51
133.862935
0
ARC
8
DEFAULT_255_1_234
10
12.5820112
20
0.026683
40
0.3693984
50
134.5302688
51
161.6210873
0
ARC
8
DEFAULT_255_1_234
10
12.74733
20
-0.0316105
40
0.5446739
50
161.2849839
51
174.2076652
0
ARC
8
DEFAULT_255_1_234
10
12.8880237
20
-0.0510213
40
0.6866274
50
173.7810589
51
174.9254635
0
ARC
8
DEFAULT_255_1_234
10
12.4330069
20
-0.1893161
40
0.3033419
50
95.8330959
51
138.9954921
0
ARC
8
DEFAULT_255_1_234
10
12.4553425
20
-0.3171625
40
0.4328947
50
89.8753725
51
97.0544009
0
ARC
8
DEFAULT_255_1_234
10
12.4600891
20
-0.2336252
40
0.3493769
50
71.6407809
51
90.6240094
0
ARC
8
DEFAULT_255_1_234
10
12.4751465
20
-0.1781918
40
0.2920396
50
39.6367836
51
71.019018
0
ARC
8
DEFAULT_255_1_234
10
12.4114938
20
-0.2332002
40
0.3761538
50
10.658731
51
39.9043955
0
ARC
8
DEFAULT_255_1_234
10
12.2567021
20
-0.2668314
40
0.5345136
50
359.682601
51
11.132623
0
ARC
8
DEFAULT_255_1_234
10
12.2527151
20
-0.273899
40
0.5385081
50
347.2486944
51
0.4369317
0
ARC
8
DEFAULT_255_1_234
10
12.4194628
20
-0.3140193
40
0.3670249
50
318.1409698
51
347.6118597
0
ARC
8
DEFAULT_255_1_234
10
12.4519621
20
-0.3407298
40
0.3250007
50
275.6342139
51
317.8248465
0
ARC
8
DEFAULT_255_1_234
10
12.4298733
20
-0.2107781
40
0.4565864
50
269.8874292
51
276.7917694
0
ARC
8
DEFAULT_255_1_234
10
12.4243803
20
-0.3133257
40
0.3540676
50
246.9140195
51
270.7437342
0
ARC
8
DEFAULT_255_1_234
10
12.4250194
20
-0.3275616
40
0.3412781
50
218.1665114
51
245.878116
0
ARC
8
DEFAULT_255_1_234
10
12.5129654
20
-0.2539721
40
0.455911
50
191.4115814
51
218.6077802
0
ARC
8
DEFAULT_255_1_234
10
12.7067744
20
-0.2105167
40
0.6545001
50
179.6345085
51
191.7836486
0
ARC
8
DEFAULT_255_1_234
10
13.265008
20
-0.1426303
40
1.2127388
50
171.4525249
51
180.3158839
0
ARC
8
DEFAULT_255_1_234
10
12.8254956
20
-0.0742392
40
0.7679464
50
157.9802646
51
171.6246686
0
ARC
8
DEFAULT_255_1_234
10
12.6040977
20
0.0140421
40
0.5296008
50
141.4298019
51
157.854097
0
ARC
8
DEFAULT_255_1_234
10
12.5399298
20
0.0594381
40
0.4511509
50
102.8715806
51
140.8564722
0
ARC
8
DEFAULT_255_1_234
10
12.6046913
20
-0.1845448
40
0.7034845
50
90.3778349
51
103.5869322
0
ARC
8
DEFAULT_255_1_234
10
12.430869
20
-0.245027
40
0.2370698
50
89.8751008
51
126.2071704
0
ARC
8
DEFAULT_255_1_234
10
12.4354479
20
-0.2604697
40
0.2522934
50
124.9745049
51
144.895901
0
ARC
8
DEFAULT_255_1_234
10
12.417867
20
-0.246144
40
0.2296779
50
145.2974905
51
160.2660252
0
ARC
8
DEFAULT_255_1_234
10
12.7251209
20
-0.2263929
40
0.5234525
50
179.6514266
51
190.2855912
0
ARC
8
DEFAULT_255_1_234
10
12.5557346
20
-0.2583214
40
0.3510893
50
190.0945431
51
207.5098196
0
ARC
8
DEFAULT_255_1_234
10
12.4991616
20
-0.2852377
40
0.288489
50
207.9583163
51
216.3251085
0
ARC
8
DEFAULT_255_1_234
10
12.4651723
20
-0.3131895
40
0.2445587
50
215.7661442
51
232.5456785
0
ARC
8
DEFAULT_255_1_234
10
12.4268706
20
-0.3618518
40
0.1826382
50
232.8005391
51
270.6605633
0
ARC
8
DEFAULT_255_1_234
10
12.4314407
20
-0.3254388
40
0.2190529
50
269.35537
51
288.4744281
0
ARC
8
DEFAULT_255_1_234
10
12.4407304
20
-0.3603882
40
0.1829749
50
289.1833337
51
322.9683818
0
ARC
8
DEFAULT_255_1_234
10
12.3795827
20
-0.3121609
40
0.2608399
50
322.6007884
51
346.5182367
0
ARC
8
DEFAULT_255_1_234
10
12.2638423
20
-0.2826384
40
0.3802777
50
346.2582162
51
358.7741648
0
ARC
8
DEFAULT_255_1_234
10
12.1620091
20
-0.2771035
40
0.4822176
50
358.3755224
51
0.0098023
0
ARC
8
DEFAULT_255_1_234
10
12.2376279
20
-0.2743343
40
0.4066078
50
359.6214041
51
11.2839074
0
ARC
8
DEFAULT_255_1_234
10
12.3653426
20
-0.2476934
40
0.2761514
50
11.0482309
51
31.8146458
0
ARC
8
DEFAULT_255_1_234
10
12.3962468
20
-0.2309416
40
0.2410679
50
32.3035391
51
38.082671
0
ARC
8
DEFAULT_255_1_234
10
12.4383128
20
-0.1928338
40
0.1844966
50
36.825067
51
85.7415724
0
ARC
8
DEFAULT_255_1_234
10
12.4315962
20
-0.2428699
40
0.2349122
50
85.0140713
51
90.0513278
0
LINE
8
DEFAULT_255_1_234
10
13.5237021
20
0.5189243
11
13.5502069
21
0.5189243
0
LINE
8
DEFAULT_255_1_234
10
13.5502069
20
0.5189243
11
13.5502069
21
0.392826
0
LINE
8
DEFAULT_255_1_234
10
13.5502069
20
0.392826
11
13.522899
21
0.392826
0
LINE
8
DEFAULT_255_1_234
10
12.9759376
20
-0.2063417
11
12.9759376
21
-0.1493164
0
LINE
8
DEFAULT_255_1_234
10
13.1253279
20
-0.1685925
11
13.1253279
21
-0.2232083
0
ARC
8
DEFAULT_255_1_234
10
13.5281338
20
-0.1069545
40
0.4998079
50
90.6001036
51
104.514704
0
ARC
8
DEFAULT_255_1_234
10
13.4892853
20
0.0375131
40
0.3502176
50
104.2855254
51
133.862935
0
ARC
8
DEFAULT_255_1_234
10
13.5056611
20
0.026683
40
0.3693984
50
134.5302688
51
161.6210873
0
ARC
8
DEFAULT_255_1_234
10
13.6709799
20
-0.0316105
40
0.5446739
50
161.2849839
51
174.2076652
0
ARC
8
DEFAULT_255_1_234
10
13.8116736
20
-0.0510213
40
0.6866274
50
173.7810589
51
174.9254635
0
ARC
8
DEFAULT_255_1_234
10
13.3566568
20
-0.1893161
40
0.3033419
50
95.8330959
51
138.9954921
0
ARC
8
DEFAULT_255_1_234
10
13.3789924
20
-0.3171625
40
0.4328947
50
89.8753725
51
97.0544009
0
ARC
8
DEFAULT_255_1_234
10
13.383739
20
-0.2336252
40
0.3493769
50
71.6407809
51
90.6240094
0
ARC
8
DEFAULT_255_1_234
10
13.3987964
20
-0.1781918
40
0.2920396
50
39.6367836
51
71.019018
0
ARC
8
DEFAULT_255_1_234
10
13.3351437
20
-0.2332002
40
0.3761538
50
10.658731
51
39.9043955
0
ARC
8
DEFAULT_255_1_234
10
13.180352
20
-0.2668314
40
0.5345136
50
359.682601
51
11.132623
0
ARC
8
DEFAULT_255_1_234
10
13.1763651
20
-0.273899
40
0.5385081
50
347.2486944
51
0.4369317
0
ARC
8
DEFAULT_255_1_234
10
13.3431127
20
-0.3140193
40
0.3670249
50
318.1409698
51
347.6118597
0
ARC
8
DEFAULT_255_1_234
10
13.375612
20
-0.3407298
40
0.3250007
50
275.6342139
51
317.8248465
0
ARC
8
DEFAULT_255_1_234
10
13.3535232
20
-0.2107781
40
0.4565864
50
269.8874292
51
276.7917694
0
ARC
8
DEFAULT_255_1_234
10
13.3480302
20
-0.3133257
40
0.3540676
50
246.9140195
51
270.7437342
0
ARC
8
DEFAULT_255_1_234
10
13.3486693
20
-0.3275616
40
0.3412781
50
218.1665114
51
245.878116
0
ARC
8
DEFAULT_255_1_234
10
13.4366153
20
-0.2539721
40
0.455911
50
191.4115814
51
218.6077802
0
ARC
8
DEFAULT_255_1_234
10
13.6304243
20
-0.2105167
40
0.6545001
50
179.6345085
51
191.7836486
0
ARC
8
DEFAULT_255_1_234
10
14.1886579
20
-0.1426303
40
1.2127388
50
171.4525249
51
180.3158839
0
ARC
8
DEFAULT_255_1_234
10
13.7491455
20
-0.0742392
40
0.7679464
50
157.9802646
51
171.6246686
0
ARC
8
DEFAULT_255_1_234
10
13.5277476
20
0.0140421
40
0.5296008
50
141.4298019
51
157.854097
0
ARC
8
DEFAULT_255_1_234
10
13.4635797
20
0.0594381
40
0.4511509
50
102.8715806
51
140.8564722
0
ARC
8
DEFAULT_255_1_234
10
13.5283412
20
-0.1845448
40
0.7034845
50
90.3778349
51
103.5869322
0
ARC
8
DEFAULT_255_1_234
10
13.3545189
20
-0.245027
40
0.2370698
50
89.8751008
51
126.2071704
0
ARC
8
DEFAULT_255_1_234
10
13.3590978
20
-0.2604697
40
0.2522934
50
124.9745049
51
144.895901
0
ARC
8
DEFAULT_255_1_234
10
13.3415169
20
-0.246144
40
0.2296779
50
145.2974905
51
160.2660252
0
ARC
8
DEFAULT_255_1_234
10
13.6487708
20
-0.2263929
40
0.5234525
50
179.6514266
51
190.2855912
0
ARC
8
DEFAULT_255_1_234
10
13.4793845
20
-0.2583214
40
0.3510893
50
190.0945431
51
207.5098196
0
ARC
8
DEFAULT_255_1_234
10
13.4228115
20
-0.2852377
40
0.288489
50
207.9583163
51
216.3251085
0
ARC
8
DEFAULT_255_1_234
10
13.3888223
20
-0.3131895
40
0.2445587
50
215.7661442
51
232.5456785
0
ARC
8
DEFAULT_255_1_234
10
13.3505205
20
-0.3618518
40
0.1826382
50
232.8005391
51
270.6605633
0
ARC
8
DEFAULT_255_1_234
10
13.3550906
20
-0.3254388
40
0.2190529
50
269.35537
51
288.4744281
0
ARC
8
DEFAULT_255_1_234
10
13.3643803
20
-0.3603882
40
0.1829749
50
289.1833337
51
322.9683818
0
ARC
8
DEFAULT_255_1_234
10
13.3032326
20
-0.3121609
40
0.2608399
50
322.6007884
51
346.5182367
0
ARC
8
DEFAULT_255_1_234
10
13.1874922
20
-0.2826384
40
0.3802777
50
346.2582162
51
358.7741648
0
ARC
8
DEFAULT_255_1_234
10
13.0856591
20
-0.2771035
40
0.4822176
50
358.3755224
51
0.0098023
0
ARC
8
DEFAULT_255_1_234
10
13.1612778
20
-0.2743343
40
0.4066078
50
359.6214041
51
11.2839074
0
ARC
8
DEFAULT_255_1_234
10
13.2889925
20
-0.2476934
40
0.2761514
50
11.0482309
51
31.8146458
0
ARC
8
DEFAULT_255_1_234
10
13.3198967
20
-0.2309416
40
0.2410679
50
32.3035391
51
38.082671
0
ARC
8
DEFAULT_255_1_234
10
13.3619627
20
-0.1928338
40
0.1844966
50
36.825067
51
85.7415724
0
ARC
8
DEFAULT_255_1_234
10
13.3552461
20
-0.2428699
40
0.2349122
50
85.0140713
51
90.0513278
0
LINE
8
DEFAULT_255_1_234
10
14.252984
20
-0.6513
11
13.9293049
21
-0.6513
0
LINE
8
DEFAULT_255_1_234
10
13.9293049
20
-0.6513
11
13.9293049
21
0.5181211
0
LINE
8
DEFAULT_255_1_234
10
13.9293049
20
0.5181211
11
14.2594094
21
0.5181211
0
LINE
8
DEFAULT_255_1_234
10
14.775047
20
-0.0272339
11
14.775047
21
-0.1019291
0
LINE
8
DEFAULT_255_1_234
10
14.2634252
20
0.3912196
11
14.0835143
21
0.3912196
0
LINE
8
DEFAULT_255_1_234
10
14.0835143
20
0.3912196
11
14.0835143
21
-0.5252017
0
LINE
8
DEFAULT_255_1_234
10
14.0835143
20
-0.5252017
11
14.2457554
21
-0.5252017
0
LINE
8
DEFAULT_255_1_234
10
14.6224439
20
-0.0987164
11
14.6224439
21
-0.0304466
0
ARC
8
DEFAULT_255_1_234
10
14.2633036
20
-0.0684106
40
0.5865446
50
75.4101064
51
90.3804066
0
ARC
8
DEFAULT_255_1_234
10
14.286255
20
0.0272492
40
0.4881916
50
60.145586
51
75.1888407
0
ARC
8
DEFAULT_255_1_234
10
14.3021325
20
0.0549199
40
0.4562893
50
26.5253612
51
60.1450928
0
ARC
8
DEFAULT_255_1_234
10
14.1901075
20
-0.0044842
40
0.5830602
50
7.4030428
51
26.8320788
0
ARC
8
DEFAULT_255_1_234
10
14.0306831
20
-0.0293196
40
0.7443669
50
0.1605367
51
7.7176192
0
ARC
8
DEFAULT_255_1_234
10
14.0470736
20
-0.1057566
40
0.7279835
50
348.7289388
51
0.3012466
0
ARC
8
DEFAULT_255_1_234
10
14.2127166
20
-0.1386614
40
0.559104
50
333.0706509
51
348.7181832
0
ARC
8
DEFAULT_255_1_234
10
14.3093924
20
-0.1911681
40
0.4491417
50
299.2531685
51
333.4571258
0
ARC
8
DEFAULT_255_1_234
10
14.2733063
20
-0.1226172
40
0.5265881
50
278.107187
51
299.0339503
0
ARC
8
DEFAULT_255_1_234
10
14.2477142
20
0.0281216
40
0.679442
50
270.4443897
51
278.4511052
0
ARC
8
DEFAULT_255_1_234
10
14.2497972
20
-0.0647787
40
0.4604407
50
269.4970433
51
284.0205042
0
ARC
8
DEFAULT_255_1_234
10
14.2853273
20
-0.2013022
40
0.3193797
50
283.7700273
51
318.1555492
0
ARC
8
DEFAULT_255_1_234
10
14.2516032
20
-0.1760633
40
0.3613588
50
318.7415601
51
343.6873628
0
ARC
8
DEFAULT_255_1_234
10
14.0712055
20
-0.1197168
40
0.5503313
50
343.3325091
51
355.8548958
0
ARC
8
DEFAULT_255_1_234
10
13.8613739
20
-0.0997681
40
0.7610708
50
355.4988528
51
0.0791727
0
ARC
8
DEFAULT_255_1_234
10
13.9396362
20
-0.026222
40
0.6828208
50
359.6455037
51
9.8607896
0
ARC
8
DEFAULT_255_1_234
10
14.175706
20
0.0164099
40
0.4429406
50
9.6571907
51
26.1932807
0
ARC
8
DEFAULT_255_1_234
10
14.2685048
20
0.0595118
40
0.3406537
50
26.5777228
51
40.1532208
0
ARC
8
DEFAULT_255_1_234
10
14.2940775
20
0.0794619
40
0.308246
50
40.3840491
51
80.1431104
0
ARC
8
DEFAULT_255_1_234
10
14.2613892
20
-0.0654667
40
0.4566909
50
79.2152159
51
89.7445637
0
LINE
8
DEFAULT_255_1_234
10
15.7484937
20
-0.6513
11
15.6368525
21
-0.3460939
0
LINE
8
DEFAULT_255_1_234
10
15.6368525
20
-0.3460939
11
15.1469165
21
-0.3460939
0
LINE
8
DEFAULT_255_1_234
10
15.1469165
20
-0.3460939
11
15.0368816
21
-0.6513
0
LINE
8
DEFAULT_255_1_234
10
15.0368816
20
-0.6513
11
14.8778532
21
-0.6513
0
LINE
8
DEFAULT_255_1_234
10
14.8778532
20
-0.6513
11
15.3244179
21
0.5181211
0
LINE
8
DEFAULT_255_1_234
10
15.3244179
20
0.5181211
11
15.4593511
21
0.5181211
0
LINE
8
DEFAULT_255_1_234
10
15.4593511
20
0.5181211
11
15.9067189
21
-0.6513
0
LINE
8
DEFAULT_255_1_234
10
15.9067189
20
-0.6513
11
15.7484937
21
-0.6513
0
LINE
8
DEFAULT_255_1_234
10
15.3918845
20
0.3277689
11
15.1935005
21
-0.2191925
0
LINE
8
DEFAULT_255_1_234
10
15.1935005
20
-0.2191925
11
15.5910716
21
-0.2191925
0
LINE
8
DEFAULT_255_1_234
10
15.5910716
20
-0.2191925
11
15.3918845
21
0.3277689
0
LINE
8
DEFAULT_255_1_234
10
16.3500708
20
-0.0938974
11
16.3500708
21
-0.2151766
0
LINE
8
DEFAULT_255_1_234
10
16.3500708
20
-0.2151766
11
15.958122
21
-0.2151766
0
LINE
8
DEFAULT_255_1_234
10
15.958122
20
-0.2151766
11
15.958122
21
-0.0938974
0
LINE
8
DEFAULT_255_1_234
10
15.958122
20
-0.0938974
11
16.3500708
21
-0.0938974
0
LINE
8
DEFAULT_255_1_234
10
17.381346
20
-0.068999
11
17.381346
21
-0.4978938
0
LINE
8
DEFAULT_255_1_234
10
16.480185
20
-0.1228116
11
16.480185
21
-0.0208085
0
LINE
8
DEFAULT_255_1_234
10
17.381346
20
0.1751659
11
17.2271367
21
0.1751659
0
LINE
8
DEFAULT_255_1_234
10
16.6351976
20
-0.0167927
11
16.6351976
21
-0.1123704
0
LINE
8
DEFAULT_255_1_234
10
17.2279398
20
-0.4569319
11
17.2279398
21
-0.1942941
0
LINE
8
DEFAULT_255_1_234
10
17.2279398
20
-0.1942941
11
16.9572703
21
-0.1942941
0
LINE
8
DEFAULT_255_1_234
10
16.9572703
20
-0.1942941
11
16.9572703
21
-0.068999
0
LINE
8
DEFAULT_255_1_234
10
16.9572703
20
-0.068999
11
17.381346
21
-0.068999
0
ARC
8
DEFAULT_255_1_234
10
17.0981967
20
-0.2985604
40
0.3462765
50
295.8437914
51
324.8549609
0
ARC
8
DEFAULT_255_1_234
10
17.0565934
20
-0.2232433
40
0.4322211
50
291.5695085
51
296.4549398
0
ARC
8
DEFAULT_255_1_234
10
17.0055185
20
-0.0867725
40
0.5779178
50
278.6622409
51
291.3045483
0
ARC
8
DEFAULT_255_1_234
10
16.9715677
20
0.1280408
40
0.7953952
50
270.020006
51
278.7494541
0
ARC
8
DEFAULT_255_1_234
10
16.9677601
20
0.2597036
40
0.927067
50
269.9969998
51
270.2524872
0
ARC
8
DEFAULT_255_1_234
10
16.9639314
20
-0.1486411
40
0.5187361
50
253.5786322
51
270.4175299
0
ARC
8
DEFAULT_255_1_234
10
16.946597
20
-0.2157764
40
0.4494451
50
238.8203306
51
253.2788235
0
ARC
8
DEFAULT_255_1_234
10
16.9446343
20
-0.2208769
40
0.4440665
50
206.7883783
51
238.6962764
0
ARC
8
DEFAULT_255_1_234
10
17.0220253
20
-0.1744595
40
0.5341121
50
206.1129412
51
207.4916643
0
ARC
8
DEFAULT_255_1_234
10
17.0817168
20
-0.1490512
40
0.5989041
50
188.6921119
51
205.7821245
0
ARC
8
DEFAULT_255_1_234
10
17.267353
20
-0.117477
40
0.7871862
50
180.3882829
51
188.9219216
0
ARC
8
DEFAULT_255_1_234
10
17.3901344
20
-0.0151536
40
0.909967
50
170.2024264
51
180.3560651
0
ARC
8
DEFAULT_255_1_234
10
17.0737862
20
0.0414237
40
0.5886083
50
154.2857445
51
170.3893044
0
ARC
8
DEFAULT_255_1_234
10
16.9456065
20
0.100095
40
0.4476743
50
139.8401567
51
153.9332699
0
ARC
8
DEFAULT_255_1_234
10
16.9096801
20
0.1288577
40
0.4016697
50
98.4190291
51
139.6707122
0
ARC
8
DEFAULT_255_1_234
10
16.9476319
20
-0.0556672
40
0.5898566
50
89.7659205
51
99.4415478
0
ARC
8
DEFAULT_255_1_234
10
16.9541568
20
-0.0491156
40
0.5833147
50
78.0551672
51
90.4042112
0
ARC
8
DEFAULT_255_1_234
10
16.9946078
20
0.1327644
40
0.3970055
50
54.6380464
51
78.3339173
0
ARC
8
DEFAULT_255_1_234
10
17.0136134
20
0.1647795
40
0.3599102
50
50.031736
51
54.1558201
0
ARC
8
DEFAULT_255_1_234
10
17.0028922
20
0.1551766
40
0.3741624
50
18.1092409
51
49.7180913
0
ARC
8
DEFAULT_255_1_234
10
16.8572122
20
0.1018089
40
0.5292424
50
7.9672797
51
18.6984571
0
ARC
8
DEFAULT_255_1_234
10
16.87226
20
0.1141504
40
0.3600838
50
9.7557294
51
27.3215714
0
ARC
8
DEFAULT_255_1_234
10
16.9850072
20
0.1704912
40
0.2340608
50
27.7361077
51
84.5257964
0
ARC
8
DEFAULT_255_1_234
10
16.9522459
20
0.006164
40
0.4011215
50
82.106034
51
90.2001166
0
ARC
8
DEFAULT_255_1_234
10
16.9472676
20
0.0569215
40
0.3503799
50
89.4150119
51
105.5823402
0
ARC
8
DEFAULT_255_1_234
10
16.9215674
20
0.1504867
40
0.2533503
50
105.6678618
51
144.2648758
0
ARC
8
DEFAULT_255_1_234
10
17.0108929
20
0.0869289
40
0.3629787
50
144.3561283
51
162.8564086
0
ARC
8
DEFAULT_255_1_234
10
17.2192838
20
0.0200017
40
0.5818441
50
162.6076014
51
173.6780284
0
ARC
8
DEFAULT_255_1_234
10
17.5253982
20
-0.017211
40
0.8902007
50
173.4670142
51
179.9730753
0
ARC
8
DEFAULT_255_1_234
10
17.3345653
20
-0.116574
40
0.6993804
50
179.6556203
51
190.0080463
0
ARC
8
DEFAULT_255_1_234
10
17.1029482
20
-0.1590625
40
0.4639066
50
189.8116607
51
206.6796816
0
ARC
8
DEFAULT_255_1_234
10
17.0184634
20
-0.1984497
40
0.3707421
50
207.1031645
51
217.7074368
0
ARC
8
DEFAULT_255_1_234
10
16.9550323
20
-0.2536441
40
0.2868417
50
216.7345547
51
265.6812148
0
ARC
8
DEFAULT_255_1_234
10
16.9681114
20
-0.1632145
40
0.3780509
50
264.7366618
51
270.0611241
0
ARC
8
DEFAULT_255_1_234
10
16.9704377
20
0.1208111
40
0.662079
50
269.8335834
51
276.0539546
0
ARC
8
DEFAULT_255_1_234
10
16.9911382
20
-0.069344
40
0.4708016
50
275.9894168
51
284.4615085
0
ARC
8
DEFAULT_255_1_234
10
17.0109389
20
-0.1526337
40
0.3852094
50
284.7034461
51
286.4953897
0
ARC
8
DEFAULT_255_1_234
10
17.0516402
20
-0.2837035
40
0.2479842
50
286.0770838
51
304.2625829
0
ARC
8
DEFAULT_255_1_234
10
17.0649816
20
-0.3055406
40
0.2224291
50
304.5891602
51
317.1073298
0
LINE
8
DEFAULT_255_1_234
10
11.7264657
20
126.3123565
11
11.7264657
21
126.2376614
0
LINE
8
DEFAULT_255_1_234
10
11.5216563
20
125.7541507
11
11.7304815
21
125.5903033
0
LINE
8
DEFAULT_255_1_234
10
11.7304815
20
125.5903033
11
11.6252658
21
125.4931192
0
LINE
8
DEFAULT_255_1_234
10
11.6252658
20
125.4931192
11
11.3786914
21
125.6890937
0
LINE
8
DEFAULT_255_1_234
10
10.7851459
20
126.2272201
11
10.7851459
21
126.3115534
0
LINE
8
DEFAULT_255_1_234
10
11.5722563
20
126.2264169
11
11.5722563
21
126.3131597
0
LINE
8
DEFAULT_255_1_234
10
10.9393553
20
126.323601
11
10.9393553
21
126.2376614
0
ARC
8
DEFAULT_255_1_234
10
10.8310909
20
126.2337707
40
0.8953833
50
351.453011
51
0.2489685
0
ARC
8
DEFAULT_255_1_234
10
11.0895709
20
126.1937933
40
0.6338333
50
338.6861641
51
351.5540711
0
ARC
8
DEFAULT_255_1_234
10
11.1829593
20
126.1607828
40
0.5348431
50
336.2887631
51
338.3442418
0
ARC
8
DEFAULT_255_1_234
10
11.2169215
20
126.1421698
40
0.4962747
50
321.1170344
51
336.6795229
0
ARC
8
DEFAULT_255_1_234
10
11.2801044
20
126.0935206
40
0.4165565
50
305.4419708
51
320.8705636
0
ARC
8
DEFAULT_255_1_234
10
11.2604514
20
126.1682707
40
0.4935497
50
271.6373023
51
283.8611969
0
ARC
8
DEFAULT_255_1_234
10
11.2566767
20
126.2338572
40
0.5592206
50
269.9930596
51
271.8318864
0
ARC
8
DEFAULT_255_1_234
10
11.252921
20
126.1530681
40
0.4784458
50
252.5219675
51
270.4416499
0
ARC
8
DEFAULT_255_1_234
10
11.2385469
20
126.0991592
40
0.422716
50
237.5352116
51
252.1857531
0
ARC
8
DEFAULT_255_1_234
10
11.2474665
20
126.1105363
40
0.4371052
50
209.063312
51
237.3492538
0
ARC
8
DEFAULT_255_1_234
10
11.3344513
20
126.1651685
40
0.5397041
50
205.1183774
51
209.6470015
0
ARC
8
DEFAULT_255_1_234
10
11.414155
20
126.198983
40
0.6262326
50
188.7215458
51
204.8240747
0
ARC
8
DEFAULT_255_1_234
10
11.6139078
20
126.2326067
40
0.8287794
50
180.3723947
51
188.9252049
0
ARC
8
DEFAULT_255_1_234
10
11.611183
20
126.3155402
40
0.8260467
50
169.5253763
51
180.2765336
0
ARC
8
DEFAULT_255_1_234
10
11.4209279
20
126.3505309
40
0.6326007
50
155.8315255
51
169.5089989
0
ARC
8
DEFAULT_255_1_234
10
11.292878
20
126.4099348
40
0.4914567
50
139.6258461
51
156.0379525
0
ARC
8
DEFAULT_255_1_234
10
11.2339113
20
126.4573799
40
0.4158054
50
122.6416387
51
139.3430715
0
ARC
8
DEFAULT_255_1_234
10
11.2439733
20
126.4390451
40
0.4366739
50
93.0223692
51
122.455762
0
ARC
8
DEFAULT_255_1_234
10
11.254773
20
126.3425709
40
0.5336137
50
89.975342
51
93.6341897
0
ARC
8
DEFAULT_255_1_234
10
11.2586616
20
126.3805375
40
0.4956606
50
73.9665422
51
90.4229648
0
ARC
8
DEFAULT_255_1_234
10
11.2770263
20
126.4520451
40
0.4218674
50
57.5178019
51
73.6813337
0
ARC
8
DEFAULT_255_1_234
10
11.2726046
20
126.4484462
40
0.4272816
50
28.7261108
51
57.2767933
0
ARC
8
DEFAULT_255_1_234
10
11.1815378
20
126.3921688
40
0.534218
50
24.2448911
51
29.3248482
0
ARC
8
DEFAULT_255_1_234
10
11.0889479
20
126.3538819
40
0.6343711
50
9.064382
51
23.9639114
0
ARC
8
DEFAULT_255_1_234
10
10.8633807
20
126.3159925
40
0.8630926
50
359.7586264
51
9.1891435
0
ARC
8
DEFAULT_255_1_234
10
10.7379287
20
126.3173343
40
0.834338
50
359.7133237
51
7.96545
0
ARC
8
DEFAULT_255_1_234
10
11.0341504
20
126.3600681
40
0.5350538
50
7.8291991
51
20.0421623
0
ARC
8
DEFAULT_255_1_234
10
11.1966067
20
126.4191606
40
0.3621841
50
20.0677553
51
35.9161685
0
ARC
8
DEFAULT_255_1_234
10
11.2741105
20
126.476767
40
0.2656263
50
35.6594382
51
85.1578074
0
ARC
8
DEFAULT_255_1_234
10
11.2556361
20
126.3652378
40
0.3784238
50
83.7959068
51
90.095906
0
ARC
8
DEFAULT_255_1_234
10
11.2513295
20
126.4385601
40
0.3051229
50
89.3102392
51
109.9889877
0
ARC
8
DEFAULT_255_1_234
10
11.2430778
20
126.4741433
40
0.2688988
50
110.9285147
51
143.9411762
0
ARC
8
DEFAULT_255_1_234
10
11.3361724
20
126.4029236
40
0.3860887
50
143.5289163
51
163.2980757
0
ARC
8
DEFAULT_255_1_234
10
11.5269545
20
126.3429433
40
0.5860659
50
163.0418846
51
174.3140048
0
ARC
8
DEFAULT_255_1_234
10
11.7673657
20
126.3151854
40
0.8280531
50
174.0509143
51
179.4176892
0
ARC
8
DEFAULT_255_1_234
10
11.7159992
20
126.2333634
40
0.7766558
50
179.6829237
51
188.9631324
0
ARC
8
DEFAULT_255_1_234
10
11.4489553
20
126.1898752
40
0.5060992
50
188.8100743
51
202.9300012
0
ARC
8
DEFAULT_255_1_234
10
11.3273182
20
126.1403855
40
0.3747967
50
203.2069261
51
215.7876482
0
ARC
8
DEFAULT_255_1_234
10
11.2424579
20
126.0732671
40
0.2667526
50
214.7521006
51
264.2834488
0
ARC
8
DEFAULT_255_1_234
10
11.2560234
20
126.158778
40
0.3532247
50
263.4755397
51
270.0949833
0
ARC
8
DEFAULT_255_1_234
10
11.2602345
20
126.1326374
40
0.3271036
50
269.3649385
51
287.5152008
0
ARC
8
DEFAULT_255_1_234
10
11.2780503
20
126.0679238
40
0.2600406
50
288.0630309
51
323.8113348
0
ARC
8
DEFAULT_255_1_234
10
11.1909345
20
126.1329049
40
0.3687189
50
323.6547608
51
342.6590488
0
ARC
8
DEFAULT_255_1_234
10
10.987796
20
126.1989952
40
0.5823286
50
342.4091907
51
353.6451149
0
ARC
8
DEFAULT_255_1_234
10
10.7046471
20
126.234219
40
0.8676442
50
353.4029884
51
359.4847795
0
LINE
8
DEFAULT_255_1_234
10
12.6573441
20
126.2481026
11
12.6573441
21
126.1268234
0
LINE
8
DEFAULT_255_1_234
10
12.6573441
20
126.1268234
11
12.2653953
21
126.1268234
0
LINE
8
DEFAULT_255_1_234
10
12.2653953
20
126.1268234
11
12.2653953
21
126.2481026
0
LINE
8
DEFAULT_255_1_234
10
12.2653953
20
126.2481026
11
12.6573441
21
126.2481026
0
LINE
8
DEFAULT_255_1_234
10
14.0082825
20
126.5219849
11
13.85327
21
126.5219849
0
LINE
8
DEFAULT_255_1_234
10
13.1609341
20
126.0296394
11
13.3159467
21
126.0296394
0
ARC
8
DEFAULT_255_1_234
10
13.9191513
20
127.4166768
40
1.252368
50
248.9199003
51
254.1439814
0
ARC
8
DEFAULT_255_1_234
10
13.7511007
20
126.9840234
40
0.788226
50
241.633709
51
249.0064503
0
ARC
8
DEFAULT_255_1_234
10
13.5982402
20
126.7039317
40
0.4691427
50
230.498225
51
241.8087113
0
ARC
8
DEFAULT_255_1_234
10
13.5197976
20
126.6039906
40
0.3421437
50
227.4064532
51
229.9881192
0
ARC
8
DEFAULT_255_1_234
10
13.4710497
20
126.5564088
40
0.2741476
50
200.6781896
51
228.1763934
0
ARC
8
DEFAULT_255_1_234
10
13.4782807
20
126.5549077
40
0.2804109
50
179.5061581
51
199.8694617
0
ARC
8
DEFAULT_255_1_234
10
13.4773559
20
126.562321
40
0.2795204
50
132.4834203
51
181.0242172
0
ARC
8
DEFAULT_255_1_234
10
13.5369141
20
126.5060704
40
0.3612768
50
129.2532479
51
133.4242687
0
ARC
8
DEFAULT_255_1_234
10
13.5515591
20
126.4840965
40
0.3875675
50
101.98776
51
128.8742646
0
ARC
8
DEFAULT_255_1_234
10
13.5914202
20
126.3119741
40
0.5642249
50
89.5906553
51
102.3169264
0
ARC
8
DEFAULT_255_1_234
10
13.5984694
20
126.3438148
40
0.5323783
50
77.2360837
51
90.3248275
0
ARC
8
DEFAULT_255_1_234
10
13.6191773
20
126.44054
40
0.4334697
50
63.837784
51
77.0809408
0
ARC
8
DEFAULT_255_1_234
10
13.6469535
20
126.4922911
40
0.3747796
50
45.9864267
51
64.1607727
0
ARC
8
DEFAULT_255_1_234
10
13.6730416
20
126.5220866
40
0.3352302
50
32.2747395
51
45.6547121
0
ARC
8
DEFAULT_255_1_234
10
13.6796857
20
126.523988
40
0.328603
50
359.6507365
51
32.6130309
0
ARC
8
DEFAULT_255_1_234
10
13.5853952
20
126.524466
40
0.2678863
50
359.469343
51
14.9832209
0
ARC
8
DEFAULT_255_1_234
10
13.6559014
20
126.5433539
40
0.1948938
50
14.9781179
51
48.2004265
0
ARC
8
DEFAULT_255_1_234
10
13.6394658
20
126.5226983
40
0.2212521
50
48.5927837
51
74.1241538
0
ARC
8
DEFAULT_255_1_234
10
13.6061148
20
126.4126248
40
0.3362561
50
73.7888341
51
86.6652678
0
ARC
8
DEFAULT_255_1_234
10
13.5958714
20
126.2918881
40
0.4573953
50
86.2640471
51
90.0526343
0
ARC
8
DEFAULT_255_1_234
10
13.5930426
20
126.3314192
40
0.4178709
50
89.6697524
51
99.2309573
0
ARC
8
DEFAULT_255_1_234
10
13.5687877
20
126.4758964
40
0.2713749
50
99.069534
51
113.7658566
0
ARC
8
DEFAULT_255_1_234
10
13.5414068
20
126.5404677
40
0.2012469
50
114.0401004
51
127.9850673
0
ARC
8
DEFAULT_255_1_234
10
13.5173632
20
126.570073
40
0.1631167
50
127.7287463
51
176.7105154
0
ARC
8
DEFAULT_255_1_234
10
13.5852349
20
126.5599693
40
0.2315392
50
175.1779447
51
180.0581938
0
ARC
8
DEFAULT_255_1_234
10
13.5009196
20
126.5587428
40
0.1472271
50
179.6142195
51
228.1246017
0
ARC
8
DEFAULT_255_1_234
10
13.5450865
20
126.5996308
40
0.2072299
50
226.5779593
51
230.8800004
0
ARC
8
DEFAULT_255_1_234
10
13.5921944
20
126.6621636
40
0.2854818
50
231.4635071
51
241.9260842
0
ARC
8
DEFAULT_255_1_234
10
13.7119122
20
126.88248
40
0.53622
50
241.7178533
51
248.3259551
0
ARC
8
DEFAULT_255_1_234
10
13.8504493
20
127.2257064
40
0.9063478
50
248.2007737
51
252.4528373
0
ARC
8
DEFAULT_255_1_234
10
13.9708218
20
127.5978441
40
1.2974635
50
252.3391078
51
254.3469452
0
ARC
8
DEFAULT_255_1_234
10
13.2165921
20
124.9001148
40
1.5037162
50
71.0197183
51
74.4087047
0
ARC
8
DEFAULT_255_1_234
10
13.3860606
20
125.3893111
40
0.9859993
50
66.1847285
51
71.086374
0
ARC
8
DEFAULT_255_1_234
10
13.5416918
20
125.73972
40
0.6025855
50
59.3536294
51
66.2691831
0
ARC
8
DEFAULT_255_1_234
10
13.6305571
20
125.8900609
40
0.4279449
50
49.1020879
51
59.3293958
0
ARC
8
DEFAULT_255_1_234
10
13.7124311
20
125.9833834
40
0.3038015
50
32.7919921
51
49.2505539
0
ARC
8
DEFAULT_255_1_234
10
13.7445401
20
126.0062191
40
0.264448
50
31.1181161
51
32.4005348
0
ARC
8
DEFAULT_255_1_234
10
13.7356938
20
126.0026779
40
0.2738556
50
8.1116974
51
30.7958831
0
ARC
8
DEFAULT_255_1_234
10
13.6546607
20
125.9888753
40
0.3560327
50
359.8389159
51
8.4706516
0
ARC
8
DEFAULT_255_1_234
10
13.7172398
20
125.9840137
40
0.2934776
50
337.4731098
51
0.7537279
0
ARC
8
DEFAULT_255_1_234
10
13.7351093
20
125.9820387
40
0.2762607
50
307.5917067
51
336.4315538
0
ARC
8
DEFAULT_255_1_234
10
13.6890921
20
126.0333102
40
0.3449979
50
307.6551545
51
308.4529766
0
ARC
8
DEFAULT_255_1_234
10
13.666064
20
126.068825
40
0.3871988
50
284.3734338
51
307.1424381
0
ARC
8
DEFAULT_255_1_234
10
13.616547
20
126.2509932
40
0.5759636
50
272.4382747
51
284.646547
0
ARC
8
DEFAULT_255_1_234
10
13.6038679
20
126.4309893
40
0.7563528
50
269.9708387
51
272.8178037
0
ARC
8
DEFAULT_255_1_234
10
13.5995718
20
126.2271716
40
0.5525489
50
248.2707594
51
270.4055579
0
ARC
8
DEFAULT_255_1_234
10
13.5941459
20
126.2081192
40
0.5328452
50
246.1383403
51
248.0542782
0
ARC
8
DEFAULT_255_1_234
10
13.5522838
20
126.1201843
40
0.4355005
50
233.1670131
51
246.4950969
0
ARC
8
DEFAULT_255_1_234
10
13.4968743
20
126.0453812
40
0.3424126
50
215.3403242
51
233.0843104
0
ARC
8
DEFAULT_255_1_234
10
13.4696175
20
126.0255549
40
0.3087104
50
179.2419209
51
215.2648451
0
ARC
8
DEFAULT_255_1_234
10
13.5463768
20
126.0269666
40
0.2304457
50
179.335461
51
199.1045811
0
ARC
8
DEFAULT_255_1_234
10
13.5131445
20
126.0182766
40
0.1962176
50
199.8828939
51
232.7063202
0
ARC
8
DEFAULT_255_1_234
10
13.5603713
20
126.0776788
40
0.2720938
50
232.3738199
51
255.5136649
0
ARC
8
DEFAULT_255_1_234
10
13.594458
20
126.2020835
40
0.4010747
50
255.2446292
51
267.5320849
0
ARC
8
DEFAULT_255_1_234
10
13.6032203
20
126.3253702
40
0.5246356
50
267.1557994
51
270.0286766
0
ARC
8
DEFAULT_255_1_234
10
13.6059976
20
126.280995
40
0.4802668
50
269.7000017
51
278.1660162
0
ARC
8
DEFAULT_255_1_234
10
13.631598
20
126.1079515
40
0.3053425
50
278.0231263
51
290.625471
0
ARC
8
DEFAULT_255_1_234
10
13.6663667
20
126.0152025
40
0.206291
50
290.6619762
51
307.0370976
0
ARC
8
DEFAULT_255_1_234
10
13.6964057
20
125.9783504
40
0.1587906
50
306.3943566
51
355.3030547
0
ARC
8
DEFAULT_255_1_234
10
13.6451988
20
125.9860113
40
0.2104809
50
354.3660432
51
0.0698737
0
ARC
8
DEFAULT_255_1_234
10
13.6594333
20
125.9882617
40
0.1962563
50
359.417946
51
16.1971788
0
ARC
8
DEFAULT_255_1_234
10
13.7049644
20
126.0007418
40
0.149053
50
16.4723299
51
52.6262157
0
ARC
8
DEFAULT_255_1_234
10
13.6228698
20
125.8923433
40
0.2850296
50
52.7386432
51
62.4979148
0
ARC
8
DEFAULT_255_1_234
10
13.4843774
20
125.6317283
40
0.5801521
50
62.2515216
51
68.1220564
0
ARC
8
DEFAULT_255_1_234
10
13.3123685
20
125.2089872
40
1.0365451
50
68.0062803
51
71.8053402
0
ARC
8
DEFAULT_255_1_234
10
13.1328057
20
124.6704758
40
1.6042013
50
71.7183119
51
73.9258742
0
LINE
8
DEFAULT_255_1_234
10
14.1472316
20
126.1011218
11
14.1472316
21
126.1284297
0
LINE
8
DEFAULT_255_1_234
10
14.8845452
20
126.1444932
11
14.8845452
21
126.0826488
0
LINE
8
DEFAULT_255_1_234
10
14.8845452
20
126.0826488
11
14.2958188
21
126.0826488
0
LINE
8
DEFAULT_255_1_234
10
14.7825421
20
125.9131792
11
14.8733007
21
125.8424999
0
LINE
8
DEFAULT_255_1_234
10
14.3006378
20
126.2047313
11
14.735958
21
126.2047313
0
LINE
8
DEFAULT_255_1_234
10
14.735958
20
126.2047313
11
14.735958
21
126.2159757
0
ARC
8
DEFAULT_255_1_234
10
14.5411681
20
126.1122332
40
0.4376191
50
252.3266134
51
270.5810217
0
ARC
8
DEFAULT_255_1_234
10
14.520677
20
126.0381644
40
0.3608374
50
223.3000567
51
251.8561855
0
ARC
8
DEFAULT_255_1_234
10
14.5418131
20
126.0586937
40
0.3902993
50
190.9374509
51
223.3654032
0
ARC
8
DEFAULT_255_1_234
10
14.7143103
20
126.0976885
40
0.5670891
50
179.6531105
51
191.4989439
0
ARC
8
DEFAULT_255_1_234
10
14.7265115
20
126.1316417
40
0.5792888
50
167.4007466
51
180.3176909
0
ARC
8
DEFAULT_255_1_234
10
14.6213177
20
126.1538885
40
0.471777
50
154.1835823
51
167.250763
0
ARC
8
DEFAULT_255_1_234
10
14.5581644
20
126.1871417
40
0.4004528
50
134.3149965
51
154.5315275
0
ARC
8
DEFAULT_255_1_234
10
14.5364139
20
126.2062228
40
0.371612
50
122.8616532
51
133.9707695
0
ARC
8
DEFAULT_255_1_234
10
14.5260714
20
126.2284703
40
0.3473289
50
89.8249009
51
123.4199222
0
ARC
8
DEFAULT_255_1_234
10
14.5310755
20
126.1637967
40
0.4120197
50
74.7876118
51
90.5482747
0
ARC
8
DEFAULT_255_1_234
10
14.5604498
20
126.272303
40
0.2996077
50
39.8178249
51
74.7633718
0
ARC
8
DEFAULT_255_1_234
10
14.5091818
20
126.2323351
40
0.3645855
50
16.8990863
51
39.4829761
0
ARC
8
DEFAULT_255_1_234
10
14.3197114
20
126.1716526
40
0.5635218
50
4.9636328
51
17.2026414
0
ARC
8
DEFAULT_255_1_234
10
14.0779185
20
126.146134
40
0.8066286
50
359.8834553
51
5.2834307
0
ARC
8
DEFAULT_255_1_234
10
14.6816709
20
126.0892803
40
0.3859091
50
180.9846213
51
194.9401313
0
ARC
8
DEFAULT_255_1_234
10
14.5766987
20
126.0605849
40
0.2770883
50
194.80314
51
222.0412631
0
ARC
8
DEFAULT_255_1_234
10
14.5462869
20
126.0304116
40
0.2343055
50
221.5417084
51
268.8614402
0
ARC
8
DEFAULT_255_1_234
10
14.5535863
20
126.0980686
40
0.3021528
50
267.732405
51
270.0097136
0
ARC
8
DEFAULT_255_1_234
10
14.5553673
20
126.1182105
40
0.3222994
50
269.6924892
51
280.4117579
0
ARC
8
DEFAULT_255_1_234
10
14.573008
20
126.0263193
40
0.2287344
50
280.2255091
51
298.6338936
0
ARC
8
DEFAULT_255_1_234
10
14.5846872
20
126.0019223
40
0.2017294
50
299.0430333
51
300.4643464
0
ARC
8
DEFAULT_255_1_234
10
14.5166878
20
126.1153038
40
0.3339357
50
300.6577328
51
322.0378878
0
ARC
8
DEFAULT_255_1_234
10
14.4816417
20
126.1457021
40
0.3802736
50
321.6750233
51
322.3046845
0
ARC
8
DEFAULT_255_1_234
10
14.5747378
20
126.029037
40
0.3520454
50
276.9728461
51
328.0035423
0
ARC
8
DEFAULT_255_1_234
10
14.5470431
20
126.1770841
40
0.5024498
50
269.8361028
51
278.0581756
0
ARC
8
DEFAULT_255_1_234
10
14.5243168
20
126.2515757
40
0.202159
50
89.2018686
51
117.2851756
0
ARC
8
DEFAULT_255_1_234
10
14.5296337
20
126.2473752
40
0.2083484
50
118.0551165
51
137.4540413
0
ARC
8
DEFAULT_255_1_234
10
14.5671077
20
126.2133304
40
0.2589774
50
137.5109581
51
158.8516286
0
ARC
8
DEFAULT_255_1_234
10
14.6808913
20
126.1674074
40
0.38167
50
158.5845963
51
170.1721436
0
ARC
8
DEFAULT_255_1_234
10
14.7978302
20
126.1441823
40
0.5008657
50
169.8376422
51
173.0566086
0
ARC
8
DEFAULT_255_1_234
10
14.3281376
20
126.1952509
40
0.4083467
50
2.9091802
51
12.8847116
0
ARC
8
DEFAULT_255_1_234
10
14.4652053
20
126.2275101
40
0.2675383
50
12.6957781
51
28.6404489
0
ARC
8
DEFAULT_255_1_234
10
14.5193723
20
126.2555458
40
0.2065654
50
29.0169854
51
41.1487595
0
ARC
8
DEFAULT_255_1_234
10
14.5396509
20
126.2732003
40
0.1796786
50
41.1646065
51
85.0013516
0
ARC
8
DEFAULT_255_1_234
10
14.5275605
20
126.1997431
40
0.2539726
50
83.7280015
51
90.0964893
0
LINE
8
DEFAULT_255_1_234
10
15.4764843
20
126.5645531
11
15.4764843
21
126.4264072
0
LINE
8
DEFAULT_255_1_234
10
15.2050115
20
126.3075375
11
15.2050115
21
125.6907
0
LINE
8
DEFAULT_255_1_234
10
15.2050115
20
125.6907
11
15.0564244
21
125.6907
0
LINE
8
DEFAULT_255_1_234
10
15.0564244
20
125.6907
11
15.0564244
21
126.5597341
0
LINE
8
DEFAULT_255_1_234
10
15.0564244
20
126.5597341
11
15.2009957
21
126.5597341
0
LINE
8
DEFAULT_255_1_234
10
15.2009957
20
126.5597341
11
15.2034052
21
126.4593374
0
ARC
8
DEFAULT_255_1_234
10
15.4098248
20
126.0204342
40
0.4114092
50
80.6754243
51
86.8932892
0
ARC
8
DEFAULT_255_1_234
10
15.4037783
20
125.92367
40
0.5083596
50
86.8038578
51
90.0431435
0
ARC
8
DEFAULT_255_1_234
10
15.4000763
20
126.1693866
40
0.2626638
50
89.2759698
51
106.6213787
0
ARC
8
DEFAULT_255_1_234
10
15.3796327
20
126.243683
40
0.1856317
50
107.1346045
51
157.6458115
0
ARC
8
DEFAULT_255_1_234
10
15.4487929
20
126.2053311
40
0.2643398
50
155.6586782
51
157.2539184
0
ARC
8
DEFAULT_255_1_234
10
15.4283131
20
126.3222157
40
0.2634121
50
127.8165941
51
148.6302098
0
ARC
8
DEFAULT_255_1_234
10
15.40296
20
126.3482218
40
0.2273596
50
91.3329982
51
126.7875809
0
ARC
8
DEFAULT_255_1_234
10
15.410554
20
126.2767195
40
0.299078
50
89.986594
51
92.4688449
0
ARC
8
DEFAULT_255_1_234
10
15.4113935
20
126.3042078
40
0.2715908
50
85.3589899
51
90.1623399
0
ARC
8
DEFAULT_255_1_234
10
15.4198451
20
126.4046164
40
0.1708278
50
78.401942
51
85.4594656
0
ARC
8
DEFAULT_255_1_234
10
15.4343335
20
126.4737236
40
0.1002194
50
67.7858312
51
78.5728455
0
ARC
8
DEFAULT_255_1_234
10
15.4451188
20
126.5016887
40
0.0702548
50
63.4835954
51
67.3062642
0
LINE
8
DEFAULT_255_1_234
10
15.7744618
20
126.5597341
11
15.7744618
21
125.6907
0
LINE
8
DEFAULT_255_1_234
10
15.7744618
20
125.6907
11
15.6258746
21
125.6907
0
LINE
8
DEFAULT_255_1_234
10
15.6258746
20
125.6907
11
15.6258746
21
126.5597341
0
LINE
8
DEFAULT_255_1_234
10
15.6258746
20
126.5597341
11
15.7744618
21
126.5597341
0
ARC
8
DEFAULT_255_1_234
10
15.7116895
20
126.7911889
40
0.097867
50
161.415052
51
180.5526306
0
ARC
8
DEFAULT_255_1_234
10
15.6992673
20
126.7946077
40
0.0850062
50
138.1827368
51
160.9307106
0
ARC
8
DEFAULT_255_1_234
10
15.6882619
20
126.8041588
40
0.0704362
50
104.6368899
51
138.0039868
0
ARC
8
DEFAULT_255_1_234
10
15.6989773
20
126.7674963
40
0.1086221
50
92.0600725
51
105.2189128
0
ARC
8
DEFAULT_255_1_234
10
15.7013122
20
126.7332117
40
0.1429728
50
89.9756393
51
92.5012496
0
ARC
8
DEFAULT_255_1_234
10
15.7023141
20
126.7557731
40
0.1204151
50
78.0235316
51
90.4478182
0
ARC
8
DEFAULT_255_1_234
10
15.7115233
20
126.7971295
40
0.0780493
50
55.051506
51
78.3369085
0
ARC
8
DEFAULT_255_1_234
10
15.7165507
20
126.8055711
40
0.0682538
50
42.0501187
51
54.4513741
0
ARC
8
DEFAULT_255_1_234
10
15.7030374
20
126.7931798
40
0.0865878
50
1.7497075
51
42.1496013
0
ARC
8
DEFAULT_255_1_234
10
15.6775707
20
126.7902738
40
0.1121515
50
359.9852656
51
2.8364544
0
ARC
8
DEFAULT_255_1_234
10
15.6941699
20
126.7893229
40
0.0955566
50
342.1070653
51
0.552888
0
ARC
8
DEFAULT_255_1_234
10
15.7084397
20
126.7853904
40
0.0807713
50
316.7107116
51
341.6516965
0
ARC
8
DEFAULT_255_1_234
10
15.7151434
20
126.7793823
40
0.0717724
50
285.4397031
51
316.5324284
0
ARC
8
DEFAULT_255_1_234
10
15.7041351
20
126.8159554
40
0.1099597
50
272.3547054
51
285.8953117
0
ARC
8
DEFAULT_255_1_234
10
15.7014509
20
126.8525048
40
0.1465932
50
269.9695369
51
272.8160237
0
ARC
8
DEFAULT_255_1_234
10
15.700469
20
126.8305863
40
0.1246779
50
258.8431134
51
270.4153935
0
ARC
8
DEFAULT_255_1_234
10
15.6914733
20
126.7870414
40
0.0802162
50
238.5431189
51
259.1288175
0
ARC
8
DEFAULT_255_1_234
10
15.6846618
20
126.7746856
40
0.0661247
50
222.5062634
51
237.9906969
0
ARC
8
DEFAULT_255_1_234
10
15.6974205
20
126.7862889
40
0.0833707
50
184.1069131
51
222.460413
0
ARC
8
DEFAULT_255_1_234
10
15.7243446
20
126.7901349
40
0.1105176
50
179.9429482
51
185.0960898
0
LINE
8
DEFAULT_255_1_234
10
15.9744521
20
126.1011218
11
15.9744521
21
126.1284297
0
LINE
8
DEFAULT_255_1_234
10
16.7117656
20
126.1444932
11
16.7117656
21
126.0826488
0
LINE
8
DEFAULT_255_1_234
10
16.7117656
20
126.0826488
11
16.1230392
21
126.0826488
0
LINE
8
DEFAULT_255_1_234
10
16.6097625
20
125.9131792
11
16.7005212
21
125.8424999
0
LINE
8
DEFAULT_255_1_234
10
16.1278583
20
126.2047313
11
16.5631785
21
126.2047313
0
LINE
8
DEFAULT_255_1_234
10
16.5631785
20
126.2047313
11
16.5631785
21
126.2159757
0
ARC
8
DEFAULT_255_1_234
10
16.3683886
20
126.1122332
40
0.4376191
50
252.3266134
51
270.5810217
0
ARC
8
DEFAULT_255_1_234
10
16.3478975
20
126.0381644
40
0.3608374
50
223.3000567
51
251.8561855
0
ARC
8
DEFAULT_255_1_234
10
16.3690335
20
126.0586937
40
0.3902993
50
190.9374509
51
223.3654032
0
ARC
8
DEFAULT_255_1_234
10
16.5415308
20
126.0976885
40
0.5670891
50
179.6531105
51
191.4989439
0
ARC
8
DEFAULT_255_1_234
10
16.553732
20
126.1316417
40
0.5792888
50
167.4007466
51
180.3176909
0
ARC
8
DEFAULT_255_1_234
10
16.4485381
20
126.1538885
40
0.471777
50
154.1835823
51
167.250763
0
ARC
8
DEFAULT_255_1_234
10
16.3853849
20
126.1871417
40
0.4004528
50
134.3149965
51
154.5315275
0
ARC
8
DEFAULT_255_1_234
10
16.3636344
20
126.2062228
40
0.371612
50
122.8616532
51
133.9707695
0
ARC
8
DEFAULT_255_1_234
10
16.3532918
20
126.2284703
40
0.3473289
50
89.8249009
51
123.4199222
0
ARC
8
DEFAULT_255_1_234
10
16.3582959
20
126.1637967
40
0.4120197
50
74.7876118
51
90.5482747
0
ARC
8
DEFAULT_255_1_234
10
16.3876702
20
126.272303
40
0.2996077
50
39.8178249
51
74.7633718
0
ARC
8
DEFAULT_255_1_234
10
16.3364023
20
126.2323351
40
0.3645855
50
16.8990863
51
39.4829761
0
ARC
8
DEFAULT_255_1_234
10
16.1469319
20
126.1716526
40
0.5635218
50
4.9636328
51
17.2026414
0
ARC
8
DEFAULT_255_1_234
10
15.9051389
20
126.146134
40
0.8066286
50
359.8834553
51
5.2834307
0
ARC
8
DEFAULT_255_1_234
10
16.5088914
20
126.0892803
40
0.3859091
50
180.9846213
51
194.9401313
0
ARC
8
DEFAULT_255_1_234
10
16.4039191
20
126.0605849
40
0.2770883
50
194.80314
51
222.0412631
0
ARC
8
DEFAULT_255_1_234
10
16.3735073
20
126.0304116
40
0.2343055
50
221.5417084
51
268.8614402
0
ARC
8
DEFAULT_255_1_234
10
16.3808068
20
126.0980686
40
0.3021528
50
267.732405
51
270.0097136
0
ARC
8
DEFAULT_255_1_234
10
16.3825878
20
126.1182105
40
0.3222994
50
269.6924892
51
280.4117579
0
ARC
8
DEFAULT_255_1_234
10
16.4002285
20
126.0263193
40
0.2287344
50
280.2255091
51
298.6338936
0
ARC
8
DEFAULT_255_1_234
10
16.4119077
20
126.0019223
40
0.2017294
50
299.0430333
51
300.4643464
0
ARC
8
DEFAULT_255_1_234
10
16.3439082
20
126.1153038
40
0.3339357
50
300.6577328
51
322.0378878
0
ARC
8
DEFAULT_255_1_234
10
16.3088621
20
126.1457021
40
0.3802736
50
321.6750233
51
322.3046845
0
ARC
8
DEFAULT_255_1_234
10
16.4019583
20
126.029037
40
0.3520454
50
276.9728461
51
328.0035423
0
ARC
8
DEFAULT_255_1_234
10
16.3742635
20
126.1770841
40
0.5024498
50
269.8361028
51
278.0581756
0
ARC
8
DEFAULT_255_1_234
10
16.3515373
20
126.2515757
40
0.202159
50
89.2018686
51
117.2851756
0
ARC
8
DEFAULT_255_1_234
10
16.3568542
20
126.2473752
40
0.2083484
50
118.0551165
51
137.4540413
0
ARC
8
DEFAULT_255_1_234
10
16.3943282
20
126.2133304
40
0.2589774
50
137.5109581
51
158.8516286
0
ARC
8
DEFAULT_255_1_234
10
16.5081117
20
126.1674074
40
0.38167
50
158.5845963
51
170.1721436
0
ARC
8
DEFAULT_255_1_234
10
16.6250507
20
126.1441823
40
0.5008657
50
169.8376422
51
173.0566086
0
ARC
8
DEFAULT_255_1_234
10
16.1553581
20
126.1952509
40
0.4083467
50
2.9091802
51
12.8847116
0
ARC
8
DEFAULT_255_1_234
10
16.2924257
20
126.2275101
40
0.2675383
50
12.6957781
51
28.6404489
0
ARC
8
DEFAULT_255_1_234
10
16.3465928
20
126.2555458
40
0.2065654
50
29.0169854
51
41.1487595
0
ARC
8
DEFAULT_255_1_234
10
16.3668713
20
126.2732003
40
0.1796786
50
41.1646065
51
85.0013516
0
ARC
8
DEFAULT_255_1_234
10
16.354781
20
126.1997431
40
0.2539726
50
83.7280015
51
90.0964893
0
LINE
8
DEFAULT_255_1_234
10
17.5301998
20
126.3043248
11
17.3808094
21
126.3043248
0
LINE
8
DEFAULT_255_1_234
10
16.847502
20
125.9581569
11
16.9960892
21
125.9581569
0
ARC
8
DEFAULT_255_1_234
10
17.2619913
20
125.9226959
40
0.1276617
50
359.3334982
51
18.5871358
0
ARC
8
DEFAULT_255_1_234
10
17.282855
20
125.9282133
40
0.1061371
50
19.3540742
51
54.6485071
0
ARC
8
DEFAULT_255_1_234
10
17.2324452
20
125.8586919
40
0.1920087
50
54.3827097
51
65.0622807
0
ARC
8
DEFAULT_255_1_234
10
17.1555848
20
125.69699
40
0.3710447
50
64.8282493
51
71.4200025
0
ARC
8
DEFAULT_255_1_234
10
17.0653724
20
125.4323107
40
0.6506741
50
71.3164301
51
75.8006402
0
ARC
8
DEFAULT_255_1_234
10
16.9812544
20
125.1082561
40
0.9854641
50
75.6809531
51
78.0061883
0
ARC
8
DEFAULT_255_1_234
10
17.4261077
20
127.206177
40
1.1591028
50
254.6901892
51
258.0466452
0
ARC
8
DEFAULT_255_1_234
10
17.3222985
20
126.8302781
40
0.7691345
50
249.9010773
51
254.755261
0
ARC
8
DEFAULT_255_1_234
10
17.2219327
20
126.5576982
40
0.478665
50
243.3097214
51
249.9709442
0
ARC
8
DEFAULT_255_1_234
10
17.1590349
20
126.4322778
40
0.3383568
50
234.4047477
51
243.2862168
0
ARC
8
DEFAULT_255_1_234
10
17.0967872
20
126.3463232
40
0.2322322
50
220.8667099
51
234.5493881
0
ARC
8
DEFAULT_255_1_234
10
17.0625813
20
126.3151817
40
0.1859923
50
214.3062465
51
220.5065136
0
ARC
8
DEFAULT_255_1_234
10
17.0599892
20
126.312088
40
0.1821108
50
186.912965
51
213.9618616
0
ARC
8
DEFAULT_255_1_234
10
17.1131987
20
126.3207009
40
0.2359799
50
179.8808832
51
187.4339886
0
ARC
8
DEFAULT_255_1_234
10
17.097712
20
126.3227088
40
0.2204978
50
132.005434
51
180.3942919
0
ARC
8
DEFAULT_255_1_234
10
17.1633734
20
126.2621083
40
0.3095791
50
129.2319861
51
133.5302299
0
ARC
8
DEFAULT_255_1_234
10
17.1687242
20
126.2526928
40
0.3202615
50
100.4410011
51
128.9081242
0
ARC
8
DEFAULT_255_1_234
10
17.1961126
20
126.1241455
40
0.4516583
50
89.6985377
51
100.9026564
0
ARC
8
DEFAULT_255_1_234
10
17.2018168
20
126.1081166
40
0.4676928
50
77.6965325
51
90.4076836
0
ARC
8
DEFAULT_255_1_234
10
17.2349152
20
126.2508413
40
0.3211988
50
50.7276602
51
78.0399361
0
ARC
8
DEFAULT_255_1_234
10
17.279361
20
126.3026296
40
0.2529778
50
25.7545084
51
51.0957453
0
ARC
8
DEFAULT_255_1_234
10
17.2794835
20
126.3076206
40
0.250738
50
359.2468627
51
24.7394243
0
ARC
8
DEFAULT_255_1_234
10
17.2510287
20
126.3047664
40
0.1297815
50
359.8050318
51
45.1544908
0
ARC
8
DEFAULT_255_1_234
10
17.2103429
20
126.2699794
40
0.1831883
50
43.8047702
51
49.6271585
0
ARC
8
DEFAULT_255_1_234
10
17.211133
20
126.2700678
40
0.18261
50
49.7980766
51
82.1218353
0
ARC
8
DEFAULT_255_1_234
10
17.1992302
20
126.2053998
40
0.2483163
50
81.4465357
51
90.1710293
0
ARC
8
DEFAULT_255_1_234
10
17.1967905
20
126.152788
40
0.300932
50
89.6766211
51
99.1264602
0
ARC
8
DEFAULT_255_1_234
10
17.1796367
20
126.2561537
40
0.1961547
50
98.968313
51
113.4570237
0
ARC
8
DEFAULT_255_1_234
10
17.1600452
20
126.3029965
40
0.1453859
50
113.722589
51
127.4763106
0
ARC
8
DEFAULT_255_1_234
10
17.1432098
20
126.3230124
40
0.1192639
50
126.9083309
51
150.3165862
0
ARC
8
DEFAULT_255_1_234
10
17.1384431
20
126.3280981
40
0.112623
50
151.3635175
51
180.0701457
0
ARC
8
DEFAULT_255_1_234
10
17.1693215
20
126.325999
40
0.1435149
50
179.2169974
51
179.9954013
0
ARC
8
DEFAULT_255_1_234
10
17.1332273
20
126.3247056
40
0.1074286
50
179.3040112
51
198.4225446
0
ARC
8
DEFAULT_255_1_234
10
17.1140406
20
126.3197127
40
0.0876573
50
199.2895851
51
238.6034594
0
ARC
8
DEFAULT_255_1_234
10
17.1743253
20
126.414345
40
0.1998512
50
237.9846301
51
246.8744712
0
ARC
8
DEFAULT_255_1_234
10
17.2601198
20
126.6106205
40
0.4140547
50
246.6234531
51
251.8168941
0
ARC
8
DEFAULT_255_1_234
10
17.3631741
20
126.9200905
40
0.7402308
50
251.713434
51
255.0778414
0
ARC
8
DEFAULT_255_1_234
10
17.4831004
20
127.3667563
40
1.2027155
50
255.0367487
51
257.4705983
0
ARC
8
DEFAULT_255_1_234
10
16.9723014
20
125.0653863
40
1.1546601
50
73.6837552
51
77.5016755
0
ARC
8
DEFAULT_255_1_234
10
17.0811789
20
125.4353581
40
0.7690009
50
68.7044154
51
73.7249639
0
ARC
8
DEFAULT_255_1_234
10
17.1714809
20
125.6680654
40
0.5193873
50
63.590599
51
68.6626804
0
ARC
8
DEFAULT_255_1_234
10
17.2485828
20
125.8218123
40
0.3473927
50
54.7106439
51
63.7013633
0
ARC
8
DEFAULT_255_1_234
10
17.3110283
20
125.90904
40
0.2401192
50
41.0622434
51
54.8487496
0
ARC
8
DEFAULT_255_1_234
10
17.3451669
20
125.9403592
40
0.1938094
50
34.4950568
51
40.7105546
0
ARC
8
DEFAULT_255_1_234
10
17.3498477
20
125.9452078
40
0.1872106
50
9.3763373
51
34.0833615
0
ARC
8
DEFAULT_255_1_234
10
17.2845347
20
125.9326728
40
0.2536988
50
359.7694872
51
9.7663171
0
ARC
8
DEFAULT_255_1_234
10
17.3042848
20
125.9283764
40
0.2339696
50
335.8654732
51
0.8022045
0
ARC
8
DEFAULT_255_1_234
10
17.3117892
20
125.9297197
40
0.2277108
50
307.7357725
51
334.7849066
0
ARC
8
DEFAULT_255_1_234
10
17.2717068
20
125.9747645
40
0.2878951
50
307.0241536
51
308.5578354
0
ARC
8
DEFAULT_255_1_234
10
17.2459399
20
126.0133801
40
0.3342515
50
282.9362969
51
306.5646424
0
ARC
8
DEFAULT_255_1_234
10
17.2097697
20
126.1601108
40
0.4853615
50
271.1026298
51
283.2200835
0
ARC
8
DEFAULT_255_1_234
10
17.2033941
20
126.2842418
40
0.6096052
50
269.9919117
51
271.4772449
0
ARC
8
DEFAULT_255_1_234
10
17.2007696
20
126.1764436
40
0.5018135
50
259.0723564
51
270.289833
0
ARC
8
DEFAULT_255_1_234
10
17.1795428
20
126.0647271
40
0.388099
50
245.4963068
51
259.0227342
0
ARC
8
DEFAULT_255_1_234
10
17.1517384
20
126.0065615
40
0.3236422
50
228.9684658
51
245.7044727
0
ARC
8
DEFAULT_255_1_234
10
17.1251828
20
125.9738575
40
0.2815426
50
214.4011705
51
228.6759915
0
ARC
8
DEFAULT_255_1_234
10
17.0962569
20
125.958029
40
0.2487548
50
179.9705531
51
215.1572795
0
ARC
8
DEFAULT_255_1_234
10
17.1663168
20
125.9653806
40
0.1703809
50
182.4299387
51
203.0329699
0
ARC
8
DEFAULT_255_1_234
10
17.1478826
20
125.9597396
40
0.1512226
50
203.798802
51
232.548466
0
ARC
8
DEFAULT_255_1_234
10
17.1755347
20
125.9948826
40
0.1959374
50
232.3782728
51
256.3934612
0
ARC
8
DEFAULT_255_1_234
10
17.1985709
20
126.0838842
40
0.2878639
50
256.104506
51
268.4626716
0
ARC
8
DEFAULT_255_1_234
10
17.2032193
20
126.1635487
40
0.3676329
50
268.0715632
51
270.0138206
0
ARC
8
DEFAULT_255_1_234
10
17.2050718
20
126.1363083
40
0.3403971
50
269.7031147
51
278.8341955
0
ARC
8
DEFAULT_255_1_234
10
17.2232811
20
126.0232876
40
0.2259217
50
278.6728789
51
292.8232582
0
ARC
8
DEFAULT_255_1_234
10
17.2433349
20
125.9731449
40
0.171929
50
293.1452328
51
303.6655899
0
ARC
8
DEFAULT_255_1_234
10
17.2698228
20
125.9355204
40
0.1259367
50
303.1248165
51
321.742847
0
ARC
8
DEFAULT_255_1_234
10
17.2884109
20
125.9192156
40
0.1012531
50
322.4748573
51
1.1291126
0
LINE
8
DEFAULT_255_2_778
10
10.5738396
20
128.2150073
11
9.3932396
21
128.2150073
0
LINE
8
DEFAULT_255_2_778
10
9.3932396
20
128.2150073
11
9.9837396
21
129.2376073
0
LINE
8
DEFAULT_255_2_778
10
9.9837396
20
129.2376073
11
11.1643396
21
129.2376073
0
LINE
8
DEFAULT_255_2_778
10
11.1643396
20
129.2376073
11
10.5738396
21
128.2150073
0
LINE
8
DEFAULT_255_2_778
10
10.5738396
20
128.2150073
11
10.5738396
21
128.2150073
0
LINE
8
DEFAULT_255_2_778
10
11.7546396
20
128.2150073
11
12.9354396
21
128.2150073
0
LINE
8
DEFAULT_255_2_778
10
12.9354396
20
128.2150073
11
12.3451396
21
129.2376073
0
LINE
8
DEFAULT_255_2_778
10
12.3451396
20
129.2376073
11
11.1643396
21
129.2376073
0
LINE
8
DEFAULT_255_2_778
10
11.1643396
20
129.2376073
11
11.7546396
21
128.2150073
0
LINE
8
DEFAULT_255_2_778
10
11.7546396
20
128.2150073
11
11.7546396
21
128.2150073
0
LINE
8
DEFAULT_255_2_778
10
11.7545823
20
130.2602146
11
11.1642823
21
131.2828146
0
LINE
8
DEFAULT_255_2_778
10
11.1642823
20
131.2828146
11
10.5737823
21
130.2602146
0
LINE
8
DEFAULT_255_2_778
10
10.5737823
20
130.2602146
11
11.1642823
21
129.2376146
0
LINE
8
DEFAULT_255_2_778
10
11.1642823
20
129.2376146
11
11.7545823
21
130.2602146
0
LINE
8
DEFAULT_255_2_778
10
11.7545823
20
130.2602146
11
11.7545823
21
130.2602146
0
ARC
8
DEFAULT_255_2_778
10
16.5183731
20
129.9064426
40
0.5650491
50
268.7543645
51
289.1417717
0
ARC
8
DEFAULT_255_2_778
10
16.606208
20
129.6512531
40
0.2951681
50
289.2776255
51
3.7648372
0
ARC
8
DEFAULT_255_2_778
10
16.3901618
20
129.6778085
40
0.5106278
50
359.1949826
51
0.0020862
0
ARC
8
DEFAULT_255_2_778
10
16.547449
20
129.6637832
40
0.1541914
50
280.2616216
51
358.5297855
0
ARC
8
DEFAULT_255_2_778
10
16.5080075
20
129.776355
40
0.2726346
50
269.5969454
51
284.2065679
0
ARC
8
DEFAULT_255_2_778
10
16.4981967
20
129.7607316
40
0.2571258
50
246.5290903
51
271.7590909
0
ARC
8
DEFAULT_255_2_778
10
16.4527148
20
129.6527009
40
0.1399248
50
188.1071678
51
245.9934684
0
ARC
8
DEFAULT_255_2_778
10
16.4829007
20
129.6596617
40
0.1708111
50
179.9445314
51
188.990814
0
ARC
8
DEFAULT_255_2_778
10
16.4924507
20
129.6664849
40
0.3763411
50
178.2272621
51
205.8283807
0
ARC
8
DEFAULT_255_2_778
10
16.4132476
20
129.6487833
40
0.2979176
50
209.4028057
51
263.0375728
0
ARC
8
DEFAULT_255_2_778
10
16.5005111
20
130.0234629
40
0.6816586
50
259.5722942
51
270.4689037
0
ARC
8
DEFAULT_255_2_778
10
17.411252
20
130.0796767
40
0.1217154
50
2.0482843
51
87.015299
0
ARC
8
DEFAULT_255_2_778
10
17.4060617
20
130.0840852
40
0.126828
50
353.0600847
51
359.9737428
0
ARC
8
DEFAULT_255_2_778
10
17.4110442
20
130.0809555
40
0.1215295
50
270.5739762
51
354.2410513
0
ARC
8
DEFAULT_255_2_778
10
17.4065059
20
130.1171297
40
0.1578027
50
269.9941256
51
272.0902921
0
ARC
8
DEFAULT_255_2_778
10
17.414084
20
129.6662295
40
0.1400686
50
358.2807293
51
95.6106825
0
ARC
8
DEFAULT_255_2_778
10
17.4103233
20
129.6623963
40
0.1437669
50
266.9962473
51
359.8528392
0
ARC
8
DEFAULT_255_2_778
10
17.4725249
20
129.7026988
40
0.3335288
50
268.2414507
51
302.0223478
0
ARC
8
DEFAULT_255_2_778
10
17.5091261
20
129.627383
40
0.2504234
50
304.0600275
51
2.0468005
0
ARC
8
DEFAULT_255_2_778
10
17.4832788
20
129.6340521
40
0.2761203
50
0.4720601
51
65.8403529
0
ARC
8
DEFAULT_255_2_778
10
17.5191655
20
129.6988061
40
0.2024466
50
67.606893
51
75.8693222
0
ARC
8
DEFAULT_255_2_778
10
17.5042026
20
130.106422
40
0.2208874
50
286.9473417
51
358.0074963
0
ARC
8
DEFAULT_255_2_778
10
17.4710866
20
130.1152045
40
0.2544031
50
356.2897886
51
0.0050857
0
ARC
8
DEFAULT_255_2_778
10
17.497262
20
130.1202946
40
0.2282839
50
358.7280137
51
81.8073164
0
ARC
8
DEFAULT_255_2_778
10
17.4216369
20
129.8688283
40
0.4895182
50
77.2355086
51
90.5088275
0
ARC
8
DEFAULT_255_2_778
10
17.5842742
20
128.9043263
40
0.130243
50
89.9974494
51
92.6776592
0
ARC
8
DEFAULT_255_2_778
10
17.5843316
20
128.9048872
40
0.129682
50
45.0880141
51
90.022782
0
ARC
8
DEFAULT_255_2_778
10
17.5844118
20
128.904919
40
0.1296029
50
0.001866
51
45.1031959
0
ARC
8
DEFAULT_255_2_778
10
17.5845123
20
128.9049202
40
0.1295026
50
357.4803735
51
0.0013544
0
ARC
8
DEFAULT_255_2_778
10
17.5901979
20
128.9010512
40
0.1237052
50
339.8672523
51
359.1550732
0
ARC
8
DEFAULT_255_2_778
10
17.5794513
20
128.8982079
40
0.1329691
50
272.0853006
51
342.6124646
0
ARC
8
DEFAULT_255_2_778
10
17.6596145
20
128.9364661
40
0.2575135
50
286.787355
51
290.6121696
0
ARC
8
DEFAULT_255_2_778
10
17.6689461
20
128.9221533
40
0.24086
50
289.7330405
51
342.3216972
0
ARC
8
DEFAULT_255_2_778
10
17.641261
20
128.9269954
40
0.268735
50
343.130572
51
0.3905272
0
ARC
8
DEFAULT_255_2_778
10
17.6578783
20
128.9443767
40
0.2525904
50
356.4706028
51
80.1788963
0
ARC
8
DEFAULT_255_2_778
10
17.5921649
20
128.7174163
40
0.4881286
50
77.1212301
51
90.4900821
0
ARC
8
DEFAULT_255_2_778
10
17.5166337
20
128.419736
40
0.1865405
50
50.1507009
51
92.9634648
0
ARC
8
DEFAULT_255_2_778
10
17.5301354
20
128.4480678
40
0.1563319
50
12.621233
51
47.2950617
0
ARC
8
DEFAULT_255_2_778
10
16.8485884
20
128.3151726
40
0.8506657
50
2.8173892
51
11.3253986
0
ARC
8
DEFAULT_255_2_778
10
-29.2295733
20
124.8188175
40
47.060992
50
4.3048394
51
4.3117143
0
ARC
8
DEFAULT_255_2_778
10
18.5500859
20
128.391284
40
0.8523717
50
182.6850102
51
191.2954256
0
ARC
8
DEFAULT_255_2_778
10
17.9656837
20
128.2849399
40
0.2586603
50
193.5512904
51
195.3825538
0
ARC
8
DEFAULT_255_2_778
10
19.3415679
20
128.5425916
40
1.4608773
50
182.5958701
51
192.9049706
0
ARC
8
DEFAULT_255_2_778
10
17.6207606
20
128.4709215
40
0.261487
50
1.2064311
51
30.4123358
0
ARC
8
DEFAULT_255_2_778
10
17.6663626
20
128.485976
40
0.2147766
50
33.1081154
51
71.7312197
0
LINE
8
DEFAULT_255_2_778
10
13.4657897
20
128.6505271
11
13.9385897
21
128.6505271
0
LINE
8
DEFAULT_255_2_778
10
13.9385897
20
128.6505271
11
13.9385897
21
128.8219271
0
LINE
8
DEFAULT_255_2_778
10
13.9385897
20
128.8219271
11
13.4657897
21
128.8219271
0
LINE
8
DEFAULT_255_2_778
10
13.4657897
20
128.8219271
11
13.4657897
21
129.0328271
0
LINE
8
DEFAULT_255_2_778
10
13.4657897
20
129.0328271
11
13.9977897
21
129.0328271
0
LINE
8
DEFAULT_255_2_778
10
13.9977897
20
129.0328271
11
13.9977897
21
129.2042271
0
LINE
8
DEFAULT_255_2_778
10
13.9977897
20
129.2042271
11
13.4657897
21
129.2042271
0
LINE
8
DEFAULT_255_2_778
10
13.4657897
20
129.2042271
11
13.2651897
21
129.2042271
0
LINE
8
DEFAULT_255_2_778
10
13.2651897
20
129.2042271
11
13.2651897
21
129.0328271
0
LINE
8
DEFAULT_255_2_778
10
13.2651897
20
129.0328271
11
13.2651897
21
128.3864271
0
LINE
8
DEFAULT_255_2_778
10
13.2651897
20
128.3864271
11
13.2651897
21
128.2149271
0
LINE
8
DEFAULT_255_2_778
10
13.2651897
20
128.2149271
11
13.4657897
21
128.2149271
0
LINE
8
DEFAULT_255_2_778
10
13.4657897
20
128.2149271
11
14.0118897
21
128.2149271
0
LINE
8
DEFAULT_255_2_778
10
14.0118897
20
128.2149271
11
14.0118897
21
128.3864271
0
LINE
8
DEFAULT_255_2_778
10
14.0118897
20
128.3864271
11
13.4657897
21
128.3864271
0
LINE
8
DEFAULT_255_2_778
10
13.4657897
20
128.3864271
11
13.4657897
21
128.6502271
0
LINE
8
DEFAULT_255_2_778
10
13.4657897
20
128.6502271
11
13.4657897
21
128.6505271
0
LINE
8
DEFAULT_255_2_778
10
13.4519897
20
130.1046271
11
13.6620897
21
129.3693271
0
LINE
8
DEFAULT_255_2_778
10
13.6620897
20
129.3693271
11
13.6704897
21
129.3693271
0
LINE
8
DEFAULT_255_2_778
10
13.6704897
20
129.3693271
11
13.8464897
21
129.3693271
0
LINE
8
DEFAULT_255_2_778
10
13.8464897
20
129.3693271
11
13.8546897
21
129.3693271
0
LINE
8
DEFAULT_255_2_778
10
13.8546897
20
129.3693271
11
14.0647897
21
130.1046271
0
LINE
8
DEFAULT_255_2_778
10
14.0647897
20
130.1046271
11
14.0647897
21
129.3693271
0
LINE
8
DEFAULT_255_2_778
10
14.0647897
20
129.3693271
11
14.2515897
21
129.3693271
0
LINE
8
DEFAULT_255_2_778
10
14.2515897
20
129.3693271
11
14.2515897
21
130.3586271
0
LINE
8
DEFAULT_255_2_778
10
14.2515897
20
130.3586271
11
14.1496897
21
130.3586271
0
LINE
8
DEFAULT_255_2_778
10
14.1496897
20
130.3586271
11
14.0615897
21
130.3586271
0
LINE
8
DEFAULT_255_2_778
10
14.0615897
20
130.3586271
11
13.9655897
21
130.3586271
0
LINE
8
DEFAULT_255_2_778
10
13.9655897
20
130.3586271
11
13.7583897
21
129.6643271
0
LINE
8
DEFAULT_255_2_778
10
13.7583897
20
129.6643271
11
13.5511897
21
130.3586271
0
LINE
8
DEFAULT_255_2_778
10
13.5511897
20
130.3586271
11
13.4551897
21
130.3586271
0
LINE
8
DEFAULT_255_2_778
10
13.4551897
20
130.3586271
11
13.3669897
21
130.3586271
0
LINE
8
DEFAULT_255_2_778
10
13.3669897
20
130.3586271
11
13.2651897
21
130.3586271
0
LINE
8
DEFAULT_255_2_778
10
13.2651897
20
130.3586271
11
13.2651897
21
129.3693271
0
LINE
8
DEFAULT_255_2_778
10
13.2651897
20
129.3693271
11
13.4519897
21
129.3693271
0
LINE
8
DEFAULT_255_2_778
10
13.4519897
20
129.3693271
11
13.4519897
21
130.1046271
0
LINE
8
DEFAULT_255_2_778
10
13.4519897
20
130.1046271
11
13.4519897
21
130.1046271
0
LINE
8
DEFAULT_255_2_778
10
18.0056897
20
130.3586271
11
17.8064897
21
130.3586271
0
LINE
8
DEFAULT_255_2_778
10
17.8064897
20
130.3586271
11
17.8064897
21
129.3693271
0
LINE
8
DEFAULT_255_2_778
10
17.8064897
20
129.3693271
11
18.0056897
21
129.3693271
0
LINE
8
DEFAULT_255_2_778
10
18.0056897
20
129.3693271
11
18.0056897
21
130.3586271
0
LINE
8
DEFAULT_255_2_778
10
18.0056897
20
130.3586271
11
18.0056897
21
130.3586271
0
LINE
8
DEFAULT_255_2_778
10
18.1681897
20
129.2045271
11
17.9689897
21
129.2045271
0
LINE
8
DEFAULT_255_2_778
10
17.9689897
20
129.2045271
11
17.9689897
21
128.2152271
0
LINE
8
DEFAULT_255_2_778
10
17.9689897
20
128.2152271
11
18.1681897
21
128.2152271
0
LINE
8
DEFAULT_255_2_778
10
18.1681897
20
128.2152271
11
18.1681897
21
129.2045271
0
LINE
8
DEFAULT_255_2_778
10
18.1681897
20
129.2045271
11
18.1681897
21
129.2045271
0
LINE
8
DEFAULT_255_2_778
10
19.9765897
20
130.3586271
11
19.7773897
21
130.3586271
0
LINE
8
DEFAULT_255_2_778
10
19.7773897
20
130.3586271
11
19.7773897
21
129.3693271
0
LINE
8
DEFAULT_255_2_778
10
19.7773897
20
129.3693271
11
19.9765897
21
129.3693271
0
LINE
8
DEFAULT_255_2_778
10
19.9765897
20
129.3693271
11
19.9765897
21
130.3586271
0
LINE
8
DEFAULT_255_2_778
10
19.9765897
20
130.3586271
11
19.9765897
21
130.3586271
0
LINE
8
DEFAULT_255_2_778
10
14.5298897
20
130.3586271
11
14.3306897
21
130.3586271
0
LINE
8
DEFAULT_255_2_778
10
14.3306897
20
130.3586271
11
14.3306897
21
129.3693271
0
LINE
8
DEFAULT_255_2_778
10
14.3306897
20
129.3693271
11
14.5298897
21
129.3693271
0
LINE
8
DEFAULT_255_2_778
10
14.5298897
20
129.3693271
11
14.5298897
21
130.3586271
0
LINE
8
DEFAULT_255_2_778
10
14.5298897
20
130.3586271
11
14.5298897
21
130.3586271
0
LINE
8
DEFAULT_255_2_778
10
19.4989897
20
129.9726271
11
19.1029897
21
129.9726271
0
LINE
8
DEFAULT_255_2_778
10
19.1029897
20
129.9726271
11
19.1029897
21
130.3583271
0
LINE
8
DEFAULT_255_2_778
10
19.1029897
20
130.3583271
11
18.9068897
21
130.3583271
0
LINE
8
DEFAULT_255_2_778
10
18.9068897
20
130.3583271
11
18.9068897
21
129.3693271
0
LINE
8
DEFAULT_255_2_778
10
18.9068897
20
129.3693271
11
19.1029897
21
129.3693271
0
LINE
8
DEFAULT_255_2_778
10
19.1029897
20
129.3693271
11
19.1029897
21
129.8011271
0
LINE
8
DEFAULT_255_2_778
10
19.1029897
20
129.8011271
11
19.4989897
21
129.8011271
0
LINE
8
DEFAULT_255_2_778
10
19.4989897
20
129.8011271
11
19.4989897
21
129.3693271
0
LINE
8
DEFAULT_255_2_778
10
19.4989897
20
129.3693271
11
19.6950897
21
129.3693271
0
LINE
8
DEFAULT_255_2_778
10
19.6950897
20
129.3693271
11
19.6950897
21
130.3583271
0
LINE
8
DEFAULT_255_2_778
10
19.6950897
20
130.3583271
11
19.4989897
21
130.3583271
0
LINE
8
DEFAULT_255_2_778
10
19.4989897
20
130.3583271
11
19.4989897
21
129.9726271
0
LINE
8
DEFAULT_255_2_778
10
19.4989897
20
129.9726271
11
19.4989897
21
129.9726271
0
LINE
8
DEFAULT_255_2_778
10
14.8246897
20
129.3693271
11
15.0280897
21
129.3693271
0
LINE
8
DEFAULT_255_2_778
10
15.0280897
20
129.3693271
11
15.0280897
21
130.1872271
0
LINE
8
DEFAULT_255_2_778
10
15.0280897
20
130.1872271
11
15.2696897
21
130.1872271
0
LINE
8
DEFAULT_255_2_778
10
15.2696897
20
130.1872271
11
15.2696897
21
130.3586271
0
LINE
8
DEFAULT_255_2_778
10
15.2696897
20
130.3586271
11
15.0280897
21
130.3586271
0
LINE
8
DEFAULT_255_2_778
10
15.0280897
20
130.3586271
11
14.8246897
21
130.3586271
0
LINE
8
DEFAULT_255_2_778
10
14.8246897
20
130.3586271
11
14.5830897
21
130.3586271
0
LINE
8
DEFAULT_255_2_778
10
14.5830897
20
130.3586271
11
14.5830897
21
130.1872271
0
LINE
8
DEFAULT_255_2_778
10
14.5830897
20
130.1872271
11
14.8246897
21
130.1872271
0
LINE
8
DEFAULT_255_2_778
10
14.8246897
20
130.1872271
11
14.8246897
21
129.3693271
0
LINE
8
DEFAULT_255_2_778
10
14.8246897
20
129.3693271
11
14.8246897
21
129.3693271
0
LINE
8
DEFAULT_255_2_778
10
16.6422897
20
128.2152271
11
16.8454897
21
128.2152271
0
LINE
8
DEFAULT_255_2_778
10
16.8454897
20
128.2152271
11
16.8454897
21
129.0330271
0
LINE
8
DEFAULT_255_2_778
10
16.8454897
20
129.0330271
11
17.0873897
21
129.0330271
0
LINE
8
DEFAULT_255_2_778
10
17.0873897
20
129.0330271
11
17.0873897
21
129.2048271
0
LINE
8
DEFAULT_255_2_778
10
17.0873897
20
129.2048271
11
16.8454897
21
129.2048271
0
LINE
8
DEFAULT_255_2_778
10
16.8454897
20
129.2048271
11
16.6422897
21
129.2048271
0
LINE
8
DEFAULT_255_2_778
10
16.6422897
20
129.2048271
11
16.4004897
21
129.2048271
0
LINE
8
DEFAULT_255_2_778
10
16.4004897
20
129.2048271
11
16.4004897
21
129.0330271
0
LINE
8
DEFAULT_255_2_778
10
16.4004897
20
129.0330271
11
16.6422897
21
129.0330271
0
LINE
8
DEFAULT_255_2_778
10
16.6422897
20
129.0330271
11
16.6422897
21
128.2152271
0
LINE
8
DEFAULT_255_2_778
10
16.6422897
20
128.2152271
11
16.6422897
21
128.2152271
0
LINE
8
DEFAULT_255_2_778
10
16.9007897
20
129.6778271
11
16.9007897
21
130.3583271
0
LINE
8
DEFAULT_255_2_778
10
16.9007897
20
130.3583271
11
16.7015897
21
130.3583271
0
LINE
8
DEFAULT_255_2_778
10
16.7015897
20
130.3583271
11
16.7015897
21
129.6598271
0
LINE
8
DEFAULT_255_2_778
10
16.3120897
20
129.6598271
11
16.3120897
21
130.3583271
0
LINE
8
DEFAULT_255_2_778
10
16.3120897
20
130.3583271
11
16.1162897
21
130.3583271
0
LINE
8
DEFAULT_255_2_778
10
16.1162897
20
130.3583271
11
16.1162897
21
129.6781271
0
LINE
8
DEFAULT_255_2_778
10
15.0000897
20
128.6505271
11
15.4730897
21
128.6505271
0
LINE
8
DEFAULT_255_2_778
10
15.4730897
20
128.6505271
11
15.4730897
21
128.8219271
0
LINE
8
DEFAULT_255_2_778
10
15.4730897
20
128.8219271
11
15.0000897
21
128.8219271
0
LINE
8
DEFAULT_255_2_778
10
15.0000897
20
128.8219271
11
15.0000897
21
129.0328271
0
LINE
8
DEFAULT_255_2_778
10
15.0000897
20
129.0328271
11
15.5320897
21
129.0328271
0
LINE
8
DEFAULT_255_2_778
10
15.5320897
20
129.0328271
11
15.5320897
21
129.2042271
0
LINE
8
DEFAULT_255_2_778
10
15.5320897
20
129.2042271
11
15.0000897
21
129.2042271
0
LINE
8
DEFAULT_255_2_778
10
15.0000897
20
129.2042271
11
14.7997897
21
129.2042271
0
LINE
8
DEFAULT_255_2_778
10
14.7997897
20
129.2042271
11
14.7997897
21
129.0328271
0
LINE
8
DEFAULT_255_2_778
10
14.7997897
20
129.0328271
11
14.7997897
21
128.3864271
0
LINE
8
DEFAULT_255_2_778
10
14.7997897
20
128.3864271
11
14.7997897
21
128.2149271
0
LINE
8
DEFAULT_255_2_778
10
14.7997897
20
128.2149271
11
15.0000897
21
128.2149271
0
LINE
8
DEFAULT_255_2_778
10
15.0000897
20
128.2149271
11
15.5461897
21
128.2149271
0
LINE
8
DEFAULT_255_2_778
10
15.5461897
20
128.2149271
11
15.5461897
21
128.3864271
0
LINE
8
DEFAULT_255_2_778
10
15.5461897
20
128.3864271
11
15.0000897
21
128.3864271
0
LINE
8
DEFAULT_255_2_778
10
15.0000897
20
128.3864271
11
15.0000897
21
128.6502271
0
LINE
8
DEFAULT_255_2_778
10
15.0000897
20
128.6502271
11
15.0000897
21
128.6505271
0
LINE
8
DEFAULT_255_2_778
10
17.4064897
20
129.9593271
11
17.1690897
21
129.9593271
0
LINE
8
DEFAULT_255_2_778
10
17.1690897
20
129.9593271
11
17.1690897
21
130.2009271
0
LINE
8
DEFAULT_255_2_778
10
17.1690897
20
130.2009271
11
17.4175897
21
130.2009271
0
LINE
8
DEFAULT_255_2_778
10
17.4175897
20
130.2009271
11
17.4175897
21
130.2012271
0
LINE
8
DEFAULT_255_2_778
10
17.4027897
20
129.5185271
11
17.1690897
21
129.5185271
0
LINE
8
DEFAULT_255_2_778
10
17.1690897
20
129.5185271
11
17.1690897
21
129.8056271
0
LINE
8
DEFAULT_255_2_778
10
17.1690897
20
129.8056271
11
17.4003897
21
129.8056271
0
LINE
8
DEFAULT_255_2_778
10
17.1767897
20
129.3693271
11
17.4622897
21
129.3693271
0
LINE
8
DEFAULT_255_2_778
10
17.4172897
20
130.3583271
11
17.1770897
21
130.3583271
0
LINE
8
DEFAULT_255_2_778
10
17.1770897
20
130.3583271
11
16.9722897
21
130.3583271
0
LINE
8
DEFAULT_255_2_778
10
16.9722897
20
130.3583271
11
16.9711897
21
130.3583271
0
LINE
8
DEFAULT_255_2_778
10
16.9711897
20
130.3583271
11
16.9711897
21
129.3693271
0
LINE
8
DEFAULT_255_2_778
10
16.9711897
20
129.3693271
11
16.9722897
21
129.3693271
0
LINE
8
DEFAULT_255_2_778
10
16.9722897
20
129.3693271
11
17.1770897
21
129.3693271
0
LINE
8
DEFAULT_255_2_778
10
17.1770897
20
129.3693271
11
17.1767897
21
129.3693271
0
LINE
8
DEFAULT_255_2_778
10
17.3368897
20
128.7650271
11
17.3368897
21
129.0344271
0
LINE
8
DEFAULT_255_2_778
10
17.3368897
20
129.0344271
11
17.5781897
21
129.0344271
0
LINE
8
DEFAULT_255_2_778
10
17.5842897
20
128.7653271
11
17.3370897
21
128.7653271
0
LINE
8
DEFAULT_255_2_778
10
17.3370897
20
128.7653271
11
17.3368897
21
128.7650271
0
LINE
8
DEFAULT_255_2_778
10
17.5879897
20
129.2055271
11
17.3368897
21
129.2055271
0
LINE
8
DEFAULT_255_2_778
10
17.3368897
20
129.2055271
11
17.1383897
21
129.2055271
0
LINE
8
DEFAULT_255_2_778
10
17.1383897
20
129.2055271
11
17.1362897
21
129.2055271
0
LINE
8
DEFAULT_255_2_778
10
17.1362897
20
129.2055271
11
17.1362897
21
128.2163271
0
LINE
8
DEFAULT_255_2_778
10
17.1362897
20
128.2163271
11
17.3368897
21
128.2163271
0
LINE
8
DEFAULT_255_2_778
10
17.3368897
20
128.2163271
11
17.3368897
21
128.6060271
0
LINE
8
DEFAULT_255_2_778
10
17.3368897
20
128.6060271
11
17.5069897
21
128.6060271
0
LINE
8
DEFAULT_255_2_778
10
17.7162897
20
128.2163271
11
17.9175897
21
128.2163271
0
LINE
8
DEFAULT_255_2_778
10
14.2763897
20
129.2045271
11
14.0760897
21
129.2045271
0
LINE
8
DEFAULT_255_2_778
10
14.0760897
20
129.2045271
11
14.0760897
21
128.3867271
0
LINE
8
DEFAULT_255_2_778
10
14.0760897
20
128.3867271
11
14.0760897
21
128.2152271
0
LINE
8
DEFAULT_255_2_778
10
14.0760897
20
128.2152271
11
14.2763897
21
128.2152271
0
LINE
8
DEFAULT_255_2_778
10
14.2763897
20
128.2152271
11
14.7428897
21
128.2152271
0
LINE
8
DEFAULT_255_2_778
10
14.7428897
20
128.2152271
11
14.7428897
21
128.3867271
0
LINE
8
DEFAULT_255_2_778
10
14.7428897
20
128.3867271
11
14.2763897
21
128.3867271
0
LINE
8
DEFAULT_255_2_778
10
14.2763897
20
128.3867271
11
14.2763897
21
129.2045271
0
LINE
8
DEFAULT_255_2_778
10
14.2763897
20
129.2045271
11
14.2763897
21
129.2045271
0
ARC
8
DEFAULT_255_2_778
10
15.4584271
20
128.8302969
40
0.9681224
50
72.4822103
51
81.3184214
0
ARC
8
DEFAULT_255_2_778
10
15.7160297
20
129.6069918
40
0.1503783
50
28.8883513
51
77.0092434
0
ARC
8
DEFAULT_255_2_778
10
15.7432379
20
129.6359196
40
0.113238
50
358.9917455
51
22.7117017
0
ARC
8
DEFAULT_255_2_778
10
15.7394861
20
129.6400918
40
0.1171346
50
289.2958104
51
356.9831562
0
ARC
8
DEFAULT_255_2_778
10
15.6668261
20
129.7975882
40
0.2902651
50
268.4665462
51
292.5613311
0
ARC
8
DEFAULT_255_2_778
10
15.6496856
20
129.7385179
40
0.2312808
50
236.4956947
51
272.3225735
0
ARC
8
DEFAULT_255_2_778
10
15.6106646
20
129.6702839
40
0.1529307
50
178.9722202
51
234.5742435
0
ARC
8
DEFAULT_255_2_778
10
15.5656113
20
129.6607079
40
0.3002058
50
177.6481608
51
245.5596397
0
ARC
8
DEFAULT_255_2_778
10
15.6409971
20
129.8329561
40
0.488217
50
245.8690375
51
267.169035
0
ARC
8
DEFAULT_255_2_778
10
15.6671503
20
130.0839916
40
0.7403648
50
266.1069867
51
270.0547972
0
ARC
8
DEFAULT_255_2_778
10
15.6772894
20
129.9152135
40
0.5716642
50
269.0547216
51
287.7147747
0
ARC
8
DEFAULT_255_2_778
10
15.7598889
20
129.6695091
40
0.3125017
50
286.995984
51
325.1221533
0
ARC
8
DEFAULT_255_2_778
10
15.7678294
20
129.652961
40
0.2966627
50
326.8673922
51
0.8625726
0
ARC
8
DEFAULT_255_2_778
10
15.7898286
20
129.6615409
40
0.2746606
50
359.1417932
51
76.9739731
0
ARC
8
DEFAULT_255_2_778
10
15.6705461
20
129.3806719
40
0.577616
50
71.7185727
51
79.1315439
0
ARC
8
DEFAULT_255_2_778
10
14.2492968
20
122.027067
40
8.0673056
50
79.0662148
51
79.6216572
0
ARC
8
DEFAULT_255_2_778
10
16.4356585
20
133.9047581
40
4.0099443
50
259.1227669
51
259.4665204
0
ARC
8
DEFAULT_255_2_778
10
15.7836732
20
130.6097142
40
0.6513291
50
249.9945768
51
260.7485895
0
ARC
8
DEFAULT_255_2_778
10
15.5880401
20
130.0986999
40
0.1046098
50
178.6705173
51
254.9333545
0
ARC
8
DEFAULT_255_2_778
10
15.6049957
20
130.0952688
40
0.1216785
50
93.288632
51
177.2403935
0
ARC
8
DEFAULT_255_2_778
10
15.6585677
20
129.9082752
40
0.3143588
50
89.6189463
51
101.1057977
0
ARC
8
DEFAULT_255_2_778
10
15.6722733
20
130.020116
40
0.2028439
50
53.5634072
51
93.2825843
0
ARC
8
DEFAULT_255_2_778
10
15.7018505
20
130.0783144
40
0.1388739
50
357.1985816
51
49.1152298
0
ARC
8
DEFAULT_255_2_778
10
15.7254907
20
130.0715274
40
0.3087677
50
359.9999335
51
2.3703878
0
ARC
8
DEFAULT_255_2_778
10
15.7353555
20
130.0730337
40
0.298851
50
2.1600756
51
60.1092229
0
ARC
8
DEFAULT_255_2_778
10
15.6766212
20
129.9664133
40
0.4205645
50
60.4106856
51
86.1444419
0
ARC
8
DEFAULT_255_2_778
10
15.6536151
20
129.7897228
40
0.5985046
50
85.0843314
51
90.0628677
0
ARC
8
DEFAULT_255_2_778
10
15.6529718
20
129.9131466
40
0.4750804
50
90.001616
51
92.2300394
0
ARC
8
DEFAULT_255_2_778
10
15.6281193
20
130.018287
40
0.3696351
50
89.0131319
51
149.6364996
0
ARC
8
DEFAULT_255_2_778
10
15.5505461
20
130.0905055
40
0.2671974
50
154.5962367
51
180.4885883
0
ARC
8
DEFAULT_255_2_778
10
15.5651524
20
130.088984
40
0.281795
50
180.1539064
51
255.1120325
0
ARC
8
DEFAULT_255_2_778
10
15.7094242
20
130.411832
40
0.6333958
50
249.9962237
51
260.4976723
0
ARC
8
DEFAULT_255_2_778
10
18.2470963
20
128.8314351
40
0.967002
50
72.4685023
51
81.3064395
0
ARC
8
DEFAULT_255_2_778
10
18.5045397
20
129.607027
40
0.1503535
50
28.8782248
51
76.9904304
0
ARC
8
DEFAULT_255_2_778
10
18.5317197
20
129.6359189
40
0.1132561
50
358.9922779
51
22.7082666
0
ARC
8
DEFAULT_255_2_778
10
18.5280402
20
129.6400088
40
0.1170763
50
289.2761556
51
357.0223042
0
ARC
8
DEFAULT_255_2_778
10
18.4553612
20
129.7978836
40
0.2905613
50
268.4611814
51
292.5289055
0
ARC
8
DEFAULT_255_2_778
10
18.4381801
20
129.7394175
40
0.2321799
50
236.6698634
51
272.3149402
0
ARC
8
DEFAULT_255_2_778
10
18.39878
20
129.6702762
40
0.1528464
50
178.9687581
51
234.7686008
0
ARC
8
DEFAULT_255_2_778
10
18.3540113
20
129.6607079
40
0.3002058
50
177.6481608
51
245.5596397
0
ARC
8
DEFAULT_255_2_778
10
18.4293971
20
129.8329561
40
0.488217
50
245.8690375
51
267.169035
0
ARC
8
DEFAULT_255_2_778
10
18.4555503
20
130.0839916
40
0.7403648
50
266.1069867
51
270.0547972
0
ARC
8
DEFAULT_255_2_778
10
18.4656836
20
129.9158451
40
0.5722957
50
269.0563423
51
287.7048702
0
ARC
8
DEFAULT_255_2_778
10
18.548344
20
129.6698682
40
0.312856
50
286.9832601
51
325.0871916
0
ARC
8
DEFAULT_255_2_778
10
18.5567708
20
129.6529856
40
0.2964208
50
326.8311942
51
0.8585267
0
ARC
8
DEFAULT_255_2_778
10
18.5785756
20
129.6616282
40
0.2746149
50
359.1234265
51
76.9343785
0
ARC
8
DEFAULT_255_2_778
10
18.4596421
20
129.3817965
40
0.5764934
50
71.6999697
51
79.1198353
0
ARC
8
DEFAULT_255_2_778
10
17.0173657
20
121.9050392
40
8.1910887
50
79.0843627
51
79.6321368
0
ARC
8
DEFAULT_255_2_778
10
19.2200266
20
133.8845177
40
3.9892176
50
259.1314419
51
259.4772924
0
ARC
8
DEFAULT_255_2_778
10
18.5723251
20
130.6091131
40
0.6507003
50
249.9919323
51
260.7592458
0
ARC
8
DEFAULT_255_2_778
10
18.376901
20
130.0986546
40
0.1045718
50
178.6452075
51
254.9151907
0
ARC
8
DEFAULT_255_2_778
10
18.3939581
20
130.0952016
40
0.121744
50
93.2745253
51
177.21023
0
ARC
8
DEFAULT_255_2_778
10
18.4475726
20
129.9081052
40
0.3145287
50
89.6200387
51
101.1027534
0
ARC
8
DEFAULT_255_2_778
10
18.4613489
20
130.0214453
40
0.2015212
50
53.1490002
51
93.3256649
0
ARC
8
DEFAULT_255_2_778
10
18.4902753
20
130.0782519
40
0.1391457
50
357.2298288
51
48.6469881
0
ARC
8
DEFAULT_255_2_778
10
18.5137232
20
130.0715226
40
0.3092351
50
0.0008291
51
2.3676985
0
ARC
8
DEFAULT_255_2_778
10
18.5240744
20
130.0730868
40
0.2988304
50
2.1500394
51
60.0956838
0
ARC
8
DEFAULT_255_2_778
10
18.4654399
20
129.9665909
40
0.4203859
50
60.40452
51
86.1455285
0
ARC
8
DEFAULT_255_2_778
10
18.4424157
20
129.7897686
40
0.5984588
50
85.0841409
51
90.0629301
0
ARC
8
DEFAULT_255_2_778
10
18.4417778
20
129.9127392
40
0.4754878
50
90.0023409
51
92.3231329
0
ARC
8
DEFAULT_255_2_778
10
18.4167555
20
130.0180604
40
0.3698206
50
89.1093915
51
149.6400816
0
ARC
8
DEFAULT_255_2_778
10
18.338761
20
130.0904917
40
0.2669122
50
154.6001925
51
180.486137
0
ARC
8
DEFAULT_255_2_778
10
18.3537607
20
130.0891152
40
0.2819037
50
180.1805176
51
255.132702
0
ARC
8
DEFAULT_255_2_778
10
18.4982264
20
130.4123784
40
0.6339516
50
250.0026216
51
260.4967164
0
ARC
8
DEFAULT_255_2_778
10
16.008917
20
128.6195283
40
0.2519711
50
190.2626864
51
267.3480013
0
ARC
8
DEFAULT_255_2_778
10
16.2443543
20
128.7108548
40
0.5022041
50
179.6723028
51
195.7380858
0
ARC
8
DEFAULT_255_2_778
10
16.1790511
20
128.7263671
40
0.4370755
50
148.7005643
51
181.6572045
0
ARC
8
DEFAULT_255_2_778
10
15.9957576
20
128.8364723
40
0.2232598
50
89.6148479
51
148.4074796
0
ARC
8
DEFAULT_255_2_778
10
16.0060936
20
128.858549
40
0.201372
50
41.9769772
51
92.5146611
0
ARC
8
DEFAULT_255_2_778
10
15.9522078
20
128.8208523
40
0.2667646
50
15.1848537
51
40.2549591
0
ARC
8
DEFAULT_255_2_778
10
16.028123
20
128.8311326
40
0.3935735
50
8.7091682
51
82.0550801
0
ARC
8
DEFAULT_255_2_778
10
15.9931241
20
128.6846871
40
0.543642
50
80.5350289
51
90.1544743
0
ARC
8
DEFAULT_255_2_778
10
15.9818804
20
128.7733192
40
0.4551129
50
88.7689246
51
119.6437418
0
ARC
8
DEFAULT_255_2_778
10
16.0077717
20
128.7770647
40
0.4653013
50
122.644121
51
173.3997839
0
ARC
8
DEFAULT_255_2_778
10
16.2711934
20
128.7127568
40
0.7351371
50
170.7798304
51
180.1348114
0
ARC
8
DEFAULT_255_2_778
10
16.1372822
20
128.69742
40
0.6013778
50
178.7034849
51
210.5604279
0
ARC
8
DEFAULT_255_2_778
10
15.9706312
20
128.6069377
40
0.4119265
50
211.5090145
51
265.8592607
0
ARC
8
DEFAULT_255_2_778
10
15.9911883
20
128.7310521
40
0.5373252
50
264.628472
51
270.0501277
0
ARC
8
DEFAULT_255_2_778
10
16.002337
20
128.6629685
40
0.4693629
50
268.6963312
51
300.2191972
0
ARC
8
DEFAULT_255_2_778
10
16.0350684
20
128.5850124
40
0.3856821
50
301.8465101
51
353.7503927
0
ARC
8
DEFAULT_255_2_778
10
16.0015787
20
128.5789387
40
0.2111558
50
268.8276188
51
350.2079995
0
ARC
8
DEFAULT_255_2_778
10
18.6896799
20
128.6194824
40
0.2519281
50
190.2538303
51
267.3332171
0
ARC
8
DEFAULT_255_2_778
10
18.9252249
20
128.7108581
40
0.5022746
50
179.672724
51
195.7362088
0
ARC
8
DEFAULT_255_2_778
10
18.8600432
20
128.7263917
40
0.4372682
50
148.7196987
51
181.6596982
0
ARC
8
DEFAULT_255_2_778
10
18.676443
20
128.8365906
40
0.2231415
50
89.6108896
51
148.4244661
0
ARC
8
DEFAULT_255_2_778
10
18.686876
20
128.858567
40
0.2013576
50
42.5913083
51
92.5383066
0
ARC
8
DEFAULT_255_2_778
10
18.6345542
20
128.8221973
40
0.2646316
50
15.0085433
51
40.7215892
0
ARC
8
DEFAULT_255_2_778
10
18.708623
20
128.8311326
40
0.3935735
50
8.7091682
51
82.0550801
0
ARC
8
DEFAULT_255_2_778
10
18.6736241
20
128.6846871
40
0.543642
50
80.5350289
51
90.1544743
0
ARC
8
DEFAULT_255_2_778
10
18.6623804
20
128.7733192
40
0.4551129
50
88.7689246
51
119.6437418
0
ARC
8
DEFAULT_255_2_778
10
18.6882717
20
128.7770647
40
0.4653013
50
122.644121
51
173.3997839
0
ARC
8
DEFAULT_255_2_778
10
18.9516934
20
128.7127568
40
0.7351371
50
170.7798304
51
180.1348114
0
ARC
8
DEFAULT_255_2_778
10
18.8177822
20
128.69742
40
0.6013778
50
178.7034849
51
210.5604279
0
ARC
8
DEFAULT_255_2_778
10
18.6511312
20
128.6069377
40
0.4119265
50
211.5090145
51
265.8592607
0
ARC
8
DEFAULT_255_2_778
10
18.6716883
20
128.7310521
40
0.5373252
50
264.628472
51
270.0501277
0
ARC
8
DEFAULT_255_2_778
10
18.682837
20
128.6629685
40
0.4693629
50
268.6963312
51
300.2191972
0
ARC
8
DEFAULT_255_2_778
10
18.7155684
20
128.5850124
40
0.3856821
50
301.8465101
51
353.7503927
0
ARC
8
DEFAULT_255_2_778
10
18.6820648
20
128.5789604
40
0.2111733
50
268.8857714
51
350.2028431
0
LINE
8
DEFAULT_255_2_778
10
15.4577584
20
129.6730271
11
15.2656584
21
129.6730271
0
LINE
8
DEFAULT_255_2_778
10
15.8405584
20
130.0715271
11
16.0342584
21
130.0715271
0
LINE
8
DEFAULT_255_2_778
10
18.2459584
20
129.6730271
11
18.0540584
21
129.6730271
0
LINE
8
DEFAULT_255_2_778
10
18.6292584
20
130.0715271
11
18.8229584
21
130.0715271
0
LINE
8
DEFAULT_255_2_778
10
16.2096584
20
128.8907271
11
16.4171584
21
128.8907271
0
LINE
8
DEFAULT_255_2_778
10
16.4184584
20
128.5430271
11
16.2096584
21
128.5430271
0
LINE
8
DEFAULT_255_2_778
10
18.8901584
20
128.8907271
11
19.0976584
21
128.8907271
0
LINE
8
DEFAULT_255_2_778
10
19.0989584
20
128.5430271
11
18.8901584
21
128.5430271
0
LINE
8
DEFAULT_255_2_778
10
19.9765417
20
116.2843326
11
18.6536417
21
116.2843326
0
LINE
8
DEFAULT_255_2_778
10
18.6536417
20
116.2843326
11
18.6536417
21
63.3676326
0
LINE
8
DEFAULT_255_2_778
10
17.3307834
20
63.3677333
11
19.9765834
21
63.3677333
0
LINE
8
DEFAULT_255_2_778
10
19.9765834
20
63.3677333
11
19.9765834
21
58.0760333
0
LINE
8
DEFAULT_255_2_778
10
19.9765834
20
58.0760333
11
17.3307834
21
58.0760333
0
LINE
8
DEFAULT_255_2_778
10
17.3307834
20
58.0760333
11
17.3307834
21
63.3677333
0
ARC
8
DEFAULT_255_2_778_1
10
21.1303591
20
58.178477
40
4.816461
50
120.9442904
51
122.351755
0
ARC
8
DEFAULT_255_2_778_1
10
20.6837523
20
58.8821039
40
3.9830657
50
122.3407904
51
124.1946752
0
ARC
8
DEFAULT_255_2_778_1
10
20.2438464
20
59.5286306
40
3.2010724
50
124.1855758
51
126.4338849
0
ARC
8
DEFAULT_255_2_778_1
10
19.8579129
20
60.0513611
40
2.5513094
50
126.4326926
51
128.8877368
0
ARC
8
DEFAULT_255_2_778_1
10
19.5230968
20
60.4657658
40
2.0185498
50
128.8749205
51
131.8726567
0
ARC
8
DEFAULT_255_2_778_1
10
19.2259677
20
60.7967854
40
1.5737356
50
131.8616166
51
135.4168838
0
ARC
8
DEFAULT_255_2_778_1
10
18.963168
20
61.0549765
40
1.2053256
50
135.3893975
51
139.9687014
0
ARC
8
DEFAULT_255_2_778_1
10
18.7302889
20
61.2498102
40
0.9016937
50
139.9301659
51
145.9260426
0
ARC
8
DEFAULT_255_2_778_1
10
18.534154
20
61.3818104
40
0.6652776
50
145.8787362
51
153.8146208
0
ARC
8
DEFAULT_255_2_778_1
10
18.3820553
20
61.4561797
40
0.4959714
50
153.770634
51
164.3484794
0
ARC
8
DEFAULT_255_2_778_1
10
18.2807387
20
61.4843786
40
0.3908039
50
164.3220276
51
179.8083066
0
ARC
8
DEFAULT_255_2_778_1
10
18.3017789
20
61.492515
40
0.4118985
50
180.9499449
51
213.8111542
0
ARC
8
DEFAULT_255_2_778_1
10
18.5776828
20
61.6620896
40
0.73561
50
212.8271214
51
224.258472
0
ARC
8
DEFAULT_255_2_778_1
10
18.9605335
20
62.0314236
40
1.267567
50
224.1376218
51
231.4508261
0
ARC
8
DEFAULT_255_2_778_1
10
19.6032195
20
62.8344168
40
2.2960809
50
231.3955893
51
236.1256478
0
ARC
8
DEFAULT_255_2_778_1
10
21.4355223
20
65.5809293
40
5.5976905
50
236.2233172
51
239.1314682
0
ARC
8
DEFAULT_255_2_778_1
10
33.385427
20
85.3086568
40
28.6623793
50
238.8606853
51
239.0711101
0
ARC
8
DEFAULT_255_2_778_1
10
14.2132281
20
53.2115653
40
8.7248518
50
57.2420924
51
59.4062964
0
ARC
8
DEFAULT_255_2_778_1
10
17.4409241
20
58.2425102
40
2.747542
50
52.8289294
51
57.079028
0
ARC
8
DEFAULT_255_2_778_1
10
18.2155783
20
59.2628488
40
1.466457
50
46.3041868
51
52.8596521
0
ARC
8
DEFAULT_255_2_778_1
10
18.6478073
20
59.7129842
40
0.8424061
50
36.2174211
51
46.4090895
0
ARC
8
DEFAULT_255_2_778_1
10
18.9323088
20
59.9178128
40
0.4918609
50
17.400375
51
36.5489745
0
ARC
8
DEFAULT_255_2_778_1
10
19.0463994
20
59.9576754
40
0.3710912
50
0.0676858
51
16.7951297
0
ARC
8
DEFAULT_255_2_778_1
10
19.0253613
20
59.9595428
40
0.3921317
50
343.8035191
51
359.7912046
0
ARC
8
DEFAULT_255_2_778_1
10
18.9190912
20
59.9900167
40
0.5026844
50
333.2506233
51
343.8465691
0
ARC
8
DEFAULT_255_2_778_1
10
18.7652757
20
60.0667313
40
0.6745679
50
325.6600948
51
333.3122657
0
ARC
8
DEFAULT_255_2_778_1
10
18.5698344
20
60.1995296
40
0.9108568
50
319.7560915
51
325.6976089
0
ARC
8
DEFAULT_255_2_778_1
10
18.341699
20
60.3913002
40
1.2088854
50
315.4577584
51
319.8037947
0
ARC
8
DEFAULT_255_2_778_1
10
18.0783127
20
60.6501507
40
1.5781764
50
311.7298824
51
315.4670864
0
ARC
8
DEFAULT_255_2_778_1
10
17.7692879
20
60.9957074
40
2.0417554
50
308.723055
51
311.7470879
0
ARC
8
DEFAULT_255_2_778_1
10
17.415089
20
61.4369492
40
2.6075745
50
306.1165163
51
308.7300151
0
ARC
8
DEFAULT_255_2_778_1
10
17.0121091
20
61.9882523
40
3.2904564
50
303.9559446
51
306.1266333
0
ARC
8
DEFAULT_255_2_778_1
10
16.6005432
20
62.597515
40
4.0257023
50
302.3733397
51
303.9712246
0
ARC
8
DEFAULT_255_2_778_1
10
16.1809347
20
63.2590058
40
4.8090549
50
300.9434827
51
302.3758078
0
LINE
8
DEFAULT_255_2_778
10
18.6536417
20
58.0760326
11
18.6536417
21
5.1593326
0
LINE
8
DEFAULT_255_2_778
10
18.6536417
20
5.1593326
11
19.9765417
21
5.1593326
0
LINE
8
DEFAULT_255_1_234
10
4.9274119
20
123.8241792
11
4.9274119
21
123.7029
0
LINE
8
DEFAULT_255_1_234
10
4.9274119
20
123.7029
11
4.161184
21
123.7029
0
LINE
8
DEFAULT_255_1_234
10
4.161184
20
123.7029
11
4.161184
21
123.8097221
0
LINE
8
DEFAULT_255_1_234
10
4.161184
20
123.8097221
11
4.5659836
21
124.2594995
0
LINE
8
DEFAULT_255_1_234
10
4.2872823
20
124.5277595
11
4.1386952
21
124.5277595
0
LINE
8
DEFAULT_255_1_234
10
4.6535296
20
124.1639218
11
4.3402918
21
123.8241792
0
LINE
8
DEFAULT_255_1_234
10
4.3402918
20
123.8241792
11
4.9274119
21
123.8241792
0
ARC
8
DEFAULT_255_1_234
10
3.216967
20
125.4524527
40
1.8008286
50
318.5132453
51
320.7828378
0
ARC
8
DEFAULT_255_1_234
10
3.7456644
20
125.0221426
40
1.1191493
50
320.7372736
51
323.9737074
0
ARC
8
DEFAULT_255_1_234
10
4.1376501
20
124.7381361
40
0.6350923
50
323.8961724
51
328.6421089
0
ARC
8
DEFAULT_255_1_234
10
4.3423096
20
124.6119031
40
0.3946393
50
328.8299013
51
331.789948
0
ARC
8
DEFAULT_255_1_234
10
4.4420274
20
124.5604509
40
0.2824501
50
331.4255242
51
352.9364833
0
ARC
8
DEFAULT_255_1_234
10
4.4556775
20
124.5573976
40
0.2685315
50
353.2248685
51
0.0169286
0
ARC
8
DEFAULT_255_1_234
10
4.4766652
20
124.559695
40
0.2475536
50
359.4866256
51
15.9339782
0
ARC
8
DEFAULT_255_1_234
10
4.5273637
20
124.5733286
40
0.1950618
50
16.1714718
51
43.5284424
0
ARC
8
DEFAULT_255_1_234
10
4.5350946
20
124.5810573
40
0.184134
50
43.4415429
51
83.1661404
0
ARC
8
DEFAULT_255_1_234
10
4.5216864
20
124.5073771
40
0.258926
50
82.160215
51
90.1505798
0
ARC
8
DEFAULT_255_1_234
10
4.5185291
20
124.4536865
40
0.3126255
50
89.5460705
51
102.5418777
0
ARC
8
DEFAULT_255_1_234
10
4.4942377
20
124.5567665
40
0.2067346
50
102.1739365
51
129.2061916
0
ARC
8
DEFAULT_255_1_234
10
4.4863449
20
124.5692094
40
0.1921118
50
129.7279328
51
135.7542026
0
ARC
8
DEFAULT_255_1_234
10
4.4984977
20
124.5595045
40
0.2075944
50
136.175737
51
166.3674722
0
ARC
8
DEFAULT_255_1_234
10
4.5991896
20
124.5325182
40
0.3118201
50
165.9092917
51
178.8683903
0
ARC
8
DEFAULT_255_1_234
10
4.6856757
20
124.5278179
40
0.3983935
50
178.438168
51
180.0083905
0
ARC
8
DEFAULT_255_1_234
10
4.5455359
20
124.5317231
40
0.4068601
50
163.2878735
51
180.5581814
0
ARC
8
DEFAULT_255_1_234
10
4.4653621
20
124.553784
40
0.3237344
50
133.454115
51
162.9470031
0
ARC
8
DEFAULT_255_1_234
10
4.4832162
20
124.5348
40
0.349795
50
100.7869394
51
133.4384016
0
ARC
8
DEFAULT_255_1_234
10
4.5179934
20
124.3799319
40
0.5084616
50
89.6605301
51
101.3704185
0
ARC
8
DEFAULT_255_1_234
10
4.5246273
20
124.3860496
40
0.502348
50
78.2171172
51
90.4130393
0
ARC
8
DEFAULT_255_1_234
10
4.5601351
20
124.5484637
40
0.3361092
50
55.9268222
51
78.4888551
0
ARC
8
DEFAULT_255_1_234
10
4.5797791
20
124.5823324
40
0.2970617
50
47.9292255
51
55.4054003
0
ARC
8
DEFAULT_255_1_234
10
4.5899352
20
124.5926502
40
0.2825983
50
4.3347696
51
48.0560701
0
ARC
8
DEFAULT_255_1_234
10
4.4803745
20
124.5756601
40
0.393225
50
359.925209
51
5.5967654
0
ARC
8
DEFAULT_255_1_234
10
4.5232637
20
124.5812816
40
0.3503892
50
337.8914096
51
358.9967724
0
ARC
8
DEFAULT_255_1_234
10
4.2519049
20
124.6859706
40
0.6412172
50
326.9135351
51
338.3505194
0
ARC
8
DEFAULT_255_1_234
10
3.8533353
20
124.9414284
40
1.1146189
50
319.6472867
51
327.095818
0
ARC
8
DEFAULT_255_1_234
10
3.4700356
20
125.2576
40
1.6114559
50
317.2586784
51
319.9046139
0
LINE
8
DEFAULT_255_1_234
10
5.7121127
20
124.8723211
11
5.7121127
21
124.095652
0
LINE
8
DEFAULT_255_1_234
10
5.7121127
20
124.095652
11
5.8743538
21
124.095652
0
LINE
8
DEFAULT_255_1_234
10
5.8743538
20
124.095652
11
5.8743538
21
123.9743728
0
LINE
8
DEFAULT_255_1_234
10
5.8743538
20
123.9743728
11
5.7121127
21
123.9743728
0
LINE
8
DEFAULT_255_1_234
10
5.7121127
20
123.9743728
11
5.7121127
21
123.7029
0
LINE
8
DEFAULT_255_1_234
10
5.7121127
20
123.7029
11
5.5627224
21
123.7029
0
LINE
8
DEFAULT_255_1_234
10
5.5627224
20
123.7029
11
5.5627224
21
123.9743728
0
LINE
8
DEFAULT_255_1_234
10
5.5627224
20
123.9743728
11
5.0302181
21
123.9743728
0
LINE
8
DEFAULT_255_1_234
10
5.0302181
20
123.9743728
11
5.0302181
21
124.0619187
0
LINE
8
DEFAULT_255_1_234
10
5.0302181
20
124.0619187
11
5.5538875
21
124.8723211
0
LINE
8
DEFAULT_255_1_234
10
5.5538875
20
124.8723211
11
5.7121127
21
124.8723211
0
LINE
8
DEFAULT_255_1_234
10
5.5450525
20
124.6369912
11
5.1988846
21
124.095652
0
LINE
8
DEFAULT_255_1_234
10
5.1988846
20
124.095652
11
5.5627224
21
124.095652
0
LINE
8
DEFAULT_255_1_234
10
5.5627224
20
124.095652
11
5.5627224
21
124.6691181
0
LINE
8
DEFAULT_255_1_234
10
5.5627224
20
124.6691181
11
5.5450525
21
124.6369912
0
LINE
8
DEFAULT_255_1_234
10
6.101652
20
124.8723211
11
6.434166
21
123.9077093
0
LINE
8
DEFAULT_255_1_234
10
6.434166
20
123.9077093
11
6.7682863
21
124.8723211
0
LINE
8
DEFAULT_255_1_234
10
6.7682863
20
124.8723211
11
6.9369528
21
124.8723211
0
LINE
8
DEFAULT_255_1_234
10
6.9369528
20
124.8723211
11
6.5032389
21
123.7029
0
LINE
8
DEFAULT_255_1_234
10
6.5032389
20
123.7029
11
6.3666994
21
123.7029
0
LINE
8
DEFAULT_255_1_234
10
6.3666994
20
123.7029
11
5.9337887
21
124.8723211
0
LINE
8
DEFAULT_255_1_234
10
5.9337887
20
124.8723211
11
6.101652
21
124.8723211
0
LINE
8
DEFAULT_255_1_234
10
22.1798119
20
123.8241792
11
22.1798119
21
123.7029
0
LINE
8
DEFAULT_255_1_234
10
22.1798119
20
123.7029
11
21.413584
21
123.7029
0
LINE
8
DEFAULT_255_1_234
10
21.413584
20
123.7029
11
21.413584
21
123.8097221
0
LINE
8
DEFAULT_255_1_234
10
21.413584
20
123.8097221
11
21.8183836
21
124.2594995
0
LINE
8
DEFAULT_255_1_234
10
21.5396823
20
124.5277595
11
21.3910952
21
124.5277595
0
LINE
8
DEFAULT_255_1_234
10
21.9059296
20
124.1639218
11
21.5926918
21
123.8241792
0
LINE
8
DEFAULT_255_1_234
10
21.5926918
20
123.8241792
11
22.1798119
21
123.8241792
0
ARC
8
DEFAULT_255_1_234
10
20.469367
20
125.4524527
40
1.8008286
50
318.5132453
51
320.7828378
0
ARC
8
DEFAULT_255_1_234
10
20.9980644
20
125.0221426
40
1.1191493
50
320.7372736
51
323.9737074
0
ARC
8
DEFAULT_255_1_234
10
21.3900501
20
124.7381361
40
0.6350923
50
323.8961724
51
328.6421089
0
ARC
8
DEFAULT_255_1_234
10
21.5947096
20
124.6119031
40
0.3946393
50
328.8299013
51
331.789948
0
ARC
8
DEFAULT_255_1_234
10
21.6944274
20
124.5604509
40
0.2824501
50
331.4255242
51
352.9364833
0
ARC
8
DEFAULT_255_1_234
10
21.7080775
20
124.5573976
40
0.2685315
50
353.2248685
51
0.0169286
0
ARC
8
DEFAULT_255_1_234
10
21.7290652
20
124.559695
40
0.2475536
50
359.4866256
51
15.9339782
0
ARC
8
DEFAULT_255_1_234
10
21.7797637
20
124.5733286
40
0.1950618
50
16.1714718
51
43.5284424
0
ARC
8
DEFAULT_255_1_234
10
21.7874946
20
124.5810573
40
0.184134
50
43.4415429
51
83.1661404
0
ARC
8
DEFAULT_255_1_234
10
21.7740864
20
124.5073771
40
0.258926
50
82.160215
51
90.1505798
0
ARC
8
DEFAULT_255_1_234
10
21.7709291
20
124.4536865
40
0.3126255
50
89.5460705
51
102.5418777
0
ARC
8
DEFAULT_255_1_234
10
21.7466377
20
124.5567665
40
0.2067346
50
102.1739365
51
129.2061916
0
ARC
8
DEFAULT_255_1_234
10
21.7387449
20
124.5692094
40
0.1921118
50
129.7279328
51
135.7542026
0
ARC
8
DEFAULT_255_1_234
10
21.7508977
20
124.5595045
40
0.2075944
50
136.175737
51
166.3674722
0
ARC
8
DEFAULT_255_1_234
10
21.8515896
20
124.5325182
40
0.3118201
50
165.9092917
51
178.8683903
0
ARC
8
DEFAULT_255_1_234
10
21.9380757
20
124.5278179
40
0.3983935
50
178.438168
51
180.0083905
0
ARC
8
DEFAULT_255_1_234
10
21.7979359
20
124.5317231
40
0.4068601
50
163.2878735
51
180.5581814
0
ARC
8
DEFAULT_255_1_234
10
21.7177621
20
124.553784
40
0.3237344
50
133.454115
51
162.9470031
0
ARC
8
DEFAULT_255_1_234
10
21.7356162
20
124.5348
40
0.349795
50
100.7869394
51
133.4384016
0
ARC
8
DEFAULT_255_1_234
10
21.7703934
20
124.3799319
40
0.5084616
50
89.6605301
51
101.3704185
0
ARC
8
DEFAULT_255_1_234
10
21.7770273
20
124.3860496
40
0.502348
50
78.2171172
51
90.4130393
0
ARC
8
DEFAULT_255_1_234
10
21.8125351
20
124.5484637
40
0.3361092
50
55.9268222
51
78.4888551
0
ARC
8
DEFAULT_255_1_234
10
21.8321791
20
124.5823324
40
0.2970617
50
47.9292255
51
55.4054003
0
ARC
8
DEFAULT_255_1_234
10
21.8423352
20
124.5926502
40
0.2825983
50
4.3347696
51
48.0560701
0
ARC
8
DEFAULT_255_1_234
10
21.7327745
20
124.5756601
40
0.393225
50
359.925209
51
5.5967654
0
ARC
8
DEFAULT_255_1_234
10
21.7756637
20
124.5812816
40
0.3503892
50
337.8914096
51
358.9967724
0
ARC
8
DEFAULT_255_1_234
10
21.5043049
20
124.6859706
40
0.6412172
50
326.9135351
51
338.3505194
0
ARC
8
DEFAULT_255_1_234
10
21.1057353
20
124.9414284
40
1.1146189
50
319.6472867
51
327.095818
0
ARC
8
DEFAULT_255_1_234
10
20.7224356
20
125.2576
40
1.6114559
50
317.2586784
51
319.9046139
0
LINE
8
DEFAULT_255_1_234
10
22.9645127
20
124.8723211
11
22.9645127
21
124.095652
0
LINE
8
DEFAULT_255_1_234
10
22.9645127
20
124.095652
11
23.1267538
21
124.095652
0
LINE
8
DEFAULT_255_1_234
10
23.1267538
20
124.095652
11
23.1267538
21
123.9743728
0
LINE
8
DEFAULT_255_1_234
10
23.1267538
20
123.9743728
11
22.9645127
21
123.9743728
0
LINE
8
DEFAULT_255_1_234
10
22.9645127
20
123.9743728
11
22.9645127
21
123.7029
0
LINE
8
DEFAULT_255_1_234
10
22.9645127
20
123.7029
11
22.8151224
21
123.7029
0
LINE
8
DEFAULT_255_1_234
10
22.8151224
20
123.7029
11
22.8151224
21
123.9743728
0
LINE
8
DEFAULT_255_1_234
10
22.8151224
20
123.9743728
11
22.2826181
21
123.9743728
0
LINE
8
DEFAULT_255_1_234
10
22.2826181
20
123.9743728
11
22.2826181
21
124.0619187
0
LINE
8
DEFAULT_255_1_234
10
22.2826181
20
124.0619187
11
22.8062875
21
124.8723211
0
LINE
8
DEFAULT_255_1_234
10
22.8062875
20
124.8723211
11
22.9645127
21
124.8723211
0
LINE
8
DEFAULT_255_1_234
10
22.7974525
20
124.6369912
11
22.4512846
21
124.095652
0
LINE
8
DEFAULT_255_1_234
10
22.4512846
20
124.095652
11
22.8151224
21
124.095652
0
LINE
8
DEFAULT_255_1_234
10
22.8151224
20
124.095652
11
22.8151224
21
124.6691181
0
LINE
8
DEFAULT_255_1_234
10
22.8151224
20
124.6691181
11
22.7974525
21
124.6369912
0
LINE
8
DEFAULT_255_1_234
10
24.162848
20
124.285201
11
24.162848
21
123.8563062
0
LINE
8
DEFAULT_255_1_234
10
23.261687
20
124.2313884
11
23.261687
21
124.3333915
0
LINE
8
DEFAULT_255_1_234
10
24.162848
20
124.5293659
11
24.0086387
21
124.5293659
0
LINE
8
DEFAULT_255_1_234
10
23.4166996
20
124.3374073
11
23.4166996
21
124.2418296
0
LINE
8
DEFAULT_255_1_234
10
24.0094418
20
123.8972681
11
24.0094418
21
124.1599059
0
LINE
8
DEFAULT_255_1_234
10
24.0094418
20
124.1599059
11
23.7387723
21
124.1599059
0
LINE
8
DEFAULT_255_1_234
10
23.7387723
20
124.1599059
11
23.7387723
21
124.285201
0
LINE
8
DEFAULT_255_1_234
10
23.7387723
20
124.285201
11
24.162848
21
124.285201
0
ARC
8
DEFAULT_255_1_234
10
23.8796987
20
124.0556396
40
0.3462765
50
295.8437914
51
324.8549609
0
ARC
8
DEFAULT_255_1_234
10
23.8380954
20
124.1309567
40
0.4322211
50
291.5695085
51
296.4549398
0
ARC
8
DEFAULT_255_1_234
10
23.7870205
20
124.2674275
40
0.5779178
50
278.6622409
51
291.3045483
0
ARC
8
DEFAULT_255_1_234
10
23.7530697
20
124.4822408
40
0.7953952
50
270.020006
51
278.7494541
0
ARC
8
DEFAULT_255_1_234
10
23.7492621
20
124.6139036
40
0.927067
50
269.9969998
51
270.2524872
0
ARC
8
DEFAULT_255_1_234
10
23.7454334
20
124.2055589
40
0.5187361
50
253.5786322
51
270.4175299
0
ARC
8
DEFAULT_255_1_234
10
23.728099
20
124.1384236
40
0.4494451
50
238.8203306
51
253.2788235
0
ARC
8
DEFAULT_255_1_234
10
23.7261363
20
124.1333231
40
0.4440665
50
206.7883783
51
238.6962764
0
ARC
8
DEFAULT_255_1_234
10
23.8035273
20
124.1797405
40
0.5341121
50
206.1129412
51
207.4916643
0
ARC
8
DEFAULT_255_1_234
10
23.8632188
20
124.2051488
40
0.5989041
50
188.6921119
51
205.7821245
0
ARC
8
DEFAULT_255_1_234
10
24.048855
20
124.236723
40
0.7871862
50
180.3882829
51
188.9219216
0
ARC
8
DEFAULT_255_1_234
10
24.1716364
20
124.3390464
40
0.909967
50
170.2024264
51
180.3560651
0
ARC
8
DEFAULT_255_1_234
10
23.8552882
20
124.3956237
40
0.5886083
50
154.2857445
51
170.3893044
0
ARC
8
DEFAULT_255_1_234
10
23.7271085
20
124.454295
40
0.4476743
50
139.8401567
51
153.9332699
0
ARC
8
DEFAULT_255_1_234
10
23.6911821
20
124.4830577
40
0.4016697
50
98.4190291
51
139.6707122
0
ARC
8
DEFAULT_255_1_234
10
23.7291339
20
124.2985328
40
0.5898566
50
89.7659205
51
99.4415478
0
ARC
8
DEFAULT_255_1_234
10
23.7356588
20
124.3050844
40
0.5833147
50
78.0551672
51
90.4042112
0
ARC
8
DEFAULT_255_1_234
10
23.7761098
20
124.4869644
40
0.3970055
50
54.6380464
51
78.3339173
0
ARC
8
DEFAULT_255_1_234
10
23.7951154
20
124.5189795
40
0.3599102
50
50.031736
51
54.1558201
0
ARC
8
DEFAULT_255_1_234
10
23.7843942
20
124.5093766
40
0.3741624
50
18.1092409
51
49.7180913
0
ARC
8
DEFAULT_255_1_234
10
23.6387142
20
124.4560089
40
0.5292424
50
7.9672797
51
18.6984571
0
ARC
8
DEFAULT_255_1_234
10
23.653762
20
124.4683504
40
0.3600838
50
9.7557294
51
27.3215714
0
ARC
8
DEFAULT_255_1_234
10
23.7665092
20
124.5246912
40
0.2340608
50
27.7361077
51
84.5257964
0
ARC
8
DEFAULT_255_1_234
10
23.7337479
20
124.360364
40
0.4011215
50
82.106034
51
90.2001166
0
ARC
8
DEFAULT_255_1_234
10
23.7287696
20
124.4111215
40
0.3503799
50
89.4150119
51
105.5823402
0
ARC
8
DEFAULT_255_1_234
10
23.7030694
20
124.5046867
40
0.2533503
50
105.6678618
51
144.2648758
0
ARC
8
DEFAULT_255_1_234
10
23.7923949
20
124.4411289
40
0.3629787
50
144.3561283
51
162.8564086
0
ARC
8
DEFAULT_255_1_234
10
24.0007858
20
124.3742017
40
0.5818441
50
162.6076014
51
173.6780284
0
ARC
8
DEFAULT_255_1_234
10
24.3069002
20
124.336989
40
0.8902007
50
173.4670142
51
179.9730753
0
ARC
8
DEFAULT_255_1_234
10
24.1160673
20
124.237626
40
0.6993804
50
179.6556203
51
190.0080463
0
ARC
8
DEFAULT_255_1_234
10
23.8844502
20
124.1951375
40
0.4639066
50
189.8116607
51
206.6796816
0
ARC
8
DEFAULT_255_1_234
10
23.7999654
20
124.1557503
40
0.3707421
50
207.1031645
51
217.7074368
0
ARC
8
DEFAULT_255_1_234
10
23.7365343
20
124.1005559
40
0.2868417
50
216.7345547
51
265.6812148
0
ARC
8
DEFAULT_255_1_234
10
23.7496134
20
124.1909855
40
0.3780509
50
264.7366618
51
270.0611241
0
ARC
8
DEFAULT_255_1_234
10
23.7519397
20
124.4750111
40
0.662079
50
269.8335834
51
276.0539546
0
ARC
8
DEFAULT_255_1_234
10
23.7726402
20
124.284856
40
0.4708016
50
275.9894168
51
284.4615085
0
ARC
8
DEFAULT_255_1_234
10
23.7924409
20
124.2015663
40
0.3852094
50
284.7034461
51
286.4953897
0
ARC
8
DEFAULT_255_1_234
10
23.8331422
20
124.0704965
40
0.2479842
50
286.0770838
51
304.2625829
0
ARC
8
DEFAULT_255_1_234
10
23.8464836
20
124.0486594
40
0.2224291
50
304.5891602
51
317.1073298
0
LINE
8
DEFAULT_255_1_234
10
23.094485
20
5.2829391
11
23.094485
21
5.1568408
0
LINE
8
DEFAULT_255_1_234
10
23.094485
20
5.1568408
11
22.6037458
21
5.1568408
0
LINE
8
DEFAULT_255_1_234
10
22.6037458
20
5.1568408
11
22.6037458
21
4.6404
0
LINE
8
DEFAULT_255_1_234
10
22.6037458
20
4.6404
11
22.4495364
21
4.6404
0
LINE
8
DEFAULT_255_1_234
10
22.4495364
20
4.6404
11
22.4495364
21
5.8098211
0
LINE
8
DEFAULT_255_1_234
10
22.4495364
20
5.8098211
11
23.1739992
21
5.8098211
0
LINE
8
DEFAULT_255_1_234
10
23.1739992
20
5.8098211
11
23.1739992
21
5.6829196
0
LINE
8
DEFAULT_255_1_234
10
23.1739992
20
5.6829196
11
22.6037458
21
5.6829196
0
LINE
8
DEFAULT_255_1_234
10
22.6037458
20
5.6829196
11
22.6037458
21
5.2829391
0
LINE
8
DEFAULT_255_1_234
10
22.6037458
20
5.2829391
11
23.094485
21
5.2829391
0
LINE
8
DEFAULT_255_1_234
10
24.222141
20
5.222701
11
24.222141
21
4.7938062
0
LINE
8
DEFAULT_255_1_234
10
23.32098
20
5.1688884
11
23.32098
21
5.2708915
0
LINE
8
DEFAULT_255_1_234
10
24.222141
20
5.4668659
11
24.0679316
21
5.4668659
0
LINE
8
DEFAULT_255_1_234
10
23.4759925
20
5.2749073
11
23.4759925
21
5.1793296
0
LINE
8
DEFAULT_255_1_234
10
24.0687348
20
4.8347681
11
24.0687348
21
5.0974059
0
LINE
8
DEFAULT_255_1_234
10
24.0687348
20
5.0974059
11
23.7980652
21
5.0974059
0
LINE
8
DEFAULT_255_1_234
10
23.7980652
20
5.0974059
11
23.7980652
21
5.222701
0
LINE
8
DEFAULT_255_1_234
10
23.7980652
20
5.222701
11
24.222141
21
5.222701
0
ARC
8
DEFAULT_255_1_234
10
23.9389916
20
4.9931396
40
0.3462765
50
295.8437914
51
324.8549609
0
ARC
8
DEFAULT_255_1_234
10
23.8973883
20
5.0684567
40
0.4322211
50
291.5695085
51
296.4549398
0
ARC
8
DEFAULT_255_1_234
10
23.8463135
20
5.2049275
40
0.5779178
50
278.6622409
51
291.3045483
0
ARC
8
DEFAULT_255_1_234
10
23.8123626
20
5.4197408
40
0.7953952
50
270.020006
51
278.7494541
0
ARC
8
DEFAULT_255_1_234
10
23.808555
20
5.5514036
40
0.927067
50
269.9969998
51
270.2524872
0
ARC
8
DEFAULT_255_1_234
10
23.8047264
20
5.1430589
40
0.5187361
50
253.5786322
51
270.4175299
0
ARC
8
DEFAULT_255_1_234
10
23.787392
20
5.0759236
40
0.4494451
50
238.8203306
51
253.2788235
0
ARC
8
DEFAULT_255_1_234
10
23.7854293
20
5.0708231
40
0.4440665
50
206.7883783
51
238.6962764
0
ARC
8
DEFAULT_255_1_234
10
23.8628203
20
5.1172405
40
0.5341121
50
206.1129412
51
207.4916643
0
ARC
8
DEFAULT_255_1_234
10
23.9225118
20
5.1426488
40
0.5989041
50
188.6921119
51
205.7821245
0
ARC
8
DEFAULT_255_1_234
10
24.108148
20
5.174223
40
0.7871862
50
180.3882829
51
188.9219216
0
ARC
8
DEFAULT_255_1_234
10
24.2309294
20
5.2765464
40
0.909967
50
170.2024264
51
180.3560651
0
ARC
8
DEFAULT_255_1_234
10
23.9145812
20
5.3331237
40
0.5886083
50
154.2857445
51
170.3893044
0
ARC
8
DEFAULT_255_1_234
10
23.7864015
20
5.391795
40
0.4476743
50
139.8401567
51
153.9332699
0
ARC
8
DEFAULT_255_1_234
10
23.7504751
20
5.4205577
40
0.4016697
50
98.4190291
51
139.6707122
0
ARC
8
DEFAULT_255_1_234
10
23.7884268
20
5.2360328
40
0.5898566
50
89.7659205
51
99.4415478
0
ARC
8
DEFAULT_255_1_234
10
23.7949518
20
5.2425844
40
0.5833147
50
78.0551672
51
90.4042112
0
ARC
8
DEFAULT_255_1_234
10
23.8354028
20
5.4244644
40
0.3970055
50
54.6380464
51
78.3339173
0
ARC
8
DEFAULT_255_1_234
10
23.8544084
20
5.4564795
40
0.3599102
50
50.031736
51
54.1558201
0
ARC
8
DEFAULT_255_1_234
10
23.8436871
20
5.4468766
40
0.3741624
50
18.1092409
51
49.7180913
0
ARC
8
DEFAULT_255_1_234
10
23.6980071
20
5.3935089
40
0.5292424
50
7.9672797
51
18.6984571
0
ARC
8
DEFAULT_255_1_234
10
23.713055
20
5.4058504
40
0.3600838
50
9.7557294
51
27.3215714
0
ARC
8
DEFAULT_255_1_234
10
23.8258021
20
5.4621912
40
0.2340608
50
27.7361077
51
84.5257964
0
ARC
8
DEFAULT_255_1_234
10
23.7930408
20
5.297864
40
0.4011215
50
82.106034
51
90.2001166
0
ARC
8
DEFAULT_255_1_234
10
23.7880625
20
5.3486215
40
0.3503799
50
89.4150119
51
105.5823402
0
ARC
8
DEFAULT_255_1_234
10
23.7623623
20
5.4421867
40
0.2533503
50
105.6678618
51
144.2648758
0
ARC
8
DEFAULT_255_1_234
10
23.8516879
20
5.3786289
40
0.3629787
50
144.3561283
51
162.8564086
0
ARC
8
DEFAULT_255_1_234
10
24.0600788
20
5.3117017
40
0.5818441
50
162.6076014
51
173.6780284
0
ARC
8
DEFAULT_255_1_234
10
24.3661931
20
5.274489
40
0.8902007
50
173.4670142
51
179.9730753
0
ARC
8
DEFAULT_255_1_234
10
24.1753603
20
5.175126
40
0.6993804
50
179.6556203
51
190.0080463
0
ARC
8
DEFAULT_255_1_234
10
23.9437432
20
5.1326375
40
0.4639066
50
189.8116607
51
206.6796816
0
ARC
8
DEFAULT_255_1_234
10
23.8592584
20
5.0932503
40
0.3707421
50
207.1031645
51
217.7074368
0
ARC
8
DEFAULT_255_1_234
10
23.7958273
20
5.0380559
40
0.2868417
50
216.7345547
51
265.6812148
0
ARC
8
DEFAULT_255_1_234
10
23.8089064
20
5.1284855
40
0.3780509
50
264.7366618
51
270.0611241
0
ARC
8
DEFAULT_255_1_234
10
23.8112327
20
5.4125111
40
0.662079
50
269.8335834
51
276.0539546
0
ARC
8
DEFAULT_255_1_234
10
23.8319331
20
5.222356
40
0.4708016
50
275.9894168
51
284.4615085
0
ARC
8
DEFAULT_255_1_234
10
23.8517338
20
5.1390663
40
0.3852094
50
284.7034461
51
286.4953897
0
ARC
8
DEFAULT_255_1_234
10
23.8924352
20
5.0079965
40
0.2479842
50
286.0770838
51
304.2625829
0
ARC
8
DEFAULT_255_1_234
10
23.9057766
20
4.9861594
40
0.2224291
50
304.5891602
51
317.1073298
0
LINE
8
DEFAULT_255_1_234
10
20.9608628
20
13.7473211
11
20.9608628
21
12.970652
0
LINE
8
DEFAULT_255_1_234
10
20.9608628
20
12.970652
11
21.1231039
21
12.970652
0
LINE
8
DEFAULT_255_1_234
10
21.1231039
20
12.970652
11
21.1231039
21
12.8493728
0
LINE
8
DEFAULT_255_1_234
10
21.1231039
20
12.8493728
11
20.9608628
21
12.8493728
0
LINE
8
DEFAULT_255_1_234
10
20.9608628
20
12.8493728
11
20.9608628
21
12.5779
0
LINE
8
DEFAULT_255_1_234
10
20.9608628
20
12.5779
11
20.8114725
21
12.5779
0
LINE
8
DEFAULT_255_1_234
10
20.8114725
20
12.5779
11
20.8114725
21
12.8493728
0
LINE
8
DEFAULT_255_1_234
10
20.8114725
20
12.8493728
11
20.2789682
21
12.8493728
0
LINE
8
DEFAULT_255_1_234
10
20.2789682
20
12.8493728
11
20.2789682
21
12.9369187
0
LINE
8
DEFAULT_255_1_234
10
20.2789682
20
12.9369187
11
20.8026375
21
13.7473211
0
LINE
8
DEFAULT_255_1_234
10
20.8026375
20
13.7473211
11
20.9608628
21
13.7473211
0
LINE
8
DEFAULT_255_1_234
10
20.7938026
20
13.5119912
11
20.4476347
21
12.970652
0
LINE
8
DEFAULT_255_1_234
10
20.4476347
20
12.970652
11
20.8114725
21
12.970652
0
LINE
8
DEFAULT_255_1_234
10
20.8114725
20
12.970652
11
20.8114725
21
13.5441181
0
LINE
8
DEFAULT_255_1_234
10
20.8114725
20
13.5441181
11
20.7938026
21
13.5119912
0
LINE
8
DEFAULT_255_1_234
10
22.0716522
20
13.4091849
11
21.9166396
21
13.4091849
0
LINE
8
DEFAULT_255_1_234
10
21.2243038
20
12.9168394
11
21.3793164
21
12.9168394
0
ARC
8
DEFAULT_255_1_234
10
21.9825209
20
14.3038768
40
1.252368
50
248.9199003
51
254.1439814
0
ARC
8
DEFAULT_255_1_234
10
21.8144704
20
13.8712234
40
0.788226
50
241.633709
51
249.0064503
0
ARC
8
DEFAULT_255_1_234
10
21.6616099
20
13.5911317
40
0.4691427
50
230.498225
51
241.8087113
0
ARC
8
DEFAULT_255_1_234
10
21.5831673
20
13.4911906
40
0.3421437
50
227.4064532
51
229.9881192
0
ARC
8
DEFAULT_255_1_234
10
21.5344193
20
13.4436088
40
0.2741476
50
200.6781896
51
228.1763934
0
ARC
8
DEFAULT_255_1_234
10
21.5416504
20
13.4421077
40
0.2804109
50
179.5061581
51
199.8694617
0
ARC
8
DEFAULT_255_1_234
10
21.5407256
20
13.449521
40
0.2795204
50
132.4834203
51
181.0242172
0
ARC
8
DEFAULT_255_1_234
10
21.6002838
20
13.3932704
40
0.3612768
50
129.2532479
51
133.4242687
0
ARC
8
DEFAULT_255_1_234
10
21.6149288
20
13.3712965
40
0.3875675
50
101.98776
51
128.8742646
0
ARC
8
DEFAULT_255_1_234
10
21.6547898
20
13.1991741
40
0.5642249
50
89.5906553
51
102.3169264
0
ARC
8
DEFAULT_255_1_234
10
21.6618391
20
13.2310148
40
0.5323783
50
77.2360837
51
90.3248275
0
ARC
8
DEFAULT_255_1_234
10
21.682547
20
13.32774
40
0.4334697
50
63.837784
51
77.0809408
0
ARC
8
DEFAULT_255_1_234
10
21.7103231
20
13.3794911
40
0.3747796
50
45.9864267
51
64.1607727
0
ARC
8
DEFAULT_255_1_234
10
21.7364113
20
13.4092866
40
0.3352302
50
32.2747395
51
45.6547121
0
ARC
8
DEFAULT_255_1_234
10
21.7430553
20
13.411188
40
0.328603
50
359.6507365
51
32.6130309
0
ARC
8
DEFAULT_255_1_234
10
21.6487649
20
13.411666
40
0.2678863
50
359.469343
51
14.9832209
0
ARC
8
DEFAULT_255_1_234
10
21.7192711
20
13.4305539
40
0.1948938
50
14.9781179
51
48.2004265
0
ARC
8
DEFAULT_255_1_234
10
21.7028355
20
13.4098983
40
0.2212521
50
48.5927837
51
74.1241538
0
ARC
8
DEFAULT_255_1_234
10
21.6694845
20
13.2998248
40
0.3362561
50
73.7888341
51
86.6652678
0
ARC
8
DEFAULT_255_1_234
10
21.659241
20
13.1790881
40
0.4573953
50
86.2640471
51
90.0526343
0
ARC
8
DEFAULT_255_1_234
10
21.6564123
20
13.2186192
40
0.4178709
50
89.6697524
51
99.2309573
0
ARC
8
DEFAULT_255_1_234
10
21.6321574
20
13.3630964
40
0.2713749
50
99.069534
51
113.7658566
0
ARC
8
DEFAULT_255_1_234
10
21.6047765
20
13.4276677
40
0.2012469
50
114.0401004
51
127.9850673
0
ARC
8
DEFAULT_255_1_234
10
21.5807329
20
13.457273
40
0.1631167
50
127.7287463
51
176.7105154
0
ARC
8
DEFAULT_255_1_234
10
21.6486046
20
13.4471693
40
0.2315392
50
175.1779447
51
180.0581938
0
ARC
8
DEFAULT_255_1_234
10
21.5642893
20
13.4459428
40
0.1472271
50
179.6142195
51
228.1246017
0
ARC
8
DEFAULT_255_1_234
10
21.6084562
20
13.4868308
40
0.2072299
50
226.5779593
51
230.8800004
0
ARC
8
DEFAULT_255_1_234
10
21.655564
20
13.5493636
40
0.2854818
50
231.4635071
51
241.9260842
0
ARC
8
DEFAULT_255_1_234
10
21.7752818
20
13.76968
40
0.53622
50
241.7178533
51
248.3259551
0
ARC
8
DEFAULT_255_1_234
10
21.913819
20
14.1129064
40
0.9063478
50
248.2007737
51
252.4528373
0
ARC
8
DEFAULT_255_1_234
10
22.0341915
20
14.4850441
40
1.2974635
50
252.3391078
51
254.3469452
0
ARC
8
DEFAULT_255_1_234
10
21.2799618
20
11.7873148
40
1.5037162
50
71.0197183
51
74.4087047
0
ARC
8
DEFAULT_255_1_234
10
21.4494303
20
12.2765111
40
0.9859993
50
66.1847285
51
71.086374
0
ARC
8
DEFAULT_255_1_234
10
21.6050615
20
12.62692
40
0.6025855
50
59.3536294
51
66.2691831
0
ARC
8
DEFAULT_255_1_234
10
21.6939268
20
12.7772609
40
0.4279449
50
49.1020879
51
59.3293958
0
ARC
8
DEFAULT_255_1_234
10
21.7758008
20
12.8705834
40
0.3038015
50
32.7919921
51
49.2505539
0
ARC
8
DEFAULT_255_1_234
10
21.8079098
20
12.8934191
40
0.264448
50
31.1181161
51
32.4005348
0
ARC
8
DEFAULT_255_1_234
10
21.7990635
20
12.8898779
40
0.2738556
50
8.1116974
51
30.7958831
0
ARC
8
DEFAULT_255_1_234
10
21.7180303
20
12.8760753
40
0.3560327
50
359.8389159
51
8.4706516
0
ARC
8
DEFAULT_255_1_234
10
21.7806095
20
12.8712137
40
0.2934776
50
337.4731098
51
0.7537279
0
ARC
8
DEFAULT_255_1_234
10
21.798479
20
12.8692387
40
0.2762607
50
307.5917067
51
336.4315538
0
ARC
8
DEFAULT_255_1_234
10
21.7524618
20
12.9205102
40
0.3449979
50
307.6551545
51
308.4529766
0
ARC
8
DEFAULT_255_1_234
10
21.7294337
20
12.956025
40
0.3871988
50
284.3734338
51
307.1424381
0
ARC
8
DEFAULT_255_1_234
10
21.6799167
20
13.1381932
40
0.5759636
50
272.4382747
51
284.646547
0
ARC
8
DEFAULT_255_1_234
10
21.6672375
20
13.3181893
40
0.7563528
50
269.9708387
51
272.8178037
0
ARC
8
DEFAULT_255_1_234
10
21.6629415
20
13.1143716
40
0.5525489
50
248.2707594
51
270.4055579
0
ARC
8
DEFAULT_255_1_234
10
21.6575156
20
13.0953192
40
0.5328452
50
246.1383403
51
248.0542782
0
ARC
8
DEFAULT_255_1_234
10
21.6156535
20
13.0073843
40
0.4355005
50
233.1670131
51
246.4950969
0
ARC
8
DEFAULT_255_1_234
10
21.560244
20
12.9325812
40
0.3424126
50
215.3403242
51
233.0843104
0
ARC
8
DEFAULT_255_1_234
10
21.5329871
20
12.9127549
40
0.3087104
50
179.2419209
51
215.2648451
0
ARC
8
DEFAULT_255_1_234
10
21.6097465
20
12.9141666
40
0.2304457
50
179.335461
51
199.1045811
0
ARC
8
DEFAULT_255_1_234
10
21.5765142
20
12.9054766
40
0.1962176
50
199.8828939
51
232.7063202
0
ARC
8
DEFAULT_255_1_234
10
21.623741
20
12.9648788
40
0.2720938
50
232.3738199
51
255.5136649
0
ARC
8
DEFAULT_255_1_234
10
21.6578277
20
13.0892835
40
0.4010747
50
255.2446292
51
267.5320849
0
ARC
8
DEFAULT_255_1_234
10
21.66659
20
13.2125702
40
0.5246356
50
267.1557994
51
270.0286766
0
ARC
8
DEFAULT_255_1_234
10
21.6693672
20
13.168195
40
0.4802668
50
269.7000017
51
278.1660162
0
ARC
8
DEFAULT_255_1_234
10
21.6949677
20
12.9951515
40
0.3053425
50
278.0231263
51
290.625471
0
ARC
8
DEFAULT_255_1_234
10
21.7297364
20
12.9024025
40
0.206291
50
290.6619762
51
307.0370976
0
ARC
8
DEFAULT_255_1_234
10
21.7597754
20
12.8655504
40
0.1587906
50
306.3943566
51
355.3030547
0
ARC
8
DEFAULT_255_1_234
10
21.7085685
20
12.8732113
40
0.2104809
50
354.3660432
51
0.0698737
0
ARC
8
DEFAULT_255_1_234
10
21.722803
20
12.8754617
40
0.1962563
50
359.417946
51
16.1971788
0
ARC
8
DEFAULT_255_1_234
10
21.768334
20
12.8879418
40
0.149053
50
16.4723299
51
52.6262157
0
ARC
8
DEFAULT_255_1_234
10
21.6862394
20
12.7795433
40
0.2850296
50
52.7386432
51
62.4979148
0
ARC
8
DEFAULT_255_1_234
10
21.5477471
20
12.5189283
40
0.5801521
50
62.2515216
51
68.1220564
0
ARC
8
DEFAULT_255_1_234
10
21.3757382
20
12.0961872
40
1.0365451
50
68.0062803
51
71.8053402
0
ARC
8
DEFAULT_255_1_234
10
21.1961754
20
11.5576758
40
1.6042013
50
71.7183119
51
73.9258742
0
LINE
8
DEFAULT_255_1_234
10
22.426655
20
13.7473211
11
22.426655
21
12.7039983
0
LINE
8
DEFAULT_255_1_234
10
22.426655
20
12.7039983
11
22.980845
21
12.7039983
0
LINE
8
DEFAULT_255_1_234
10
22.980845
20
12.7039983
11
22.980845
21
12.5779
0
LINE
8
DEFAULT_255_1_234
10
22.980845
20
12.5779
11
22.2716425
21
12.5779
0
LINE
8
DEFAULT_255_1_234
10
22.2716425
20
12.5779
11
22.2716425
21
13.7473211
0
LINE
8
DEFAULT_255_1_234
10
22.2716425
20
13.7473211
11
22.426655
21
13.7473211
0
LINE
8
DEFAULT_255_1_234
10
23.4804191
20
12.5779
11
23.15674
21
12.5779
0
LINE
8
DEFAULT_255_1_234
10
23.15674
20
12.5779
11
23.15674
21
13.7473211
0
LINE
8
DEFAULT_255_1_234
10
23.15674
20
13.7473211
11
23.4868445
21
13.7473211
0
LINE
8
DEFAULT_255_1_234
10
24.0024821
20
13.2019661
11
24.0024821
21
13.1272709
0
LINE
8
DEFAULT_255_1_234
10
23.4908604
20
13.6204196
11
23.3109494
21
13.6204196
0
LINE
8
DEFAULT_255_1_234
10
23.3109494
20
13.6204196
11
23.3109494
21
12.7039983
0
LINE
8
DEFAULT_255_1_234
10
23.3109494
20
12.7039983
11
23.4731905
21
12.7039983
0
LINE
8
DEFAULT_255_1_234
10
23.8498791
20
13.1304836
11
23.8498791
21
13.1987534
0
ARC
8
DEFAULT_255_1_234
10
23.4907387
20
13.1607894
40
0.5865446
50
75.4101064
51
90.3804066
0
ARC
8
DEFAULT_255_1_234
10
23.5136901
20
13.2564492
40
0.4881916
50
60.145586
51
75.1888407
0
ARC
8
DEFAULT_255_1_234
10
23.5295676
20
13.2841199
40
0.4562893
50
26.5253612
51
60.1450928
0
ARC
8
DEFAULT_255_1_234
10
23.4175426
20
13.2247158
40
0.5830602
50
7.4030428
51
26.8320788
0
ARC
8
DEFAULT_255_1_234
10
23.2581182
20
13.1998804
40
0.7443669
50
0.1605367
51
7.7176192
0
ARC
8
DEFAULT_255_1_234
10
23.2745087
20
13.1234434
40
0.7279835
50
348.7289388
51
0.3012466
0
ARC
8
DEFAULT_255_1_234
10
23.4401517
20
13.0905386
40
0.559104
50
333.0706509
51
348.7181832
0
ARC
8
DEFAULT_255_1_234
10
23.5368275
20
13.0380319
40
0.4491417
50
299.2531685
51
333.4571258
0
ARC
8
DEFAULT_255_1_234
10
23.5007415
20
13.1065828
40
0.5265881
50
278.107187
51
299.0339503
0
ARC
8
DEFAULT_255_1_234
10
23.4751493
20
13.2573216
40
0.679442
50
270.4443897
51
278.4511052
0
ARC
8
DEFAULT_255_1_234
10
23.4772323
20
13.1644213
40
0.4604407
50
269.4970433
51
284.0205042
0
ARC
8
DEFAULT_255_1_234
10
23.5127624
20
13.0278978
40
0.3193797
50
283.7700273
51
318.1555492
0
ARC
8
DEFAULT_255_1_234
10
23.4790383
20
13.0531367
40
0.3613588
50
318.7415601
51
343.6873628
0
ARC
8
DEFAULT_255_1_234
10
23.2986406
20
13.1094832
40
0.5503313
50
343.3325091
51
355.8548958
0
ARC
8
DEFAULT_255_1_234
10
23.088809
20
13.1294319
40
0.7610708
50
355.4988528
51
0.0791727
0
ARC
8
DEFAULT_255_1_234
10
23.1670713
20
13.202978
40
0.6828208
50
359.6455037
51
9.8607896
0
ARC
8
DEFAULT_255_1_234
10
23.4031411
20
13.2456099
40
0.4429406
50
9.6571907
51
26.1932807
0
ARC
8
DEFAULT_255_1_234
10
23.4959399
20
13.2887118
40
0.3406537
50
26.5777228
51
40.1532208
0
ARC
8
DEFAULT_255_1_234
10
23.5215126
20
13.3086619
40
0.308246
50
40.3840491
51
80.1431104
0
ARC
8
DEFAULT_255_1_234
10
23.4888243
20
13.1637333
40
0.4566909
50
79.2152159
51
89.7445637
0
LINE
8
DEFAULT_255_1_234
10
20.6554378
20
21.0511169
11
20.6554378
21
21.1723962
0
LINE
8
DEFAULT_255_1_234
10
20.6554378
20
21.1723962
11
20.767079
21
21.1723962
0
LINE
8
DEFAULT_255_1_234
10
20.5767268
20
21.3780087
11
20.4281396
21
21.3780087
0
LINE
8
DEFAULT_255_1_234
10
20.4176983
20
20.8238188
11
20.5670887
21
20.8238188
0
LINE
8
DEFAULT_255_1_234
10
20.767079
20
21.0511169
11
20.6554378
21
21.0511169
0
ARC
8
DEFAULT_255_1_234
10
20.7641656
20
21.5116713
40
0.3392876
50
270.4919872
51
281.8951556
0
ARC
8
DEFAULT_255_1_234
10
20.7882918
20
21.4014702
40
0.2264817
50
281.6691735
51
301.2943132
0
ARC
8
DEFAULT_255_1_234
10
20.8053128
20
21.3703304
40
0.1910381
50
301.7833094
51
311.7545298
0
ARC
8
DEFAULT_255_1_234
10
20.8144704
20
21.3601748
40
0.1773635
50
311.7323931
51
354.2802411
0
ARC
8
DEFAULT_255_1_234
10
20.7418329
20
21.3726722
40
0.2509385
50
353.0937916
51
0.1181479
0
ARC
8
DEFAULT_255_1_234
10
20.6957114
20
21.3774386
40
0.2970898
50
359.1805295
51
15.0453146
0
ARC
8
DEFAULT_255_1_234
10
20.8302951
20
21.4166992
40
0.1569564
50
13.9577229
51
77.6713066
0
ARC
8
DEFAULT_255_1_234
10
20.791648
20
21.2781949
40
0.3006298
50
76.1116566
51
90.7026153
0
ARC
8
DEFAULT_255_1_234
10
20.7857318
20
21.3055545
40
0.2732568
50
89.5324876
51
103.531937
0
ARC
8
DEFAULT_255_1_234
10
20.7656762
20
21.3854884
40
0.1908508
50
103.2931773
51
133.5619022
0
ARC
8
DEFAULT_255_1_234
10
20.7612251
20
21.3914375
40
0.1834746
50
133.8349307
51
173.5344437
0
ARC
8
DEFAULT_255_1_234
10
20.8335294
20
21.3786213
40
0.2568033
50
172.5096846
51
180.1366907
0
ARC
8
DEFAULT_255_1_234
10
20.7384188
20
21.3820622
40
0.3103056
50
155.3484492
51
180.7484736
0
ARC
8
DEFAULT_255_1_234
10
20.7335277
20
21.3791846
40
0.3070957
50
131.5744599
51
154.4798489
0
ARC
8
DEFAULT_255_1_234
10
20.7648424
20
21.347531
40
0.3515643
50
96.9875458
51
131.9690667
0
ARC
8
DEFAULT_255_1_234
10
20.7867904
20
21.2229636
40
0.4779224
50
89.8596053
51
97.7825159
0
ARC
8
DEFAULT_255_1_234
10
20.7915967
20
21.1967616
40
0.5041361
50
78.3655447
51
90.4131539
0
ARC
8
DEFAULT_255_1_234
10
20.8273885
20
21.3626887
40
0.3344039
50
56.6229102
51
78.638727
0
ARC
8
DEFAULT_255_1_234
10
20.8488829
20
21.4002805
40
0.2912001
50
47.0253525
51
56.0854072
0
ARC
8
DEFAULT_255_1_234
10
20.8508609
20
21.4042223
40
0.2869704
50
10.9208013
51
46.7778124
0
ARC
8
DEFAULT_255_1_234
10
20.7144675
20
21.3726857
40
0.426899
50
359.6364486
51
11.6087304
0
ARC
8
DEFAULT_255_1_234
10
20.8979519
20
21.3711752
40
0.243409
50
332.3549906
51
359.7179418
0
ARC
8
DEFAULT_255_1_234
10
20.8329121
20
21.4020142
40
0.3153459
50
325.2333722
51
332.8745602
0
ARC
8
DEFAULT_255_1_234
10
20.8481744
20
21.3913828
40
0.2967456
50
292.9802137
51
325.2392345
0
ARC
8
DEFAULT_255_1_234
10
20.8207118
20
21.4447863
40
0.3566604
50
292.5402179
51
293.6924929
0
ARC
8
DEFAULT_255_1_234
10
20.8599714
20
20.7993091
40
0.3307468
50
57.6435486
51
72.8625112
0
ARC
8
DEFAULT_255_1_234
10
20.8954214
20
20.8567549
40
0.2632492
50
36.7248896
51
57.4697979
0
ARC
8
DEFAULT_255_1_234
10
20.8942847
20
20.858022
40
0.2634081
50
8.0545065
51
36.356114
0
ARC
8
DEFAULT_255_1_234
10
20.8080032
20
20.8425174
40
0.3510261
50
359.8320645
51
8.5869982
0
ARC
8
DEFAULT_255_1_234
10
20.7704808
20
20.8377101
40
0.3885653
50
343.9829931
51
0.5571613
0
ARC
8
DEFAULT_255_1_234
10
20.8591005
20
20.8134438
40
0.2966924
50
311.6359546
51
343.7651759
0
ARC
8
DEFAULT_255_1_234
10
20.8212574
20
20.8561102
40
0.3537231
50
279.7829875
51
311.6255694
0
ARC
8
DEFAULT_255_1_234
10
20.7911351
20
20.999828
40
0.5004971
50
269.7286406
51
280.3856417
0
ARC
8
DEFAULT_255_1_234
10
20.7849423
20
20.9956996
40
0.4963778
50
256.6828919
51
270.4412052
0
ARC
8
DEFAULT_255_1_234
10
20.7510719
20
20.8572394
40
0.3538406
50
229.4223008
51
256.8556159
0
ARC
8
DEFAULT_255_1_234
10
20.7096112
20
20.8105736
40
0.2914296
50
181.818294
51
229.6455059
0
ARC
8
DEFAULT_255_1_234
10
20.8136068
20
20.8236496
40
0.3959084
50
179.9755256
51
183.2323064
0
ARC
8
DEFAULT_255_1_234
10
20.7963814
20
20.8216037
40
0.2293034
50
179.4465117
51
196.2869258
0
ARC
8
DEFAULT_255_1_234
10
20.7476222
20
20.8082651
40
0.1787621
50
196.5661473
51
227.705904
0
ARC
8
DEFAULT_255_1_234
10
20.7640317
20
20.8266155
40
0.2033784
50
227.7652068
51
257.8762805
0
ARC
8
DEFAULT_255_1_234
10
20.7865287
20
20.9209156
40
0.3003081
50
257.4584385
51
270.426602
0
ARC
8
DEFAULT_255_1_234
10
20.7910853
20
20.9498996
40
0.329292
50
269.5962073
51
280.8789248
0
ARC
8
DEFAULT_255_1_234
10
20.8140382
20
20.8352685
40
0.2123908
50
280.6346389
51
299.8595945
0
ARC
8
DEFAULT_255_1_234
10
20.8331289
20
20.7990212
40
0.171457
50
300.3576302
51
314.5517981
0
ARC
8
DEFAULT_255_1_234
10
20.8248349
20
20.8050919
40
0.1816095
50
315.0728369
51
345.0431014
0
ARC
8
DEFAULT_255_1_234
10
20.7325163
20
20.8319841
40
0.2777492
50
344.5986631
51
357.9269593
0
ARC
8
DEFAULT_255_1_234
10
20.6429489
20
20.8381276
40
0.3674917
50
357.4748886
51
0.0231117
0
ARC
8
DEFAULT_255_1_234
10
20.7452599
20
20.8405679
40
0.2651907
50
359.5047933
51
13.4239635
0
ARC
8
DEFAULT_255_1_234
10
20.8319242
20
20.8627478
40
0.1757509
50
12.9498199
51
48.7551375
0
ARC
8
DEFAULT_255_1_234
10
20.8136976
20
20.83784
40
0.2065134
50
49.5088623
51
72.1836453
0
ARC
8
DEFAULT_255_1_234
10
20.7779129
20
20.7316291
40
0.3185836
50
71.9010081
51
84.3554254
0
ARC
8
DEFAULT_255_1_234
10
20.7617761
20
20.5955326
40
0.4556151
50
84.0193428
51
89.333121
0
LINE
8
DEFAULT_255_1_234
10
22.1774522
20
21.3466849
11
22.0224396
21
21.3466849
0
LINE
8
DEFAULT_255_1_234
10
21.3301038
20
20.8543394
11
21.4851164
21
20.8543394
0
ARC
8
DEFAULT_255_1_234
10
22.0883209
20
22.2413768
40
1.252368
50
248.9199003
51
254.1439814
0
ARC
8
DEFAULT_255_1_234
10
21.9202704
20
21.8087234
40
0.788226
50
241.633709
51
249.0064503
0
ARC
8
DEFAULT_255_1_234
10
21.7674099
20
21.5286317
40
0.4691427
50
230.498225
51
241.8087113
0
ARC
8
DEFAULT_255_1_234
10
21.6889673
20
21.4286906
40
0.3421437
50
227.4064532
51
229.9881192
0
ARC
8
DEFAULT_255_1_234
10
21.6402193
20
21.3811088
40
0.2741476
50
200.6781896
51
228.1763934
0
ARC
8
DEFAULT_255_1_234
10
21.6474504
20
21.3796077
40
0.2804109
50
179.5061581
51
199.8694617
0
ARC
8
DEFAULT_255_1_234
10
21.6465256
20
21.387021
40
0.2795204
50
132.4834203
51
181.0242172
0
ARC
8
DEFAULT_255_1_234
10
21.7060838
20
21.3307704
40
0.3612768
50
129.2532479
51
133.4242687
0
ARC
8
DEFAULT_255_1_234
10
21.7207288
20
21.3087965
40
0.3875675
50
101.98776
51
128.8742646
0
ARC
8
DEFAULT_255_1_234
10
21.7605898
20
21.1366741
40
0.5642249
50
89.5906553
51
102.3169264
0
ARC
8
DEFAULT_255_1_234
10
21.7676391
20
21.1685148
40
0.5323783
50
77.2360837
51
90.3248275
0
ARC
8
DEFAULT_255_1_234
10
21.788347
20
21.26524
40
0.4334697
50
63.837784
51
77.0809408
0
ARC
8
DEFAULT_255_1_234
10
21.8161231
20
21.3169911
40
0.3747796
50
45.9864267
51
64.1607727
0
ARC
8
DEFAULT_255_1_234
10
21.8422113
20
21.3467866
40
0.3352302
50
32.2747395
51
45.6547121
0
ARC
8
DEFAULT_255_1_234
10
21.8488553
20
21.348688
40
0.328603
50
359.6507365
51
32.6130309
0
ARC
8
DEFAULT_255_1_234
10
21.7545649
20
21.349166
40
0.2678863
50
359.469343
51
14.9832209
0
ARC
8
DEFAULT_255_1_234
10
21.8250711
20
21.3680539
40
0.1948938
50
14.9781179
51
48.2004265
0
ARC
8
DEFAULT_255_1_234
10
21.8086355
20
21.3473983
40
0.2212521
50
48.5927837
51
74.1241538
0
ARC
8
DEFAULT_255_1_234
10
21.7752845
20
21.2373248
40
0.3362561
50
73.7888341
51
86.6652678
0
ARC
8
DEFAULT_255_1_234
10
21.765041
20
21.1165881
40
0.4573953
50
86.2640471
51
90.0526343
0
ARC
8
DEFAULT_255_1_234
10
21.7622123
20
21.1561192
40
0.4178709
50
89.6697524
51
99.2309573
0
ARC
8
DEFAULT_255_1_234
10
21.7379574
20
21.3005964
40
0.2713749
50
99.069534
51
113.7658566
0
ARC
8
DEFAULT_255_1_234
10
21.7105765
20
21.3651677
40
0.2012469
50
114.0401004
51
127.9850673
0
ARC
8
DEFAULT_255_1_234
10
21.6865329
20
21.394773
40
0.1631167
50
127.7287463
51
176.7105154
0
ARC
8
DEFAULT_255_1_234
10
21.7544046
20
21.3846693
40
0.2315392
50
175.1779447
51
180.0581938
0
ARC
8
DEFAULT_255_1_234
10
21.6700893
20
21.3834428
40
0.1472271
50
179.6142195
51
228.1246017
0
ARC
8
DEFAULT_255_1_234
10
21.7142562
20
21.4243308
40
0.2072299
50
226.5779593
51
230.8800004
0
ARC
8
DEFAULT_255_1_234
10
21.761364
20
21.4868636
40
0.2854818
50
231.4635071
51
241.9260842
0
ARC
8
DEFAULT_255_1_234
10
21.8810818
20
21.70718
40
0.53622
50
241.7178533
51
248.3259551
0
ARC
8
DEFAULT_255_1_234
10
22.019619
20
22.0504064
40
0.9063478
50
248.2007737
51
252.4528373
0
ARC
8
DEFAULT_255_1_234
10
22.1399915
20
22.4225441
40
1.2974635
50
252.3391078
51
254.3469452
0
ARC
8
DEFAULT_255_1_234
10
21.3857618
20
19.7248148
40
1.5037162
50
71.0197183
51
74.4087047
0
ARC
8
DEFAULT_255_1_234
10
21.5552303
20
20.2140111
40
0.9859993
50
66.1847285
51
71.086374
0
ARC
8
DEFAULT_255_1_234
10
21.7108615
20
20.56442
40
0.6025855
50
59.3536294
51
66.2691831
0
ARC
8
DEFAULT_255_1_234
10
21.7997268
20
20.7147609
40
0.4279449
50
49.1020879
51
59.3293958
0
ARC
8
DEFAULT_255_1_234
10
21.8816008
20
20.8080834
40
0.3038015
50
32.7919921
51
49.2505539
0
ARC
8
DEFAULT_255_1_234
10
21.9137098
20
20.8309191
40
0.264448
50
31.1181161
51
32.4005348
0
ARC
8
DEFAULT_255_1_234
10
21.9048635
20
20.8273779
40
0.2738556
50
8.1116974
51
30.7958831
0
ARC
8
DEFAULT_255_1_234
10
21.8238303
20
20.8135753
40
0.3560327
50
359.8389159
51
8.4706516
0
ARC
8
DEFAULT_255_1_234
10
21.8864095
20
20.8087137
40
0.2934776
50
337.4731098
51
0.7537279
0
ARC
8
DEFAULT_255_1_234
10
21.904279
20
20.8067387
40
0.2762607
50
307.5917067
51
336.4315538
0
ARC
8
DEFAULT_255_1_234
10
21.8582618
20
20.8580102
40
0.3449979
50
307.6551545
51
308.4529766
0
ARC
8
DEFAULT_255_1_234
10
21.8352337
20
20.893525
40
0.3871988
50
284.3734338
51
307.1424381
0
ARC
8
DEFAULT_255_1_234
10
21.7857167
20
21.0756932
40
0.5759636
50
272.4382747
51
284.646547
0
ARC
8
DEFAULT_255_1_234
10
21.7730375
20
21.2556893
40
0.7563528
50
269.9708387
51
272.8178037
0
ARC
8
DEFAULT_255_1_234
10
21.7687415
20
21.0518716
40
0.5525489
50
248.2707594
51
270.4055579
0
ARC
8
DEFAULT_255_1_234
10
21.7633156
20
21.0328192
40
0.5328452
50
246.1383403
51
248.0542782
0
ARC
8
DEFAULT_255_1_234
10
21.7214535
20
20.9448843
40
0.4355005
50
233.1670131
51
246.4950969
0
ARC
8
DEFAULT_255_1_234
10
21.666044
20
20.8700812
40
0.3424126
50
215.3403242
51
233.0843104
0
ARC
8
DEFAULT_255_1_234
10
21.6387871
20
20.8502549
40
0.3087104
50
179.2419209
51
215.2648451
0
ARC
8
DEFAULT_255_1_234
10
21.7155465
20
20.8516666
40
0.2304457
50
179.335461
51
199.1045811
0
ARC
8
DEFAULT_255_1_234
10
21.6823142
20
20.8429766
40
0.1962176
50
199.8828939
51
232.7063202
0
ARC
8
DEFAULT_255_1_234
10
21.729541
20
20.9023788
40
0.2720938
50
232.3738199
51
255.5136649
0
ARC
8
DEFAULT_255_1_234
10
21.7636277
20
21.0267835
40
0.4010747
50
255.2446292
51
267.5320849
0
ARC
8
DEFAULT_255_1_234
10
21.77239
20
21.1500702
40
0.5246356
50
267.1557994
51
270.0286766
0
ARC
8
DEFAULT_255_1_234
10
21.7751672
20
21.105695
40
0.4802668
50
269.7000017
51
278.1660162
0
ARC
8
DEFAULT_255_1_234
10
21.8007677
20
20.9326515
40
0.3053425
50
278.0231263
51
290.625471
0
ARC
8
DEFAULT_255_1_234
10
21.8355364
20
20.8399025
40
0.206291
50
290.6619762
51
307.0370976
0
ARC
8
DEFAULT_255_1_234
10
21.8655754
20
20.8030504
40
0.1587906
50
306.3943566
51
355.3030547
0
ARC
8
DEFAULT_255_1_234
10
21.8143685
20
20.8107113
40
0.2104809
50
354.3660432
51
0.0698737
0
ARC
8
DEFAULT_255_1_234
10
21.828603
20
20.8129617
40
0.1962563
50
359.417946
51
16.1971788
0
ARC
8
DEFAULT_255_1_234
10
21.874134
20
20.8254418
40
0.149053
50
16.4723299
51
52.6262157
0
ARC
8
DEFAULT_255_1_234
10
21.7920394
20
20.7170433
40
0.2850296
50
52.7386432
51
62.4979148
0
ARC
8
DEFAULT_255_1_234
10
21.6535471
20
20.4564283
40
0.5801521
50
62.2515216
51
68.1220564
0
ARC
8
DEFAULT_255_1_234
10
21.4815382
20
20.0336872
40
1.0365451
50
68.0062803
51
71.8053402
0
ARC
8
DEFAULT_255_1_234
10
21.3019754
20
19.4951758
40
1.6042013
50
71.7183119
51
73.9258742
0
LINE
8
DEFAULT_255_1_234
10
22.532455
20
21.6848211
11
22.532455
21
20.6414983
0
LINE
8
DEFAULT_255_1_234
10
22.532455
20
20.6414983
11
23.086645
21
20.6414983
0
LINE
8
DEFAULT_255_1_234
10
23.086645
20
20.6414983
11
23.086645
21
20.5154
0
LINE
8
DEFAULT_255_1_234
10
23.086645
20
20.5154
11
22.3774425
21
20.5154
0
LINE
8
DEFAULT_255_1_234
10
22.3774425
20
20.5154
11
22.3774425
21
21.6848211
0
LINE
8
DEFAULT_255_1_234
10
22.3774425
20
21.6848211
11
22.532455
21
21.6848211
0
LINE
8
DEFAULT_255_1_234
10
23.5862191
20
20.5154
11
23.26254
21
20.5154
0
LINE
8
DEFAULT_255_1_234
10
23.26254
20
20.5154
11
23.26254
21
21.6848211
0
LINE
8
DEFAULT_255_1_234
10
23.26254
20
21.6848211
11
23.5926445
21
21.6848211
0
LINE
8
DEFAULT_255_1_234
10
24.1082821
20
21.1394661
11
24.1082821
21
21.0647709
0
LINE
8
DEFAULT_255_1_234
10
23.5966604
20
21.5579196
11
23.4167494
21
21.5579196
0
LINE
8
DEFAULT_255_1_234
10
23.4167494
20
21.5579196
11
23.4167494
21
20.6414983
0
LINE
8
DEFAULT_255_1_234
10
23.4167494
20
20.6414983
11
23.5789905
21
20.6414983
0
LINE
8
DEFAULT_255_1_234
10
23.9556791
20
21.0679836
11
23.9556791
21
21.1362534
0
ARC
8
DEFAULT_255_1_234
10
23.5965387
20
21.0982894
40
0.5865446
50
75.4101064
51
90.3804066
0
ARC
8
DEFAULT_255_1_234
10
23.6194901
20
21.1939492
40
0.4881916
50
60.145586
51
75.1888407
0
ARC
8
DEFAULT_255_1_234
10
23.6353676
20
21.2216199
40
0.4562893
50
26.5253612
51
60.1450928
0
ARC
8
DEFAULT_255_1_234
10
23.5233426
20
21.1622158
40
0.5830602
50
7.4030428
51
26.8320788
0
ARC
8
DEFAULT_255_1_234
10
23.3639182
20
21.1373804
40
0.7443669
50
0.1605367
51
7.7176192
0
ARC
8
DEFAULT_255_1_234
10
23.3803087
20
21.0609434
40
0.7279835
50
348.7289388
51
0.3012466
0
ARC
8
DEFAULT_255_1_234
10
23.5459517
20
21.0280386
40
0.559104
50
333.0706509
51
348.7181832
0
ARC
8
DEFAULT_255_1_234
10
23.6426275
20
20.9755319
40
0.4491417
50
299.2531685
51
333.4571258
0
ARC
8
DEFAULT_255_1_234
10
23.6065415
20
21.0440828
40
0.5265881
50
278.107187
51
299.0339503
0
ARC
8
DEFAULT_255_1_234
10
23.5809493
20
21.1948216
40
0.679442
50
270.4443897
51
278.4511052
0
ARC
8
DEFAULT_255_1_234
10
23.5830323
20
21.1019213
40
0.4604407
50
269.4970433
51
284.0205042
0
ARC
8
DEFAULT_255_1_234
10
23.6185624
20
20.9653978
40
0.3193797
50
283.7700273
51
318.1555492
0
ARC
8
DEFAULT_255_1_234
10
23.5848383
20
20.9906367
40
0.3613588
50
318.7415601
51
343.6873628
0
ARC
8
DEFAULT_255_1_234
10
23.4044406
20
21.0469832
40
0.5503313
50
343.3325091
51
355.8548958
0
ARC
8
DEFAULT_255_1_234
10
23.194609
20
21.0669319
40
0.7610708
50
355.4988528
51
0.0791727
0
ARC
8
DEFAULT_255_1_234
10
23.2728713
20
21.140478
40
0.6828208
50
359.6455037
51
9.8607896
0
ARC
8
DEFAULT_255_1_234
10
23.5089411
20
21.1831099
40
0.4429406
50
9.6571907
51
26.1932807
0
ARC
8
DEFAULT_255_1_234
10
23.6017399
20
21.2262118
40
0.3406537
50
26.5777228
51
40.1532208
0
ARC
8
DEFAULT_255_1_234
10
23.6273126
20
21.2461619
40
0.308246
50
40.3840491
51
80.1431104
0
ARC
8
DEFAULT_255_1_234
10
23.5946243
20
21.1012333
40
0.4566909
50
79.2152159
51
89.7445637
0
LINE
8
DEFAULT_255_1_234
10
23.5683628
20
29.6223211
11
23.5683628
21
28.845652
0
LINE
8
DEFAULT_255_1_234
10
23.5683628
20
28.845652
11
23.7306039
21
28.845652
0
LINE
8
DEFAULT_255_1_234
10
23.7306039
20
28.845652
11
23.7306039
21
28.7243728
0
LINE
8
DEFAULT_255_1_234
10
23.7306039
20
28.7243728
11
23.5683628
21
28.7243728
0
LINE
8
DEFAULT_255_1_234
10
23.5683628
20
28.7243728
11
23.5683628
21
28.4529
0
LINE
8
DEFAULT_255_1_234
10
23.5683628
20
28.4529
11
23.4189725
21
28.4529
0
LINE
8
DEFAULT_255_1_234
10
23.4189725
20
28.4529
11
23.4189725
21
28.7243728
0
LINE
8
DEFAULT_255_1_234
10
23.4189725
20
28.7243728
11
22.8864682
21
28.7243728
0
LINE
8
DEFAULT_255_1_234
10
22.8864682
20
28.7243728
11
22.8864682
21
28.8119187
0
LINE
8
DEFAULT_255_1_234
10
22.8864682
20
28.8119187
11
23.4101375
21
29.6223211
0
LINE
8
DEFAULT_255_1_234
10
23.4101375
20
29.6223211
11
23.5683628
21
29.6223211
0
LINE
8
DEFAULT_255_1_234
10
23.4013026
20
29.3869912
11
23.0551347
21
28.845652
0
LINE
8
DEFAULT_255_1_234
10
23.0551347
20
28.845652
11
23.4189725
21
28.845652
0
LINE
8
DEFAULT_255_1_234
10
23.4189725
20
28.845652
11
23.4189725
21
29.4191181
0
LINE
8
DEFAULT_255_1_234
10
23.4189725
20
29.4191181
11
23.4013026
21
29.3869912
0
LINE
8
DEFAULT_255_1_234
10
24.1892162
20
29.0103026
11
24.1892162
21
28.8890234
0
LINE
8
DEFAULT_255_1_234
10
24.1892162
20
28.8890234
11
23.7972673
21
28.8890234
0
LINE
8
DEFAULT_255_1_234
10
23.7972673
20
28.8890234
11
23.7972673
21
29.0103026
0
LINE
8
DEFAULT_255_1_234
10
23.7972673
20
29.0103026
11
24.1892162
21
29.0103026
0
LINE
8
DEFAULT_255_1_234
10
23.2629378
20
36.9261169
11
23.2629378
21
37.0473962
0
LINE
8
DEFAULT_255_1_234
10
23.2629378
20
37.0473962
11
23.374579
21
37.0473962
0
LINE
8
DEFAULT_255_1_234
10
23.1842268
20
37.2530087
11
23.0356396
21
37.2530087
0
LINE
8
DEFAULT_255_1_234
10
23.0251983
20
36.6988188
11
23.1745887
21
36.6988188
0
LINE
8
DEFAULT_255_1_234
10
23.374579
20
36.9261169
11
23.2629378
21
36.9261169
0
ARC
8
DEFAULT_255_1_234
10
23.3716656
20
37.3866713
40
0.3392876
50
270.4919872
51
281.8951556
0
ARC
8
DEFAULT_255_1_234
10
23.3957918
20
37.2764702
40
0.2264817
50
281.6691735
51
301.2943132
0
ARC
8
DEFAULT_255_1_234
10
23.4128128
20
37.2453304
40
0.1910381
50
301.7833094
51
311.7545298
0
ARC
8
DEFAULT_255_1_234
10
23.4219704
20
37.2351748
40
0.1773635
50
311.7323931
51
354.2802411
0
ARC
8
DEFAULT_255_1_234
10
23.3493329
20
37.2476722
40
0.2509385
50
353.0937916
51
0.1181479
0
ARC
8
DEFAULT_255_1_234
10
23.3032114
20
37.2524386
40
0.2970898
50
359.1805295
51
15.0453146
0
ARC
8
DEFAULT_255_1_234
10
23.4377951
20
37.2916992
40
0.1569564
50
13.9577229
51
77.6713066
0
ARC
8
DEFAULT_255_1_234
10
23.399148
20
37.1531949
40
0.3006298
50
76.1116566
51
90.7026153
0
ARC
8
DEFAULT_255_1_234
10
23.3932318
20
37.1805545
40
0.2732568
50
89.5324876
51
103.531937
0
ARC
8
DEFAULT_255_1_234
10
23.3731762
20
37.2604884
40
0.1908508
50
103.2931773
51
133.5619022
0
ARC
8
DEFAULT_255_1_234
10
23.3687251
20
37.2664375
40
0.1834746
50
133.8349307
51
173.5344437
0
ARC
8
DEFAULT_255_1_234
10
23.4410294
20
37.2536213
40
0.2568033
50
172.5096846
51
180.1366907
0
ARC
8
DEFAULT_255_1_234
10
23.3459188
20
37.2570622
40
0.3103056
50
155.3484492
51
180.7484736
0
ARC
8
DEFAULT_255_1_234
10
23.3410277
20
37.2541846
40
0.3070957
50
131.5744599
51
154.4798489
0
ARC
8
DEFAULT_255_1_234
10
23.3723424
20
37.222531
40
0.3515643
50
96.9875458
51
131.9690667
0
ARC
8
DEFAULT_255_1_234
10
23.3942904
20
37.0979636
40
0.4779224
50
89.8596053
51
97.7825159
0
ARC
8
DEFAULT_255_1_234
10
23.3990967
20
37.0717616
40
0.5041361
50
78.3655447
51
90.4131539
0
ARC
8
DEFAULT_255_1_234
10
23.4348885
20
37.2376887
40
0.3344039
50
56.6229102
51
78.638727
0
ARC
8
DEFAULT_255_1_234
10
23.4563829
20
37.2752805
40
0.2912001
50
47.0253525
51
56.0854072
0
ARC
8
DEFAULT_255_1_234
10
23.4583609
20
37.2792223
40
0.2869704
50
10.9208013
51
46.7778124
0
ARC
8
DEFAULT_255_1_234
10
23.3219675
20
37.2476857
40
0.426899
50
359.6364486
51
11.6087304
0
ARC
8
DEFAULT_255_1_234
10
23.5054519
20
37.2461752
40
0.243409
50
332.3549906
51
359.7179418
0
ARC
8
DEFAULT_255_1_234
10
23.4404121
20
37.2770142
40
0.3153459
50
325.2333722
51
332.8745602
0
ARC
8
DEFAULT_255_1_234
10
23.4556744
20
37.2663828
40
0.2967456
50
292.9802137
51
325.2392345
0
ARC
8
DEFAULT_255_1_234
10
23.4282118
20
37.3197863
40
0.3566604
50
292.5402179
51
293.6924929
0
ARC
8
DEFAULT_255_1_234
10
23.4674714
20
36.6743091
40
0.3307468
50
57.6435486
51
72.8625112
0
ARC
8
DEFAULT_255_1_234
10
23.5029214
20
36.7317549
40
0.2632492
50
36.7248896
51
57.4697979
0
ARC
8
DEFAULT_255_1_234
10
23.5017847
20
36.733022
40
0.2634081
50
8.0545065
51
36.356114
0
ARC
8
DEFAULT_255_1_234
10
23.4155032
20
36.7175174
40
0.3510261
50
359.8320645
51
8.5869982
0
ARC
8
DEFAULT_255_1_234
10
23.3779808
20
36.7127101
40
0.3885653
50
343.9829931
51
0.5571613
0
ARC
8
DEFAULT_255_1_234
10
23.4666005
20
36.6884438
40
0.2966924
50
311.6359546
51
343.7651759
0
ARC
8
DEFAULT_255_1_234
10
23.4287574
20
36.7311102
40
0.3537231
50
279.7829875
51
311.6255694
0
ARC
8
DEFAULT_255_1_234
10
23.3986351
20
36.874828
40
0.5004971
50
269.7286406
51
280.3856417
0
ARC
8
DEFAULT_255_1_234
10
23.3924423
20
36.8706996
40
0.4963778
50
256.6828919
51
270.4412052
0
ARC
8
DEFAULT_255_1_234
10
23.3585719
20
36.7322394
40
0.3538406
50
229.4223008
51
256.8556159
0
ARC
8
DEFAULT_255_1_234
10
23.3171112
20
36.6855736
40
0.2914296
50
181.818294
51
229.6455059
0
ARC
8
DEFAULT_255_1_234
10
23.4211068
20
36.6986496
40
0.3959084
50
179.9755256
51
183.2323064
0
ARC
8
DEFAULT_255_1_234
10
23.4038814
20
36.6966037
40
0.2293034
50
179.4465117
51
196.2869258
0
ARC
8
DEFAULT_255_1_234
10
23.3551222
20
36.6832651
40
0.1787621
50
196.5661473
51
227.705904
0
ARC
8
DEFAULT_255_1_234
10
23.3715317
20
36.7016155
40
0.2033784
50
227.7652068
51
257.8762805
0
ARC
8
DEFAULT_255_1_234
10
23.3940287
20
36.7959156
40
0.3003081
50
257.4584385
51
270.426602
0
ARC
8
DEFAULT_255_1_234
10
23.3985853
20
36.8248996
40
0.329292
50
269.5962073
51
280.8789248
0
ARC
8
DEFAULT_255_1_234
10
23.4215382
20
36.7102685
40
0.2123908
50
280.6346389
51
299.8595945
0
ARC
8
DEFAULT_255_1_234
10
23.4406289
20
36.6740212
40
0.171457
50
300.3576302
51
314.5517981
0
ARC
8
DEFAULT_255_1_234
10
23.4323349
20
36.6800919
40
0.1816095
50
315.0728369
51
345.0431014
0
ARC
8
DEFAULT_255_1_234
10
23.3400163
20
36.7069841
40
0.2777492
50
344.5986631
51
357.9269593
0
ARC
8
DEFAULT_255_1_234
10
23.2504489
20
36.7131276
40
0.3674917
50
357.4748886
51
0.0231117
0
ARC
8
DEFAULT_255_1_234
10
23.3527599
20
36.7155679
40
0.2651907
50
359.5047933
51
13.4239635
0
ARC
8
DEFAULT_255_1_234
10
23.4394242
20
36.7377478
40
0.1757509
50
12.9498199
51
48.7551375
0
ARC
8
DEFAULT_255_1_234
10
23.4211976
20
36.71284
40
0.2065134
50
49.5088623
51
72.1836453
0
ARC
8
DEFAULT_255_1_234
10
23.3854129
20
36.6066291
40
0.3185836
50
71.9010081
51
84.3554254
0
ARC
8
DEFAULT_255_1_234
10
23.3692761
20
36.4705326
40
0.4556151
50
84.0193428
51
89.333121
0
LINE
8
DEFAULT_255_1_234
10
24.2950162
20
36.9478026
11
24.2950162
21
36.8265234
0
LINE
8
DEFAULT_255_1_234
10
24.2950162
20
36.8265234
11
23.9030673
21
36.8265234
0
LINE
8
DEFAULT_255_1_234
10
23.9030673
20
36.8265234
11
23.9030673
21
36.9478026
0
LINE
8
DEFAULT_255_1_234
10
23.9030673
20
36.9478026
11
24.2950162
21
36.9478026
0
LINE
8
DEFAULT_255_1_234
10
23.1168628
20
45.4973211
11
23.1168628
21
44.720652
0
LINE
8
DEFAULT_255_1_234
10
23.1168628
20
44.720652
11
23.2791039
21
44.720652
0
LINE
8
DEFAULT_255_1_234
10
23.2791039
20
44.720652
11
23.2791039
21
44.5993728
0
LINE
8
DEFAULT_255_1_234
10
23.2791039
20
44.5993728
11
23.1168628
21
44.5993728
0
LINE
8
DEFAULT_255_1_234
10
23.1168628
20
44.5993728
11
23.1168628
21
44.3279
0
LINE
8
DEFAULT_255_1_234
10
23.1168628
20
44.3279
11
22.9674725
21
44.3279
0
LINE
8
DEFAULT_255_1_234
10
22.9674725
20
44.3279
11
22.9674725
21
44.5993728
0
LINE
8
DEFAULT_255_1_234
10
22.9674725
20
44.5993728
11
22.4349682
21
44.5993728
0
LINE
8
DEFAULT_255_1_234
10
22.4349682
20
44.5993728
11
22.4349682
21
44.6869187
0
LINE
8
DEFAULT_255_1_234
10
22.4349682
20
44.6869187
11
22.9586375
21
45.4973211
0
LINE
8
DEFAULT_255_1_234
10
22.9586375
20
45.4973211
11
23.1168628
21
45.4973211
0
LINE
8
DEFAULT_255_1_234
10
22.9498026
20
45.2619912
11
22.6036347
21
44.720652
0
LINE
8
DEFAULT_255_1_234
10
22.6036347
20
44.720652
11
22.9674725
21
44.720652
0
LINE
8
DEFAULT_255_1_234
10
22.9674725
20
44.720652
11
22.9674725
21
45.2941181
0
LINE
8
DEFAULT_255_1_234
10
22.9674725
20
45.2941181
11
22.9498026
21
45.2619912
0
LINE
8
DEFAULT_255_1_234
10
23.8541764
20
45.2965276
11
23.8541764
21
44.9551788
0
LINE
8
DEFAULT_255_1_234
10
23.8541764
20
44.9551788
11
24.1802649
21
44.9551788
0
LINE
8
DEFAULT_255_1_234
10
24.1802649
20
44.9551788
11
24.1802649
21
44.8146233
0
LINE
8
DEFAULT_255_1_234
10
24.1802649
20
44.8146233
11
23.8541764
21
44.8146233
0
LINE
8
DEFAULT_255_1_234
10
23.8541764
20
44.8146233
11
23.8541764
21
44.4451634
0
LINE
8
DEFAULT_255_1_234
10
23.8541764
20
44.4451634
11
23.704786
21
44.4451634
0
LINE
8
DEFAULT_255_1_234
10
23.704786
20
44.4451634
11
23.704786
21
44.8146233
0
LINE
8
DEFAULT_255_1_234
10
23.704786
20
44.8146233
11
23.3786975
21
44.8146233
0
LINE
8
DEFAULT_255_1_234
10
23.3786975
20
44.8146233
11
23.3786975
21
44.9551788
0
LINE
8
DEFAULT_255_1_234
10
23.3786975
20
44.9551788
11
23.704786
21
44.9551788
0
LINE
8
DEFAULT_255_1_234
10
23.704786
20
44.9551788
11
23.704786
21
45.2965276
0
LINE
8
DEFAULT_255_1_234
10
23.704786
20
45.2965276
11
23.8541764
21
45.2965276
0
LINE
8
DEFAULT_255_1_234
10
22.8115378
20
52.8011169
11
22.8115378
21
52.9223962
0
LINE
8
DEFAULT_255_1_234
10
22.8115378
20
52.9223962
11
22.923179
21
52.9223962
0
LINE
8
DEFAULT_255_1_234
10
22.7328268
20
53.1280087
11
22.5842396
21
53.1280087
0
LINE
8
DEFAULT_255_1_234
10
22.5737983
20
52.5738188
11
22.7231887
21
52.5738188
0
LINE
8
DEFAULT_255_1_234
10
22.923179
20
52.8011169
11
22.8115378
21
52.8011169
0
ARC
8
DEFAULT_255_1_234
10
22.9202656
20
53.2616713
40
0.3392876
50
270.4919872
51
281.8951556
0
ARC
8
DEFAULT_255_1_234
10
22.9443918
20
53.1514702
40
0.2264817
50
281.6691735
51
301.2943132
0
ARC
8
DEFAULT_255_1_234
10
22.9614128
20
53.1203304
40
0.1910381
50
301.7833094
51
311.7545298
0
ARC
8
DEFAULT_255_1_234
10
22.9705704
20
53.1101748
40
0.1773635
50
311.7323931
51
354.2802411
0
ARC
8
DEFAULT_255_1_234
10
22.8979329
20
53.1226722
40
0.2509385
50
353.0937916
51
0.1181479
0
ARC
8
DEFAULT_255_1_234
10
22.8518114
20
53.1274386
40
0.2970898
50
359.1805295
51
15.0453146
0
ARC
8
DEFAULT_255_1_234
10
22.9863951
20
53.1666992
40
0.1569564
50
13.9577229
51
77.6713066
0
ARC
8
DEFAULT_255_1_234
10
22.947748
20
53.0281949
40
0.3006298
50
76.1116566
51
90.7026153
0
ARC
8
DEFAULT_255_1_234
10
22.9418318
20
53.0555545
40
0.2732568
50
89.5324876
51
103.531937
0
ARC
8
DEFAULT_255_1_234
10
22.9217762
20
53.1354884
40
0.1908508
50
103.2931773
51
133.5619022
0
ARC
8
DEFAULT_255_1_234
10
22.9173251
20
53.1414375
40
0.1834746
50
133.8349307
51
173.5344437
0
ARC
8
DEFAULT_255_1_234
10
22.9896294
20
53.1286213
40
0.2568033
50
172.5096846
51
180.1366907
0
ARC
8
DEFAULT_255_1_234
10
22.8945188
20
53.1320622
40
0.3103056
50
155.3484492
51
180.7484736
0
ARC
8
DEFAULT_255_1_234
10
22.8896277
20
53.1291846
40
0.3070957
50
131.5744599
51
154.4798489
0
ARC
8
DEFAULT_255_1_234
10
22.9209424
20
53.097531
40
0.3515643
50
96.9875458
51
131.9690667
0
ARC
8
DEFAULT_255_1_234
10
22.9428904
20
52.9729636
40
0.4779224
50
89.8596053
51
97.7825159
0
ARC
8
DEFAULT_255_1_234
10
22.9476967
20
52.9467616
40
0.5041361
50
78.3655447
51
90.4131539
0
ARC
8
DEFAULT_255_1_234
10
22.9834885
20
53.1126887
40
0.3344039
50
56.6229102
51
78.638727
0
ARC
8
DEFAULT_255_1_234
10
23.0049829
20
53.1502805
40
0.2912001
50
47.0253525
51
56.0854072
0
ARC
8
DEFAULT_255_1_234
10
23.0069609
20
53.1542223
40
0.2869704
50
10.9208013
51
46.7778124
0
ARC
8
DEFAULT_255_1_234
10
22.8705675
20
53.1226857
40
0.426899
50
359.6364486
51
11.6087304
0
ARC
8
DEFAULT_255_1_234
10
23.0540519
20
53.1211752
40
0.243409
50
332.3549906
51
359.7179418
0
ARC
8
DEFAULT_255_1_234
10
22.9890121
20
53.1520142
40
0.3153459
50
325.2333722
51
332.8745602
0
ARC
8
DEFAULT_255_1_234
10
23.0042744
20
53.1413828
40
0.2967456
50
292.9802137
51
325.2392345
0
ARC
8
DEFAULT_255_1_234
10
22.9768118
20
53.1947863
40
0.3566604
50
292.5402179
51
293.6924929
0
ARC
8
DEFAULT_255_1_234
10
23.0160714
20
52.5493091
40
0.3307468
50
57.6435486
51
72.8625112
0
ARC
8
DEFAULT_255_1_234
10
23.0515214
20
52.6067549
40
0.2632492
50
36.7248896
51
57.4697979
0
ARC
8
DEFAULT_255_1_234
10
23.0503847
20
52.608022
40
0.2634081
50
8.0545065
51
36.356114
0
ARC
8
DEFAULT_255_1_234
10
22.9641032
20
52.5925174
40
0.3510261
50
359.8320645
51
8.5869982
0
ARC
8
DEFAULT_255_1_234
10
22.9265808
20
52.5877101
40
0.3885653
50
343.9829931
51
0.5571613
0
ARC
8
DEFAULT_255_1_234
10
23.0152005
20
52.5634438
40
0.2966924
50
311.6359546
51
343.7651759
0
ARC
8
DEFAULT_255_1_234
10
22.9773574
20
52.6061102
40
0.3537231
50
279.7829875
51
311.6255694
0
ARC
8
DEFAULT_255_1_234
10
22.9472351
20
52.749828
40
0.5004971
50
269.7286406
51
280.3856417
0
ARC
8
DEFAULT_255_1_234
10
22.9410423
20
52.7456996
40
0.4963778
50
256.6828919
51
270.4412052
0
ARC
8
DEFAULT_255_1_234
10
22.9071719
20
52.6072394
40
0.3538406
50
229.4223008
51
256.8556159
0
ARC
8
DEFAULT_255_1_234
10
22.8657112
20
52.5605736
40
0.2914296
50
181.818294
51
229.6455059
0
ARC
8
DEFAULT_255_1_234
10
22.9697068
20
52.5736496
40
0.3959084
50
179.9755256
51
183.2323064
0
ARC
8
DEFAULT_255_1_234
10
22.9524814
20
52.5716037
40
0.2293034
50
179.4465117
51
196.2869258
0
ARC
8
DEFAULT_255_1_234
10
22.9037222
20
52.5582651
40
0.1787621
50
196.5661473
51
227.705904
0
ARC
8
DEFAULT_255_1_234
10
22.9201317
20
52.5766155
40
0.2033784
50
227.7652068
51
257.8762805
0
ARC
8
DEFAULT_255_1_234
10
22.9426287
20
52.6709156
40
0.3003081
50
257.4584385
51
270.426602
0
ARC
8
DEFAULT_255_1_234
10
22.9471853
20
52.6998996
40
0.329292
50
269.5962073
51
280.8789248
0
ARC
8
DEFAULT_255_1_234
10
22.9701382
20
52.5852685
40
0.2123908
50
280.6346389
51
299.8595945
0
ARC
8
DEFAULT_255_1_234
10
22.9892289
20
52.5490212
40
0.171457
50
300.3576302
51
314.5517981
0
ARC
8
DEFAULT_255_1_234
10
22.9809349
20
52.5550919
40
0.1816095
50
315.0728369
51
345.0431014
0
ARC
8
DEFAULT_255_1_234
10
22.8886163
20
52.5819841
40
0.2777492
50
344.5986631
51
357.9269593
0
ARC
8
DEFAULT_255_1_234
10
22.7990489
20
52.5881276
40
0.3674917
50
357.4748886
51
0.0231117
0
ARC
8
DEFAULT_255_1_234
10
22.9013599
20
52.5905679
40
0.2651907
50
359.5047933
51
13.4239635
0
ARC
8
DEFAULT_255_1_234
10
22.9880242
20
52.6127478
40
0.1757509
50
12.9498199
51
48.7551375
0
ARC
8
DEFAULT_255_1_234
10
22.9697976
20
52.58784
40
0.2065134
50
49.5088623
51
72.1836453
0
ARC
8
DEFAULT_255_1_234
10
22.9340129
20
52.4816291
40
0.3185836
50
71.9010081
51
84.3554254
0
ARC
8
DEFAULT_255_1_234
10
22.9178761
20
52.3455326
40
0.4556151
50
84.0193428
51
89.333121
0
LINE
8
DEFAULT_255_1_234
10
23.9600764
20
53.2340276
11
23.9600764
21
52.8926788
0
LINE
8
DEFAULT_255_1_234
10
23.9600764
20
52.8926788
11
24.2861649
21
52.8926788
0
LINE
8
DEFAULT_255_1_234
10
24.2861649
20
52.8926788
11
24.2861649
21
52.7521233
0
LINE
8
DEFAULT_255_1_234
10
24.2861649
20
52.7521233
11
23.9600764
21
52.7521233
0
LINE
8
DEFAULT_255_1_234
10
23.9600764
20
52.7521233
11
23.9600764
21
52.3826634
0
LINE
8
DEFAULT_255_1_234
10
23.9600764
20
52.3826634
11
23.810686
21
52.3826634
0
LINE
8
DEFAULT_255_1_234
10
23.810686
20
52.3826634
11
23.810686
21
52.7521233
0
LINE
8
DEFAULT_255_1_234
10
23.810686
20
52.7521233
11
23.4845975
21
52.7521233
0
LINE
8
DEFAULT_255_1_234
10
23.4845975
20
52.7521233
11
23.4845975
21
52.8926788
0
LINE
8
DEFAULT_255_1_234
10
23.4845975
20
52.8926788
11
23.810686
21
52.8926788
0
LINE
8
DEFAULT_255_1_234
10
23.810686
20
52.8926788
11
23.810686
21
53.2340276
0
LINE
8
DEFAULT_255_1_234
10
23.810686
20
53.2340276
11
23.9600764
21
53.2340276
0
LINE
8
DEFAULT_255_1_234
10
23.8131119
20
60.3241792
11
23.8131119
21
60.2029
0
LINE
8
DEFAULT_255_1_234
10
23.8131119
20
60.2029
11
23.046884
21
60.2029
0
LINE
8
DEFAULT_255_1_234
10
23.046884
20
60.2029
11
23.046884
21
60.3097221
0
LINE
8
DEFAULT_255_1_234
10
23.046884
20
60.3097221
11
23.4516836
21
60.7594995
0
LINE
8
DEFAULT_255_1_234
10
23.1729823
20
61.0277595
11
23.0243952
21
61.0277595
0
LINE
8
DEFAULT_255_1_234
10
23.5392296
20
60.6639218
11
23.2259918
21
60.3241792
0
LINE
8
DEFAULT_255_1_234
10
23.2259918
20
60.3241792
11
23.8131119
21
60.3241792
0
ARC
8
DEFAULT_255_1_234
10
22.102667
20
61.9524527
40
1.8008286
50
318.5132453
51
320.7828378
0
ARC
8
DEFAULT_255_1_234
10
22.6313644
20
61.5221426
40
1.1191493
50
320.7372736
51
323.9737074
0
ARC
8
DEFAULT_255_1_234
10
23.0233501
20
61.2381361
40
0.6350923
50
323.8961724
51
328.6421089
0
ARC
8
DEFAULT_255_1_234
10
23.2280096
20
61.1119031
40
0.3946393
50
328.8299013
51
331.789948
0
ARC
8
DEFAULT_255_1_234
10
23.3277274
20
61.0604509
40
0.2824501
50
331.4255242
51
352.9364833
0
ARC
8
DEFAULT_255_1_234
10
23.3413775
20
61.0573976
40
0.2685315
50
353.2248685
51
0.0169286
0
ARC
8
DEFAULT_255_1_234
10
23.3623652
20
61.059695
40
0.2475536
50
359.4866256
51
15.9339782
0
ARC
8
DEFAULT_255_1_234
10
23.4130637
20
61.0733286
40
0.1950618
50
16.1714718
51
43.5284424
0
ARC
8
DEFAULT_255_1_234
10
23.4207946
20
61.0810573
40
0.184134
50
43.4415429
51
83.1661404
0
ARC
8
DEFAULT_255_1_234
10
23.4073864
20
61.0073771
40
0.258926
50
82.160215
51
90.1505798
0
ARC
8
DEFAULT_255_1_234
10
23.4042291
20
60.9536865
40
0.3126255
50
89.5460705
51
102.5418777
0
ARC
8
DEFAULT_255_1_234
10
23.3799377
20
61.0567665
40
0.2067346
50
102.1739365
51
129.2061916
0
ARC
8
DEFAULT_255_1_234
10
23.3720449
20
61.0692094
40
0.1921118
50
129.7279328
51
135.7542026
0
ARC
8
DEFAULT_255_1_234
10
23.3841977
20
61.0595045
40
0.2075944
50
136.175737
51
166.3674722
0
ARC
8
DEFAULT_255_1_234
10
23.4848896
20
61.0325182
40
0.3118201
50
165.9092917
51
178.8683903
0
ARC
8
DEFAULT_255_1_234
10
23.5713757
20
61.0278179
40
0.3983935
50
178.438168
51
180.0083905
0
ARC
8
DEFAULT_255_1_234
10
23.4312359
20
61.0317231
40
0.4068601
50
163.2878735
51
180.5581814
0
ARC
8
DEFAULT_255_1_234
10
23.3510621
20
61.053784
40
0.3237344
50
133.454115
51
162.9470031
0
ARC
8
DEFAULT_255_1_234
10
23.3689162
20
61.0348
40
0.349795
50
100.7869394
51
133.4384016
0
ARC
8
DEFAULT_255_1_234
10
23.4036934
20
60.8799319
40
0.5084616
50
89.6605301
51
101.3704185
0
ARC
8
DEFAULT_255_1_234
10
23.4103273
20
60.8860496
40
0.502348
50
78.2171172
51
90.4130393
0
ARC
8
DEFAULT_255_1_234
10
23.4458351
20
61.0484637
40
0.3361092
50
55.9268222
51
78.4888551
0
ARC
8
DEFAULT_255_1_234
10
23.4654791
20
61.0823324
40
0.2970617
50
47.9292255
51
55.4054003
0
ARC
8
DEFAULT_255_1_234
10
23.4756352
20
61.0926502
40
0.2825983
50
4.3347696
51
48.0560701
0
ARC
8
DEFAULT_255_1_234
10
23.3660745
20
61.0756601
40
0.393225
50
359.925209
51
5.5967654
0
ARC
8
DEFAULT_255_1_234
10
23.4089637
20
61.0812816
40
0.3503892
50
337.8914096
51
358.9967724
0
ARC
8
DEFAULT_255_1_234
10
23.1376049
20
61.1859706
40
0.6412172
50
326.9135351
51
338.3505194
0
ARC
8
DEFAULT_255_1_234
10
22.7390353
20
61.4414284
40
1.1146189
50
319.6472867
51
327.095818
0
ARC
8
DEFAULT_255_1_234
10
22.3557356
20
61.7576
40
1.6114559
50
317.2586784
51
319.9046139
0
LINE
8
DEFAULT_255_1_234
10
24.2950162
20
60.7603026
11
24.2950162
21
60.6390234
0
LINE
8
DEFAULT_255_1_234
10
24.2950162
20
60.6390234
11
23.9030673
21
60.6390234
0
LINE
8
DEFAULT_255_1_234
10
23.9030673
20
60.6390234
11
23.9030673
21
60.7603026
0
LINE
8
DEFAULT_255_1_234
10
23.9030673
20
60.7603026
11
24.2950162
21
60.7603026
0
LINE
8
DEFAULT_255_1_234
10
23.5352137
20
69.3154433
11
23.5352137
21
68.1404
0
LINE
8
DEFAULT_255_1_234
10
23.5352137
20
68.1404
11
23.3858234
21
68.1404
0
LINE
8
DEFAULT_255_1_234
10
23.3858234
20
68.1404
11
23.3858234
21
69.1307133
0
LINE
8
DEFAULT_255_1_234
10
23.3858234
20
69.1307133
11
23.0862396
21
69.0206785
0
LINE
8
DEFAULT_255_1_234
10
23.0862396
20
69.0206785
11
23.0862396
21
69.1556117
0
LINE
8
DEFAULT_255_1_234
10
23.0862396
20
69.1556117
11
23.5119217
21
69.3154433
0
LINE
8
DEFAULT_255_1_234
10
23.5119217
20
69.3154433
11
23.5352137
21
69.3154433
0
LINE
8
DEFAULT_255_1_234
10
24.2950162
20
68.6978026
11
24.2950162
21
68.5765234
0
LINE
8
DEFAULT_255_1_234
10
24.2950162
20
68.5765234
11
23.9030673
21
68.5765234
0
LINE
8
DEFAULT_255_1_234
10
23.9030673
20
68.5765234
11
23.9030673
21
68.6978026
0
LINE
8
DEFAULT_255_1_234
10
23.9030673
20
68.6978026
11
24.2950162
21
68.6978026
0
LINE
8
DEFAULT_255_1_234
10
23.3617119
20
76.1991792
11
23.3617119
21
76.0779
0
LINE
8
DEFAULT_255_1_234
10
23.3617119
20
76.0779
11
22.595484
21
76.0779
0
LINE
8
DEFAULT_255_1_234
10
22.595484
20
76.0779
11
22.595484
21
76.1847221
0
LINE
8
DEFAULT_255_1_234
10
22.595484
20
76.1847221
11
23.0002836
21
76.6344995
0
LINE
8
DEFAULT_255_1_234
10
22.7215823
20
76.9027595
11
22.5729952
21
76.9027595
0
LINE
8
DEFAULT_255_1_234
10
23.0878296
20
76.5389218
11
22.7745918
21
76.1991792
0
LINE
8
DEFAULT_255_1_234
10
22.7745918
20
76.1991792
11
23.3617119
21
76.1991792
0
ARC
8
DEFAULT_255_1_234
10
21.651267
20
77.8274527
40
1.8008286
50
318.5132453
51
320.7828378
0
ARC
8
DEFAULT_255_1_234
10
22.1799644
20
77.3971426
40
1.1191493
50
320.7372736
51
323.9737074
0
ARC
8
DEFAULT_255_1_234
10
22.5719501
20
77.1131361
40
0.6350923
50
323.8961724
51
328.6421089
0
ARC
8
DEFAULT_255_1_234
10
22.7766096
20
76.9869031
40
0.3946393
50
328.8299013
51
331.789948
0
ARC
8
DEFAULT_255_1_234
10
22.8763274
20
76.9354509
40
0.2824501
50
331.4255242
51
352.9364833
0
ARC
8
DEFAULT_255_1_234
10
22.8899775
20
76.9323976
40
0.2685315
50
353.2248685
51
0.0169286
0
ARC
8
DEFAULT_255_1_234
10
22.9109652
20
76.934695
40
0.2475536
50
359.4866256
51
15.9339782
0
ARC
8
DEFAULT_255_1_234
10
22.9616637
20
76.9483286
40
0.1950618
50
16.1714718
51
43.5284424
0
ARC
8
DEFAULT_255_1_234
10
22.9693946
20
76.9560573
40
0.184134
50
43.4415429
51
83.1661404
0
ARC
8
DEFAULT_255_1_234
10
22.9559864
20
76.8823771
40
0.258926
50
82.160215
51
90.1505798
0
ARC
8
DEFAULT_255_1_234
10
22.9528291
20
76.8286865
40
0.3126255
50
89.5460705
51
102.5418777
0
ARC
8
DEFAULT_255_1_234
10
22.9285377
20
76.9317665
40
0.2067346
50
102.1739365
51
129.2061916
0
ARC
8
DEFAULT_255_1_234
10
22.9206449
20
76.9442094
40
0.1921118
50
129.7279328
51
135.7542026
0
ARC
8
DEFAULT_255_1_234
10
22.9327977
20
76.9345045
40
0.2075944
50
136.175737
51
166.3674722
0
ARC
8
DEFAULT_255_1_234
10
23.0334896
20
76.9075182
40
0.3118201
50
165.9092917
51
178.8683903
0
ARC
8
DEFAULT_255_1_234
10
23.1199757
20
76.9028179
40
0.3983935
50
178.438168
51
180.0083905
0
ARC
8
DEFAULT_255_1_234
10
22.9798359
20
76.9067231
40
0.4068601
50
163.2878735
51
180.5581814
0
ARC
8
DEFAULT_255_1_234
10
22.8996621
20
76.928784
40
0.3237344
50
133.454115
51
162.9470031
0
ARC
8
DEFAULT_255_1_234
10
22.9175162
20
76.9098
40
0.349795
50
100.7869394
51
133.4384016
0
ARC
8
DEFAULT_255_1_234
10
22.9522934
20
76.7549319
40
0.5084616
50
89.6605301
51
101.3704185
0
ARC
8
DEFAULT_255_1_234
10
22.9589273
20
76.7610496
40
0.502348
50
78.2171172
51
90.4130393
0
ARC
8
DEFAULT_255_1_234
10
22.9944351
20
76.9234637
40
0.3361092
50
55.9268222
51
78.4888551
0
ARC
8
DEFAULT_255_1_234
10
23.0140791
20
76.9573324
40
0.2970617
50
47.9292255
51
55.4054003
0
ARC
8
DEFAULT_255_1_234
10
23.0242352
20
76.9676502
40
0.2825983
50
4.3347696
51
48.0560701
0
ARC
8
DEFAULT_255_1_234
10
22.9146745
20
76.9506601
40
0.393225
50
359.925209
51
5.5967654
0
ARC
8
DEFAULT_255_1_234
10
22.9575637
20
76.9562816
40
0.3503892
50
337.8914096
51
358.9967724
0
ARC
8
DEFAULT_255_1_234
10
22.6862049
20
77.0609706
40
0.6412172
50
326.9135351
51
338.3505194
0
ARC
8
DEFAULT_255_1_234
10
22.2876353
20
77.3164284
40
1.1146189
50
319.6472867
51
327.095818
0
ARC
8
DEFAULT_255_1_234
10
21.9043356
20
77.6326
40
1.6114559
50
317.2586784
51
319.9046139
0
LINE
8
DEFAULT_255_1_234
10
23.9600764
20
77.0465276
11
23.9600764
21
76.7051788
0
LINE
8
DEFAULT_255_1_234
10
23.9600764
20
76.7051788
11
24.2861649
21
76.7051788
0
LINE
8
DEFAULT_255_1_234
10
24.2861649
20
76.7051788
11
24.2861649
21
76.5646233
0
LINE
8
DEFAULT_255_1_234
10
24.2861649
20
76.5646233
11
23.9600764
21
76.5646233
0
LINE
8
DEFAULT_255_1_234
10
23.9600764
20
76.5646233
11
23.9600764
21
76.1951634
0
LINE
8
DEFAULT_255_1_234
10
23.9600764
20
76.1951634
11
23.810686
21
76.1951634
0
LINE
8
DEFAULT_255_1_234
10
23.810686
20
76.1951634
11
23.810686
21
76.5646233
0
LINE
8
DEFAULT_255_1_234
10
23.810686
20
76.5646233
11
23.4845975
21
76.5646233
0
LINE
8
DEFAULT_255_1_234
10
23.4845975
20
76.5646233
11
23.4845975
21
76.7051788
0
LINE
8
DEFAULT_255_1_234
10
23.4845975
20
76.7051788
11
23.810686
21
76.7051788
0
LINE
8
DEFAULT_255_1_234
10
23.810686
20
76.7051788
11
23.810686
21
77.0465276
0
LINE
8
DEFAULT_255_1_234
10
23.810686
20
77.0465276
11
23.9600764
21
77.0465276
0
LINE
8
DEFAULT_255_1_234
10
23.0838137
20
85.1904433
11
23.0838137
21
84.0154
0
LINE
8
DEFAULT_255_1_234
10
23.0838137
20
84.0154
11
22.9344234
21
84.0154
0
LINE
8
DEFAULT_255_1_234
10
22.9344234
20
84.0154
11
22.9344234
21
85.0057133
0
LINE
8
DEFAULT_255_1_234
10
22.9344234
20
85.0057133
11
22.6348396
21
84.8956785
0
LINE
8
DEFAULT_255_1_234
10
22.6348396
20
84.8956785
11
22.6348396
21
85.0306117
0
LINE
8
DEFAULT_255_1_234
10
22.6348396
20
85.0306117
11
23.0605217
21
85.1904433
0
LINE
8
DEFAULT_255_1_234
10
23.0605217
20
85.1904433
11
23.0838137
21
85.1904433
0
LINE
8
DEFAULT_255_1_234
10
23.9600764
20
84.9840276
11
23.9600764
21
84.6426788
0
LINE
8
DEFAULT_255_1_234
10
23.9600764
20
84.6426788
11
24.2861649
21
84.6426788
0
LINE
8
DEFAULT_255_1_234
10
24.2861649
20
84.6426788
11
24.2861649
21
84.5021233
0
LINE
8
DEFAULT_255_1_234
10
24.2861649
20
84.5021233
11
23.9600764
21
84.5021233
0
LINE
8
DEFAULT_255_1_234
10
23.9600764
20
84.5021233
11
23.9600764
21
84.1326634
0
LINE
8
DEFAULT_255_1_234
10
23.9600764
20
84.1326634
11
23.810686
21
84.1326634
0
LINE
8
DEFAULT_255_1_234
10
23.810686
20
84.1326634
11
23.810686
21
84.5021233
0
LINE
8
DEFAULT_255_1_234
10
23.810686
20
84.5021233
11
23.4845975
21
84.5021233
0
LINE
8
DEFAULT_255_1_234
10
23.4845975
20
84.5021233
11
23.4845975
21
84.6426788
0
LINE
8
DEFAULT_255_1_234
10
23.4845975
20
84.6426788
11
23.810686
21
84.6426788
0
LINE
8
DEFAULT_255_1_234
10
23.810686
20
84.6426788
11
23.810686
21
84.9840276
0
LINE
8
DEFAULT_255_1_234
10
23.810686
20
84.9840276
11
23.9600764
21
84.9840276
0
LINE
8
DEFAULT_255_1_234
10
21.2056119
20
92.0741792
11
21.2056119
21
91.9529
0
LINE
8
DEFAULT_255_1_234
10
21.2056119
20
91.9529
11
20.439384
21
91.9529
0
LINE
8
DEFAULT_255_1_234
10
20.439384
20
91.9529
11
20.439384
21
92.0597221
0
LINE
8
DEFAULT_255_1_234
10
20.439384
20
92.0597221
11
20.8441836
21
92.5094995
0
LINE
8
DEFAULT_255_1_234
10
20.5654823
20
92.7777595
11
20.4168952
21
92.7777595
0
LINE
8
DEFAULT_255_1_234
10
20.9317296
20
92.4139218
11
20.6184918
21
92.0741792
0
LINE
8
DEFAULT_255_1_234
10
20.6184918
20
92.0741792
11
21.2056119
21
92.0741792
0
ARC
8
DEFAULT_255_1_234
10
19.495167
20
93.7024527
40
1.8008286
50
318.5132453
51
320.7828378
0
ARC
8
DEFAULT_255_1_234
10
20.0238644
20
93.2721426
40
1.1191493
50
320.7372736
51
323.9737074
0
ARC
8
DEFAULT_255_1_234
10
20.4158501
20
92.9881361
40
0.6350923
50
323.8961724
51
328.6421089
0
ARC
8
DEFAULT_255_1_234
10
20.6205096
20
92.8619031
40
0.3946393
50
328.8299013
51
331.789948
0
ARC
8
DEFAULT_255_1_234
10
20.7202274
20
92.8104509
40
0.2824501
50
331.4255242
51
352.9364833
0
ARC
8
DEFAULT_255_1_234
10
20.7338775
20
92.8073976
40
0.2685315
50
353.2248685
51
0.0169286
0
ARC
8
DEFAULT_255_1_234
10
20.7548652
20
92.809695
40
0.2475536
50
359.4866256
51
15.9339782
0
ARC
8
DEFAULT_255_1_234
10
20.8055637
20
92.8233286
40
0.1950618
50
16.1714718
51
43.5284424
0
ARC
8
DEFAULT_255_1_234
10
20.8132946
20
92.8310573
40
0.184134
50
43.4415429
51
83.1661404
0
ARC
8
DEFAULT_255_1_234
10
20.7998864
20
92.7573771
40
0.258926
50
82.160215
51
90.1505798
0
ARC
8
DEFAULT_255_1_234
10
20.7967291
20
92.7036865
40
0.3126255
50
89.5460705
51
102.5418777
0
ARC
8
DEFAULT_255_1_234
10
20.7724377
20
92.8067665
40
0.2067346
50
102.1739365
51
129.2061916
0
ARC
8
DEFAULT_255_1_234
10
20.7645449
20
92.8192094
40
0.1921118
50
129.7279328
51
135.7542026
0
ARC
8
DEFAULT_255_1_234
10
20.7766977
20
92.8095045
40
0.2075944
50
136.175737
51
166.3674722
0
ARC
8
DEFAULT_255_1_234
10
20.8773896
20
92.7825182
40
0.3118201
50
165.9092917
51
178.8683903
0
ARC
8
DEFAULT_255_1_234
10
20.9638757
20
92.7778179
40
0.3983935
50
178.438168
51
180.0083905
0
ARC
8
DEFAULT_255_1_234
10
20.8237359
20
92.7817231
40
0.4068601
50
163.2878735
51
180.5581814
0
ARC
8
DEFAULT_255_1_234
10
20.7435621
20
92.803784
40
0.3237344
50
133.454115
51
162.9470031
0
ARC
8
DEFAULT_255_1_234
10
20.7614162
20
92.7848
40
0.349795
50
100.7869394
51
133.4384016
0
ARC
8
DEFAULT_255_1_234
10
20.7961934
20
92.6299319
40
0.5084616
50
89.6605301
51
101.3704185
0
ARC
8
DEFAULT_255_1_234
10
20.8028273
20
92.6360496
40
0.502348
50
78.2171172
51
90.4130393
0
ARC
8
DEFAULT_255_1_234
10
20.8383351
20
92.7984637
40
0.3361092
50
55.9268222
51
78.4888551
0
ARC
8
DEFAULT_255_1_234
10
20.8579791
20
92.8323324
40
0.2970617
50
47.9292255
51
55.4054003
0
ARC
8
DEFAULT_255_1_234
10
20.8681352
20
92.8426502
40
0.2825983
50
4.3347696
51
48.0560701
0
ARC
8
DEFAULT_255_1_234
10
20.7585745
20
92.8256601
40
0.393225
50
359.925209
51
5.5967654
0
ARC
8
DEFAULT_255_1_234
10
20.8014637
20
92.8312816
40
0.3503892
50
337.8914096
51
358.9967724
0
ARC
8
DEFAULT_255_1_234
10
20.5301049
20
92.9359706
40
0.6412172
50
326.9135351
51
338.3505194
0
ARC
8
DEFAULT_255_1_234
10
20.1315353
20
93.1914284
40
1.1146189
50
319.6472867
51
327.095818
0
ARC
8
DEFAULT_255_1_234
10
19.7482356
20
93.5076
40
1.6114559
50
317.2586784
51
319.9046139
0
LINE
8
DEFAULT_255_1_234
10
22.1774522
20
92.7841849
11
22.0224396
21
92.7841849
0
LINE
8
DEFAULT_255_1_234
10
21.3301038
20
92.2918394
11
21.4851164
21
92.2918394
0
ARC
8
DEFAULT_255_1_234
10
22.0883209
20
93.6788768
40
1.252368
50
248.9199003
51
254.1439814
0
ARC
8
DEFAULT_255_1_234
10
21.9202704
20
93.2462234
40
0.788226
50
241.633709
51
249.0064503
0
ARC
8
DEFAULT_255_1_234
10
21.7674099
20
92.9661317
40
0.4691427
50
230.498225
51
241.8087113
0
ARC
8
DEFAULT_255_1_234
10
21.6889673
20
92.8661906
40
0.3421437
50
227.4064532
51
229.9881192
0
ARC
8
DEFAULT_255_1_234
10
21.6402193
20
92.8186088
40
0.2741476
50
200.6781896
51
228.1763934
0
ARC
8
DEFAULT_255_1_234
10
21.6474504
20
92.8171077
40
0.2804109
50
179.5061581
51
199.8694617
0
ARC
8
DEFAULT_255_1_234
10
21.6465256
20
92.824521
40
0.2795204
50
132.4834203
51
181.0242172
0
ARC
8
DEFAULT_255_1_234
10
21.7060838
20
92.7682704
40
0.3612768
50
129.2532479
51
133.4242687
0
ARC
8
DEFAULT_255_1_234
10
21.7207288
20
92.7462965
40
0.3875675
50
101.98776
51
128.8742646
0
ARC
8
DEFAULT_255_1_234
10
21.7605898
20
92.5741741
40
0.5642249
50
89.5906553
51
102.3169264
0
ARC
8
DEFAULT_255_1_234
10
21.7676391
20
92.6060148
40
0.5323783
50
77.2360837
51
90.3248275
0
ARC
8
DEFAULT_255_1_234
10
21.788347
20
92.70274
40
0.4334697
50
63.837784
51
77.0809408
0
ARC
8
DEFAULT_255_1_234
10
21.8161231
20
92.7544911
40
0.3747796
50
45.9864267
51
64.1607727
0
ARC
8
DEFAULT_255_1_234
10
21.8422113
20
92.7842866
40
0.3352302
50
32.2747395
51
45.6547121
0
ARC
8
DEFAULT_255_1_234
10
21.8488553
20
92.786188
40
0.328603
50
359.6507365
51
32.6130309
0
ARC
8
DEFAULT_255_1_234
10
21.7545649
20
92.786666
40
0.2678863
50
359.469343
51
14.9832209
0
ARC
8
DEFAULT_255_1_234
10
21.8250711
20
92.8055539
40
0.1948938
50
14.9781179
51
48.2004265
0
ARC
8
DEFAULT_255_1_234
10
21.8086355
20
92.7848983
40
0.2212521
50
48.5927837
51
74.1241538
0
ARC
8
DEFAULT_255_1_234
10
21.7752845
20
92.6748248
40
0.3362561
50
73.7888341
51
86.6652678
0
ARC
8
DEFAULT_255_1_234
10
21.765041
20
92.5540881
40
0.4573953
50
86.2640471
51
90.0526343
0
ARC
8
DEFAULT_255_1_234
10
21.7622123
20
92.5936192
40
0.4178709
50
89.6697524
51
99.2309573
0
ARC
8
DEFAULT_255_1_234
10
21.7379574
20
92.7380964
40
0.2713749
50
99.069534
51
113.7658566
0
ARC
8
DEFAULT_255_1_234
10
21.7105765
20
92.8026677
40
0.2012469
50
114.0401004
51
127.9850673
0
ARC
8
DEFAULT_255_1_234
10
21.6865329
20
92.832273
40
0.1631167
50
127.7287463
51
176.7105154
0
ARC
8
DEFAULT_255_1_234
10
21.7544046
20
92.8221693
40
0.2315392
50
175.1779447
51
180.0581938
0
ARC
8
DEFAULT_255_1_234
10
21.6700893
20
92.8209428
40
0.1472271
50
179.6142195
51
228.1246017
0
ARC
8
DEFAULT_255_1_234
10
21.7142562
20
92.8618308
40
0.2072299
50
226.5779593
51
230.8800004
0
ARC
8
DEFAULT_255_1_234
10
21.761364
20
92.9243636
40
0.2854818
50
231.4635071
51
241.9260842
0
ARC
8
DEFAULT_255_1_234
10
21.8810818
20
93.14468
40
0.53622
50
241.7178533
51
248.3259551
0
ARC
8
DEFAULT_255_1_234
10
22.019619
20
93.4879064
40
0.9063478
50
248.2007737
51
252.4528373
0
ARC
8
DEFAULT_255_1_234
10
22.1399915
20
93.8600441
40
1.2974635
50
252.3391078
51
254.3469452
0
ARC
8
DEFAULT_255_1_234
10
21.3857618
20
91.1623148
40
1.5037162
50
71.0197183
51
74.4087047
0
ARC
8
DEFAULT_255_1_234
10
21.5552303
20
91.6515111
40
0.9859993
50
66.1847285
51
71.086374
0
ARC
8
DEFAULT_255_1_234
10
21.7108615
20
92.00192
40
0.6025855
50
59.3536294
51
66.2691831
0
ARC
8
DEFAULT_255_1_234
10
21.7997268
20
92.1522609
40
0.4279449
50
49.1020879
51
59.3293958
0
ARC
8
DEFAULT_255_1_234
10
21.8816008
20
92.2455834
40
0.3038015
50
32.7919921
51
49.2505539
0
ARC
8
DEFAULT_255_1_234
10
21.9137098
20
92.2684191
40
0.264448
50
31.1181161
51
32.4005348
0
ARC
8
DEFAULT_255_1_234
10
21.9048635
20
92.2648779
40
0.2738556
50
8.1116974
51
30.7958831
0
ARC
8
DEFAULT_255_1_234
10
21.8238303
20
92.2510753
40
0.3560327
50
359.8389159
51
8.4706516
0
ARC
8
DEFAULT_255_1_234
10
21.8864095
20
92.2462137
40
0.2934776
50
337.4731098
51
0.7537279
0
ARC
8
DEFAULT_255_1_234
10
21.904279
20
92.2442387
40
0.2762607
50
307.5917067
51
336.4315538
0
ARC
8
DEFAULT_255_1_234
10
21.8582618
20
92.2955102
40
0.3449979
50
307.6551545
51
308.4529766
0
ARC
8
DEFAULT_255_1_234
10
21.8352337
20
92.331025
40
0.3871988
50
284.3734338
51
307.1424381
0
ARC
8
DEFAULT_255_1_234
10
21.7857167
20
92.5131932
40
0.5759636
50
272.4382747
51
284.646547
0
ARC
8
DEFAULT_255_1_234
10
21.7730375
20
92.6931893
40
0.7563528
50
269.9708387
51
272.8178037
0
ARC
8
DEFAULT_255_1_234
10
21.7687415
20
92.4893716
40
0.5525489
50
248.2707594
51
270.4055579
0
ARC
8
DEFAULT_255_1_234
10
21.7633156
20
92.4703192
40
0.5328452
50
246.1383403
51
248.0542782
0
ARC
8
DEFAULT_255_1_234
10
21.7214535
20
92.3823843
40
0.4355005
50
233.1670131
51
246.4950969
0
ARC
8
DEFAULT_255_1_234
10
21.666044
20
92.3075812
40
0.3424126
50
215.3403242
51
233.0843104
0
ARC
8
DEFAULT_255_1_234
10
21.6387871
20
92.2877549
40
0.3087104
50
179.2419209
51
215.2648451
0
ARC
8
DEFAULT_255_1_234
10
21.7155465
20
92.2891666
40
0.2304457
50
179.335461
51
199.1045811
0
ARC
8
DEFAULT_255_1_234
10
21.6823142
20
92.2804766
40
0.1962176
50
199.8828939
51
232.7063202
0
ARC
8
DEFAULT_255_1_234
10
21.729541
20
92.3398788
40
0.2720938
50
232.3738199
51
255.5136649
0
ARC
8
DEFAULT_255_1_234
10
21.7636277
20
92.4642835
40
0.4010747
50
255.2446292
51
267.5320849
0
ARC
8
DEFAULT_255_1_234
10
21.77239
20
92.5875702
40
0.5246356
50
267.1557994
51
270.0286766
0
ARC
8
DEFAULT_255_1_234
10
21.7751672
20
92.543195
40
0.4802668
50
269.7000017
51
278.1660162
0
ARC
8
DEFAULT_255_1_234
10
21.8007677
20
92.3701515
40
0.3053425
50
278.0231263
51
290.625471
0
ARC
8
DEFAULT_255_1_234
10
21.8355364
20
92.2774025
40
0.206291
50
290.6619762
51
307.0370976
0
ARC
8
DEFAULT_255_1_234
10
21.8655754
20
92.2405504
40
0.1587906
50
306.3943566
51
355.3030547
0
ARC
8
DEFAULT_255_1_234
10
21.8143685
20
92.2482113
40
0.2104809
50
354.3660432
51
0.0698737
0
ARC
8
DEFAULT_255_1_234
10
21.828603
20
92.2504617
40
0.1962563
50
359.417946
51
16.1971788
0
ARC
8
DEFAULT_255_1_234
10
21.874134
20
92.2629418
40
0.149053
50
16.4723299
51
52.6262157
0
ARC
8
DEFAULT_255_1_234
10
21.7920394
20
92.1545433
40
0.2850296
50
52.7386432
51
62.4979148
0
ARC
8
DEFAULT_255_1_234
10
21.6535471
20
91.8939283
40
0.5801521
50
62.2515216
51
68.1220564
0
ARC
8
DEFAULT_255_1_234
10
21.4815382
20
91.4711872
40
1.0365451
50
68.0062803
51
71.8053402
0
ARC
8
DEFAULT_255_1_234
10
21.3019754
20
90.9326758
40
1.6042013
50
71.7183119
51
73.9258742
0
LINE
8
DEFAULT_255_1_234
10
22.532455
20
93.1223211
11
22.532455
21
92.0789983
0
LINE
8
DEFAULT_255_1_234
10
22.532455
20
92.0789983
11
23.086645
21
92.0789983
0
LINE
8
DEFAULT_255_1_234
10
23.086645
20
92.0789983
11
23.086645
21
91.9529
0
LINE
8
DEFAULT_255_1_234
10
23.086645
20
91.9529
11
22.3774425
21
91.9529
0
LINE
8
DEFAULT_255_1_234
10
22.3774425
20
91.9529
11
22.3774425
21
93.1223211
0
LINE
8
DEFAULT_255_1_234
10
22.3774425
20
93.1223211
11
22.532455
21
93.1223211
0
LINE
8
DEFAULT_255_1_234
10
23.5862191
20
91.9529
11
23.26254
21
91.9529
0
LINE
8
DEFAULT_255_1_234
10
23.26254
20
91.9529
11
23.26254
21
93.1223211
0
LINE
8
DEFAULT_255_1_234
10
23.26254
20
93.1223211
11
23.5926445
21
93.1223211
0
LINE
8
DEFAULT_255_1_234
10
24.1082821
20
92.5769661
11
24.1082821
21
92.5022709
0
LINE
8
DEFAULT_255_1_234
10
23.5966604
20
92.9954196
11
23.4167494
21
92.9954196
0
LINE
8
DEFAULT_255_1_234
10
23.4167494
20
92.9954196
11
23.4167494
21
92.0789983
0
LINE
8
DEFAULT_255_1_234
10
23.4167494
20
92.0789983
11
23.5789905
21
92.0789983
0
LINE
8
DEFAULT_255_1_234
10
23.9556791
20
92.5054836
11
23.9556791
21
92.5737534
0
ARC
8
DEFAULT_255_1_234
10
23.5965387
20
92.5357894
40
0.5865446
50
75.4101064
51
90.3804066
0
ARC
8
DEFAULT_255_1_234
10
23.6194901
20
92.6314492
40
0.4881916
50
60.145586
51
75.1888407
0
ARC
8
DEFAULT_255_1_234
10
23.6353676
20
92.6591199
40
0.4562893
50
26.5253612
51
60.1450928
0
ARC
8
DEFAULT_255_1_234
10
23.5233426
20
92.5997158
40
0.5830602
50
7.4030428
51
26.8320788
0
ARC
8
DEFAULT_255_1_234
10
23.3639182
20
92.5748804
40
0.7443669
50
0.1605367
51
7.7176192
0
ARC
8
DEFAULT_255_1_234
10
23.3803087
20
92.4984434
40
0.7279835
50
348.7289388
51
0.3012466
0
ARC
8
DEFAULT_255_1_234
10
23.5459517
20
92.4655386
40
0.559104
50
333.0706509
51
348.7181832
0
ARC
8
DEFAULT_255_1_234
10
23.6426275
20
92.4130319
40
0.4491417
50
299.2531685
51
333.4571258
0
ARC
8
DEFAULT_255_1_234
10
23.6065415
20
92.4815828
40
0.5265881
50
278.107187
51
299.0339503
0
ARC
8
DEFAULT_255_1_234
10
23.5809493
20
92.6323216
40
0.679442
50
270.4443897
51
278.4511052
0
ARC
8
DEFAULT_255_1_234
10
23.5830323
20
92.5394213
40
0.4604407
50
269.4970433
51
284.0205042
0
ARC
8
DEFAULT_255_1_234
10
23.6185624
20
92.4028978
40
0.3193797
50
283.7700273
51
318.1555492
0
ARC
8
DEFAULT_255_1_234
10
23.5848383
20
92.4281367
40
0.3613588
50
318.7415601
51
343.6873628
0
ARC
8
DEFAULT_255_1_234
10
23.4044406
20
92.4844832
40
0.5503313
50
343.3325091
51
355.8548958
0
ARC
8
DEFAULT_255_1_234
10
23.194609
20
92.5044319
40
0.7610708
50
355.4988528
51
0.0791727
0
ARC
8
DEFAULT_255_1_234
10
23.2728713
20
92.577978
40
0.6828208
50
359.6455037
51
9.8607896
0
ARC
8
DEFAULT_255_1_234
10
23.5089411
20
92.6206099
40
0.4429406
50
9.6571907
51
26.1932807
0
ARC
8
DEFAULT_255_1_234
10
23.6017399
20
92.6637118
40
0.3406537
50
26.5777228
51
40.1532208
0
ARC
8
DEFAULT_255_1_234
10
23.6273126
20
92.6836619
40
0.308246
50
40.3840491
51
80.1431104
0
ARC
8
DEFAULT_255_1_234
10
23.5946243
20
92.5387333
40
0.4566909
50
79.2152159
51
89.7445637
0
LINE
8
DEFAULT_255_1_234
10
20.9277137
20
101.0654433
11
20.9277137
21
99.8904
0
LINE
8
DEFAULT_255_1_234
10
20.9277137
20
99.8904
11
20.7783234
21
99.8904
0
LINE
8
DEFAULT_255_1_234
10
20.7783234
20
99.8904
11
20.7783234
21
100.8807133
0
LINE
8
DEFAULT_255_1_234
10
20.7783234
20
100.8807133
11
20.4787396
21
100.7706785
0
LINE
8
DEFAULT_255_1_234
10
20.4787396
20
100.7706785
11
20.4787396
21
100.9056117
0
LINE
8
DEFAULT_255_1_234
10
20.4787396
20
100.9056117
11
20.9044217
21
101.0654433
0
LINE
8
DEFAULT_255_1_234
10
20.9044217
20
101.0654433
11
20.9277137
21
101.0654433
0
LINE
8
DEFAULT_255_1_234
10
22.1774522
20
100.7216849
11
22.0224396
21
100.7216849
0
LINE
8
DEFAULT_255_1_234
10
21.3301038
20
100.2293394
11
21.4851164
21
100.2293394
0
ARC
8
DEFAULT_255_1_234
10
22.0883209
20
101.6163768
40
1.252368
50
248.9199003
51
254.1439814
0
ARC
8
DEFAULT_255_1_234
10
21.9202704
20
101.1837234
40
0.788226
50
241.633709
51
249.0064503
0
ARC
8
DEFAULT_255_1_234
10
21.7674099
20
100.9036317
40
0.4691427
50
230.498225
51
241.8087113
0
ARC
8
DEFAULT_255_1_234
10
21.6889673
20
100.8036906
40
0.3421437
50
227.4064532
51
229.9881192
0
ARC
8
DEFAULT_255_1_234
10
21.6402193
20
100.7561088
40
0.2741476
50
200.6781896
51
228.1763934
0
ARC
8
DEFAULT_255_1_234
10
21.6474504
20
100.7546077
40
0.2804109
50
179.5061581
51
199.8694617
0
ARC
8
DEFAULT_255_1_234
10
21.6465256
20
100.762021
40
0.2795204
50
132.4834203
51
181.0242172
0
ARC
8
DEFAULT_255_1_234
10
21.7060838
20
100.7057704
40
0.3612768
50
129.2532479
51
133.4242687
0
ARC
8
DEFAULT_255_1_234
10
21.7207288
20
100.6837965
40
0.3875675
50
101.98776
51
128.8742646
0
ARC
8
DEFAULT_255_1_234
10
21.7605898
20
100.5116741
40
0.5642249
50
89.5906553
51
102.3169264
0
ARC
8
DEFAULT_255_1_234
10
21.7676391
20
100.5435148
40
0.5323783
50
77.2360837
51
90.3248275
0
ARC
8
DEFAULT_255_1_234
10
21.788347
20
100.64024
40
0.4334697
50
63.837784
51
77.0809408
0
ARC
8
DEFAULT_255_1_234
10
21.8161231
20
100.6919911
40
0.3747796
50
45.9864267
51
64.1607727
0
ARC
8
DEFAULT_255_1_234
10
21.8422113
20
100.7217866
40
0.3352302
50
32.2747395
51
45.6547121
0
ARC
8
DEFAULT_255_1_234
10
21.8488553
20
100.723688
40
0.328603
50
359.6507365
51
32.6130309
0
ARC
8
DEFAULT_255_1_234
10
21.7545649
20
100.724166
40
0.2678863
50
359.469343
51
14.9832209
0
ARC
8
DEFAULT_255_1_234
10
21.8250711
20
100.7430539
40
0.1948938
50
14.9781179
51
48.2004265
0
ARC
8
DEFAULT_255_1_234
10
21.8086355
20
100.7223983
40
0.2212521
50
48.5927837
51
74.1241538
0
ARC
8
DEFAULT_255_1_234
10
21.7752845
20
100.6123248
40
0.3362561
50
73.7888341
51
86.6652678
0
ARC
8
DEFAULT_255_1_234
10
21.765041
20
100.4915881
40
0.4573953
50
86.2640471
51
90.0526343
0
ARC
8
DEFAULT_255_1_234
10
21.7622123
20
100.5311192
40
0.4178709
50
89.6697524
51
99.2309573
0
ARC
8
DEFAULT_255_1_234
10
21.7379574
20
100.6755964
40
0.2713749
50
99.069534
51
113.7658566
0
ARC
8
DEFAULT_255_1_234
10
21.7105765
20
100.7401677
40
0.2012469
50
114.0401004
51
127.9850673
0
ARC
8
DEFAULT_255_1_234
10
21.6865329
20
100.769773
40
0.1631167
50
127.7287463
51
176.7105154
0
ARC
8
DEFAULT_255_1_234
10
21.7544046
20
100.7596693
40
0.2315392
50
175.1779447
51
180.0581938
0
ARC
8
DEFAULT_255_1_234
10
21.6700893
20
100.7584428
40
0.1472271
50
179.6142195
51
228.1246017
0
ARC
8
DEFAULT_255_1_234
10
21.7142562
20
100.7993308
40
0.2072299
50
226.5779593
51
230.8800004
0
ARC
8
DEFAULT_255_1_234
10
21.761364
20
100.8618636
40
0.2854818
50
231.4635071
51
241.9260842
0
ARC
8
DEFAULT_255_1_234
10
21.8810818
20
101.08218
40
0.53622
50
241.7178533
51
248.3259551
0
ARC
8
DEFAULT_255_1_234
10
22.019619
20
101.4254064
40
0.9063478
50
248.2007737
51
252.4528373
0
ARC
8
DEFAULT_255_1_234
10
22.1399915
20
101.7975441
40
1.2974635
50
252.3391078
51
254.3469452
0
ARC
8
DEFAULT_255_1_234
10
21.3857618
20
99.0998148
40
1.5037162
50
71.0197183
51
74.4087047
0
ARC
8
DEFAULT_255_1_234
10
21.5552303
20
99.5890111
40
0.9859993
50
66.1847285
51
71.086374
0
ARC
8
DEFAULT_255_1_234
10
21.7108615
20
99.93942
40
0.6025855
50
59.3536294
51
66.2691831
0
ARC
8
DEFAULT_255_1_234
10
21.7997268
20
100.0897609
40
0.4279449
50
49.1020879
51
59.3293958
0
ARC
8
DEFAULT_255_1_234
10
21.8816008
20
100.1830834
40
0.3038015
50
32.7919921
51
49.2505539
0
ARC
8
DEFAULT_255_1_234
10
21.9137098
20
100.2059191
40
0.264448
50
31.1181161
51
32.4005348
0
ARC
8
DEFAULT_255_1_234
10
21.9048635
20
100.2023779
40
0.2738556
50
8.1116974
51
30.7958831
0
ARC
8
DEFAULT_255_1_234
10
21.8238303
20
100.1885753
40
0.3560327
50
359.8389159
51
8.4706516
0
ARC
8
DEFAULT_255_1_234
10
21.8864095
20
100.1837137
40
0.2934776
50
337.4731098
51
0.7537279
0
ARC
8
DEFAULT_255_1_234
10
21.904279
20
100.1817387
40
0.2762607
50
307.5917067
51
336.4315538
0
ARC
8
DEFAULT_255_1_234
10
21.8582618
20
100.2330102
40
0.3449979
50
307.6551545
51
308.4529766
0
ARC
8
DEFAULT_255_1_234
10
21.8352337
20
100.268525
40
0.3871988
50
284.3734338
51
307.1424381
0
ARC
8
DEFAULT_255_1_234
10
21.7857167
20
100.4506932
40
0.5759636
50
272.4382747
51
284.646547
0
ARC
8
DEFAULT_255_1_234
10
21.7730375
20
100.6306893
40
0.7563528
50
269.9708387
51
272.8178037
0
ARC
8
DEFAULT_255_1_234
10
21.7687415
20
100.4268716
40
0.5525489
50
248.2707594
51
270.4055579
0
ARC
8
DEFAULT_255_1_234
10
21.7633156
20
100.4078192
40
0.5328452
50
246.1383403
51
248.0542782
0
ARC
8
DEFAULT_255_1_234
10
21.7214535
20
100.3198843
40
0.4355005
50
233.1670131
51
246.4950969
0
ARC
8
DEFAULT_255_1_234
10
21.666044
20
100.2450812
40
0.3424126
50
215.3403242
51
233.0843104
0
ARC
8
DEFAULT_255_1_234
10
21.6387871
20
100.2252549
40
0.3087104
50
179.2419209
51
215.2648451
0
ARC
8
DEFAULT_255_1_234
10
21.7155465
20
100.2266666
40
0.2304457
50
179.335461
51
199.1045811
0
ARC
8
DEFAULT_255_1_234
10
21.6823142
20
100.2179766
40
0.1962176
50
199.8828939
51
232.7063202
0
ARC
8
DEFAULT_255_1_234
10
21.729541
20
100.2773788
40
0.2720938
50
232.3738199
51
255.5136649
0
ARC
8
DEFAULT_255_1_234
10
21.7636277
20
100.4017835
40
0.4010747
50
255.2446292
51
267.5320849
0
ARC
8
DEFAULT_255_1_234
10
21.77239
20
100.5250702
40
0.5246356
50
267.1557994
51
270.0286766
0
ARC
8
DEFAULT_255_1_234
10
21.7751672
20
100.480695
40
0.4802668
50
269.7000017
51
278.1660162
0
ARC
8
DEFAULT_255_1_234
10
21.8007677
20
100.3076515
40
0.3053425
50
278.0231263
51
290.625471
0
ARC
8
DEFAULT_255_1_234
10
21.8355364
20
100.2149025
40
0.206291
50
290.6619762
51
307.0370976
0
ARC
8
DEFAULT_255_1_234
10
21.8655754
20
100.1780504
40
0.1587906
50
306.3943566
51
355.3030547
0
ARC
8
DEFAULT_255_1_234
10
21.8143685
20
100.1857113
40
0.2104809
50
354.3660432
51
0.0698737
0
ARC
8
DEFAULT_255_1_234
10
21.828603
20
100.1879617
40
0.1962563
50
359.417946
51
16.1971788
0
ARC
8
DEFAULT_255_1_234
10
21.874134
20
100.2004418
40
0.149053
50
16.4723299
51
52.6262157
0
ARC
8
DEFAULT_255_1_234
10
21.7920394
20
100.0920433
40
0.2850296
50
52.7386432
51
62.4979148
0
ARC
8
DEFAULT_255_1_234
10
21.6535471
20
99.8314283
40
0.5801521
50
62.2515216
51
68.1220564
0
ARC
8
DEFAULT_255_1_234
10
21.4815382
20
99.4086872
40
1.0365451
50
68.0062803
51
71.8053402
0
ARC
8
DEFAULT_255_1_234
10
21.3019754
20
98.8701758
40
1.6042013
50
71.7183119
51
73.9258742
0
LINE
8
DEFAULT_255_1_234
10
22.532455
20
101.0598211
11
22.532455
21
100.0164983
0
LINE
8
DEFAULT_255_1_234
10
22.532455
20
100.0164983
11
23.086645
21
100.0164983
0
LINE
8
DEFAULT_255_1_234
10
23.086645
20
100.0164983
11
23.086645
21
99.8904
0
LINE
8
DEFAULT_255_1_234
10
23.086645
20
99.8904
11
22.3774425
21
99.8904
0
LINE
8
DEFAULT_255_1_234
10
22.3774425
20
99.8904
11
22.3774425
21
101.0598211
0
LINE
8
DEFAULT_255_1_234
10
22.3774425
20
101.0598211
11
22.532455
21
101.0598211
0
LINE
8
DEFAULT_255_1_234
10
23.5862191
20
99.8904
11
23.26254
21
99.8904
0
LINE
8
DEFAULT_255_1_234
10
23.26254
20
99.8904
11
23.26254
21
101.0598211
0
LINE
8
DEFAULT_255_1_234
10
23.26254
20
101.0598211
11
23.5926445
21
101.0598211
0
LINE
8
DEFAULT_255_1_234
10
24.1082821
20
100.5144661
11
24.1082821
21
100.4397709
0
LINE
8
DEFAULT_255_1_234
10
23.5966604
20
100.9329196
11
23.4167494
21
100.9329196
0
LINE
8
DEFAULT_255_1_234
10
23.4167494
20
100.9329196
11
23.4167494
21
100.0164983
0
LINE
8
DEFAULT_255_1_234
10
23.4167494
20
100.0164983
11
23.5789905
21
100.0164983
0
LINE
8
DEFAULT_255_1_234
10
23.9556791
20
100.4429836
11
23.9556791
21
100.5112534
0
ARC
8
DEFAULT_255_1_234
10
23.5965387
20
100.4732894
40
0.5865446
50
75.4101064
51
90.3804066
0
ARC
8
DEFAULT_255_1_234
10
23.6194901
20
100.5689492
40
0.4881916
50
60.145586
51
75.1888407
0
ARC
8
DEFAULT_255_1_234
10
23.6353676
20
100.5966199
40
0.4562893
50
26.5253612
51
60.1450928
0
ARC
8
DEFAULT_255_1_234
10
23.5233426
20
100.5372158
40
0.5830602
50
7.4030428
51
26.8320788
0
ARC
8
DEFAULT_255_1_234
10
23.3639182
20
100.5123804
40
0.7443669
50
0.1605367
51
7.7176192
0
ARC
8
DEFAULT_255_1_234
10
23.3803087
20
100.4359434
40
0.7279835
50
348.7289388
51
0.3012466
0
ARC
8
DEFAULT_255_1_234
10
23.5459517
20
100.4030386
40
0.559104
50
333.0706509
51
348.7181832
0
ARC
8
DEFAULT_255_1_234
10
23.6426275
20
100.3505319
40
0.4491417
50
299.2531685
51
333.4571258
0
ARC
8
DEFAULT_255_1_234
10
23.6065415
20
100.4190828
40
0.5265881
50
278.107187
51
299.0339503
0
ARC
8
DEFAULT_255_1_234
10
23.5809493
20
100.5698216
40
0.679442
50
270.4443897
51
278.4511052
0
ARC
8
DEFAULT_255_1_234
10
23.5830323
20
100.4769213
40
0.4604407
50
269.4970433
51
284.0205042
0
ARC
8
DEFAULT_255_1_234
10
23.6185624
20
100.3403978
40
0.3193797
50
283.7700273
51
318.1555492
0
ARC
8
DEFAULT_255_1_234
10
23.5848383
20
100.3656367
40
0.3613588
50
318.7415601
51
343.6873628
0
ARC
8
DEFAULT_255_1_234
10
23.4044406
20
100.4219832
40
0.5503313
50
343.3325091
51
355.8548958
0
ARC
8
DEFAULT_255_1_234
10
23.194609
20
100.4419319
40
0.7610708
50
355.4988528
51
0.0791727
0
ARC
8
DEFAULT_255_1_234
10
23.2728713
20
100.515478
40
0.6828208
50
359.6455037
51
9.8607896
0
ARC
8
DEFAULT_255_1_234
10
23.5089411
20
100.5581099
40
0.4429406
50
9.6571907
51
26.1932807
0
ARC
8
DEFAULT_255_1_234
10
23.6017399
20
100.6012118
40
0.3406537
50
26.5777228
51
40.1532208
0
ARC
8
DEFAULT_255_1_234
10
23.6273126
20
100.6211619
40
0.308246
50
40.3840491
51
80.1431104
0
ARC
8
DEFAULT_255_1_234
10
23.5946243
20
100.4762333
40
0.4566909
50
79.2152159
51
89.7445637
0
LINE
8
DEFAULT_255_1_234
10
21.5525341
20
107.8279
11
21.2987312
21
108.3009694
0
LINE
8
DEFAULT_255_1_234
10
21.2987312
20
108.3009694
11
21.0240458
21
108.3009694
0
LINE
8
DEFAULT_255_1_234
10
21.0240458
20
108.3009694
11
21.0240458
21
107.8279
0
LINE
8
DEFAULT_255_1_234
10
21.0240458
20
107.8279
11
20.8690332
21
107.8279
0
LINE
8
DEFAULT_255_1_234
10
20.8690332
20
107.8279
11
20.8690332
21
108.9973211
0
LINE
8
DEFAULT_255_1_234
10
20.8690332
20
108.9973211
11
21.256163
21
108.9973211
0
LINE
8
DEFAULT_255_1_234
10
21.4433025
20
108.3338995
11
21.7179879
21
107.8375381
0
LINE
8
DEFAULT_255_1_234
10
21.7179879
20
107.8375381
11
21.7179879
21
107.8279
0
LINE
8
DEFAULT_255_1_234
10
21.7179879
20
107.8279
11
21.5525341
21
107.8279
0
LINE
8
DEFAULT_255_1_234
10
21.0240458
20
108.8704196
11
21.0240458
21
108.4270677
0
LINE
8
DEFAULT_255_1_234
10
21.0240458
20
108.4270677
11
21.260982
21
108.4270677
0
LINE
8
DEFAULT_255_1_234
10
21.2601789
20
108.8704196
11
21.0240458
21
108.8704196
0
ARC
8
DEFAULT_255_1_234
10
21.2603269
20
108.3011761
40
0.6961575
50
80.653586
51
90.3427061
0
ARC
8
DEFAULT_255_1_234
10
21.3022744
20
108.5474348
40
0.4463577
50
65.6987447
51
80.8329603
0
ARC
8
DEFAULT_255_1_234
10
21.3500385
20
108.6569322
40
0.3269094
50
50.0017161
51
65.4305835
0
ARC
8
DEFAULT_255_1_234
10
21.3718849
20
108.6864482
40
0.2902647
50
11.628416
51
49.5603263
0
ARC
8
DEFAULT_255_1_234
10
21.2183185
20
108.6489299
40
0.4482792
50
359.5655735
51
12.3691
0
ARC
8
DEFAULT_255_1_234
10
21.3260045
20
108.6426644
40
0.3405924
50
341.9983148
51
0.4822259
0
ARC
8
DEFAULT_255_1_234
10
21.3654885
20
108.6319471
40
0.2997359
50
323.8609373
51
341.61416
0
ARC
8
DEFAULT_255_1_234
10
21.3353129
20
108.6552484
40
0.3378487
50
296.7018614
51
323.6876402
0
ARC
8
DEFAULT_255_1_234
10
21.2912024
20
108.7341235
40
0.4281516
50
290.8086567
51
297.2323311
0
ARC
8
DEFAULT_255_1_234
10
21.2635554
20
108.7864351
40
0.3593766
50
269.589728
51
281.8058135
0
ARC
8
DEFAULT_255_1_234
10
21.2886453
20
108.6716743
40
0.2419125
50
281.5501019
51
303.9357432
0
ARC
8
DEFAULT_255_1_234
10
21.3023641
20
108.6478936
40
0.2145323
50
304.4415616
51
311.2106213
0
ARC
8
DEFAULT_255_1_234
10
21.3155746
20
108.6339632
40
0.1953505
50
310.9875673
51
356.2715578
0
ARC
8
DEFAULT_255_1_234
10
21.2399395
20
108.6452422
40
0.2716331
50
354.9348262
51
0.0609027
0
ARC
8
DEFAULT_255_1_234
10
21.2212269
20
108.6479435
40
0.2903554
50
359.5239371
51
12.8808918
0
ARC
8
DEFAULT_255_1_234
10
21.3189824
20
108.6718728
40
0.1897315
50
12.4173452
51
43.1022135
0
ARC
8
DEFAULT_255_1_234
10
21.3251429
20
108.6755724
40
0.1827118
50
43.5751728
51
48.203944
0
ARC
8
DEFAULT_255_1_234
10
21.3081921
20
108.6534302
40
0.2105272
50
48.7809703
51
72.6969569
0
ARC
8
DEFAULT_255_1_234
10
21.2727546
20
108.545882
40
0.3237537
50
72.3702241
51
84.8791103
0
ARC
8
DEFAULT_255_1_234
10
21.2580022
20
108.4116769
40
0.4587478
50
84.5400526
51
89.7281406
0
LINE
8
DEFAULT_255_1_234
10
22.6263775
20
108.9973211
11
22.6263775
21
108.8704196
0
LINE
8
DEFAULT_255_1_234
10
22.6263775
20
108.8704196
11
22.2504922
21
108.8704196
0
LINE
8
DEFAULT_255_1_234
10
22.2504922
20
108.8704196
11
22.2504922
21
107.8279
0
LINE
8
DEFAULT_255_1_234
10
22.2504922
20
107.8279
11
22.097086
21
107.8279
0
LINE
8
DEFAULT_255_1_234
10
22.097086
20
107.8279
11
22.097086
21
108.8704196
0
LINE
8
DEFAULT_255_1_234
10
22.097086
20
108.8704196
11
21.7220038
21
108.8704196
0
LINE
8
DEFAULT_255_1_234
10
21.7220038
20
108.8704196
11
21.7220038
21
108.9973211
0
LINE
8
DEFAULT_255_1_234
10
21.7220038
20
108.9973211
11
22.6263775
21
108.9973211
0
LINE
8
DEFAULT_255_1_234
10
23.1235421
20
107.8279
11
22.7998631
21
107.8279
0
LINE
8
DEFAULT_255_1_234
10
22.7998631
20
107.8279
11
22.7998631
21
108.9973211
0
LINE
8
DEFAULT_255_1_234
10
22.7998631
20
108.9973211
11
23.1299675
21
108.9973211
0
LINE
8
DEFAULT_255_1_234
10
23.6456051
20
108.4519661
11
23.6456051
21
108.3772709
0
LINE
8
DEFAULT_255_1_234
10
23.1339834
20
108.8704196
11
22.9540725
21
108.8704196
0
LINE
8
DEFAULT_255_1_234
10
22.9540725
20
108.8704196
11
22.9540725
21
107.9539983
0
LINE
8
DEFAULT_255_1_234
10
22.9540725
20
107.9539983
11
23.1163136
21
107.9539983
0
LINE
8
DEFAULT_255_1_234
10
23.4930021
20
108.3804836
11
23.4930021
21
108.4487534
0
ARC
8
DEFAULT_255_1_234
10
23.1338618
20
108.4107894
40
0.5865446
50
75.4101064
51
90.3804066
0
ARC
8
DEFAULT_255_1_234
10
23.1568132
20
108.5064492
40
0.4881916
50
60.145586
51
75.1888407
0
ARC
8
DEFAULT_255_1_234
10
23.1726907
20
108.5341199
40
0.4562893
50
26.5253612
51
60.1450928
0
ARC
8
DEFAULT_255_1_234
10
23.0606656
20
108.4747158
40
0.5830602
50
7.4030428
51
26.8320788
0
ARC
8
DEFAULT_255_1_234
10
22.9012413
20
108.4498804
40
0.7443669
50
0.1605367
51
7.7176192
0
ARC
8
DEFAULT_255_1_234
10
22.9176317
20
108.3734434
40
0.7279835
50
348.7289388
51
0.3012466
0
ARC
8
DEFAULT_255_1_234
10
23.0832748
20
108.3405386
40
0.559104
50
333.0706509
51
348.7181832
0
ARC
8
DEFAULT_255_1_234
10
23.1799505
20
108.2880319
40
0.4491417
50
299.2531685
51
333.4571258
0
ARC
8
DEFAULT_255_1_234
10
23.1438645
20
108.3565828
40
0.5265881
50
278.107187
51
299.0339503
0
ARC
8
DEFAULT_255_1_234
10
23.1182724
20
108.5073216
40
0.679442
50
270.4443897
51
278.4511052
0
ARC
8
DEFAULT_255_1_234
10
23.1203554
20
108.4144213
40
0.4604407
50
269.4970433
51
284.0205042
0
ARC
8
DEFAULT_255_1_234
10
23.1558855
20
108.2778978
40
0.3193797
50
283.7700273
51
318.1555492
0
ARC
8
DEFAULT_255_1_234
10
23.1221613
20
108.3031367
40
0.3613588
50
318.7415601
51
343.6873628
0
ARC
8
DEFAULT_255_1_234
10
22.9417637
20
108.3594832
40
0.5503313
50
343.3325091
51
355.8548958
0
ARC
8
DEFAULT_255_1_234
10
22.7319321
20
108.3794319
40
0.7610708
50
355.4988528
51
0.0791727
0
ARC
8
DEFAULT_255_1_234
10
22.8101943
20
108.452978
40
0.6828208
50
359.6455037
51
9.8607896
0
ARC
8
DEFAULT_255_1_234
10
23.0462641
20
108.4956099
40
0.4429406
50
9.6571907
51
26.1932807
0
ARC
8
DEFAULT_255_1_234
10
23.139063
20
108.5387118
40
0.3406537
50
26.5777228
51
40.1532208
0
ARC
8
DEFAULT_255_1_234
10
23.1646356
20
108.5586619
40
0.308246
50
40.3840491
51
80.1431104
0
ARC
8
DEFAULT_255_1_234
10
23.1319474
20
108.4137333
40
0.4566909
50
79.2152159
51
89.7445637
0
LINE
8
DEFAULT_255_1_234
10
24.1644554
20
108.3853026
11
24.1644554
21
108.2640234
0
LINE
8
DEFAULT_255_1_234
10
24.1644554
20
108.2640234
11
23.7725066
21
108.2640234
0
LINE
8
DEFAULT_255_1_234
10
23.7725066
20
108.2640234
11
23.7725066
21
108.3853026
0
LINE
8
DEFAULT_255_1_234
10
23.7725066
20
108.3853026
11
24.1644554
21
108.3853026
0
LINE
8
DEFAULT_255_1_234
10
21.1011341
20
115.7654
11
20.8473312
21
116.2384694
0
LINE
8
DEFAULT_255_1_234
10
20.8473312
20
116.2384694
11
20.5726458
21
116.2384694
0
LINE
8
DEFAULT_255_1_234
10
20.5726458
20
116.2384694
11
20.5726458
21
115.7654
0
LINE
8
DEFAULT_255_1_234
10
20.5726458
20
115.7654
11
20.4176332
21
115.7654
0
LINE
8
DEFAULT_255_1_234
10
20.4176332
20
115.7654
11
20.4176332
21
116.9348211
0
LINE
8
DEFAULT_255_1_234
10
20.4176332
20
116.9348211
11
20.804763
21
116.9348211
0
LINE
8
DEFAULT_255_1_234
10
20.9919025
20
116.2713995
11
21.2665879
21
115.7750381
0
LINE
8
DEFAULT_255_1_234
10
21.2665879
20
115.7750381
11
21.2665879
21
115.7654
0
LINE
8
DEFAULT_255_1_234
10
21.2665879
20
115.7654
11
21.1011341
21
115.7654
0
LINE
8
DEFAULT_255_1_234
10
20.5726458
20
116.8079196
11
20.5726458
21
116.3645677
0
LINE
8
DEFAULT_255_1_234
10
20.5726458
20
116.3645677
11
20.809582
21
116.3645677
0
LINE
8
DEFAULT_255_1_234
10
20.8087789
20
116.8079196
11
20.5726458
21
116.8079196
0
ARC
8
DEFAULT_255_1_234
10
20.8089269
20
116.2386761
40
0.6961575
50
80.653586
51
90.3427061
0
ARC
8
DEFAULT_255_1_234
10
20.8508744
20
116.4849348
40
0.4463577
50
65.6987447
51
80.8329603
0
ARC
8
DEFAULT_255_1_234
10
20.8986385
20
116.5944322
40
0.3269094
50
50.0017161
51
65.4305835
0
ARC
8
DEFAULT_255_1_234
10
20.9204849
20
116.6239482
40
0.2902647
50
11.628416
51
49.5603263
0
ARC
8
DEFAULT_255_1_234
10
20.7669185
20
116.5864299
40
0.4482792
50
359.5655735
51
12.3691
0
ARC
8
DEFAULT_255_1_234
10
20.8746045
20
116.5801644
40
0.3405924
50
341.9983148
51
0.4822259
0
ARC
8
DEFAULT_255_1_234
10
20.9140885
20
116.5694471
40
0.2997359
50
323.8609373
51
341.61416
0
ARC
8
DEFAULT_255_1_234
10
20.8839129
20
116.5927484
40
0.3378487
50
296.7018614
51
323.6876402
0
ARC
8
DEFAULT_255_1_234
10
20.8398024
20
116.6716235
40
0.4281516
50
290.8086567
51
297.2323311
0
ARC
8
DEFAULT_255_1_234
10
20.8121554
20
116.7239351
40
0.3593766
50
269.589728
51
281.8058135
0
ARC
8
DEFAULT_255_1_234
10
20.8372453
20
116.6091743
40
0.2419125
50
281.5501019
51
303.9357432
0
ARC
8
DEFAULT_255_1_234
10
20.8509641
20
116.5853936
40
0.2145323
50
304.4415616
51
311.2106213
0
ARC
8
DEFAULT_255_1_234
10
20.8641746
20
116.5714632
40
0.1953505
50
310.9875673
51
356.2715578
0
ARC
8
DEFAULT_255_1_234
10
20.7885395
20
116.5827422
40
0.2716331
50
354.9348262
51
0.0609027
0
ARC
8
DEFAULT_255_1_234
10
20.7698269
20
116.5854435
40
0.2903554
50
359.5239371
51
12.8808918
0
ARC
8
DEFAULT_255_1_234
10
20.8675824
20
116.6093728
40
0.1897315
50
12.4173452
51
43.1022135
0
ARC
8
DEFAULT_255_1_234
10
20.8737429
20
116.6130724
40
0.1827118
50
43.5751728
51
48.203944
0
ARC
8
DEFAULT_255_1_234
10
20.8567921
20
116.5909302
40
0.2105272
50
48.7809703
51
72.6969569
0
ARC
8
DEFAULT_255_1_234
10
20.8213546
20
116.483382
40
0.3237537
50
72.3702241
51
84.8791103
0
ARC
8
DEFAULT_255_1_234
10
20.8066022
20
116.3491769
40
0.4587478
50
84.5400526
51
89.7281406
0
LINE
8
DEFAULT_255_1_234
10
22.1749775
20
116.9348211
11
22.1749775
21
116.8079196
0
LINE
8
DEFAULT_255_1_234
10
22.1749775
20
116.8079196
11
21.7990922
21
116.8079196
0
LINE
8
DEFAULT_255_1_234
10
21.7990922
20
116.8079196
11
21.7990922
21
115.7654
0
LINE
8
DEFAULT_255_1_234
10
21.7990922
20
115.7654
11
21.645686
21
115.7654
0
LINE
8
DEFAULT_255_1_234
10
21.645686
20
115.7654
11
21.645686
21
116.8079196
0
LINE
8
DEFAULT_255_1_234
10
21.645686
20
116.8079196
11
21.2706038
21
116.8079196
0
LINE
8
DEFAULT_255_1_234
10
21.2706038
20
116.8079196
11
21.2706038
21
116.9348211
0
LINE
8
DEFAULT_255_1_234
10
21.2706038
20
116.9348211
11
22.1749775
21
116.9348211
0
LINE
8
DEFAULT_255_1_234
10
22.6721421
20
115.7654
11
22.3484631
21
115.7654
0
LINE
8
DEFAULT_255_1_234
10
22.3484631
20
115.7654
11
22.3484631
21
116.9348211
0
LINE
8
DEFAULT_255_1_234
10
22.3484631
20
116.9348211
11
22.6785675
21
116.9348211
0
LINE
8
DEFAULT_255_1_234
10
23.1942051
20
116.3894661
11
23.1942051
21
116.3147709
0
LINE
8
DEFAULT_255_1_234
10
22.6825834
20
116.8079196
11
22.5026725
21
116.8079196
0
LINE
8
DEFAULT_255_1_234
10
22.5026725
20
116.8079196
11
22.5026725
21
115.8914983
0
LINE
8
DEFAULT_255_1_234
10
22.5026725
20
115.8914983
11
22.6649136
21
115.8914983
0
LINE
8
DEFAULT_255_1_234
10
23.0416021
20
116.3179836
11
23.0416021
21
116.3862534
0
ARC
8
DEFAULT_255_1_234
10
22.6824618
20
116.3482894
40
0.5865446
50
75.4101064
51
90.3804066
0
ARC
8
DEFAULT_255_1_234
10
22.7054132
20
116.4439492
40
0.4881916
50
60.145586
51
75.1888407
0
ARC
8
DEFAULT_255_1_234
10
22.7212907
20
116.4716199
40
0.4562893
50
26.5253612
51
60.1450928
0
ARC
8
DEFAULT_255_1_234
10
22.6092656
20
116.4122158
40
0.5830602
50
7.4030428
51
26.8320788
0
ARC
8
DEFAULT_255_1_234
10
22.4498413
20
116.3873804
40
0.7443669
50
0.1605367
51
7.7176192
0
ARC
8
DEFAULT_255_1_234
10
22.4662317
20
116.3109434
40
0.7279835
50
348.7289388
51
0.3012466
0
ARC
8
DEFAULT_255_1_234
10
22.6318748
20
116.2780386
40
0.559104
50
333.0706509
51
348.7181832
0
ARC
8
DEFAULT_255_1_234
10
22.7285505
20
116.2255319
40
0.4491417
50
299.2531685
51
333.4571258
0
ARC
8
DEFAULT_255_1_234
10
22.6924645
20
116.2940828
40
0.5265881
50
278.107187
51
299.0339503
0
ARC
8
DEFAULT_255_1_234
10
22.6668724
20
116.4448216
40
0.679442
50
270.4443897
51
278.4511052
0
ARC
8
DEFAULT_255_1_234
10
22.6689554
20
116.3519213
40
0.4604407
50
269.4970433
51
284.0205042
0
ARC
8
DEFAULT_255_1_234
10
22.7044855
20
116.2153978
40
0.3193797
50
283.7700273
51
318.1555492
0
ARC
8
DEFAULT_255_1_234
10
22.6707613
20
116.2406367
40
0.3613588
50
318.7415601
51
343.6873628
0
ARC
8
DEFAULT_255_1_234
10
22.4903637
20
116.2969832
40
0.5503313
50
343.3325091
51
355.8548958
0
ARC
8
DEFAULT_255_1_234
10
22.2805321
20
116.3169319
40
0.7610708
50
355.4988528
51
0.0791727
0
ARC
8
DEFAULT_255_1_234
10
22.3587943
20
116.390478
40
0.6828208
50
359.6455037
51
9.8607896
0
ARC
8
DEFAULT_255_1_234
10
22.5948641
20
116.4331099
40
0.4429406
50
9.6571907
51
26.1932807
0
ARC
8
DEFAULT_255_1_234
10
22.687663
20
116.4762118
40
0.3406537
50
26.5777228
51
40.1532208
0
ARC
8
DEFAULT_255_1_234
10
22.7132356
20
116.4961619
40
0.308246
50
40.3840491
51
80.1431104
0
ARC
8
DEFAULT_255_1_234
10
22.6805474
20
116.3512333
40
0.4566909
50
79.2152159
51
89.7445637
0
LINE
8
DEFAULT_255_1_234
10
23.8295156
20
116.7340276
11
23.8295156
21
116.3926788
0
LINE
8
DEFAULT_255_1_234
10
23.8295156
20
116.3926788
11
24.1556042
21
116.3926788
0
LINE
8
DEFAULT_255_1_234
10
24.1556042
20
116.3926788
11
24.1556042
21
116.2521233
0
LINE
8
DEFAULT_255_1_234
10
24.1556042
20
116.2521233
11
23.8295156
21
116.2521233
0
LINE
8
DEFAULT_255_1_234
10
23.8295156
20
116.2521233
11
23.8295156
21
115.8826634
0
LINE
8
DEFAULT_255_1_234
10
23.8295156
20
115.8826634
11
23.6801253
21
115.8826634
0
LINE
8
DEFAULT_255_1_234
10
23.6801253
20
115.8826634
11
23.6801253
21
116.2521233
0
LINE
8
DEFAULT_255_1_234
10
23.6801253
20
116.2521233
11
23.3540367
21
116.2521233
0
LINE
8
DEFAULT_255_1_234
10
23.3540367
20
116.2521233
11
23.3540367
21
116.3926788
0
LINE
8
DEFAULT_255_1_234
10
23.3540367
20
116.3926788
11
23.6801253
21
116.3926788
0
LINE
8
DEFAULT_255_1_234
10
23.6801253
20
116.3926788
11
23.6801253
21
116.7340276
0
LINE
8
DEFAULT_255_1_234
10
23.6801253
20
116.7340276
11
23.8295156
21
116.7340276
0
ENDSEC
0
EOF