0
SECTION
2
HEADER
9
$MEASUREMENT
70
1
0
ENDSEC
0
SECTION
2
TABLES
0
TABLE
2
LTYPE
0
LTYPE
72
65
70
64
2
CONTINUOUS
3
______
73
0
40
0
0
ENDTAB
0
TABLE
2
LAYER
0
LAYER
2
DEFAULT_255_2_778
70
0
62
255
6
CONTINUOUS
0
LAYER
2
DEFAULT_255_1_234
70
0
62
255
6
CONTINUOUS
0
LAYER
2
DEFAULT_255_2_778_1
70
0
62
255
6
CONTINUOUS
0
ENDTAB
0
ENDSEC
0
SECTION
2
ENTITIES
0
ARC
8
DEFAULT_255_2_778
10
3.5700693
20
155.1802019
40
0.7914215
50
129.1312896
51
180.1450914
0
ARC
8
DEFAULT_255_2_778
10
3.5703345
20
155.180689
40
0.7912112
50
89.854026
51
129.1684493
0
ARC
8
DEFAULT_255_2_778
10
25.7993937
20
155.1803756
40
0.7915249
50
39.4792447
51
90.147911
0
ARC
8
DEFAULT_255_2_778
10
25.7999935
20
155.1802222
40
0.7911595
50
359.8533901
51
39.5154338
0
ARC
8
DEFAULT_255_2_778
10
25.7996693
20
-1.9863503
40
0.7914836
50
309.4761667
51
0.1482649
0
ARC
8
DEFAULT_255_2_778
10
25.799398
20
-1.9867814
40
0.7913235
50
269.8517415
51
309.511178
0
ARC
8
DEFAULT_255_2_778
10
3.570342
20
-1.9867233
40
0.7913815
50
219.1282118
51
270.1454017
0
ARC
8
DEFAULT_255_2_778
10
3.5700247
20
-1.9863408
40
0.7913769
50
179.8524075
51
219.1641908
0
LINE
8
DEFAULT_255_2_778
10
3.5723503
20
155.9718978
11
25.7973503
21
155.9718978
0
LINE
8
DEFAULT_255_2_778
10
26.5911503
20
155.1781978
11
26.5911503
21
-1.9843022
0
LINE
8
DEFAULT_255_2_778
10
25.7973503
20
-2.7781022
11
3.5723503
21
-2.7781022
0
LINE
8
DEFAULT_255_2_778
10
2.7786503
20
-1.9843022
11
2.7786503
21
155.1781978
0
LINE
8
DEFAULT_255_1_234
10
12.1060657
20
-0.0296435
11
12.1060657
21
-0.1043386
0
LINE
8
DEFAULT_255_1_234
10
11.9012563
20
-0.5878493
11
12.1100815
21
-0.7516967
0
LINE
8
DEFAULT_255_1_234
10
12.1100815
20
-0.7516967
11
12.0048658
21
-0.8488808
0
LINE
8
DEFAULT_255_1_234
10
12.0048658
20
-0.8488808
11
11.7582914
21
-0.6529063
0
LINE
8
DEFAULT_255_1_234
10
11.1647459
20
-0.1147799
11
11.1647459
21
-0.0304466
0
LINE
8
DEFAULT_255_1_234
10
11.9518563
20
-0.1155831
11
11.9518563
21
-0.0288403
0
LINE
8
DEFAULT_255_1_234
10
11.3189553
20
-0.018399
11
11.3189553
21
-0.1043386
0
ARC
8
DEFAULT_255_1_234
10
11.2106909
20
-0.1082293
40
0.8953833
50
351.453011
51
0.2489685
0
ARC
8
DEFAULT_255_1_234
10
11.4691709
20
-0.1482067
40
0.6338333
50
338.6861641
51
351.5540711
0
ARC
8
DEFAULT_255_1_234
10
11.5625593
20
-0.1812172
40
0.5348431
50
336.2887631
51
338.3442418
0
ARC
8
DEFAULT_255_1_234
10
11.5965215
20
-0.1998302
40
0.4962747
50
321.1170344
51
336.6795229
0
ARC
8
DEFAULT_255_1_234
10
11.6597044
20
-0.2484794
40
0.4165565
50
305.4419708
51
320.8705636
0
ARC
8
DEFAULT_255_1_234
10
11.6400514
20
-0.1737293
40
0.4935497
50
271.6373023
51
283.8611969
0
ARC
8
DEFAULT_255_1_234
10
11.6362767
20
-0.1081428
40
0.5592206
50
269.9930596
51
271.8318864
0
ARC
8
DEFAULT_255_1_234
10
11.632521
20
-0.1889319
40
0.4784458
50
252.5219675
51
270.4416499
0
ARC
8
DEFAULT_255_1_234
10
11.6181469
20
-0.2428408
40
0.422716
50
237.5352116
51
252.1857531
0
ARC
8
DEFAULT_255_1_234
10
11.6270665
20
-0.2314637
40
0.4371052
50
209.063312
51
237.3492538
0
ARC
8
DEFAULT_255_1_234
10
11.7140513
20
-0.1768315
40
0.5397041
50
205.1183774
51
209.6470015
0
ARC
8
DEFAULT_255_1_234
10
11.793755
20
-0.143017
40
0.6262326
50
188.7215458
51
204.8240747
0
ARC
8
DEFAULT_255_1_234
10
11.9935078
20
-0.1093933
40
0.8287794
50
180.3723947
51
188.9252049
0
ARC
8
DEFAULT_255_1_234
10
11.990783
20
-0.0264598
40
0.8260467
50
169.5253763
51
180.2765336
0
ARC
8
DEFAULT_255_1_234
10
11.8005279
20
0.0085309
40
0.6326007
50
155.8315255
51
169.5089989
0
ARC
8
DEFAULT_255_1_234
10
11.672478
20
0.0679348
40
0.4914567
50
139.6258461
51
156.0379525
0
ARC
8
DEFAULT_255_1_234
10
11.6135113
20
0.1153799
40
0.4158054
50
122.6416387
51
139.3430715
0
ARC
8
DEFAULT_255_1_234
10
11.6235733
20
0.0970451
40
0.4366739
50
93.0223692
51
122.455762
0
ARC
8
DEFAULT_255_1_234
10
11.634373
20
0.0005709
40
0.5336137
50
89.975342
51
93.6341897
0
ARC
8
DEFAULT_255_1_234
10
11.6382616
20
0.0385375
40
0.4956606
50
73.9665422
51
90.4229648
0
ARC
8
DEFAULT_255_1_234
10
11.6566263
20
0.1100451
40
0.4218674
50
57.5178019
51
73.6813337
0
ARC
8
DEFAULT_255_1_234
10
11.6522046
20
0.1064462
40
0.4272816
50
28.7261108
51
57.2767933
0
ARC
8
DEFAULT_255_1_234
10
11.5611378
20
0.0501688
40
0.534218
50
24.2448911
51
29.3248482
0
ARC
8
DEFAULT_255_1_234
10
11.4685479
20
0.0118819
40
0.6343711
50
9.064382
51
23.9639114
0
ARC
8
DEFAULT_255_1_234
10
11.2429807
20
-0.0260075
40
0.8630926
50
359.7586264
51
9.1891435
0
ARC
8
DEFAULT_255_1_234
10
11.1175287
20
-0.0246657
40
0.834338
50
359.7133237
51
7.96545
0
ARC
8
DEFAULT_255_1_234
10
11.4137504
20
0.0180681
40
0.5350538
50
7.8291991
51
20.0421623
0
ARC
8
DEFAULT_255_1_234
10
11.5762067
20
0.0771606
40
0.3621841
50
20.0677553
51
35.9161685
0
ARC
8
DEFAULT_255_1_234
10
11.6537105
20
0.134767
40
0.2656263
50
35.6594382
51
85.1578074
0
ARC
8
DEFAULT_255_1_234
10
11.6352361
20
0.0232378
40
0.3784238
50
83.7959068
51
90.095906
0
ARC
8
DEFAULT_255_1_234
10
11.6309295
20
0.0965601
40
0.3051229
50
89.3102392
51
109.9889877
0
ARC
8
DEFAULT_255_1_234
10
11.6226778
20
0.1321433
40
0.2688988
50
110.9285147
51
143.9411762
0
ARC
8
DEFAULT_255_1_234
10
11.7157724
20
0.0609236
40
0.3860887
50
143.5289163
51
163.2980757
0
ARC
8
DEFAULT_255_1_234
10
11.9065545
20
0.0009433
40
0.5860659
50
163.0418846
51
174.3140048
0
ARC
8
DEFAULT_255_1_234
10
12.1469657
20
-0.0268146
40
0.8280531
50
174.0509143
51
179.4176892
0
ARC
8
DEFAULT_255_1_234
10
12.0955992
20
-0.1086366
40
0.7766558
50
179.6829237
51
188.9631324
0
ARC
8
DEFAULT_255_1_234
10
11.8285553
20
-0.1521248
40
0.5060992
50
188.8100743
51
202.9300012
0
ARC
8
DEFAULT_255_1_234
10
11.7069182
20
-0.2016145
40
0.3747967
50
203.2069261
51
215.7876482
0
ARC
8
DEFAULT_255_1_234
10
11.6220579
20
-0.2687329
40
0.2667526
50
214.7521006
51
264.2834488
0
ARC
8
DEFAULT_255_1_234
10
11.6356234
20
-0.183222
40
0.3532247
50
263.4755397
51
270.0949833
0
ARC
8
DEFAULT_255_1_234
10
11.6398345
20
-0.2093626
40
0.3271036
50
269.3649385
51
287.5152008
0
ARC
8
DEFAULT_255_1_234
10
11.6576503
20
-0.2740762
40
0.2600406
50
288.0630309
51
323.8113348
0
ARC
8
DEFAULT_255_1_234
10
11.5705345
20
-0.2090951
40
0.3687189
50
323.6547608
51
342.6590488
0
ARC
8
DEFAULT_255_1_234
10
11.367396
20
-0.1430048
40
0.5823286
50
342.4091907
51
353.6451149
0
ARC
8
DEFAULT_255_1_234
10
11.0842471
20
-0.107781
40
0.8676442
50
353.4029884
51
359.4847795
0
LINE
8
DEFAULT_255_1_234
10
12.8618522
20
0.5189243
11
12.888357
21
0.5189243
0
LINE
8
DEFAULT_255_1_234
10
12.888357
20
0.5189243
11
12.888357
21
0.392826
0
LINE
8
DEFAULT_255_1_234
10
12.888357
20
0.392826
11
12.8610491
21
0.392826
0
LINE
8
DEFAULT_255_1_234
10
12.3140877
20
-0.2063417
11
12.3140877
21
-0.1493164
0
LINE
8
DEFAULT_255_1_234
10
12.463478
20
-0.1685925
11
12.463478
21
-0.2232083
0
ARC
8
DEFAULT_255_1_234
10
12.8662839
20
-0.1069545
40
0.4998079
50
90.6001036
51
104.514704
0
ARC
8
DEFAULT_255_1_234
10
12.8274354
20
0.0375131
40
0.3502176
50
104.2855254
51
133.862935
0
ARC
8
DEFAULT_255_1_234
10
12.8438112
20
0.026683
40
0.3693984
50
134.5302688
51
161.6210873
0
ARC
8
DEFAULT_255_1_234
10
13.00913
20
-0.0316105
40
0.5446739
50
161.2849839
51
174.2076652
0
ARC
8
DEFAULT_255_1_234
10
13.1498237
20
-0.0510213
40
0.6866274
50
173.7810589
51
174.9254635
0
ARC
8
DEFAULT_255_1_234
10
12.6948069
20
-0.1893161
40
0.3033419
50
95.8330959
51
138.9954921
0
ARC
8
DEFAULT_255_1_234
10
12.7171425
20
-0.3171625
40
0.4328947
50
89.8753725
51
97.0544009
0
ARC
8
DEFAULT_255_1_234
10
12.7218891
20
-0.2336252
40
0.3493769
50
71.6407809
51
90.6240094
0
ARC
8
DEFAULT_255_1_234
10
12.7369465
20
-0.1781918
40
0.2920396
50
39.6367836
51
71.019018
0
ARC
8
DEFAULT_255_1_234
10
12.6732938
20
-0.2332002
40
0.3761538
50
10.658731
51
39.9043955
0
ARC
8
DEFAULT_255_1_234
10
12.5185021
20
-0.2668314
40
0.5345136
50
359.682601
51
11.132623
0
ARC
8
DEFAULT_255_1_234
10
12.5145151
20
-0.273899
40
0.5385081
50
347.2486944
51
0.4369317
0
ARC
8
DEFAULT_255_1_234
10
12.6812628
20
-0.3140193
40
0.3670249
50
318.1409698
51
347.6118597
0
ARC
8
DEFAULT_255_1_234
10
12.7137621
20
-0.3407298
40
0.3250007
50
275.6342139
51
317.8248465
0
ARC
8
DEFAULT_255_1_234
10
12.6916733
20
-0.2107781
40
0.4565864
50
269.8874292
51
276.7917694
0
ARC
8
DEFAULT_255_1_234
10
12.6861803
20
-0.3133257
40
0.3540676
50
246.9140195
51
270.7437342
0
ARC
8
DEFAULT_255_1_234
10
12.6868194
20
-0.3275616
40
0.3412781
50
218.1665114
51
245.878116
0
ARC
8
DEFAULT_255_1_234
10
12.7747654
20
-0.2539721
40
0.455911
50
191.4115814
51
218.6077802
0
ARC
8
DEFAULT_255_1_234
10
12.9685744
20
-0.2105167
40
0.6545001
50
179.6345085
51
191.7836486
0
ARC
8
DEFAULT_255_1_234
10
13.526808
20
-0.1426303
40
1.2127388
50
171.4525249
51
180.3158839
0
ARC
8
DEFAULT_255_1_234
10
13.0872956
20
-0.0742392
40
0.7679464
50
157.9802646
51
171.6246686
0
ARC
8
DEFAULT_255_1_234
10
12.8658977
20
0.0140421
40
0.5296008
50
141.4298019
51
157.854097
0
ARC
8
DEFAULT_255_1_234
10
12.8017298
20
0.0594381
40
0.4511509
50
102.8715806
51
140.8564722
0
ARC
8
DEFAULT_255_1_234
10
12.8664913
20
-0.1845448
40
0.7034845
50
90.3778349
51
103.5869322
0
ARC
8
DEFAULT_255_1_234
10
12.692669
20
-0.245027
40
0.2370698
50
89.8751008
51
126.2071704
0
ARC
8
DEFAULT_255_1_234
10
12.6972479
20
-0.2604697
40
0.2522934
50
124.9745049
51
144.895901
0
ARC
8
DEFAULT_255_1_234
10
12.679667
20
-0.246144
40
0.2296779
50
145.2974905
51
160.2660252
0
ARC
8
DEFAULT_255_1_234
10
12.9869209
20
-0.2263929
40
0.5234525
50
179.6514266
51
190.2855912
0
ARC
8
DEFAULT_255_1_234
10
12.8175346
20
-0.2583214
40
0.3510893
50
190.0945431
51
207.5098196
0
ARC
8
DEFAULT_255_1_234
10
12.7609616
20
-0.2852377
40
0.288489
50
207.9583163
51
216.3251085
0
ARC
8
DEFAULT_255_1_234
10
12.7269723
20
-0.3131895
40
0.2445587
50
215.7661442
51
232.5456785
0
ARC
8
DEFAULT_255_1_234
10
12.6886706
20
-0.3618518
40
0.1826382
50
232.8005391
51
270.6605633
0
ARC
8
DEFAULT_255_1_234
10
12.6932407
20
-0.3254388
40
0.2190529
50
269.35537
51
288.4744281
0
ARC
8
DEFAULT_255_1_234
10
12.7025304
20
-0.3603882
40
0.1829749
50
289.1833337
51
322.9683818
0
ARC
8
DEFAULT_255_1_234
10
12.6413827
20
-0.3121609
40
0.2608399
50
322.6007884
51
346.5182367
0
ARC
8
DEFAULT_255_1_234
10
12.5256423
20
-0.2826384
40
0.3802777
50
346.2582162
51
358.7741648
0
ARC
8
DEFAULT_255_1_234
10
12.4238091
20
-0.2771035
40
0.4822176
50
358.3755224
51
0.0098023
0
ARC
8
DEFAULT_255_1_234
10
12.4994279
20
-0.2743343
40
0.4066078
50
359.6214041
51
11.2839074
0
ARC
8
DEFAULT_255_1_234
10
12.6271426
20
-0.2476934
40
0.2761514
50
11.0482309
51
31.8146458
0
ARC
8
DEFAULT_255_1_234
10
12.6580468
20
-0.2309416
40
0.2410679
50
32.3035391
51
38.082671
0
ARC
8
DEFAULT_255_1_234
10
12.7001128
20
-0.1928338
40
0.1844966
50
36.825067
51
85.7415724
0
ARC
8
DEFAULT_255_1_234
10
12.6933962
20
-0.2428699
40
0.2349122
50
85.0140713
51
90.0513278
0
ARC
8
DEFAULT_255_1_234
10
13.655881
20
0.2103703
40
0.2822356
50
338.8763615
51
0.5166041
0
ARC
8
DEFAULT_255_1_234
10
13.6727465
20
0.2058208
40
0.2648703
50
325.8412414
51
338.4795939
0
ARC
8
DEFAULT_255_1_234
10
13.6336832
20
0.2329042
40
0.3124019
50
296.7586019
51
325.753654
0
ARC
8
DEFAULT_255_1_234
10
13.6048941
20
0.2813789
40
0.368668
50
296.0902311
51
297.3618122
0
ARC
8
DEFAULT_255_1_234
10
13.6306399
20
-0.3740959
40
0.3518806
50
47.9009248
51
67.1946869
0
ARC
8
DEFAULT_255_1_234
10
13.650264
20
-0.3494605
40
0.320451
50
35.236241
51
47.551371
0
ARC
8
DEFAULT_255_1_234
10
13.6764258
20
-0.3320007
40
0.2890103
50
359.2759738
51
35.4014081
0
ARC
8
DEFAULT_255_1_234
10
13.601929
20
-0.3393174
40
0.3635026
50
343.1294516
51
0.5776525
0
ARC
8
DEFAULT_255_1_234
10
13.6743834
20
-0.359267
40
0.2883832
50
310.8497458
51
342.744803
0
ARC
8
DEFAULT_255_1_234
10
13.6325948
20
-0.3115706
40
0.3517954
50
281.5473923
51
310.9169905
0
ARC
8
DEFAULT_255_1_234
10
13.5969397
20
-0.1562916
40
0.5110832
50
269.6192722
51
281.9789957
0
ARC
8
DEFAULT_255_1_234
10
13.5897186
20
-0.1562172
40
0.5111606
50
257.4584469
51
270.4287458
0
ARC
8
DEFAULT_255_1_234
10
13.5516329
20
-0.3165656
40
0.3463762
50
228.7553743
51
257.8484423
0
ARC
8
DEFAULT_255_1_234
10
13.5206528
20
-0.3538558
40
0.297916
50
184.0104442
51
228.5071787
0
ARC
8
DEFAULT_255_1_234
10
13.6369472
20
-0.3361488
40
0.4152734
50
179.9315461
51
185.3254504
0
ARC
8
DEFAULT_255_1_234
10
13.5193117
20
-0.3324008
40
0.2976554
50
145.6795913
51
180.6259649
0
ARC
8
DEFAULT_255_1_234
10
13.5356467
20
-0.3438071
40
0.3175776
50
115.5537925
51
145.6416199
0
ARC
8
DEFAULT_255_1_234
10
13.5697397
20
-0.4048972
40
0.3874232
50
113.2437915
51
116.2054627
0
ARC
8
DEFAULT_255_1_234
10
13.5544609
20
0.234958
40
0.3154751
50
222.9548379
51
244.1372485
0
ARC
8
DEFAULT_255_1_234
10
13.5422685
20
0.2212834
40
0.2972382
50
213.3439227
51
222.6271327
0
ARC
8
DEFAULT_255_1_234
10
13.5230619
20
0.2082308
40
0.274019
50
180.4316517
51
213.2713999
0
ARC
8
DEFAULT_255_1_234
10
13.580562
20
0.212911
40
0.33158
50
179.9992944
51
181.1655061
0
ARC
8
DEFAULT_255_1_234
10
13.6215038
20
0.2163561
40
0.3725376
50
164.6186108
51
180.5292368
0
ARC
8
DEFAULT_255_1_234
10
13.53169
20
0.2405101
40
0.2795349
50
132.2454369
51
164.5092287
0
ARC
8
DEFAULT_255_1_234
10
13.5604004
20
0.2080028
40
0.3229019
50
100.7052766
51
132.1387266
0
ARC
8
DEFAULT_255_1_234
10
13.5908977
20
0.0702086
40
0.4639835
50
89.6732617
51
101.2449487
0
ARC
8
DEFAULT_255_1_234
10
13.5971175
20
0.087699
40
0.4464999
50
76.2876631
51
90.4586123
0
ARC
8
DEFAULT_255_1_234
10
13.6277407
20
0.209922
40
0.3205023
50
47.8240157
51
76.4266918
0
ARC
8
DEFAULT_255_1_234
10
13.6499956
20
0.235959
40
0.2862661
50
6.9168658
51
47.6261438
0
ARC
8
DEFAULT_255_1_234
10
13.5313359
20
0.214037
40
0.4067708
50
359.8419705
51
7.9694496
0
ARC
8
DEFAULT_255_1_234
10
13.5655256
20
-0.3300075
40
0.2513121
50
359.4454068
51
16.9256425
0
ARC
8
DEFAULT_255_1_234
10
13.6124067
20
-0.3170967
40
0.2027071
50
17.292259
51
45.462717
0
ARC
8
DEFAULT_255_1_234
10
13.6070003
20
-0.3217566
40
0.2098212
50
45.3028762
51
83.1921472
0
ARC
8
DEFAULT_255_1_234
10
13.5926688
20
-0.4019105
40
0.2911472
50
82.2614531
51
90.143954
0
ARC
8
DEFAULT_255_1_234
10
13.5895808
20
-0.378605
40
0.2678513
50
89.4959189
51
104.8579811
0
ARC
8
DEFAULT_255_1_234
10
13.5719066
20
-0.311611
40
0.1985654
50
104.8855873
51
135.2448349
0
ARC
8
DEFAULT_255_1_234
10
13.5768839
20
-0.3160664
40
0.2052373
50
135.3398955
51
172.104394
0
ARC
8
DEFAULT_255_1_234
10
13.6575897
20
-0.3315075
40
0.2873299
50
171.2651929
51
180.1859362
0
ARC
8
DEFAULT_255_1_234
10
13.6406599
20
-0.3347267
40
0.2704083
50
179.515471
51
193.6466734
0
ARC
8
DEFAULT_255_1_234
10
13.5590368
20
-0.3555223
40
0.1861855
50
193.3540587
51
225.8256931
0
ARC
8
DEFAULT_255_1_234
10
13.5631125
20
-0.3484476
40
0.1941102
50
226.418029
51
255.8553723
0
ARC
8
DEFAULT_255_1_234
10
13.5887557
20
-0.2548002
40
0.2911917
50
255.4655572
51
268.7985967
0
ARC
8
DEFAULT_255_1_234
10
13.5934749
20
-0.1709509
40
0.3751331
50
268.3464808
51
270.0104874
0
ARC
8
DEFAULT_255_1_234
10
13.5958137
20
-0.2393862
40
0.3067064
50
269.575914
51
282.0823146
0
ARC
8
DEFAULT_255_1_234
10
13.6183047
20
-0.3388197
40
0.2047712
50
281.7522535
51
306.6056425
0
ARC
8
DEFAULT_255_1_234
10
13.6281473
20
-0.3549513
40
0.1859604
50
307.1350025
51
314.0277951
0
ARC
8
DEFAULT_255_1_234
10
13.6245557
20
-0.3523234
40
0.1903475
50
314.2553419
51
350.169324
0
ARC
8
DEFAULT_255_1_234
10
13.5394025
20
-0.3338591
40
0.2774269
50
349.4145679
51
0.2930737
0
ARC
8
DEFAULT_255_1_234
10
13.5914459
20
0.1820353
40
0.2300764
50
89.477591
51
105.729794
0
ARC
8
DEFAULT_255_1_234
10
13.5778372
20
0.2325637
40
0.1777519
50
105.922966
51
135.1662921
0
ARC
8
DEFAULT_255_1_234
10
13.5798874
20
0.2311419
40
0.1802087
50
135.3053131
51
168.9882338
0
ARC
8
DEFAULT_255_1_234
10
13.6626447
20
0.2121721
40
0.2650806
50
168.3802067
51
180.3602358
0
ARC
8
DEFAULT_255_1_234
10
13.6398026
20
0.2084041
40
0.2422425
50
179.5029707
51
194.9126783
0
ARC
8
DEFAULT_255_1_234
10
13.5812687
20
0.193011
40
0.1817188
50
194.9722181
51
224.1943972
0
ARC
8
DEFAULT_255_1_234
10
13.5784555
20
0.1907169
40
0.1781027
50
224.2961434
51
262.0157375
0
ARC
8
DEFAULT_255_1_234
10
13.5926797
20
0.2638661
40
0.2525492
50
261.1250369
51
270.1959853
0
ARC
8
DEFAULT_255_1_234
10
13.5956552
20
0.2451339
40
0.233825
50
269.4825617
51
285.0988277
0
ARC
8
DEFAULT_255_1_234
10
13.6110712
20
0.187299
40
0.1739712
50
285.1585659
51
315.9484648
0
ARC
8
DEFAULT_255_1_234
10
13.6021723
20
0.1954886
40
0.1860616
50
316.0412958
51
351.9162715
0
ARC
8
DEFAULT_255_1_234
10
13.5288678
20
0.2096245
40
0.2606517
50
351.1056823
51
0.1936567
0
ARC
8
DEFAULT_255_1_234
10
13.5551507
20
0.2126369
40
0.234377
50
359.4789506
51
16.0679113
0
ARC
8
DEFAULT_255_1_234
10
13.6027466
20
0.225481
40
0.1850875
50
16.3251951
51
44.791304
0
ARC
8
DEFAULT_255_1_234
10
13.6009748
20
0.2255339
40
0.186312
50
44.3958661
51
88.2498933
0
ARC
8
DEFAULT_255_1_234
10
13.5936301
20
0.1644154
40
0.2476868
50
86.9833827
51
90.0200148
0
LINE
8
DEFAULT_255_1_234
10
14.9484979
20
-0.6513
11
14.8368567
21
-0.3460939
0
LINE
8
DEFAULT_255_1_234
10
14.8368567
20
-0.3460939
11
14.3469207
21
-0.3460939
0
LINE
8
DEFAULT_255_1_234
10
14.3469207
20
-0.3460939
11
14.2368858
21
-0.6513
0
LINE
8
DEFAULT_255_1_234
10
14.2368858
20
-0.6513
11
14.0778574
21
-0.6513
0
LINE
8
DEFAULT_255_1_234
10
14.0778574
20
-0.6513
11
14.5244221
21
0.5181211
0
LINE
8
DEFAULT_255_1_234
10
14.5244221
20
0.5181211
11
14.6593553
21
0.5181211
0
LINE
8
DEFAULT_255_1_234
10
14.6593553
20
0.5181211
11
15.1067231
21
-0.6513
0
LINE
8
DEFAULT_255_1_234
10
15.1067231
20
-0.6513
11
14.9484979
21
-0.6513
0
LINE
8
DEFAULT_255_1_234
10
14.5918887
20
0.3277689
11
14.3935047
21
-0.2191925
0
LINE
8
DEFAULT_255_1_234
10
14.3935047
20
-0.2191925
11
14.7910758
21
-0.2191925
0
LINE
8
DEFAULT_255_1_234
10
14.7910758
20
-0.2191925
11
14.5918887
21
0.3277689
0
LINE
8
DEFAULT_255_1_234
10
15.5878242
20
-0.6513
11
15.2641452
21
-0.6513
0
LINE
8
DEFAULT_255_1_234
10
15.2641452
20
-0.6513
11
15.2641452
21
0.5181211
0
LINE
8
DEFAULT_255_1_234
10
15.2641452
20
0.5181211
11
15.5942496
21
0.5181211
0
LINE
8
DEFAULT_255_1_234
10
16.1098872
20
-0.0272339
11
16.1098872
21
-0.1019291
0
LINE
8
DEFAULT_255_1_234
10
15.5982655
20
0.3912196
11
15.4183545
21
0.3912196
0
LINE
8
DEFAULT_255_1_234
10
15.4183545
20
0.3912196
11
15.4183545
21
-0.5252017
0
LINE
8
DEFAULT_255_1_234
10
15.4183545
20
-0.5252017
11
15.5805957
21
-0.5252017
0
LINE
8
DEFAULT_255_1_234
10
15.9572842
20
-0.0987164
11
15.9572842
21
-0.0304466
0
ARC
8
DEFAULT_255_1_234
10
15.5981439
20
-0.0684106
40
0.5865446
50
75.4101064
51
90.3804066
0
ARC
8
DEFAULT_255_1_234
10
15.6210952
20
0.0272492
40
0.4881916
50
60.145586
51
75.1888407
0
ARC
8
DEFAULT_255_1_234
10
15.6369728
20
0.0549199
40
0.4562893
50
26.5253612
51
60.1450928
0
ARC
8
DEFAULT_255_1_234
10
15.5249477
20
-0.0044842
40
0.5830602
50
7.4030428
51
26.8320788
0
ARC
8
DEFAULT_255_1_234
10
15.3655234
20
-0.0293196
40
0.7443669
50
0.1605367
51
7.7176192
0
ARC
8
DEFAULT_255_1_234
10
15.3819138
20
-0.1057566
40
0.7279835
50
348.7289388
51
0.3012466
0
ARC
8
DEFAULT_255_1_234
10
15.5475568
20
-0.1386614
40
0.559104
50
333.0706509
51
348.7181832
0
ARC
8
DEFAULT_255_1_234
10
15.6442326
20
-0.1911681
40
0.4491417
50
299.2531685
51
333.4571258
0
ARC
8
DEFAULT_255_1_234
10
15.6081466
20
-0.1226172
40
0.5265881
50
278.107187
51
299.0339503
0
ARC
8
DEFAULT_255_1_234
10
15.5825545
20
0.0281216
40
0.679442
50
270.4443897
51
278.4511052
0
ARC
8
DEFAULT_255_1_234
10
15.5846375
20
-0.0647787
40
0.4604407
50
269.4970433
51
284.0205042
0
ARC
8
DEFAULT_255_1_234
10
15.6201676
20
-0.2013022
40
0.3193797
50
283.7700273
51
318.1555492
0
ARC
8
DEFAULT_255_1_234
10
15.5864434
20
-0.1760633
40
0.3613588
50
318.7415601
51
343.6873628
0
ARC
8
DEFAULT_255_1_234
10
15.4060457
20
-0.1197168
40
0.5503313
50
343.3325091
51
355.8548958
0
ARC
8
DEFAULT_255_1_234
10
15.1962141
20
-0.0997681
40
0.7610708
50
355.4988528
51
0.0791727
0
ARC
8
DEFAULT_255_1_234
10
15.2744764
20
-0.026222
40
0.6828208
50
359.6455037
51
9.8607896
0
ARC
8
DEFAULT_255_1_234
10
15.5105462
20
0.0164099
40
0.4429406
50
9.6571907
51
26.1932807
0
ARC
8
DEFAULT_255_1_234
10
15.6033451
20
0.0595118
40
0.3406537
50
26.5777228
51
40.1532208
0
ARC
8
DEFAULT_255_1_234
10
15.6289177
20
0.0794619
40
0.308246
50
40.3840491
51
80.1431104
0
ARC
8
DEFAULT_255_1_234
10
15.5962295
20
-0.0654667
40
0.4566909
50
79.2152159
51
89.7445637
0
LINE
8
DEFAULT_255_1_234
10
16.3797536
20
0.5181211
11
16.7122676
21
-0.4464907
0
LINE
8
DEFAULT_255_1_234
10
16.7122676
20
-0.4464907
11
17.0463879
21
0.5181211
0
LINE
8
DEFAULT_255_1_234
10
17.0463879
20
0.5181211
11
17.2150544
21
0.5181211
0
LINE
8
DEFAULT_255_1_234
10
17.2150544
20
0.5181211
11
16.7813405
21
-0.6513
0
LINE
8
DEFAULT_255_1_234
10
16.7813405
20
-0.6513
11
16.644801
21
-0.6513
0
LINE
8
DEFAULT_255_1_234
10
16.644801
20
-0.6513
11
16.2118903
21
0.5181211
0
LINE
8
DEFAULT_255_1_234
10
16.2118903
20
0.5181211
11
16.3797536
21
0.5181211
0
LINE
8
DEFAULT_255_1_234
10
11.7257657
20
150.1248565
11
11.7257657
21
150.0501614
0
LINE
8
DEFAULT_255_1_234
10
11.5209563
20
149.5666507
11
11.7297815
21
149.4028033
0
LINE
8
DEFAULT_255_1_234
10
11.7297815
20
149.4028033
11
11.6245658
21
149.3056192
0
LINE
8
DEFAULT_255_1_234
10
11.6245658
20
149.3056192
11
11.3779914
21
149.5015937
0
LINE
8
DEFAULT_255_1_234
10
10.7844459
20
150.0397201
11
10.7844459
21
150.1240534
0
LINE
8
DEFAULT_255_1_234
10
11.5715563
20
150.0389169
11
11.5715563
21
150.1256597
0
LINE
8
DEFAULT_255_1_234
10
10.9386553
20
150.136101
11
10.9386553
21
150.0501614
0
ARC
8
DEFAULT_255_1_234
10
10.8303909
20
150.0462707
40
0.8953833
50
351.453011
51
0.2489685
0
ARC
8
DEFAULT_255_1_234
10
11.0888709
20
150.0062933
40
0.6338333
50
338.6861641
51
351.5540711
0
ARC
8
DEFAULT_255_1_234
10
11.1822593
20
149.9732828
40
0.5348431
50
336.2887631
51
338.3442418
0
ARC
8
DEFAULT_255_1_234
10
11.2162215
20
149.9546698
40
0.4962747
50
321.1170344
51
336.6795229
0
ARC
8
DEFAULT_255_1_234
10
11.2794044
20
149.9060206
40
0.4165565
50
305.4419708
51
320.8705636
0
ARC
8
DEFAULT_255_1_234
10
11.2597514
20
149.9807707
40
0.4935497
50
271.6373023
51
283.8611969
0
ARC
8
DEFAULT_255_1_234
10
11.2559767
20
150.0463572
40
0.5592206
50
269.9930596
51
271.8318864
0
ARC
8
DEFAULT_255_1_234
10
11.252221
20
149.9655681
40
0.4784458
50
252.5219675
51
270.4416499
0
ARC
8
DEFAULT_255_1_234
10
11.2378469
20
149.9116592
40
0.422716
50
237.5352116
51
252.1857531
0
ARC
8
DEFAULT_255_1_234
10
11.2467665
20
149.9230363
40
0.4371052
50
209.063312
51
237.3492538
0
ARC
8
DEFAULT_255_1_234
10
11.3337513
20
149.9776685
40
0.5397041
50
205.1183774
51
209.6470015
0
ARC
8
DEFAULT_255_1_234
10
11.413455
20
150.011483
40
0.6262326
50
188.7215458
51
204.8240747
0
ARC
8
DEFAULT_255_1_234
10
11.6132078
20
150.0451067
40
0.8287794
50
180.3723947
51
188.9252049
0
ARC
8
DEFAULT_255_1_234
10
11.610483
20
150.1280402
40
0.8260467
50
169.5253763
51
180.2765336
0
ARC
8
DEFAULT_255_1_234
10
11.4202279
20
150.1630309
40
0.6326007
50
155.8315255
51
169.5089989
0
ARC
8
DEFAULT_255_1_234
10
11.292178
20
150.2224348
40
0.4914567
50
139.6258461
51
156.0379525
0
ARC
8
DEFAULT_255_1_234
10
11.2332113
20
150.2698799
40
0.4158054
50
122.6416387
51
139.3430715
0
ARC
8
DEFAULT_255_1_234
10
11.2432733
20
150.2515451
40
0.4366739
50
93.0223692
51
122.455762
0
ARC
8
DEFAULT_255_1_234
10
11.254073
20
150.1550709
40
0.5336137
50
89.975342
51
93.6341897
0
ARC
8
DEFAULT_255_1_234
10
11.2579616
20
150.1930375
40
0.4956606
50
73.9665422
51
90.4229648
0
ARC
8
DEFAULT_255_1_234
10
11.2763263
20
150.2645451
40
0.4218674
50
57.5178019
51
73.6813337
0
ARC
8
DEFAULT_255_1_234
10
11.2719046
20
150.2609462
40
0.4272816
50
28.7261108
51
57.2767933
0
ARC
8
DEFAULT_255_1_234
10
11.1808378
20
150.2046688
40
0.534218
50
24.2448911
51
29.3248482
0
ARC
8
DEFAULT_255_1_234
10
11.0882479
20
150.1663819
40
0.6343711
50
9.064382
51
23.9639114
0
ARC
8
DEFAULT_255_1_234
10
10.8626807
20
150.1284925
40
0.8630926
50
359.7586264
51
9.1891435
0
ARC
8
DEFAULT_255_1_234
10
10.7372287
20
150.1298343
40
0.834338
50
359.7133237
51
7.96545
0
ARC
8
DEFAULT_255_1_234
10
11.0334504
20
150.1725681
40
0.5350538
50
7.8291991
51
20.0421623
0
ARC
8
DEFAULT_255_1_234
10
11.1959067
20
150.2316606
40
0.3621841
50
20.0677553
51
35.9161685
0
ARC
8
DEFAULT_255_1_234
10
11.2734105
20
150.289267
40
0.2656263
50
35.6594382
51
85.1578074
0
ARC
8
DEFAULT_255_1_234
10
11.2549361
20
150.1777378
40
0.3784238
50
83.7959068
51
90.095906
0
ARC
8
DEFAULT_255_1_234
10
11.2506295
20
150.2510601
40
0.3051229
50
89.3102392
51
109.9889877
0
ARC
8
DEFAULT_255_1_234
10
11.2423778
20
150.2866433
40
0.2688988
50
110.9285147
51
143.9411762
0
ARC
8
DEFAULT_255_1_234
10
11.3354724
20
150.2154236
40
0.3860887
50
143.5289163
51
163.2980757
0
ARC
8
DEFAULT_255_1_234
10
11.5262545
20
150.1554433
40
0.5860659
50
163.0418846
51
174.3140048
0
ARC
8
DEFAULT_255_1_234
10
11.7666657
20
150.1276854
40
0.8280531
50
174.0509143
51
179.4176892
0
ARC
8
DEFAULT_255_1_234
10
11.7152992
20
150.0458634
40
0.7766558
50
179.6829237
51
188.9631324
0
ARC
8
DEFAULT_255_1_234
10
11.4482553
20
150.0023752
40
0.5060992
50
188.8100743
51
202.9300012
0
ARC
8
DEFAULT_255_1_234
10
11.3266182
20
149.9528855
40
0.3747967
50
203.2069261
51
215.7876482
0
ARC
8
DEFAULT_255_1_234
10
11.2417579
20
149.8857671
40
0.2667526
50
214.7521006
51
264.2834488
0
ARC
8
DEFAULT_255_1_234
10
11.2553234
20
149.971278
40
0.3532247
50
263.4755397
51
270.0949833
0
ARC
8
DEFAULT_255_1_234
10
11.2595345
20
149.9451374
40
0.3271036
50
269.3649385
51
287.5152008
0
ARC
8
DEFAULT_255_1_234
10
11.2773503
20
149.8804238
40
0.2600406
50
288.0630309
51
323.8113348
0
ARC
8
DEFAULT_255_1_234
10
11.1902345
20
149.9454049
40
0.3687189
50
323.6547608
51
342.6590488
0
ARC
8
DEFAULT_255_1_234
10
10.987096
20
150.0114952
40
0.5823286
50
342.4091907
51
353.6451149
0
ARC
8
DEFAULT_255_1_234
10
10.7039471
20
150.046719
40
0.8676442
50
353.4029884
51
359.4847795
0
LINE
8
DEFAULT_255_1_234
10
12.6566441
20
150.0606026
11
12.6566441
21
149.9393234
0
LINE
8
DEFAULT_255_1_234
10
12.6566441
20
149.9393234
11
12.2646953
21
149.9393234
0
LINE
8
DEFAULT_255_1_234
10
12.2646953
20
149.9393234
11
12.2646953
21
150.0606026
0
LINE
8
DEFAULT_255_1_234
10
12.2646953
20
150.0606026
11
12.6566441
21
150.0606026
0
LINE
8
DEFAULT_255_1_234
10
14.0075825
20
150.3344849
11
13.85257
21
150.3344849
0
LINE
8
DEFAULT_255_1_234
10
13.1602341
20
149.8421394
11
13.3152467
21
149.8421394
0
ARC
8
DEFAULT_255_1_234
10
13.9184513
20
151.2291768
40
1.252368
50
248.9199003
51
254.1439814
0
ARC
8
DEFAULT_255_1_234
10
13.7504007
20
150.7965234
40
0.788226
50
241.633709
51
249.0064503
0
ARC
8
DEFAULT_255_1_234
10
13.5975402
20
150.5164317
40
0.4691427
50
230.498225
51
241.8087113
0
ARC
8
DEFAULT_255_1_234
10
13.5190976
20
150.4164906
40
0.3421437
50
227.4064532
51
229.9881192
0
ARC
8
DEFAULT_255_1_234
10
13.4703497
20
150.3689088
40
0.2741476
50
200.6781896
51
228.1763934
0
ARC
8
DEFAULT_255_1_234
10
13.4775807
20
150.3674077
40
0.2804109
50
179.5061581
51
199.8694617
0
ARC
8
DEFAULT_255_1_234
10
13.4766559
20
150.374821
40
0.2795204
50
132.4834203
51
181.0242172
0
ARC
8
DEFAULT_255_1_234
10
13.5362141
20
150.3185704
40
0.3612768
50
129.2532479
51
133.4242687
0
ARC
8
DEFAULT_255_1_234
10
13.5508591
20
150.2965965
40
0.3875675
50
101.98776
51
128.8742646
0
ARC
8
DEFAULT_255_1_234
10
13.5907202
20
150.1244741
40
0.5642249
50
89.5906553
51
102.3169264
0
ARC
8
DEFAULT_255_1_234
10
13.5977694
20
150.1563148
40
0.5323783
50
77.2360837
51
90.3248275
0
ARC
8
DEFAULT_255_1_234
10
13.6184773
20
150.25304
40
0.4334697
50
63.837784
51
77.0809408
0
ARC
8
DEFAULT_255_1_234
10
13.6462535
20
150.3047911
40
0.3747796
50
45.9864267
51
64.1607727
0
ARC
8
DEFAULT_255_1_234
10
13.6723416
20
150.3345866
40
0.3352302
50
32.2747395
51
45.6547121
0
ARC
8
DEFAULT_255_1_234
10
13.6789857
20
150.336488
40
0.328603
50
359.6507365
51
32.6130309
0
ARC
8
DEFAULT_255_1_234
10
13.5846952
20
150.336966
40
0.2678863
50
359.469343
51
14.9832209
0
ARC
8
DEFAULT_255_1_234
10
13.6552014
20
150.3558539
40
0.1948938
50
14.9781179
51
48.2004265
0
ARC
8
DEFAULT_255_1_234
10
13.6387658
20
150.3351983
40
0.2212521
50
48.5927837
51
74.1241538
0
ARC
8
DEFAULT_255_1_234
10
13.6054148
20
150.2251248
40
0.3362561
50
73.7888341
51
86.6652678
0
ARC
8
DEFAULT_255_1_234
10
13.5951714
20
150.1043881
40
0.4573953
50
86.2640471
51
90.0526343
0
ARC
8
DEFAULT_255_1_234
10
13.5923426
20
150.1439192
40
0.4178709
50
89.6697524
51
99.2309573
0
ARC
8
DEFAULT_255_1_234
10
13.5680877
20
150.2883964
40
0.2713749
50
99.069534
51
113.7658566
0
ARC
8
DEFAULT_255_1_234
10
13.5407068
20
150.3529677
40
0.2012469
50
114.0401004
51
127.9850673
0
ARC
8
DEFAULT_255_1_234
10
13.5166632
20
150.382573
40
0.1631167
50
127.7287463
51
176.7105154
0
ARC
8
DEFAULT_255_1_234
10
13.5845349
20
150.3724693
40
0.2315392
50
175.1779447
51
180.0581938
0
ARC
8
DEFAULT_255_1_234
10
13.5002196
20
150.3712428
40
0.1472271
50
179.6142195
51
228.1246017
0
ARC
8
DEFAULT_255_1_234
10
13.5443865
20
150.4121308
40
0.2072299
50
226.5779593
51
230.8800004
0
ARC
8
DEFAULT_255_1_234
10
13.5914944
20
150.4746636
40
0.2854818
50
231.4635071
51
241.9260842
0
ARC
8
DEFAULT_255_1_234
10
13.7112122
20
150.69498
40
0.53622
50
241.7178533
51
248.3259551
0
ARC
8
DEFAULT_255_1_234
10
13.8497493
20
151.0382064
40
0.9063478
50
248.2007737
51
252.4528373
0
ARC
8
DEFAULT_255_1_234
10
13.9701218
20
151.4103441
40
1.2974635
50
252.3391078
51
254.3469452
0
ARC
8
DEFAULT_255_1_234
10
13.2158921
20
148.7126148
40
1.5037162
50
71.0197183
51
74.4087047
0
ARC
8
DEFAULT_255_1_234
10
13.3853606
20
149.2018111
40
0.9859993
50
66.1847285
51
71.086374
0
ARC
8
DEFAULT_255_1_234
10
13.5409918
20
149.55222
40
0.6025855
50
59.3536294
51
66.2691831
0
ARC
8
DEFAULT_255_1_234
10
13.6298571
20
149.7025609
40
0.4279449
50
49.1020879
51
59.3293958
0
ARC
8
DEFAULT_255_1_234
10
13.7117311
20
149.7958834
40
0.3038015
50
32.7919921
51
49.2505539
0
ARC
8
DEFAULT_255_1_234
10
13.7438401
20
149.8187191
40
0.264448
50
31.1181161
51
32.4005348
0
ARC
8
DEFAULT_255_1_234
10
13.7349938
20
149.8151779
40
0.2738556
50
8.1116974
51
30.7958831
0
ARC
8
DEFAULT_255_1_234
10
13.6539607
20
149.8013753
40
0.3560327
50
359.8389159
51
8.4706516
0
ARC
8
DEFAULT_255_1_234
10
13.7165398
20
149.7965137
40
0.2934776
50
337.4731098
51
0.7537279
0
ARC
8
DEFAULT_255_1_234
10
13.7344093
20
149.7945387
40
0.2762607
50
307.5917067
51
336.4315538
0
ARC
8
DEFAULT_255_1_234
10
13.6883921
20
149.8458102
40
0.3449979
50
307.6551545
51
308.4529766
0
ARC
8
DEFAULT_255_1_234
10
13.665364
20
149.881325
40
0.3871988
50
284.3734338
51
307.1424381
0
ARC
8
DEFAULT_255_1_234
10
13.615847
20
150.0634932
40
0.5759636
50
272.4382747
51
284.646547
0
ARC
8
DEFAULT_255_1_234
10
13.6031679
20
150.2434893
40
0.7563528
50
269.9708387
51
272.8178037
0
ARC
8
DEFAULT_255_1_234
10
13.5988718
20
150.0396716
40
0.5525489
50
248.2707594
51
270.4055579
0
ARC
8
DEFAULT_255_1_234
10
13.5934459
20
150.0206192
40
0.5328452
50
246.1383403
51
248.0542782
0
ARC
8
DEFAULT_255_1_234
10
13.5515838
20
149.9326843
40
0.4355005
50
233.1670131
51
246.4950969
0
ARC
8
DEFAULT_255_1_234
10
13.4961743
20
149.8578812
40
0.3424126
50
215.3403242
51
233.0843104
0
ARC
8
DEFAULT_255_1_234
10
13.4689175
20
149.8380549
40
0.3087104
50
179.2419209
51
215.2648451
0
ARC
8
DEFAULT_255_1_234
10
13.5456768
20
149.8394666
40
0.2304457
50
179.335461
51
199.1045811
0
ARC
8
DEFAULT_255_1_234
10
13.5124445
20
149.8307766
40
0.1962176
50
199.8828939
51
232.7063202
0
ARC
8
DEFAULT_255_1_234
10
13.5596713
20
149.8901788
40
0.2720938
50
232.3738199
51
255.5136649
0
ARC
8
DEFAULT_255_1_234
10
13.593758
20
150.0145835
40
0.4010747
50
255.2446292
51
267.5320849
0
ARC
8
DEFAULT_255_1_234
10
13.6025203
20
150.1378702
40
0.5246356
50
267.1557994
51
270.0286766
0
ARC
8
DEFAULT_255_1_234
10
13.6052976
20
150.093495
40
0.4802668
50
269.7000017
51
278.1660162
0
ARC
8
DEFAULT_255_1_234
10
13.630898
20
149.9204515
40
0.3053425
50
278.0231263
51
290.625471
0
ARC
8
DEFAULT_255_1_234
10
13.6656667
20
149.8277025
40
0.206291
50
290.6619762
51
307.0370976
0
ARC
8
DEFAULT_255_1_234
10
13.6957057
20
149.7908504
40
0.1587906
50
306.3943566
51
355.3030547
0
ARC
8
DEFAULT_255_1_234
10
13.6444988
20
149.7985113
40
0.2104809
50
354.3660432
51
0.0698737
0
ARC
8
DEFAULT_255_1_234
10
13.6587333
20
149.8007617
40
0.1962563
50
359.417946
51
16.1971788
0
ARC
8
DEFAULT_255_1_234
10
13.7042644
20
149.8132418
40
0.149053
50
16.4723299
51
52.6262157
0
ARC
8
DEFAULT_255_1_234
10
13.6221698
20
149.7048433
40
0.2850296
50
52.7386432
51
62.4979148
0
ARC
8
DEFAULT_255_1_234
10
13.4836774
20
149.4442283
40
0.5801521
50
62.2515216
51
68.1220564
0
ARC
8
DEFAULT_255_1_234
10
13.3116685
20
149.0214872
40
1.0365451
50
68.0062803
51
71.8053402
0
ARC
8
DEFAULT_255_1_234
10
13.1321057
20
148.4829758
40
1.6042013
50
71.7183119
51
73.9258742
0
LINE
8
DEFAULT_255_1_234
10
14.1465316
20
149.9136218
11
14.1465316
21
149.9409297
0
LINE
8
DEFAULT_255_1_234
10
14.8838452
20
149.9569932
11
14.8838452
21
149.8951488
0
LINE
8
DEFAULT_255_1_234
10
14.8838452
20
149.8951488
11
14.2951188
21
149.8951488
0
LINE
8
DEFAULT_255_1_234
10
14.7818421
20
149.7256792
11
14.8726007
21
149.6549999
0
LINE
8
DEFAULT_255_1_234
10
14.2999378
20
150.0172312
11
14.735258
21
150.0172312
0
LINE
8
DEFAULT_255_1_234
10
14.735258
20
150.0172312
11
14.735258
21
150.0284757
0
ARC
8
DEFAULT_255_1_234
10
14.5404681
20
149.9247332
40
0.4376191
50
252.3266134
51
270.5810217
0
ARC
8
DEFAULT_255_1_234
10
14.519977
20
149.8506644
40
0.3608374
50
223.3000567
51
251.8561855
0
ARC
8
DEFAULT_255_1_234
10
14.5411131
20
149.8711937
40
0.3902993
50
190.9374509
51
223.3654032
0
ARC
8
DEFAULT_255_1_234
10
14.7136103
20
149.9101885
40
0.5670891
50
179.6531105
51
191.4989439
0
ARC
8
DEFAULT_255_1_234
10
14.7258115
20
149.9441417
40
0.5792888
50
167.4007466
51
180.3176909
0
ARC
8
DEFAULT_255_1_234
10
14.6206177
20
149.9663885
40
0.471777
50
154.1835823
51
167.250763
0
ARC
8
DEFAULT_255_1_234
10
14.5574644
20
149.9996417
40
0.4004528
50
134.3149965
51
154.5315275
0
ARC
8
DEFAULT_255_1_234
10
14.5357139
20
150.0187228
40
0.371612
50
122.8616532
51
133.9707695
0
ARC
8
DEFAULT_255_1_234
10
14.5253714
20
150.0409703
40
0.3473289
50
89.8249009
51
123.4199222
0
ARC
8
DEFAULT_255_1_234
10
14.5303755
20
149.9762967
40
0.4120197
50
74.7876118
51
90.5482747
0
ARC
8
DEFAULT_255_1_234
10
14.5597498
20
150.084803
40
0.2996077
50
39.8178249
51
74.7633718
0
ARC
8
DEFAULT_255_1_234
10
14.5084818
20
150.0448351
40
0.3645855
50
16.8990863
51
39.4829761
0
ARC
8
DEFAULT_255_1_234
10
14.3190114
20
149.9841526
40
0.5635218
50
4.9636328
51
17.2026414
0
ARC
8
DEFAULT_255_1_234
10
14.0772185
20
149.958634
40
0.8066286
50
359.8834553
51
5.2834307
0
ARC
8
DEFAULT_255_1_234
10
14.6809709
20
149.9017803
40
0.3859091
50
180.9846213
51
194.9401313
0
ARC
8
DEFAULT_255_1_234
10
14.5759987
20
149.8730849
40
0.2770883
50
194.80314
51
222.0412631
0
ARC
8
DEFAULT_255_1_234
10
14.5455869
20
149.8429116
40
0.2343055
50
221.5417084
51
268.8614402
0
ARC
8
DEFAULT_255_1_234
10
14.5528863
20
149.9105686
40
0.3021528
50
267.732405
51
270.0097136
0
ARC
8
DEFAULT_255_1_234
10
14.5546673
20
149.9307105
40
0.3222994
50
269.6924892
51
280.4117579
0
ARC
8
DEFAULT_255_1_234
10
14.572308
20
149.8388193
40
0.2287344
50
280.2255091
51
298.6338936
0
ARC
8
DEFAULT_255_1_234
10
14.5839872
20
149.8144223
40
0.2017294
50
299.0430333
51
300.4643464
0
ARC
8
DEFAULT_255_1_234
10
14.5159878
20
149.9278038
40
0.3339357
50
300.6577328
51
322.0378878
0
ARC
8
DEFAULT_255_1_234
10
14.4809417
20
149.9582021
40
0.3802736
50
321.6750233
51
322.3046845
0
ARC
8
DEFAULT_255_1_234
10
14.5740378
20
149.841537
40
0.3520454
50
276.9728461
51
328.0035423
0
ARC
8
DEFAULT_255_1_234
10
14.5463431
20
149.9895841
40
0.5024498
50
269.8361028
51
278.0581756
0
ARC
8
DEFAULT_255_1_234
10
14.5236168
20
150.0640757
40
0.202159
50
89.2018686
51
117.2851756
0
ARC
8
DEFAULT_255_1_234
10
14.5289337
20
150.0598752
40
0.2083484
50
118.0551165
51
137.4540413
0
ARC
8
DEFAULT_255_1_234
10
14.5664077
20
150.0258304
40
0.2589774
50
137.5109581
51
158.8516286
0
ARC
8
DEFAULT_255_1_234
10
14.6801913
20
149.9799074
40
0.38167
50
158.5845963
51
170.1721436
0
ARC
8
DEFAULT_255_1_234
10
14.7971302
20
149.9566823
40
0.5008657
50
169.8376422
51
173.0566086
0
ARC
8
DEFAULT_255_1_234
10
14.3274376
20
150.0077509
40
0.4083467
50
2.9091802
51
12.8847116
0
ARC
8
DEFAULT_255_1_234
10
14.4645053
20
150.0400101
40
0.2675383
50
12.6957781
51
28.6404489
0
ARC
8
DEFAULT_255_1_234
10
14.5186723
20
150.0680458
40
0.2065654
50
29.0169854
51
41.1487595
0
ARC
8
DEFAULT_255_1_234
10
14.5389509
20
150.0857003
40
0.1796786
50
41.1646065
51
85.0013516
0
ARC
8
DEFAULT_255_1_234
10
14.5268605
20
150.0122431
40
0.2539726
50
83.7280015
51
90.0964893
0
LINE
8
DEFAULT_255_1_234
10
15.4757843
20
150.3770531
11
15.4757843
21
150.2389072
0
LINE
8
DEFAULT_255_1_234
10
15.2043115
20
150.1200375
11
15.2043115
21
149.5032
0
LINE
8
DEFAULT_255_1_234
10
15.2043115
20
149.5032
11
15.0557244
21
149.5032
0
LINE
8
DEFAULT_255_1_234
10
15.0557244
20
149.5032
11
15.0557244
21
150.3722341
0
LINE
8
DEFAULT_255_1_234
10
15.0557244
20
150.3722341
11
15.2002957
21
150.3722341
0
LINE
8
DEFAULT_255_1_234
10
15.2002957
20
150.3722341
11
15.2027052
21
150.2718374
0
ARC
8
DEFAULT_255_1_234
10
15.4091248
20
149.8329342
40
0.4114092
50
80.6754243
51
86.8932892
0
ARC
8
DEFAULT_255_1_234
10
15.4030783
20
149.73617
40
0.5083596
50
86.8038578
51
90.0431435
0
ARC
8
DEFAULT_255_1_234
10
15.3993763
20
149.9818866
40
0.2626638
50
89.2759698
51
106.6213787
0
ARC
8
DEFAULT_255_1_234
10
15.3789327
20
150.056183
40
0.1856317
50
107.1346045
51
157.6458115
0
ARC
8
DEFAULT_255_1_234
10
15.4480929
20
150.0178311
40
0.2643398
50
155.6586782
51
157.2539184
0
ARC
8
DEFAULT_255_1_234
10
15.4276131
20
150.1347157
40
0.2634121
50
127.8165941
51
148.6302098
0
ARC
8
DEFAULT_255_1_234
10
15.40226
20
150.1607218
40
0.2273596
50
91.3329982
51
126.7875809
0
ARC
8
DEFAULT_255_1_234
10
15.409854
20
150.0892195
40
0.299078
50
89.986594
51
92.4688449
0
ARC
8
DEFAULT_255_1_234
10
15.4106935
20
150.1167078
40
0.2715908
50
85.3589899
51
90.1623399
0
ARC
8
DEFAULT_255_1_234
10
15.4191451
20
150.2171164
40
0.1708278
50
78.401942
51
85.4594656
0
ARC
8
DEFAULT_255_1_234
10
15.4336335
20
150.2862236
40
0.1002194
50
67.7858312
51
78.5728455
0
ARC
8
DEFAULT_255_1_234
10
15.4444188
20
150.3141887
40
0.0702548
50
63.4835954
51
67.3062642
0
LINE
8
DEFAULT_255_1_234
10
15.7737618
20
150.3722341
11
15.7737618
21
149.5032
0
LINE
8
DEFAULT_255_1_234
10
15.7737618
20
149.5032
11
15.6251746
21
149.5032
0
LINE
8
DEFAULT_255_1_234
10
15.6251746
20
149.5032
11
15.6251746
21
150.3722341
0
LINE
8
DEFAULT_255_1_234
10
15.6251746
20
150.3722341
11
15.7737618
21
150.3722341
0
ARC
8
DEFAULT_255_1_234
10
15.7109895
20
150.6036889
40
0.097867
50
161.415052
51
180.5526306
0
ARC
8
DEFAULT_255_1_234
10
15.6985673
20
150.6071077
40
0.0850062
50
138.1827368
51
160.9307106
0
ARC
8
DEFAULT_255_1_234
10
15.6875619
20
150.6166588
40
0.0704362
50
104.6368899
51
138.0039868
0
ARC
8
DEFAULT_255_1_234
10
15.6982773
20
150.5799963
40
0.1086221
50
92.0600725
51
105.2189128
0
ARC
8
DEFAULT_255_1_234
10
15.7006122
20
150.5457117
40
0.1429728
50
89.9756393
51
92.5012496
0
ARC
8
DEFAULT_255_1_234
10
15.7016141
20
150.5682731
40
0.1204151
50
78.0235316
51
90.4478182
0
ARC
8
DEFAULT_255_1_234
10
15.7108233
20
150.6096295
40
0.0780493
50
55.051506
51
78.3369085
0
ARC
8
DEFAULT_255_1_234
10
15.7158507
20
150.6180711
40
0.0682538
50
42.0501187
51
54.4513741
0
ARC
8
DEFAULT_255_1_234
10
15.7023374
20
150.6056798
40
0.0865878
50
1.7497075
51
42.1496013
0
ARC
8
DEFAULT_255_1_234
10
15.6768707
20
150.6027738
40
0.1121515
50
359.9852656
51
2.8364544
0
ARC
8
DEFAULT_255_1_234
10
15.6934699
20
150.6018229
40
0.0955566
50
342.1070653
51
0.552888
0
ARC
8
DEFAULT_255_1_234
10
15.7077397
20
150.5978904
40
0.0807713
50
316.7107116
51
341.6516965
0
ARC
8
DEFAULT_255_1_234
10
15.7144434
20
150.5918823
40
0.0717724
50
285.4397031
51
316.5324284
0
ARC
8
DEFAULT_255_1_234
10
15.7034351
20
150.6284554
40
0.1099597
50
272.3547054
51
285.8953117
0
ARC
8
DEFAULT_255_1_234
10
15.7007509
20
150.6650048
40
0.1465932
50
269.9695369
51
272.8160237
0
ARC
8
DEFAULT_255_1_234
10
15.699769
20
150.6430863
40
0.1246779
50
258.8431134
51
270.4153935
0
ARC
8
DEFAULT_255_1_234
10
15.6907733
20
150.5995414
40
0.0802162
50
238.5431189
51
259.1288175
0
ARC
8
DEFAULT_255_1_234
10
15.6839618
20
150.5871856
40
0.0661247
50
222.5062634
51
237.9906969
0
ARC
8
DEFAULT_255_1_234
10
15.6967205
20
150.5987889
40
0.0833707
50
184.1069131
51
222.460413
0
ARC
8
DEFAULT_255_1_234
10
15.7236446
20
150.6026349
40
0.1105176
50
179.9429482
51
185.0960898
0
LINE
8
DEFAULT_255_1_234
10
15.9737521
20
149.9136218
11
15.9737521
21
149.9409297
0
LINE
8
DEFAULT_255_1_234
10
16.7110656
20
149.9569932
11
16.7110656
21
149.8951488
0
LINE
8
DEFAULT_255_1_234
10
16.7110656
20
149.8951488
11
16.1223392
21
149.8951488
0
LINE
8
DEFAULT_255_1_234
10
16.6090625
20
149.7256792
11
16.6998212
21
149.6549999
0
LINE
8
DEFAULT_255_1_234
10
16.1271583
20
150.0172312
11
16.5624785
21
150.0172312
0
LINE
8
DEFAULT_255_1_234
10
16.5624785
20
150.0172312
11
16.5624785
21
150.0284757
0
ARC
8
DEFAULT_255_1_234
10
16.3676886
20
149.9247332
40
0.4376191
50
252.3266134
51
270.5810217
0
ARC
8
DEFAULT_255_1_234
10
16.3471975
20
149.8506644
40
0.3608374
50
223.3000567
51
251.8561855
0
ARC
8
DEFAULT_255_1_234
10
16.3683335
20
149.8711937
40
0.3902993
50
190.9374509
51
223.3654032
0
ARC
8
DEFAULT_255_1_234
10
16.5408308
20
149.9101885
40
0.5670891
50
179.6531105
51
191.4989439
0
ARC
8
DEFAULT_255_1_234
10
16.553032
20
149.9441417
40
0.5792888
50
167.4007466
51
180.3176909
0
ARC
8
DEFAULT_255_1_234
10
16.4478381
20
149.9663885
40
0.471777
50
154.1835823
51
167.250763
0
ARC
8
DEFAULT_255_1_234
10
16.3846849
20
149.9996417
40
0.4004528
50
134.3149965
51
154.5315275
0
ARC
8
DEFAULT_255_1_234
10
16.3629344
20
150.0187228
40
0.371612
50
122.8616532
51
133.9707695
0
ARC
8
DEFAULT_255_1_234
10
16.3525918
20
150.0409703
40
0.3473289
50
89.8249009
51
123.4199222
0
ARC
8
DEFAULT_255_1_234
10
16.3575959
20
149.9762967
40
0.4120197
50
74.7876118
51
90.5482747
0
ARC
8
DEFAULT_255_1_234
10
16.3869702
20
150.084803
40
0.2996077
50
39.8178249
51
74.7633718
0
ARC
8
DEFAULT_255_1_234
10
16.3357023
20
150.0448351
40
0.3645855
50
16.8990863
51
39.4829761
0
ARC
8
DEFAULT_255_1_234
10
16.1462319
20
149.9841526
40
0.5635218
50
4.9636328
51
17.2026414
0
ARC
8
DEFAULT_255_1_234
10
15.9044389
20
149.958634
40
0.8066286
50
359.8834553
51
5.2834307
0
ARC
8
DEFAULT_255_1_234
10
16.5081914
20
149.9017803
40
0.3859091
50
180.9846213
51
194.9401313
0
ARC
8
DEFAULT_255_1_234
10
16.4032191
20
149.8730849
40
0.2770883
50
194.80314
51
222.0412631
0
ARC
8
DEFAULT_255_1_234
10
16.3728073
20
149.8429116
40
0.2343055
50
221.5417084
51
268.8614402
0
ARC
8
DEFAULT_255_1_234
10
16.3801068
20
149.9105686
40
0.3021528
50
267.732405
51
270.0097136
0
ARC
8
DEFAULT_255_1_234
10
16.3818878
20
149.9307105
40
0.3222994
50
269.6924892
51
280.4117579
0
ARC
8
DEFAULT_255_1_234
10
16.3995285
20
149.8388193
40
0.2287344
50
280.2255091
51
298.6338936
0
ARC
8
DEFAULT_255_1_234
10
16.4112077
20
149.8144223
40
0.2017294
50
299.0430333
51
300.4643464
0
ARC
8
DEFAULT_255_1_234
10
16.3432082
20
149.9278038
40
0.3339357
50
300.6577328
51
322.0378878
0
ARC
8
DEFAULT_255_1_234
10
16.3081621
20
149.9582021
40
0.3802736
50
321.6750233
51
322.3046845
0
ARC
8
DEFAULT_255_1_234
10
16.4012583
20
149.841537
40
0.3520454
50
276.9728461
51
328.0035423
0
ARC
8
DEFAULT_255_1_234
10
16.3735635
20
149.9895841
40
0.5024498
50
269.8361028
51
278.0581756
0
ARC
8
DEFAULT_255_1_234
10
16.3508373
20
150.0640757
40
0.202159
50
89.2018686
51
117.2851756
0
ARC
8
DEFAULT_255_1_234
10
16.3561542
20
150.0598752
40
0.2083484
50
118.0551165
51
137.4540413
0
ARC
8
DEFAULT_255_1_234
10
16.3936282
20
150.0258304
40
0.2589774
50
137.5109581
51
158.8516286
0
ARC
8
DEFAULT_255_1_234
10
16.5074117
20
149.9799074
40
0.38167
50
158.5845963
51
170.1721436
0
ARC
8
DEFAULT_255_1_234
10
16.6243507
20
149.9566823
40
0.5008657
50
169.8376422
51
173.0566086
0
ARC
8
DEFAULT_255_1_234
10
16.1546581
20
150.0077509
40
0.4083467
50
2.9091802
51
12.8847116
0
ARC
8
DEFAULT_255_1_234
10
16.2917257
20
150.0400101
40
0.2675383
50
12.6957781
51
28.6404489
0
ARC
8
DEFAULT_255_1_234
10
16.3458928
20
150.0680458
40
0.2065654
50
29.0169854
51
41.1487595
0
ARC
8
DEFAULT_255_1_234
10
16.3661713
20
150.0857003
40
0.1796786
50
41.1646065
51
85.0013516
0
ARC
8
DEFAULT_255_1_234
10
16.354081
20
150.0122431
40
0.2539726
50
83.7280015
51
90.0964893
0
LINE
8
DEFAULT_255_1_234
10
17.5294998
20
150.1168248
11
17.3801094
21
150.1168248
0
LINE
8
DEFAULT_255_1_234
10
16.846802
20
149.7706569
11
16.9953892
21
149.7706569
0
ARC
8
DEFAULT_255_1_234
10
17.2612913
20
149.7351959
40
0.1276617
50
359.3334982
51
18.5871358
0
ARC
8
DEFAULT_255_1_234
10
17.282155
20
149.7407133
40
0.1061371
50
19.3540742
51
54.6485071
0
ARC
8
DEFAULT_255_1_234
10
17.2317452
20
149.6711919
40
0.1920087
50
54.3827097
51
65.0622807
0
ARC
8
DEFAULT_255_1_234
10
17.1548848
20
149.50949
40
0.3710447
50
64.8282493
51
71.4200025
0
ARC
8
DEFAULT_255_1_234
10
17.0646724
20
149.2448107
40
0.6506741
50
71.3164301
51
75.8006402
0
ARC
8
DEFAULT_255_1_234
10
16.9805544
20
148.9207561
40
0.9854641
50
75.6809531
51
78.0061883
0
ARC
8
DEFAULT_255_1_234
10
17.4254077
20
151.018677
40
1.1591028
50
254.6901892
51
258.0466452
0
ARC
8
DEFAULT_255_1_234
10
17.3215985
20
150.6427781
40
0.7691345
50
249.9010773
51
254.755261
0
ARC
8
DEFAULT_255_1_234
10
17.2212327
20
150.3701982
40
0.478665
50
243.3097214
51
249.9709442
0
ARC
8
DEFAULT_255_1_234
10
17.1583349
20
150.2447778
40
0.3383568
50
234.4047477
51
243.2862168
0
ARC
8
DEFAULT_255_1_234
10
17.0960872
20
150.1588232
40
0.2322322
50
220.8667099
51
234.5493881
0
ARC
8
DEFAULT_255_1_234
10
17.0618813
20
150.1276817
40
0.1859923
50
214.3062465
51
220.5065136
0
ARC
8
DEFAULT_255_1_234
10
17.0592892
20
150.124588
40
0.1821108
50
186.912965
51
213.9618616
0
ARC
8
DEFAULT_255_1_234
10
17.1124987
20
150.1332009
40
0.2359799
50
179.8808832
51
187.4339886
0
ARC
8
DEFAULT_255_1_234
10
17.097012
20
150.1352088
40
0.2204978
50
132.005434
51
180.3942919
0
ARC
8
DEFAULT_255_1_234
10
17.1626734
20
150.0746083
40
0.3095791
50
129.2319861
51
133.5302299
0
ARC
8
DEFAULT_255_1_234
10
17.1680242
20
150.0651928
40
0.3202615
50
100.4410011
51
128.9081242
0
ARC
8
DEFAULT_255_1_234
10
17.1954126
20
149.9366455
40
0.4516583
50
89.6985377
51
100.9026564
0
ARC
8
DEFAULT_255_1_234
10
17.2011168
20
149.9206166
40
0.4676928
50
77.6965325
51
90.4076836
0
ARC
8
DEFAULT_255_1_234
10
17.2342152
20
150.0633413
40
0.3211988
50
50.7276602
51
78.0399361
0
ARC
8
DEFAULT_255_1_234
10
17.278661
20
150.1151296
40
0.2529778
50
25.7545084
51
51.0957453
0
ARC
8
DEFAULT_255_1_234
10
17.2787835
20
150.1201206
40
0.250738
50
359.2468627
51
24.7394243
0
ARC
8
DEFAULT_255_1_234
10
17.2503287
20
150.1172664
40
0.1297815
50
359.8050318
51
45.1544908
0
ARC
8
DEFAULT_255_1_234
10
17.2096429
20
150.0824794
40
0.1831883
50
43.8047702
51
49.6271585
0
ARC
8
DEFAULT_255_1_234
10
17.210433
20
150.0825678
40
0.18261
50
49.7980766
51
82.1218353
0
ARC
8
DEFAULT_255_1_234
10
17.1985302
20
150.0178998
40
0.2483163
50
81.4465357
51
90.1710293
0
ARC
8
DEFAULT_255_1_234
10
17.1960905
20
149.965288
40
0.300932
50
89.6766211
51
99.1264602
0
ARC
8
DEFAULT_255_1_234
10
17.1789367
20
150.0686537
40
0.1961547
50
98.968313
51
113.4570237
0
ARC
8
DEFAULT_255_1_234
10
17.1593452
20
150.1154965
40
0.1453859
50
113.722589
51
127.4763106
0
ARC
8
DEFAULT_255_1_234
10
17.1425098
20
150.1355124
40
0.1192639
50
126.9083309
51
150.3165862
0
ARC
8
DEFAULT_255_1_234
10
17.1377431
20
150.1405981
40
0.112623
50
151.3635175
51
180.0701457
0
ARC
8
DEFAULT_255_1_234
10
17.1686215
20
150.138499
40
0.1435149
50
179.2169974
51
179.9954013
0
ARC
8
DEFAULT_255_1_234
10
17.1325273
20
150.1372056
40
0.1074286
50
179.3040112
51
198.4225446
0
ARC
8
DEFAULT_255_1_234
10
17.1133406
20
150.1322127
40
0.0876573
50
199.2895851
51
238.6034594
0
ARC
8
DEFAULT_255_1_234
10
17.1736253
20
150.226845
40
0.1998512
50
237.9846301
51
246.8744712
0
ARC
8
DEFAULT_255_1_234
10
17.2594198
20
150.4231205
40
0.4140547
50
246.6234531
51
251.8168941
0
ARC
8
DEFAULT_255_1_234
10
17.3624741
20
150.7325905
40
0.7402308
50
251.713434
51
255.0778414
0
ARC
8
DEFAULT_255_1_234
10
17.4824004
20
151.1792563
40
1.2027155
50
255.0367487
51
257.4705983
0
ARC
8
DEFAULT_255_1_234
10
16.9716014
20
148.8778863
40
1.1546601
50
73.6837552
51
77.5016755
0
ARC
8
DEFAULT_255_1_234
10
17.0804789
20
149.2478581
40
0.7690009
50
68.7044154
51
73.7249639
0
ARC
8
DEFAULT_255_1_234
10
17.1707809
20
149.4805654
40
0.5193873
50
63.590599
51
68.6626804
0
ARC
8
DEFAULT_255_1_234
10
17.2478828
20
149.6343123
40
0.3473927
50
54.7106439
51
63.7013633
0
ARC
8
DEFAULT_255_1_234
10
17.3103283
20
149.72154
40
0.2401192
50
41.0622434
51
54.8487496
0
ARC
8
DEFAULT_255_1_234
10
17.3444669
20
149.7528592
40
0.1938094
50
34.4950568
51
40.7105546
0
ARC
8
DEFAULT_255_1_234
10
17.3491477
20
149.7577078
40
0.1872106
50
9.3763373
51
34.0833615
0
ARC
8
DEFAULT_255_1_234
10
17.2838347
20
149.7451728
40
0.2536988
50
359.7694872
51
9.7663171
0
ARC
8
DEFAULT_255_1_234
10
17.3035848
20
149.7408764
40
0.2339696
50
335.8654732
51
0.8022045
0
ARC
8
DEFAULT_255_1_234
10
17.3110892
20
149.7422197
40
0.2277108
50
307.7357725
51
334.7849066
0
ARC
8
DEFAULT_255_1_234
10
17.2710068
20
149.7872645
40
0.2878951
50
307.0241536
51
308.5578354
0
ARC
8
DEFAULT_255_1_234
10
17.2452399
20
149.8258801
40
0.3342515
50
282.9362969
51
306.5646424
0
ARC
8
DEFAULT_255_1_234
10
17.2090697
20
149.9726108
40
0.4853615
50
271.1026298
51
283.2200835
0
ARC
8
DEFAULT_255_1_234
10
17.2026941
20
150.0967418
40
0.6096052
50
269.9919117
51
271.4772449
0
ARC
8
DEFAULT_255_1_234
10
17.2000696
20
149.9889436
40
0.5018135
50
259.0723564
51
270.289833
0
ARC
8
DEFAULT_255_1_234
10
17.1788428
20
149.8772271
40
0.388099
50
245.4963068
51
259.0227342
0
ARC
8
DEFAULT_255_1_234
10
17.1510384
20
149.8190615
40
0.3236422
50
228.9684658
51
245.7044727
0
ARC
8
DEFAULT_255_1_234
10
17.1244828
20
149.7863575
40
0.2815426
50
214.4011705
51
228.6759915
0
ARC
8
DEFAULT_255_1_234
10
17.0955569
20
149.770529
40
0.2487548
50
179.9705531
51
215.1572795
0
ARC
8
DEFAULT_255_1_234
10
17.1656168
20
149.7778806
40
0.1703809
50
182.4299387
51
203.0329699
0
ARC
8
DEFAULT_255_1_234
10
17.1471826
20
149.7722396
40
0.1512226
50
203.798802
51
232.548466
0
ARC
8
DEFAULT_255_1_234
10
17.1748347
20
149.8073826
40
0.1959374
50
232.3782728
51
256.3934612
0
ARC
8
DEFAULT_255_1_234
10
17.1978709
20
149.8963842
40
0.2878639
50
256.104506
51
268.4626716
0
ARC
8
DEFAULT_255_1_234
10
17.2025193
20
149.9760487
40
0.3676329
50
268.0715632
51
270.0138206
0
ARC
8
DEFAULT_255_1_234
10
17.2043718
20
149.9488083
40
0.3403971
50
269.7031147
51
278.8341955
0
ARC
8
DEFAULT_255_1_234
10
17.2225811
20
149.8357876
40
0.2259217
50
278.6728789
51
292.8232582
0
ARC
8
DEFAULT_255_1_234
10
17.2426349
20
149.7856449
40
0.171929
50
293.1452328
51
303.6655899
0
ARC
8
DEFAULT_255_1_234
10
17.2691228
20
149.7480204
40
0.1259367
50
303.1248165
51
321.742847
0
ARC
8
DEFAULT_255_1_234
10
17.2877109
20
149.7317156
40
0.1012531
50
322.4748573
51
1.1291126
0
LINE
8
DEFAULT_255_2_778
10
10.5738396
20
152.0275073
11
9.3932396
21
152.0275073
0
LINE
8
DEFAULT_255_2_778
10
9.3932396
20
152.0275073
11
9.9837396
21
153.0501073
0
LINE
8
DEFAULT_255_2_778
10
9.9837396
20
153.0501073
11
11.1643396
21
153.0501073
0
LINE
8
DEFAULT_255_2_778
10
11.1643396
20
153.0501073
11
10.5738396
21
152.0275073
0
LINE
8
DEFAULT_255_2_778
10
10.5738396
20
152.0275073
11
10.5738396
21
152.0275073
0
LINE
8
DEFAULT_255_2_778
10
11.7546396
20
152.0275073
11
12.9354396
21
152.0275073
0
LINE
8
DEFAULT_255_2_778
10
12.9354396
20
152.0275073
11
12.3451396
21
153.0501073
0
LINE
8
DEFAULT_255_2_778
10
12.3451396
20
153.0501073
11
11.1643396
21
153.0501073
0
LINE
8
DEFAULT_255_2_778
10
11.1643396
20
153.0501073
11
11.7546396
21
152.0275073
0
LINE
8
DEFAULT_255_2_778
10
11.7546396
20
152.0275073
11
11.7546396
21
152.0275073
0
LINE
8
DEFAULT_255_2_778
10
11.7545823
20
154.0727146
11
11.1642823
21
155.0953146
0
LINE
8
DEFAULT_255_2_778
10
11.1642823
20
155.0953146
11
10.5737823
21
154.0727146
0
LINE
8
DEFAULT_255_2_778
10
10.5737823
20
154.0727146
11
11.1642823
21
153.0501146
0
LINE
8
DEFAULT_255_2_778
10
11.1642823
20
153.0501146
11
11.7545823
21
154.0727146
0
LINE
8
DEFAULT_255_2_778
10
11.7545823
20
154.0727146
11
11.7545823
21
154.0727146
0
ARC
8
DEFAULT_255_2_778
10
16.5183731
20
153.7189426
40
0.5650491
50
268.7543645
51
289.1417717
0
ARC
8
DEFAULT_255_2_778
10
16.606208
20
153.4637531
40
0.2951681
50
289.2776255
51
3.7648372
0
ARC
8
DEFAULT_255_2_778
10
16.3901618
20
153.4903085
40
0.5106278
50
359.1949826
51
0.0020862
0
ARC
8
DEFAULT_255_2_778
10
16.547449
20
153.4762832
40
0.1541914
50
280.2616216
51
358.5297855
0
ARC
8
DEFAULT_255_2_778
10
16.5080075
20
153.588855
40
0.2726346
50
269.5969454
51
284.2065679
0
ARC
8
DEFAULT_255_2_778
10
16.4981967
20
153.5732316
40
0.2571258
50
246.5290903
51
271.7590909
0
ARC
8
DEFAULT_255_2_778
10
16.4527148
20
153.4652009
40
0.1399248
50
188.1071678
51
245.9934684
0
ARC
8
DEFAULT_255_2_778
10
16.4829007
20
153.4721617
40
0.1708111
50
179.9445314
51
188.990814
0
ARC
8
DEFAULT_255_2_778
10
16.4924507
20
153.4789849
40
0.3763411
50
178.2272621
51
205.8283807
0
ARC
8
DEFAULT_255_2_778
10
16.4132476
20
153.4612833
40
0.2979176
50
209.4028057
51
263.0375728
0
ARC
8
DEFAULT_255_2_778
10
16.5005111
20
153.8359629
40
0.6816586
50
259.5722942
51
270.4689037
0
ARC
8
DEFAULT_255_2_778
10
17.411252
20
153.8921767
40
0.1217154
50
2.0482843
51
87.015299
0
ARC
8
DEFAULT_255_2_778
10
17.4060617
20
153.8965852
40
0.126828
50
353.0600847
51
359.9737428
0
ARC
8
DEFAULT_255_2_778
10
17.4110442
20
153.8934555
40
0.1215295
50
270.5739762
51
354.2410513
0
ARC
8
DEFAULT_255_2_778
10
17.4065059
20
153.9296297
40
0.1578027
50
269.9941256
51
272.0902921
0
ARC
8
DEFAULT_255_2_778
10
17.414084
20
153.4787295
40
0.1400686
50
358.2807293
51
95.6106825
0
ARC
8
DEFAULT_255_2_778
10
17.4103233
20
153.4748963
40
0.1437669
50
266.9962473
51
359.8528392
0
ARC
8
DEFAULT_255_2_778
10
17.4725249
20
153.5151988
40
0.3335288
50
268.2414507
51
302.0223478
0
ARC
8
DEFAULT_255_2_778
10
17.5091261
20
153.439883
40
0.2504234
50
304.0600275
51
2.0468005
0
ARC
8
DEFAULT_255_2_778
10
17.4832788
20
153.4465521
40
0.2761203
50
0.4720601
51
65.8403529
0
ARC
8
DEFAULT_255_2_778
10
17.5191655
20
153.5113061
40
0.2024466
50
67.606893
51
75.8693222
0
ARC
8
DEFAULT_255_2_778
10
17.5042026
20
153.918922
40
0.2208874
50
286.9473417
51
358.0074963
0
ARC
8
DEFAULT_255_2_778
10
17.4710866
20
153.9277045
40
0.2544031
50
356.2897886
51
0.0050857
0
ARC
8
DEFAULT_255_2_778
10
17.497262
20
153.9327946
40
0.2282839
50
358.7280137
51
81.8073164
0
ARC
8
DEFAULT_255_2_778
10
17.4216369
20
153.6813283
40
0.4895182
50
77.2355086
51
90.5088275
0
ARC
8
DEFAULT_255_2_778
10
17.5842742
20
152.7168263
40
0.130243
50
89.9974494
51
92.6776592
0
ARC
8
DEFAULT_255_2_778
10
17.5843316
20
152.7173872
40
0.129682
50
45.0880141
51
90.022782
0
ARC
8
DEFAULT_255_2_778
10
17.5844118
20
152.717419
40
0.1296029
50
0.001866
51
45.1031959
0
ARC
8
DEFAULT_255_2_778
10
17.5845123
20
152.7174202
40
0.1295026
50
357.4803735
51
0.0013544
0
ARC
8
DEFAULT_255_2_778
10
17.5901979
20
152.7135512
40
0.1237052
50
339.8672523
51
359.1550732
0
ARC
8
DEFAULT_255_2_778
10
17.5794513
20
152.7107079
40
0.1329691
50
272.0853006
51
342.6124646
0
ARC
8
DEFAULT_255_2_778
10
17.6596145
20
152.7489661
40
0.2575135
50
286.787355
51
290.6121696
0
ARC
8
DEFAULT_255_2_778
10
17.6689461
20
152.7346533
40
0.24086
50
289.7330405
51
342.3216972
0
ARC
8
DEFAULT_255_2_778
10
17.641261
20
152.7394954
40
0.268735
50
343.130572
51
0.3905272
0
ARC
8
DEFAULT_255_2_778
10
17.6578783
20
152.7568767
40
0.2525904
50
356.4706028
51
80.1788963
0
ARC
8
DEFAULT_255_2_778
10
17.5921649
20
152.5299163
40
0.4881286
50
77.1212301
51
90.4900821
0
ARC
8
DEFAULT_255_2_778
10
17.5166337
20
152.232236
40
0.1865405
50
50.1507009
51
92.9634648
0
ARC
8
DEFAULT_255_2_778
10
17.5301354
20
152.2605678
40
0.1563319
50
12.621233
51
47.2950617
0
ARC
8
DEFAULT_255_2_778
10
16.8485884
20
152.1276726
40
0.8506657
50
2.8173892
51
11.3253986
0
ARC
8
DEFAULT_255_2_778
10
-29.2295733
20
148.6313175
40
47.060992
50
4.3048394
51
4.3117143
0
ARC
8
DEFAULT_255_2_778
10
18.5500859
20
152.203784
40
0.8523717
50
182.6850102
51
191.2954256
0
ARC
8
DEFAULT_255_2_778
10
17.9656837
20
152.0974399
40
0.2586603
50
193.5512904
51
195.3825538
0
ARC
8
DEFAULT_255_2_778
10
19.3415679
20
152.3550916
40
1.4608773
50
182.5958701
51
192.9049706
0
ARC
8
DEFAULT_255_2_778
10
17.6207606
20
152.2834215
40
0.261487
50
1.2064311
51
30.4123358
0
ARC
8
DEFAULT_255_2_778
10
17.6663626
20
152.298476
40
0.2147766
50
33.1081154
51
71.7312197
0
LINE
8
DEFAULT_255_2_778
10
13.4657897
20
152.4630271
11
13.9385897
21
152.4630271
0
LINE
8
DEFAULT_255_2_778
10
13.9385897
20
152.4630271
11
13.9385897
21
152.6344271
0
LINE
8
DEFAULT_255_2_778
10
13.9385897
20
152.6344271
11
13.4657897
21
152.6344271
0
LINE
8
DEFAULT_255_2_778
10
13.4657897
20
152.6344271
11
13.4657897
21
152.8453271
0
LINE
8
DEFAULT_255_2_778
10
13.4657897
20
152.8453271
11
13.9977897
21
152.8453271
0
LINE
8
DEFAULT_255_2_778
10
13.9977897
20
152.8453271
11
13.9977897
21
153.0167271
0
LINE
8
DEFAULT_255_2_778
10
13.9977897
20
153.0167271
11
13.4657897
21
153.0167271
0
LINE
8
DEFAULT_255_2_778
10
13.4657897
20
153.0167271
11
13.2651897
21
153.0167271
0
LINE
8
DEFAULT_255_2_778
10
13.2651897
20
153.0167271
11
13.2651897
21
152.8453271
0
LINE
8
DEFAULT_255_2_778
10
13.2651897
20
152.8453271
11
13.2651897
21
152.1989271
0
LINE
8
DEFAULT_255_2_778
10
13.2651897
20
152.1989271
11
13.2651897
21
152.0274271
0
LINE
8
DEFAULT_255_2_778
10
13.2651897
20
152.0274271
11
13.4657897
21
152.0274271
0
LINE
8
DEFAULT_255_2_778
10
13.4657897
20
152.0274271
11
14.0118897
21
152.0274271
0
LINE
8
DEFAULT_255_2_778
10
14.0118897
20
152.0274271
11
14.0118897
21
152.1989271
0
LINE
8
DEFAULT_255_2_778
10
14.0118897
20
152.1989271
11
13.4657897
21
152.1989271
0
LINE
8
DEFAULT_255_2_778
10
13.4657897
20
152.1989271
11
13.4657897
21
152.4627271
0
LINE
8
DEFAULT_255_2_778
10
13.4657897
20
152.4627271
11
13.4657897
21
152.4630271
0
LINE
8
DEFAULT_255_2_778
10
13.4519897
20
153.9171271
11
13.6620897
21
153.1818271
0
LINE
8
DEFAULT_255_2_778
10
13.6620897
20
153.1818271
11
13.6704897
21
153.1818271
0
LINE
8
DEFAULT_255_2_778
10
13.6704897
20
153.1818271
11
13.8464897
21
153.1818271
0
LINE
8
DEFAULT_255_2_778
10
13.8464897
20
153.1818271
11
13.8546897
21
153.1818271
0
LINE
8
DEFAULT_255_2_778
10
13.8546897
20
153.1818271
11
14.0647897
21
153.9171271
0
LINE
8
DEFAULT_255_2_778
10
14.0647897
20
153.9171271
11
14.0647897
21
153.1818271
0
LINE
8
DEFAULT_255_2_778
10
14.0647897
20
153.1818271
11
14.2515897
21
153.1818271
0
LINE
8
DEFAULT_255_2_778
10
14.2515897
20
153.1818271
11
14.2515897
21
154.1711271
0
LINE
8
DEFAULT_255_2_778
10
14.2515897
20
154.1711271
11
14.1496897
21
154.1711271
0
LINE
8
DEFAULT_255_2_778
10
14.1496897
20
154.1711271
11
14.0615897
21
154.1711271
0
LINE
8
DEFAULT_255_2_778
10
14.0615897
20
154.1711271
11
13.9655897
21
154.1711271
0
LINE
8
DEFAULT_255_2_778
10
13.9655897
20
154.1711271
11
13.7583897
21
153.4768271
0
LINE
8
DEFAULT_255_2_778
10
13.7583897
20
153.4768271
11
13.5511897
21
154.1711271
0
LINE
8
DEFAULT_255_2_778
10
13.5511897
20
154.1711271
11
13.4551897
21
154.1711271
0
LINE
8
DEFAULT_255_2_778
10
13.4551897
20
154.1711271
11
13.3669897
21
154.1711271
0
LINE
8
DEFAULT_255_2_778
10
13.3669897
20
154.1711271
11
13.2651897
21
154.1711271
0
LINE
8
DEFAULT_255_2_778
10
13.2651897
20
154.1711271
11
13.2651897
21
153.1818271
0
LINE
8
DEFAULT_255_2_778
10
13.2651897
20
153.1818271
11
13.4519897
21
153.1818271
0
LINE
8
DEFAULT_255_2_778
10
13.4519897
20
153.1818271
11
13.4519897
21
153.9171271
0
LINE
8
DEFAULT_255_2_778
10
13.4519897
20
153.9171271
11
13.4519897
21
153.9171271
0
LINE
8
DEFAULT_255_2_778
10
18.0056897
20
154.1711271
11
17.8064897
21
154.1711271
0
LINE
8
DEFAULT_255_2_778
10
17.8064897
20
154.1711271
11
17.8064897
21
153.1818271
0
LINE
8
DEFAULT_255_2_778
10
17.8064897
20
153.1818271
11
18.0056897
21
153.1818271
0
LINE
8
DEFAULT_255_2_778
10
18.0056897
20
153.1818271
11
18.0056897
21
154.1711271
0
LINE
8
DEFAULT_255_2_778
10
18.0056897
20
154.1711271
11
18.0056897
21
154.1711271
0
LINE
8
DEFAULT_255_2_778
10
18.1681897
20
153.0170271
11
17.9689897
21
153.0170271
0
LINE
8
DEFAULT_255_2_778
10
17.9689897
20
153.0170271
11
17.9689897
21
152.0277271
0
LINE
8
DEFAULT_255_2_778
10
17.9689897
20
152.0277271
11
18.1681897
21
152.0277271
0
LINE
8
DEFAULT_255_2_778
10
18.1681897
20
152.0277271
11
18.1681897
21
153.0170271
0
LINE
8
DEFAULT_255_2_778
10
18.1681897
20
153.0170271
11
18.1681897
21
153.0170271
0
LINE
8
DEFAULT_255_2_778
10
19.9765897
20
154.1711271
11
19.7773897
21
154.1711271
0
LINE
8
DEFAULT_255_2_778
10
19.7773897
20
154.1711271
11
19.7773897
21
153.1818271
0
LINE
8
DEFAULT_255_2_778
10
19.7773897
20
153.1818271
11
19.9765897
21
153.1818271
0
LINE
8
DEFAULT_255_2_778
10
19.9765897
20
153.1818271
11
19.9765897
21
154.1711271
0
LINE
8
DEFAULT_255_2_778
10
19.9765897
20
154.1711271
11
19.9765897
21
154.1711271
0
LINE
8
DEFAULT_255_2_778
10
14.5298897
20
154.1711271
11
14.3306897
21
154.1711271
0
LINE
8
DEFAULT_255_2_778
10
14.3306897
20
154.1711271
11
14.3306897
21
153.1818271
0
LINE
8
DEFAULT_255_2_778
10
14.3306897
20
153.1818271
11
14.5298897
21
153.1818271
0
LINE
8
DEFAULT_255_2_778
10
14.5298897
20
153.1818271
11
14.5298897
21
154.1711271
0
LINE
8
DEFAULT_255_2_778
10
14.5298897
20
154.1711271
11
14.5298897
21
154.1711271
0
LINE
8
DEFAULT_255_2_778
10
19.4989897
20
153.7851271
11
19.1029897
21
153.7851271
0
LINE
8
DEFAULT_255_2_778
10
19.1029897
20
153.7851271
11
19.1029897
21
154.1708271
0
LINE
8
DEFAULT_255_2_778
10
19.1029897
20
154.1708271
11
18.9068897
21
154.1708271
0
LINE
8
DEFAULT_255_2_778
10
18.9068897
20
154.1708271
11
18.9068897
21
153.1818271
0
LINE
8
DEFAULT_255_2_778
10
18.9068897
20
153.1818271
11
19.1029897
21
153.1818271
0
LINE
8
DEFAULT_255_2_778
10
19.1029897
20
153.1818271
11
19.1029897
21
153.6136271
0
LINE
8
DEFAULT_255_2_778
10
19.1029897
20
153.6136271
11
19.4989897
21
153.6136271
0
LINE
8
DEFAULT_255_2_778
10
19.4989897
20
153.6136271
11
19.4989897
21
153.1818271
0
LINE
8
DEFAULT_255_2_778
10
19.4989897
20
153.1818271
11
19.6950897
21
153.1818271
0
LINE
8
DEFAULT_255_2_778
10
19.6950897
20
153.1818271
11
19.6950897
21
154.1708271
0
LINE
8
DEFAULT_255_2_778
10
19.6950897
20
154.1708271
11
19.4989897
21
154.1708271
0
LINE
8
DEFAULT_255_2_778
10
19.4989897
20
154.1708271
11
19.4989897
21
153.7851271
0
LINE
8
DEFAULT_255_2_778
10
19.4989897
20
153.7851271
11
19.4989897
21
153.7851271
0
LINE
8
DEFAULT_255_2_778
10
14.8246897
20
153.1818271
11
15.0280897
21
153.1818271
0
LINE
8
DEFAULT_255_2_778
10
15.0280897
20
153.1818271
11
15.0280897
21
153.9997271
0
LINE
8
DEFAULT_255_2_778
10
15.0280897
20
153.9997271
11
15.2696897
21
153.9997271
0
LINE
8
DEFAULT_255_2_778
10
15.2696897
20
153.9997271
11
15.2696897
21
154.1711271
0
LINE
8
DEFAULT_255_2_778
10
15.2696897
20
154.1711271
11
15.0280897
21
154.1711271
0
LINE
8
DEFAULT_255_2_778
10
15.0280897
20
154.1711271
11
14.8246897
21
154.1711271
0
LINE
8
DEFAULT_255_2_778
10
14.8246897
20
154.1711271
11
14.5830897
21
154.1711271
0
LINE
8
DEFAULT_255_2_778
10
14.5830897
20
154.1711271
11
14.5830897
21
153.9997271
0
LINE
8
DEFAULT_255_2_778
10
14.5830897
20
153.9997271
11
14.8246897
21
153.9997271
0
LINE
8
DEFAULT_255_2_778
10
14.8246897
20
153.9997271
11
14.8246897
21
153.1818271
0
LINE
8
DEFAULT_255_2_778
10
14.8246897
20
153.1818271
11
14.8246897
21
153.1818271
0
LINE
8
DEFAULT_255_2_778
10
16.6422897
20
152.0277271
11
16.8454897
21
152.0277271
0
LINE
8
DEFAULT_255_2_778
10
16.8454897
20
152.0277271
11
16.8454897
21
152.8455271
0
LINE
8
DEFAULT_255_2_778
10
16.8454897
20
152.8455271
11
17.0873897
21
152.8455271
0
LINE
8
DEFAULT_255_2_778
10
17.0873897
20
152.8455271
11
17.0873897
21
153.0173271
0
LINE
8
DEFAULT_255_2_778
10
17.0873897
20
153.0173271
11
16.8454897
21
153.0173271
0
LINE
8
DEFAULT_255_2_778
10
16.8454897
20
153.0173271
11
16.6422897
21
153.0173271
0
LINE
8
DEFAULT_255_2_778
10
16.6422897
20
153.0173271
11
16.4004897
21
153.0173271
0
LINE
8
DEFAULT_255_2_778
10
16.4004897
20
153.0173271
11
16.4004897
21
152.8455271
0
LINE
8
DEFAULT_255_2_778
10
16.4004897
20
152.8455271
11
16.6422897
21
152.8455271
0
LINE
8
DEFAULT_255_2_778
10
16.6422897
20
152.8455271
11
16.6422897
21
152.0277271
0
LINE
8
DEFAULT_255_2_778
10
16.6422897
20
152.0277271
11
16.6422897
21
152.0277271
0
LINE
8
DEFAULT_255_2_778
10
16.9007897
20
153.4903271
11
16.9007897
21
154.1708271
0
LINE
8
DEFAULT_255_2_778
10
16.9007897
20
154.1708271
11
16.7015897
21
154.1708271
0
LINE
8
DEFAULT_255_2_778
10
16.7015897
20
154.1708271
11
16.7015897
21
153.4723271
0
LINE
8
DEFAULT_255_2_778
10
16.3120897
20
153.4723271
11
16.3120897
21
154.1708271
0
LINE
8
DEFAULT_255_2_778
10
16.3120897
20
154.1708271
11
16.1162897
21
154.1708271
0
LINE
8
DEFAULT_255_2_778
10
16.1162897
20
154.1708271
11
16.1162897
21
153.4906271
0
LINE
8
DEFAULT_255_2_778
10
15.0000897
20
152.4630271
11
15.4730897
21
152.4630271
0
LINE
8
DEFAULT_255_2_778
10
15.4730897
20
152.4630271
11
15.4730897
21
152.6344271
0
LINE
8
DEFAULT_255_2_778
10
15.4730897
20
152.6344271
11
15.0000897
21
152.6344271
0
LINE
8
DEFAULT_255_2_778
10
15.0000897
20
152.6344271
11
15.0000897
21
152.8453271
0
LINE
8
DEFAULT_255_2_778
10
15.0000897
20
152.8453271
11
15.5320897
21
152.8453271
0
LINE
8
DEFAULT_255_2_778
10
15.5320897
20
152.8453271
11
15.5320897
21
153.0167271
0
LINE
8
DEFAULT_255_2_778
10
15.5320897
20
153.0167271
11
15.0000897
21
153.0167271
0
LINE
8
DEFAULT_255_2_778
10
15.0000897
20
153.0167271
11
14.7997897
21
153.0167271
0
LINE
8
DEFAULT_255_2_778
10
14.7997897
20
153.0167271
11
14.7997897
21
152.8453271
0
LINE
8
DEFAULT_255_2_778
10
14.7997897
20
152.8453271
11
14.7997897
21
152.1989271
0
LINE
8
DEFAULT_255_2_778
10
14.7997897
20
152.1989271
11
14.7997897
21
152.0274271
0
LINE
8
DEFAULT_255_2_778
10
14.7997897
20
152.0274271
11
15.0000897
21
152.0274271
0
LINE
8
DEFAULT_255_2_778
10
15.0000897
20
152.0274271
11
15.5461897
21
152.0274271
0
LINE
8
DEFAULT_255_2_778
10
15.5461897
20
152.0274271
11
15.5461897
21
152.1989271
0
LINE
8
DEFAULT_255_2_778
10
15.5461897
20
152.1989271
11
15.0000897
21
152.1989271
0
LINE
8
DEFAULT_255_2_778
10
15.0000897
20
152.1989271
11
15.0000897
21
152.4627271
0
LINE
8
DEFAULT_255_2_778
10
15.0000897
20
152.4627271
11
15.0000897
21
152.4630271
0
LINE
8
DEFAULT_255_2_778
10
17.4064897
20
153.7718271
11
17.1690897
21
153.7718271
0
LINE
8
DEFAULT_255_2_778
10
17.1690897
20
153.7718271
11
17.1690897
21
154.0134271
0
LINE
8
DEFAULT_255_2_778
10
17.1690897
20
154.0134271
11
17.4175897
21
154.0134271
0
LINE
8
DEFAULT_255_2_778
10
17.4175897
20
154.0134271
11
17.4175897
21
154.0137271
0
LINE
8
DEFAULT_255_2_778
10
17.4027897
20
153.3310271
11
17.1690897
21
153.3310271
0
LINE
8
DEFAULT_255_2_778
10
17.1690897
20
153.3310271
11
17.1690897
21
153.6181271
0
LINE
8
DEFAULT_255_2_778
10
17.1690897
20
153.6181271
11
17.4003897
21
153.6181271
0
LINE
8
DEFAULT_255_2_778
10
17.1767897
20
153.1818271
11
17.4622897
21
153.1818271
0
LINE
8
DEFAULT_255_2_778
10
17.4172897
20
154.1708271
11
17.1770897
21
154.1708271
0
LINE
8
DEFAULT_255_2_778
10
17.1770897
20
154.1708271
11
16.9722897
21
154.1708271
0
LINE
8
DEFAULT_255_2_778
10
16.9722897
20
154.1708271
11
16.9711897
21
154.1708271
0
LINE
8
DEFAULT_255_2_778
10
16.9711897
20
154.1708271
11
16.9711897
21
153.1818271
0
LINE
8
DEFAULT_255_2_778
10
16.9711897
20
153.1818271
11
16.9722897
21
153.1818271
0
LINE
8
DEFAULT_255_2_778
10
16.9722897
20
153.1818271
11
17.1770897
21
153.1818271
0
LINE
8
DEFAULT_255_2_778
10
17.1770897
20
153.1818271
11
17.1767897
21
153.1818271
0
LINE
8
DEFAULT_255_2_778
10
17.3368897
20
152.5775271
11
17.3368897
21
152.8469271
0
LINE
8
DEFAULT_255_2_778
10
17.3368897
20
152.8469271
11
17.5781897
21
152.8469271
0
LINE
8
DEFAULT_255_2_778
10
17.5842897
20
152.5778271
11
17.3370897
21
152.5778271
0
LINE
8
DEFAULT_255_2_778
10
17.3370897
20
152.5778271
11
17.3368897
21
152.5775271
0
LINE
8
DEFAULT_255_2_778
10
17.5879897
20
153.0180271
11
17.3368897
21
153.0180271
0
LINE
8
DEFAULT_255_2_778
10
17.3368897
20
153.0180271
11
17.1383897
21
153.0180271
0
LINE
8
DEFAULT_255_2_778
10
17.1383897
20
153.0180271
11
17.1362897
21
153.0180271
0
LINE
8
DEFAULT_255_2_778
10
17.1362897
20
153.0180271
11
17.1362897
21
152.0288271
0
LINE
8
DEFAULT_255_2_778
10
17.1362897
20
152.0288271
11
17.3368897
21
152.0288271
0
LINE
8
DEFAULT_255_2_778
10
17.3368897
20
152.0288271
11
17.3368897
21
152.4185271
0
LINE
8
DEFAULT_255_2_778
10
17.3368897
20
152.4185271
11
17.5069897
21
152.4185271
0
LINE
8
DEFAULT_255_2_778
10
17.7162897
20
152.0288271
11
17.9175897
21
152.0288271
0
LINE
8
DEFAULT_255_2_778
10
14.2763897
20
153.0170271
11
14.0760897
21
153.0170271
0
LINE
8
DEFAULT_255_2_778
10
14.0760897
20
153.0170271
11
14.0760897
21
152.1992271
0
LINE
8
DEFAULT_255_2_778
10
14.0760897
20
152.1992271
11
14.0760897
21
152.0277271
0
LINE
8
DEFAULT_255_2_778
10
14.0760897
20
152.0277271
11
14.2763897
21
152.0277271
0
LINE
8
DEFAULT_255_2_778
10
14.2763897
20
152.0277271
11
14.7428897
21
152.0277271
0
LINE
8
DEFAULT_255_2_778
10
14.7428897
20
152.0277271
11
14.7428897
21
152.1992271
0
LINE
8
DEFAULT_255_2_778
10
14.7428897
20
152.1992271
11
14.2763897
21
152.1992271
0
LINE
8
DEFAULT_255_2_778
10
14.2763897
20
152.1992271
11
14.2763897
21
153.0170271
0
LINE
8
DEFAULT_255_2_778
10
14.2763897
20
153.0170271
11
14.2763897
21
153.0170271
0
ARC
8
DEFAULT_255_2_778
10
15.4584271
20
152.6427969
40
0.9681224
50
72.4822103
51
81.3184214
0
ARC
8
DEFAULT_255_2_778
10
15.7160297
20
153.4194918
40
0.1503783
50
28.8883513
51
77.0092434
0
ARC
8
DEFAULT_255_2_778
10
15.7432379
20
153.4484196
40
0.113238
50
358.9917455
51
22.7117017
0
ARC
8
DEFAULT_255_2_778
10
15.7394861
20
153.4525918
40
0.1171346
50
289.2958104
51
356.9831562
0
ARC
8
DEFAULT_255_2_778
10
15.6668261
20
153.6100882
40
0.2902651
50
268.4665462
51
292.5613311
0
ARC
8
DEFAULT_255_2_778
10
15.6496856
20
153.5510179
40
0.2312808
50
236.4956947
51
272.3225735
0
ARC
8
DEFAULT_255_2_778
10
15.6106646
20
153.4827839
40
0.1529307
50
178.9722202
51
234.5742435
0
ARC
8
DEFAULT_255_2_778
10
15.5656113
20
153.4732079
40
0.3002058
50
177.6481608
51
245.5596397
0
ARC
8
DEFAULT_255_2_778
10
15.6409971
20
153.6454561
40
0.488217
50
245.8690375
51
267.169035
0
ARC
8
DEFAULT_255_2_778
10
15.6671503
20
153.8964916
40
0.7403648
50
266.1069867
51
270.0547972
0
ARC
8
DEFAULT_255_2_778
10
15.6772894
20
153.7277135
40
0.5716642
50
269.0547216
51
287.7147747
0
ARC
8
DEFAULT_255_2_778
10
15.7598889
20
153.4820091
40
0.3125017
50
286.995984
51
325.1221533
0
ARC
8
DEFAULT_255_2_778
10
15.7678294
20
153.465461
40
0.2966627
50
326.8673922
51
0.8625726
0
ARC
8
DEFAULT_255_2_778
10
15.7898286
20
153.4740409
40
0.2746606
50
359.1417932
51
76.9739731
0
ARC
8
DEFAULT_255_2_778
10
15.6705461
20
153.1931719
40
0.577616
50
71.7185727
51
79.1315439
0
ARC
8
DEFAULT_255_2_778
10
14.2492968
20
145.839567
40
8.0673056
50
79.0662148
51
79.6216572
0
ARC
8
DEFAULT_255_2_778
10
16.4356585
20
157.7172581
40
4.0099443
50
259.1227669
51
259.4665204
0
ARC
8
DEFAULT_255_2_778
10
15.7836732
20
154.4222142
40
0.6513291
50
249.9945768
51
260.7485895
0
ARC
8
DEFAULT_255_2_778
10
15.5880401
20
153.9111999
40
0.1046098
50
178.6705173
51
254.9333545
0
ARC
8
DEFAULT_255_2_778
10
15.6049957
20
153.9077688
40
0.1216785
50
93.288632
51
177.2403935
0
ARC
8
DEFAULT_255_2_778
10
15.6585677
20
153.7207752
40
0.3143588
50
89.6189463
51
101.1057977
0
ARC
8
DEFAULT_255_2_778
10
15.6722733
20
153.832616
40
0.2028439
50
53.5634072
51
93.2825843
0
ARC
8
DEFAULT_255_2_778
10
15.7018505
20
153.8908144
40
0.1388739
50
357.1985816
51
49.1152298
0
ARC
8
DEFAULT_255_2_778
10
15.7254907
20
153.8840274
40
0.3087677
50
359.9999335
51
2.3703878
0
ARC
8
DEFAULT_255_2_778
10
15.7353555
20
153.8855337
40
0.298851
50
2.1600756
51
60.1092229
0
ARC
8
DEFAULT_255_2_778
10
15.6766212
20
153.7789133
40
0.4205645
50
60.4106856
51
86.1444419
0
ARC
8
DEFAULT_255_2_778
10
15.6536151
20
153.6022228
40
0.5985046
50
85.0843314
51
90.0628677
0
ARC
8
DEFAULT_255_2_778
10
15.6529718
20
153.7256466
40
0.4750804
50
90.001616
51
92.2300394
0
ARC
8
DEFAULT_255_2_778
10
15.6281193
20
153.830787
40
0.3696351
50
89.0131319
51
149.6364996
0
ARC
8
DEFAULT_255_2_778
10
15.5505461
20
153.9030055
40
0.2671974
50
154.5962367
51
180.4885883
0
ARC
8
DEFAULT_255_2_778
10
15.5651524
20
153.901484
40
0.281795
50
180.1539064
51
255.1120325
0
ARC
8
DEFAULT_255_2_778
10
15.7094242
20
154.224332
40
0.6333958
50
249.9962237
51
260.4976723
0
ARC
8
DEFAULT_255_2_778
10
18.2470963
20
152.6439351
40
0.967002
50
72.4685023
51
81.3064395
0
ARC
8
DEFAULT_255_2_778
10
18.5045397
20
153.419527
40
0.1503535
50
28.8782248
51
76.9904304
0
ARC
8
DEFAULT_255_2_778
10
18.5317197
20
153.4484189
40
0.1132561
50
358.9922779
51
22.7082666
0
ARC
8
DEFAULT_255_2_778
10
18.5280402
20
153.4525088
40
0.1170763
50
289.2761556
51
357.0223042
0
ARC
8
DEFAULT_255_2_778
10
18.4553612
20
153.6103836
40
0.2905613
50
268.4611814
51
292.5289055
0
ARC
8
DEFAULT_255_2_778
10
18.4381801
20
153.5519175
40
0.2321799
50
236.6698634
51
272.3149402
0
ARC
8
DEFAULT_255_2_778
10
18.39878
20
153.4827762
40
0.1528464
50
178.9687581
51
234.7686008
0
ARC
8
DEFAULT_255_2_778
10
18.3540113
20
153.4732079
40
0.3002058
50
177.6481608
51
245.5596397
0
ARC
8
DEFAULT_255_2_778
10
18.4293971
20
153.6454561
40
0.488217
50
245.8690375
51
267.169035
0
ARC
8
DEFAULT_255_2_778
10
18.4555503
20
153.8964916
40
0.7403648
50
266.1069867
51
270.0547972
0
ARC
8
DEFAULT_255_2_778
10
18.4656836
20
153.7283451
40
0.5722957
50
269.0563423
51
287.7048702
0
ARC
8
DEFAULT_255_2_778
10
18.548344
20
153.4823682
40
0.312856
50
286.9832601
51
325.0871916
0
ARC
8
DEFAULT_255_2_778
10
18.5567708
20
153.4654856
40
0.2964208
50
326.8311942
51
0.8585267
0
ARC
8
DEFAULT_255_2_778
10
18.5785756
20
153.4741282
40
0.2746149
50
359.1234265
51
76.9343785
0
ARC
8
DEFAULT_255_2_778
10
18.4596421
20
153.1942965
40
0.5764934
50
71.6999697
51
79.1198353
0
ARC
8
DEFAULT_255_2_778
10
17.0173657
20
145.7175392
40
8.1910887
50
79.0843627
51
79.6321368
0
ARC
8
DEFAULT_255_2_778
10
19.2200266
20
157.6970177
40
3.9892176
50
259.1314419
51
259.4772924
0
ARC
8
DEFAULT_255_2_778
10
18.5723251
20
154.4216131
40
0.6507003
50
249.9919323
51
260.7592458
0
ARC
8
DEFAULT_255_2_778
10
18.376901
20
153.9111546
40
0.1045718
50
178.6452075
51
254.9151907
0
ARC
8
DEFAULT_255_2_778
10
18.3939581
20
153.9077016
40
0.121744
50
93.2745253
51
177.21023
0
ARC
8
DEFAULT_255_2_778
10
18.4475726
20
153.7206052
40
0.3145287
50
89.6200387
51
101.1027534
0
ARC
8
DEFAULT_255_2_778
10
18.4613489
20
153.8339453
40
0.2015212
50
53.1490002
51
93.3256649
0
ARC
8
DEFAULT_255_2_778
10
18.4902753
20
153.8907519
40
0.1391457
50
357.2298288
51
48.6469881
0
ARC
8
DEFAULT_255_2_778
10
18.5137232
20
153.8840226
40
0.3092351
50
0.0008291
51
2.3676985
0
ARC
8
DEFAULT_255_2_778
10
18.5240744
20
153.8855868
40
0.2988304
50
2.1500394
51
60.0956838
0
ARC
8
DEFAULT_255_2_778
10
18.4654399
20
153.7790909
40
0.4203859
50
60.40452
51
86.1455285
0
ARC
8
DEFAULT_255_2_778
10
18.4424157
20
153.6022686
40
0.5984588
50
85.0841409
51
90.0629301
0
ARC
8
DEFAULT_255_2_778
10
18.4417778
20
153.7252392
40
0.4754878
50
90.0023409
51
92.3231329
0
ARC
8
DEFAULT_255_2_778
10
18.4167555
20
153.8305604
40
0.3698206
50
89.1093915
51
149.6400816
0
ARC
8
DEFAULT_255_2_778
10
18.338761
20
153.9029917
40
0.2669122
50
154.6001925
51
180.486137
0
ARC
8
DEFAULT_255_2_778
10
18.3537607
20
153.9016152
40
0.2819037
50
180.1805176
51
255.132702
0
ARC
8
DEFAULT_255_2_778
10
18.4982264
20
154.2248784
40
0.6339516
50
250.0026216
51
260.4967164
0
ARC
8
DEFAULT_255_2_778
10
16.008917
20
152.4320283
40
0.2519711
50
190.2626864
51
267.3480013
0
ARC
8
DEFAULT_255_2_778
10
16.2443543
20
152.5233548
40
0.5022041
50
179.6723028
51
195.7380858
0
ARC
8
DEFAULT_255_2_778
10
16.1790511
20
152.5388671
40
0.4370755
50
148.7005643
51
181.6572045
0
ARC
8
DEFAULT_255_2_778
10
15.9957576
20
152.6489723
40
0.2232598
50
89.6148479
51
148.4074796
0
ARC
8
DEFAULT_255_2_778
10
16.0060936
20
152.671049
40
0.201372
50
41.9769772
51
92.5146611
0
ARC
8
DEFAULT_255_2_778
10
15.9522078
20
152.6333523
40
0.2667646
50
15.1848537
51
40.2549591
0
ARC
8
DEFAULT_255_2_778
10
16.028123
20
152.6436326
40
0.3935735
50
8.7091682
51
82.0550801
0
ARC
8
DEFAULT_255_2_778
10
15.9931241
20
152.4971871
40
0.543642
50
80.5350289
51
90.1544743
0
ARC
8
DEFAULT_255_2_778
10
15.9818804
20
152.5858192
40
0.4551129
50
88.7689246
51
119.6437418
0
ARC
8
DEFAULT_255_2_778
10
16.0077717
20
152.5895647
40
0.4653013
50
122.644121
51
173.3997839
0
ARC
8
DEFAULT_255_2_778
10
16.2711934
20
152.5252568
40
0.7351371
50
170.7798304
51
180.1348114
0
ARC
8
DEFAULT_255_2_778
10
16.1372822
20
152.50992
40
0.6013778
50
178.7034849
51
210.5604279
0
ARC
8
DEFAULT_255_2_778
10
15.9706312
20
152.4194377
40
0.4119265
50
211.5090145
51
265.8592607
0
ARC
8
DEFAULT_255_2_778
10
15.9911883
20
152.5435521
40
0.5373252
50
264.628472
51
270.0501277
0
ARC
8
DEFAULT_255_2_778
10
16.002337
20
152.4754685
40
0.4693629
50
268.6963312
51
300.2191972
0
ARC
8
DEFAULT_255_2_778
10
16.0350684
20
152.3975124
40
0.3856821
50
301.8465101
51
353.7503927
0
ARC
8
DEFAULT_255_2_778
10
16.0015787
20
152.3914387
40
0.2111558
50
268.8276188
51
350.2079995
0
ARC
8
DEFAULT_255_2_778
10
18.6896799
20
152.4319824
40
0.2519281
50
190.2538303
51
267.3332171
0
ARC
8
DEFAULT_255_2_778
10
18.9252249
20
152.5233581
40
0.5022746
50
179.672724
51
195.7362088
0
ARC
8
DEFAULT_255_2_778
10
18.8600432
20
152.5388917
40
0.4372682
50
148.7196987
51
181.6596982
0
ARC
8
DEFAULT_255_2_778
10
18.676443
20
152.6490906
40
0.2231415
50
89.6108896
51
148.4244661
0
ARC
8
DEFAULT_255_2_778
10
18.686876
20
152.671067
40
0.2013576
50
42.5913083
51
92.5383066
0
ARC
8
DEFAULT_255_2_778
10
18.6345542
20
152.6346973
40
0.2646316
50
15.0085433
51
40.7215892
0
ARC
8
DEFAULT_255_2_778
10
18.708623
20
152.6436326
40
0.3935735
50
8.7091682
51
82.0550801
0
ARC
8
DEFAULT_255_2_778
10
18.6736241
20
152.4971871
40
0.543642
50
80.5350289
51
90.1544743
0
ARC
8
DEFAULT_255_2_778
10
18.6623804
20
152.5858192
40
0.4551129
50
88.7689246
51
119.6437418
0
ARC
8
DEFAULT_255_2_778
10
18.6882717
20
152.5895647
40
0.4653013
50
122.644121
51
173.3997839
0
ARC
8
DEFAULT_255_2_778
10
18.9516934
20
152.5252568
40
0.7351371
50
170.7798304
51
180.1348114
0
ARC
8
DEFAULT_255_2_778
10
18.8177822
20
152.50992
40
0.6013778
50
178.7034849
51
210.5604279
0
ARC
8
DEFAULT_255_2_778
10
18.6511312
20
152.4194377
40
0.4119265
50
211.5090145
51
265.8592607
0
ARC
8
DEFAULT_255_2_778
10
18.6716883
20
152.5435521
40
0.5373252
50
264.628472
51
270.0501277
0
ARC
8
DEFAULT_255_2_778
10
18.682837
20
152.4754685
40
0.4693629
50
268.6963312
51
300.2191972
0
ARC
8
DEFAULT_255_2_778
10
18.7155684
20
152.3975124
40
0.3856821
50
301.8465101
51
353.7503927
0
ARC
8
DEFAULT_255_2_778
10
18.6820648
20
152.3914604
40
0.2111733
50
268.8857714
51
350.2028431
0
LINE
8
DEFAULT_255_2_778
10
15.4577584
20
153.4855271
11
15.2656584
21
153.4855271
0
LINE
8
DEFAULT_255_2_778
10
15.8405584
20
153.8840271
11
16.0342584
21
153.8840271
0
LINE
8
DEFAULT_255_2_778
10
18.2459584
20
153.4855271
11
18.0540584
21
153.4855271
0
LINE
8
DEFAULT_255_2_778
10
18.6292584
20
153.8840271
11
18.8229584
21
153.8840271
0
LINE
8
DEFAULT_255_2_778
10
16.2096584
20
152.7032271
11
16.4171584
21
152.7032271
0
LINE
8
DEFAULT_255_2_778
10
16.4184584
20
152.3555271
11
16.2096584
21
152.3555271
0
LINE
8
DEFAULT_255_2_778
10
18.8901584
20
152.7032271
11
19.0976584
21
152.7032271
0
LINE
8
DEFAULT_255_2_778
10
19.0989584
20
152.3555271
11
18.8901584
21
152.3555271
0
LINE
8
DEFAULT_255_2_778
10
9.3932417
20
140.0968574
11
10.7161417
21
140.0968574
0
LINE
8
DEFAULT_255_2_778
10
10.7161417
20
140.0968574
11
10.7161417
21
75.2739574
0
LINE
8
DEFAULT_255_2_778
10
9.3932834
20
75.2739333
11
12.0390834
21
75.2739333
0
LINE
8
DEFAULT_255_2_778
10
12.0390834
20
75.2739333
11
12.0390834
21
69.9822333
0
LINE
8
DEFAULT_255_2_778
10
12.0390834
20
69.9822333
11
9.3932834
21
69.9822333
0
LINE
8
DEFAULT_255_2_778
10
9.3932834
20
69.9822333
11
9.3932834
21
75.2739333
0
ARC
8
DEFAULT_255_2_778_1
10
13.1928591
20
70.084677
40
4.816461
50
120.9442904
51
122.351755
0
ARC
8
DEFAULT_255_2_778_1
10
12.7462523
20
70.7883039
40
3.9830657
50
122.3407904
51
124.1946752
0
ARC
8
DEFAULT_255_2_778_1
10
12.3063464
20
71.4348306
40
3.2010724
50
124.1855758
51
126.4338849
0
ARC
8
DEFAULT_255_2_778_1
10
11.9204129
20
71.9575611
40
2.5513094
50
126.4326926
51
128.8877368
0
ARC
8
DEFAULT_255_2_778_1
10
11.5855968
20
72.3719658
40
2.0185498
50
128.8749205
51
131.8726567
0
ARC
8
DEFAULT_255_2_778_1
10
11.2884677
20
72.7029854
40
1.5737356
50
131.8616166
51
135.4168838
0
ARC
8
DEFAULT_255_2_778_1
10
11.025668
20
72.9611765
40
1.2053256
50
135.3893975
51
139.9687014
0
ARC
8
DEFAULT_255_2_778_1
10
10.7927889
20
73.1560102
40
0.9016937
50
139.9301659
51
145.9260426
0
ARC
8
DEFAULT_255_2_778_1
10
10.596654
20
73.2880104
40
0.6652776
50
145.8787362
51
153.8146208
0
ARC
8
DEFAULT_255_2_778_1
10
10.4445553
20
73.3623797
40
0.4959714
50
153.770634
51
164.3484794
0
ARC
8
DEFAULT_255_2_778_1
10
10.3432387
20
73.3905786
40
0.3908039
50
164.3220276
51
179.8083066
0
ARC
8
DEFAULT_255_2_778_1
10
10.3642789
20
73.398715
40
0.4118985
50
180.9499449
51
213.8111542
0
ARC
8
DEFAULT_255_2_778_1
10
10.6401828
20
73.5682896
40
0.73561
50
212.8271214
51
224.258472
0
ARC
8
DEFAULT_255_2_778_1
10
11.0230335
20
73.9376236
40
1.267567
50
224.1376218
51
231.4508261
0
ARC
8
DEFAULT_255_2_778_1
10
11.6657195
20
74.7406168
40
2.2960809
50
231.3955893
51
236.1256478
0
ARC
8
DEFAULT_255_2_778_1
10
13.4980223
20
77.4871293
40
5.5976905
50
236.2233172
51
239.1314682
0
ARC
8
DEFAULT_255_2_778_1
10
25.447927
20
97.2148568
40
28.6623793
50
238.8606853
51
239.0711101
0
ARC
8
DEFAULT_255_2_778_1
10
6.2757281
20
65.1177653
40
8.7248518
50
57.2420924
51
59.4062964
0
ARC
8
DEFAULT_255_2_778_1
10
9.5034241
20
70.1487102
40
2.747542
50
52.8289294
51
57.079028
0
ARC
8
DEFAULT_255_2_778_1
10
10.2780783
20
71.1690488
40
1.466457
50
46.3041868
51
52.8596521
0
ARC
8
DEFAULT_255_2_778_1
10
10.7103073
20
71.6191842
40
0.8424061
50
36.2174211
51
46.4090895
0
ARC
8
DEFAULT_255_2_778_1
10
10.9948088
20
71.8240128
40
0.4918609
50
17.400375
51
36.5489745
0
ARC
8
DEFAULT_255_2_778_1
10
11.1088994
20
71.8638754
40
0.3710912
50
0.0676858
51
16.7951297
0
ARC
8
DEFAULT_255_2_778_1
10
11.0878613
20
71.8657428
40
0.3921317
50
343.8035191
51
359.7912046
0
ARC
8
DEFAULT_255_2_778_1
10
10.9815912
20
71.8962167
40
0.5026844
50
333.2506233
51
343.8465691
0
ARC
8
DEFAULT_255_2_778_1
10
10.8277757
20
71.9729313
40
0.6745679
50
325.6600948
51
333.3122657
0
ARC
8
DEFAULT_255_2_778_1
10
10.6323344
20
72.1057296
40
0.9108568
50
319.7560915
51
325.6976089
0
ARC
8
DEFAULT_255_2_778_1
10
10.404199
20
72.2975002
40
1.2088854
50
315.4577584
51
319.8037947
0
ARC
8
DEFAULT_255_2_778_1
10
10.1408127
20
72.5563507
40
1.5781764
50
311.7298824
51
315.4670864
0
ARC
8
DEFAULT_255_2_778_1
10
9.8317879
20
72.9019074
40
2.0417554
50
308.723055
51
311.7470879
0
ARC
8
DEFAULT_255_2_778_1
10
9.477589
20
73.3431492
40
2.6075745
50
306.1165163
51
308.7300151
0
ARC
8
DEFAULT_255_2_778_1
10
9.0746091
20
73.8944523
40
3.2904564
50
303.9559446
51
306.1266333
0
ARC
8
DEFAULT_255_2_778_1
10
8.6630432
20
74.503715
40
4.0257023
50
302.3733397
51
303.9712246
0
ARC
8
DEFAULT_255_2_778_1
10
8.2434347
20
75.1652058
40
4.8090549
50
300.9434827
51
302.3758078
0
LINE
8
DEFAULT_255_2_778
10
10.7161417
20
69.9822574
11
10.7161417
21
5.1593574
0
LINE
8
DEFAULT_255_2_778
10
10.7161417
20
5.1593574
11
9.3932417
21
5.1593574
0
LINE
8
DEFAULT_255_1_234
10
4.9274119
20
147.6366792
11
4.9274119
21
147.5154
0
LINE
8
DEFAULT_255_1_234
10
4.9274119
20
147.5154
11
4.161184
21
147.5154
0
LINE
8
DEFAULT_255_1_234
10
4.161184
20
147.5154
11
4.161184
21
147.6222221
0
LINE
8
DEFAULT_255_1_234
10
4.161184
20
147.6222221
11
4.5659836
21
148.0719995
0
LINE
8
DEFAULT_255_1_234
10
4.2872823
20
148.3402595
11
4.1386952
21
148.3402595
0
LINE
8
DEFAULT_255_1_234
10
4.6535296
20
147.9764218
11
4.3402918
21
147.6366792
0
LINE
8
DEFAULT_255_1_234
10
4.3402918
20
147.6366792
11
4.9274119
21
147.6366792
0
ARC
8
DEFAULT_255_1_234
10
3.216967
20
149.2649527
40
1.8008286
50
318.5132453
51
320.7828378
0
ARC
8
DEFAULT_255_1_234
10
3.7456644
20
148.8346426
40
1.1191493
50
320.7372736
51
323.9737074
0
ARC
8
DEFAULT_255_1_234
10
4.1376501
20
148.5506361
40
0.6350923
50
323.8961724
51
328.6421089
0
ARC
8
DEFAULT_255_1_234
10
4.3423096
20
148.4244031
40
0.3946393
50
328.8299013
51
331.789948
0
ARC
8
DEFAULT_255_1_234
10
4.4420274
20
148.3729509
40
0.2824501
50
331.4255242
51
352.9364833
0
ARC
8
DEFAULT_255_1_234
10
4.4556775
20
148.3698976
40
0.2685315
50
353.2248685
51
0.0169286
0
ARC
8
DEFAULT_255_1_234
10
4.4766652
20
148.372195
40
0.2475536
50
359.4866256
51
15.9339782
0
ARC
8
DEFAULT_255_1_234
10
4.5273637
20
148.3858286
40
0.1950618
50
16.1714718
51
43.5284424
0
ARC
8
DEFAULT_255_1_234
10
4.5350946
20
148.3935573
40
0.184134
50
43.4415429
51
83.1661404
0
ARC
8
DEFAULT_255_1_234
10
4.5216864
20
148.3198771
40
0.258926
50
82.160215
51
90.1505798
0
ARC
8
DEFAULT_255_1_234
10
4.5185291
20
148.2661865
40
0.3126255
50
89.5460705
51
102.5418777
0
ARC
8
DEFAULT_255_1_234
10
4.4942377
20
148.3692665
40
0.2067346
50
102.1739365
51
129.2061916
0
ARC
8
DEFAULT_255_1_234
10
4.4863449
20
148.3817094
40
0.1921118
50
129.7279328
51
135.7542026
0
ARC
8
DEFAULT_255_1_234
10
4.4984977
20
148.3720045
40
0.2075944
50
136.175737
51
166.3674722
0
ARC
8
DEFAULT_255_1_234
10
4.5991896
20
148.3450182
40
0.3118201
50
165.9092917
51
178.8683903
0
ARC
8
DEFAULT_255_1_234
10
4.6856757
20
148.3403179
40
0.3983935
50
178.438168
51
180.0083905
0
ARC
8
DEFAULT_255_1_234
10
4.5455359
20
148.3442231
40
0.4068601
50
163.2878735
51
180.5581814
0
ARC
8
DEFAULT_255_1_234
10
4.4653621
20
148.366284
40
0.3237344
50
133.454115
51
162.9470031
0
ARC
8
DEFAULT_255_1_234
10
4.4832162
20
148.3473
40
0.349795
50
100.7869394
51
133.4384016
0
ARC
8
DEFAULT_255_1_234
10
4.5179934
20
148.1924319
40
0.5084616
50
89.6605301
51
101.3704185
0
ARC
8
DEFAULT_255_1_234
10
4.5246273
20
148.1985496
40
0.502348
50
78.2171172
51
90.4130393
0
ARC
8
DEFAULT_255_1_234
10
4.5601351
20
148.3609637
40
0.3361092
50
55.9268222
51
78.4888551
0
ARC
8
DEFAULT_255_1_234
10
4.5797791
20
148.3948324
40
0.2970617
50
47.9292255
51
55.4054003
0
ARC
8
DEFAULT_255_1_234
10
4.5899352
20
148.4051502
40
0.2825983
50
4.3347696
51
48.0560701
0
ARC
8
DEFAULT_255_1_234
10
4.4803745
20
148.3881601
40
0.393225
50
359.925209
51
5.5967654
0
ARC
8
DEFAULT_255_1_234
10
4.5232637
20
148.3937816
40
0.3503892
50
337.8914096
51
358.9967724
0
ARC
8
DEFAULT_255_1_234
10
4.2519049
20
148.4984706
40
0.6412172
50
326.9135351
51
338.3505194
0
ARC
8
DEFAULT_255_1_234
10
3.8533353
20
148.7539284
40
1.1146189
50
319.6472867
51
327.095818
0
ARC
8
DEFAULT_255_1_234
10
3.4700356
20
149.0701
40
1.6114559
50
317.2586784
51
319.9046139
0
LINE
8
DEFAULT_255_1_234
10
5.7121127
20
148.6848211
11
5.7121127
21
147.908152
0
LINE
8
DEFAULT_255_1_234
10
5.7121127
20
147.908152
11
5.8743538
21
147.908152
0
LINE
8
DEFAULT_255_1_234
10
5.8743538
20
147.908152
11
5.8743538
21
147.7868728
0
LINE
8
DEFAULT_255_1_234
10
5.8743538
20
147.7868728
11
5.7121127
21
147.7868728
0
LINE
8
DEFAULT_255_1_234
10
5.7121127
20
147.7868728
11
5.7121127
21
147.5154
0
LINE
8
DEFAULT_255_1_234
10
5.7121127
20
147.5154
11
5.5627224
21
147.5154
0
LINE
8
DEFAULT_255_1_234
10
5.5627224
20
147.5154
11
5.5627224
21
147.7868728
0
LINE
8
DEFAULT_255_1_234
10
5.5627224
20
147.7868728
11
5.0302181
21
147.7868728
0
LINE
8
DEFAULT_255_1_234
10
5.0302181
20
147.7868728
11
5.0302181
21
147.8744187
0
LINE
8
DEFAULT_255_1_234
10
5.0302181
20
147.8744187
11
5.5538875
21
148.6848211
0
LINE
8
DEFAULT_255_1_234
10
5.5538875
20
148.6848211
11
5.7121127
21
148.6848211
0
LINE
8
DEFAULT_255_1_234
10
5.5450525
20
148.4494912
11
5.1988846
21
147.908152
0
LINE
8
DEFAULT_255_1_234
10
5.1988846
20
147.908152
11
5.5627224
21
147.908152
0
LINE
8
DEFAULT_255_1_234
10
5.5627224
20
147.908152
11
5.5627224
21
148.4816181
0
LINE
8
DEFAULT_255_1_234
10
5.5627224
20
148.4816181
11
5.5450525
21
148.4494912
0
LINE
8
DEFAULT_255_1_234
10
6.101652
20
148.6848211
11
6.434166
21
147.7202093
0
LINE
8
DEFAULT_255_1_234
10
6.434166
20
147.7202093
11
6.7682863
21
148.6848211
0
LINE
8
DEFAULT_255_1_234
10
6.7682863
20
148.6848211
11
6.9369528
21
148.6848211
0
LINE
8
DEFAULT_255_1_234
10
6.9369528
20
148.6848211
11
6.5032389
21
147.5154
0
LINE
8
DEFAULT_255_1_234
10
6.5032389
20
147.5154
11
6.3666994
21
147.5154
0
LINE
8
DEFAULT_255_1_234
10
6.3666994
20
147.5154
11
5.9337887
21
148.6848211
0
LINE
8
DEFAULT_255_1_234
10
5.9337887
20
148.6848211
11
6.101652
21
148.6848211
0
LINE
8
DEFAULT_255_1_234
10
4.749285
20
5.2829391
11
4.749285
21
5.1568408
0
LINE
8
DEFAULT_255_1_234
10
4.749285
20
5.1568408
11
4.2585458
21
5.1568408
0
LINE
8
DEFAULT_255_1_234
10
4.2585458
20
5.1568408
11
4.2585458
21
4.6404
0
LINE
8
DEFAULT_255_1_234
10
4.2585458
20
4.6404
11
4.1043364
21
4.6404
0
LINE
8
DEFAULT_255_1_234
10
4.1043364
20
4.6404
11
4.1043364
21
5.8098211
0
LINE
8
DEFAULT_255_1_234
10
4.1043364
20
5.8098211
11
4.8287992
21
5.8098211
0
LINE
8
DEFAULT_255_1_234
10
4.8287992
20
5.8098211
11
4.8287992
21
5.6829196
0
LINE
8
DEFAULT_255_1_234
10
4.8287992
20
5.6829196
11
4.2585458
21
5.6829196
0
LINE
8
DEFAULT_255_1_234
10
4.2585458
20
5.6829196
11
4.2585458
21
5.2829391
0
LINE
8
DEFAULT_255_1_234
10
4.2585458
20
5.2829391
11
4.749285
21
5.2829391
0
LINE
8
DEFAULT_255_1_234
10
5.876941
20
5.222701
11
5.876941
21
4.7938062
0
LINE
8
DEFAULT_255_1_234
10
4.97578
20
5.1688884
11
4.97578
21
5.2708915
0
LINE
8
DEFAULT_255_1_234
10
5.876941
20
5.4668659
11
5.7227316
21
5.4668659
0
LINE
8
DEFAULT_255_1_234
10
5.1307925
20
5.2749073
11
5.1307925
21
5.1793296
0
LINE
8
DEFAULT_255_1_234
10
5.7235348
20
4.8347681
11
5.7235348
21
5.0974059
0
LINE
8
DEFAULT_255_1_234
10
5.7235348
20
5.0974059
11
5.4528652
21
5.0974059
0
LINE
8
DEFAULT_255_1_234
10
5.4528652
20
5.0974059
11
5.4528652
21
5.222701
0
LINE
8
DEFAULT_255_1_234
10
5.4528652
20
5.222701
11
5.876941
21
5.222701
0
ARC
8
DEFAULT_255_1_234
10
5.5937916
20
4.9931396
40
0.3462765
50
295.8437914
51
324.8549609
0
ARC
8
DEFAULT_255_1_234
10
5.5521883
20
5.0684567
40
0.4322211
50
291.5695085
51
296.4549398
0
ARC
8
DEFAULT_255_1_234
10
5.5011135
20
5.2049275
40
0.5779178
50
278.6622409
51
291.3045483
0
ARC
8
DEFAULT_255_1_234
10
5.4671626
20
5.4197408
40
0.7953952
50
270.020006
51
278.7494541
0
ARC
8
DEFAULT_255_1_234
10
5.463355
20
5.5514036
40
0.927067
50
269.9969998
51
270.2524872
0
ARC
8
DEFAULT_255_1_234
10
5.4595264
20
5.1430589
40
0.5187361
50
253.5786322
51
270.4175299
0
ARC
8
DEFAULT_255_1_234
10
5.442192
20
5.0759236
40
0.4494451
50
238.8203306
51
253.2788235
0
ARC
8
DEFAULT_255_1_234
10
5.4402293
20
5.0708231
40
0.4440665
50
206.7883783
51
238.6962764
0
ARC
8
DEFAULT_255_1_234
10
5.5176203
20
5.1172405
40
0.5341121
50
206.1129412
51
207.4916643
0
ARC
8
DEFAULT_255_1_234
10
5.5773118
20
5.1426488
40
0.5989041
50
188.6921119
51
205.7821245
0
ARC
8
DEFAULT_255_1_234
10
5.762948
20
5.174223
40
0.7871862
50
180.3882829
51
188.9219216
0
ARC
8
DEFAULT_255_1_234
10
5.8857294
20
5.2765464
40
0.909967
50
170.2024264
51
180.3560651
0
ARC
8
DEFAULT_255_1_234
10
5.5693812
20
5.3331237
40
0.5886083
50
154.2857445
51
170.3893044
0
ARC
8
DEFAULT_255_1_234
10
5.4412015
20
5.391795
40
0.4476743
50
139.8401567
51
153.9332699
0
ARC
8
DEFAULT_255_1_234
10
5.4052751
20
5.4205577
40
0.4016697
50
98.4190291
51
139.6707122
0
ARC
8
DEFAULT_255_1_234
10
5.4432268
20
5.2360328
40
0.5898566
50
89.7659205
51
99.4415478
0
ARC
8
DEFAULT_255_1_234
10
5.4497518
20
5.2425844
40
0.5833147
50
78.0551672
51
90.4042112
0
ARC
8
DEFAULT_255_1_234
10
5.4902028
20
5.4244644
40
0.3970055
50
54.6380464
51
78.3339173
0
ARC
8
DEFAULT_255_1_234
10
5.5092084
20
5.4564795
40
0.3599102
50
50.031736
51
54.1558201
0
ARC
8
DEFAULT_255_1_234
10
5.4984871
20
5.4468766
40
0.3741624
50
18.1092409
51
49.7180913
0
ARC
8
DEFAULT_255_1_234
10
5.3528071
20
5.3935089
40
0.5292424
50
7.9672797
51
18.6984571
0
ARC
8
DEFAULT_255_1_234
10
5.367855
20
5.4058504
40
0.3600838
50
9.7557294
51
27.3215714
0
ARC
8
DEFAULT_255_1_234
10
5.4806021
20
5.4621912
40
0.2340608
50
27.7361077
51
84.5257964
0
ARC
8
DEFAULT_255_1_234
10
5.4478408
20
5.297864
40
0.4011215
50
82.106034
51
90.2001166
0
ARC
8
DEFAULT_255_1_234
10
5.4428625
20
5.3486215
40
0.3503799
50
89.4150119
51
105.5823402
0
ARC
8
DEFAULT_255_1_234
10
5.4171623
20
5.4421867
40
0.2533503
50
105.6678618
51
144.2648758
0
ARC
8
DEFAULT_255_1_234
10
5.5064879
20
5.3786289
40
0.3629787
50
144.3561283
51
162.8564086
0
ARC
8
DEFAULT_255_1_234
10
5.7148788
20
5.3117017
40
0.5818441
50
162.6076014
51
173.6780284
0
ARC
8
DEFAULT_255_1_234
10
6.0209931
20
5.274489
40
0.8902007
50
173.4670142
51
179.9730753
0
ARC
8
DEFAULT_255_1_234
10
5.8301603
20
5.175126
40
0.6993804
50
179.6556203
51
190.0080463
0
ARC
8
DEFAULT_255_1_234
10
5.5985432
20
5.1326375
40
0.4639066
50
189.8116607
51
206.6796816
0
ARC
8
DEFAULT_255_1_234
10
5.5140584
20
5.0932503
40
0.3707421
50
207.1031645
51
217.7074368
0
ARC
8
DEFAULT_255_1_234
10
5.4506273
20
5.0380559
40
0.2868417
50
216.7345547
51
265.6812148
0
ARC
8
DEFAULT_255_1_234
10
5.4637064
20
5.1284855
40
0.3780509
50
264.7366618
51
270.0611241
0
ARC
8
DEFAULT_255_1_234
10
5.4660327
20
5.4125111
40
0.662079
50
269.8335834
51
276.0539546
0
ARC
8
DEFAULT_255_1_234
10
5.4867331
20
5.222356
40
0.4708016
50
275.9894168
51
284.4615085
0
ARC
8
DEFAULT_255_1_234
10
5.5065338
20
5.1390663
40
0.3852094
50
284.7034461
51
286.4953897
0
ARC
8
DEFAULT_255_1_234
10
5.5472352
20
5.0079965
40
0.2479842
50
286.0770838
51
304.2625829
0
ARC
8
DEFAULT_255_1_234
10
5.5605766
20
4.9861594
40
0.2224291
50
304.5891602
51
317.1073298
0
LINE
8
DEFAULT_255_1_234
10
4.9748293
20
12.5779
11
4.8631881
21
12.8831061
0
LINE
8
DEFAULT_255_1_234
10
4.8631881
20
12.8831061
11
4.3732521
21
12.8831061
0
LINE
8
DEFAULT_255_1_234
10
4.3732521
20
12.8831061
11
4.2632173
21
12.5779
0
LINE
8
DEFAULT_255_1_234
10
4.2632173
20
12.5779
11
4.1041889
21
12.5779
0
LINE
8
DEFAULT_255_1_234
10
4.1041889
20
12.5779
11
4.5507535
21
13.7473211
0
LINE
8
DEFAULT_255_1_234
10
4.5507535
20
13.7473211
11
4.6856867
21
13.7473211
0
LINE
8
DEFAULT_255_1_234
10
4.6856867
20
13.7473211
11
5.1330545
21
12.5779
0
LINE
8
DEFAULT_255_1_234
10
5.1330545
20
12.5779
11
4.9748293
21
12.5779
0
LINE
8
DEFAULT_255_1_234
10
4.6182201
20
13.5569689
11
4.4198362
21
13.0100075
0
LINE
8
DEFAULT_255_1_234
10
4.4198362
20
13.0100075
11
4.8174072
21
13.0100075
0
LINE
8
DEFAULT_255_1_234
10
4.8174072
20
13.0100075
11
4.6182201
21
13.5569689
0
LINE
8
DEFAULT_255_1_234
10
6.1450536
20
13.160201
11
6.1450536
21
12.7313062
0
LINE
8
DEFAULT_255_1_234
10
5.2438925
20
13.1063884
11
5.2438925
21
13.2083915
0
LINE
8
DEFAULT_255_1_234
10
6.1450536
20
13.4043659
11
5.9908442
21
13.4043659
0
LINE
8
DEFAULT_255_1_234
10
5.3989051
20
13.2124073
11
5.3989051
21
13.1168296
0
LINE
8
DEFAULT_255_1_234
10
5.9916474
20
12.7722681
11
5.9916474
21
13.0349059
0
LINE
8
DEFAULT_255_1_234
10
5.9916474
20
13.0349059
11
5.7209778
21
13.0349059
0
LINE
8
DEFAULT_255_1_234
10
5.7209778
20
13.0349059
11
5.7209778
21
13.160201
0
LINE
8
DEFAULT_255_1_234
10
5.7209778
20
13.160201
11
6.1450536
21
13.160201
0
ARC
8
DEFAULT_255_1_234
10
5.8619042
20
12.9306396
40
0.3462765
50
295.8437914
51
324.8549609
0
ARC
8
DEFAULT_255_1_234
10
5.8203009
20
13.0059567
40
0.4322211
50
291.5695085
51
296.4549398
0
ARC
8
DEFAULT_255_1_234
10
5.7692261
20
13.1424275
40
0.5779178
50
278.6622409
51
291.3045483
0
ARC
8
DEFAULT_255_1_234
10
5.7352752
20
13.3572408
40
0.7953952
50
270.020006
51
278.7494541
0
ARC
8
DEFAULT_255_1_234
10
5.7314676
20
13.4889036
40
0.927067
50
269.9969998
51
270.2524872
0
ARC
8
DEFAULT_255_1_234
10
5.7276389
20
13.0805589
40
0.5187361
50
253.5786322
51
270.4175299
0
ARC
8
DEFAULT_255_1_234
10
5.7103045
20
13.0134236
40
0.4494451
50
238.8203306
51
253.2788235
0
ARC
8
DEFAULT_255_1_234
10
5.7083418
20
13.0083231
40
0.4440665
50
206.7883783
51
238.6962764
0
ARC
8
DEFAULT_255_1_234
10
5.7857329
20
13.0547405
40
0.5341121
50
206.1129412
51
207.4916643
0
ARC
8
DEFAULT_255_1_234
10
5.8454244
20
13.0801488
40
0.5989041
50
188.6921119
51
205.7821245
0
ARC
8
DEFAULT_255_1_234
10
6.0310605
20
13.111723
40
0.7871862
50
180.3882829
51
188.9219216
0
ARC
8
DEFAULT_255_1_234
10
6.1538419
20
13.2140464
40
0.909967
50
170.2024264
51
180.3560651
0
ARC
8
DEFAULT_255_1_234
10
5.8374937
20
13.2706237
40
0.5886083
50
154.2857445
51
170.3893044
0
ARC
8
DEFAULT_255_1_234
10
5.7093141
20
13.329295
40
0.4476743
50
139.8401567
51
153.9332699
0
ARC
8
DEFAULT_255_1_234
10
5.6733876
20
13.3580577
40
0.4016697
50
98.4190291
51
139.6707122
0
ARC
8
DEFAULT_255_1_234
10
5.7113394
20
13.1735328
40
0.5898566
50
89.7659205
51
99.4415478
0
ARC
8
DEFAULT_255_1_234
10
5.7178644
20
13.1800844
40
0.5833147
50
78.0551672
51
90.4042112
0
ARC
8
DEFAULT_255_1_234
10
5.7583154
20
13.3619644
40
0.3970055
50
54.6380464
51
78.3339173
0
ARC
8
DEFAULT_255_1_234
10
5.7773209
20
13.3939795
40
0.3599102
50
50.031736
51
54.1558201
0
ARC
8
DEFAULT_255_1_234
10
5.7665997
20
13.3843766
40
0.3741624
50
18.1092409
51
49.7180913
0
ARC
8
DEFAULT_255_1_234
10
5.6209197
20
13.3310089
40
0.5292424
50
7.9672797
51
18.6984571
0
ARC
8
DEFAULT_255_1_234
10
5.6359675
20
13.3433504
40
0.3600838
50
9.7557294
51
27.3215714
0
ARC
8
DEFAULT_255_1_234
10
5.7487147
20
13.3996912
40
0.2340608
50
27.7361077
51
84.5257964
0
ARC
8
DEFAULT_255_1_234
10
5.7159534
20
13.235364
40
0.4011215
50
82.106034
51
90.2001166
0
ARC
8
DEFAULT_255_1_234
10
5.7109751
20
13.2861215
40
0.3503799
50
89.4150119
51
105.5823402
0
ARC
8
DEFAULT_255_1_234
10
5.6852749
20
13.3796867
40
0.2533503
50
105.6678618
51
144.2648758
0
ARC
8
DEFAULT_255_1_234
10
5.7746005
20
13.3161289
40
0.3629787
50
144.3561283
51
162.8564086
0
ARC
8
DEFAULT_255_1_234
10
5.9829914
20
13.2492017
40
0.5818441
50
162.6076014
51
173.6780284
0
ARC
8
DEFAULT_255_1_234
10
6.2891057
20
13.211989
40
0.8902007
50
173.4670142
51
179.9730753
0
ARC
8
DEFAULT_255_1_234
10
6.0982728
20
13.112626
40
0.6993804
50
179.6556203
51
190.0080463
0
ARC
8
DEFAULT_255_1_234
10
5.8666557
20
13.0701375
40
0.4639066
50
189.8116607
51
206.6796816
0
ARC
8
DEFAULT_255_1_234
10
5.782171
20
13.0307503
40
0.3707421
50
207.1031645
51
217.7074368
0
ARC
8
DEFAULT_255_1_234
10
5.7187398
20
12.9755559
40
0.2868417
50
216.7345547
51
265.6812148
0
ARC
8
DEFAULT_255_1_234
10
5.7318189
20
13.0659855
40
0.3780509
50
264.7366618
51
270.0611241
0
ARC
8
DEFAULT_255_1_234
10
5.7341452
20
13.3500111
40
0.662079
50
269.8335834
51
276.0539546
0
ARC
8
DEFAULT_255_1_234
10
5.7548457
20
13.159856
40
0.4708016
50
275.9894168
51
284.4615085
0
ARC
8
DEFAULT_255_1_234
10
5.7746464
20
13.0765663
40
0.3852094
50
284.7034461
51
286.4953897
0
ARC
8
DEFAULT_255_1_234
10
5.8153477
20
12.9454965
40
0.2479842
50
286.0770838
51
304.2625829
0
ARC
8
DEFAULT_255_1_234
10
5.8286891
20
12.9236594
40
0.2224291
50
304.5891602
51
317.1073298
0
ARC
8
DEFAULT_255_1_234
10
4.5371624
20
21.3770703
40
0.2822356
50
338.8763615
51
0.5166041
0
ARC
8
DEFAULT_255_1_234
10
4.5540278
20
21.3725208
40
0.2648703
50
325.8412414
51
338.4795939
0
ARC
8
DEFAULT_255_1_234
10
4.5149646
20
21.3996042
40
0.3124019
50
296.7586019
51
325.753654
0
ARC
8
DEFAULT_255_1_234
10
4.4861754
20
21.4480789
40
0.368668
50
296.0902311
51
297.3618122
0
ARC
8
DEFAULT_255_1_234
10
4.5119212
20
20.7926041
40
0.3518806
50
47.9009248
51
67.1946869
0
ARC
8
DEFAULT_255_1_234
10
4.5315454
20
20.8172395
40
0.320451
50
35.236241
51
47.551371
0
ARC
8
DEFAULT_255_1_234
10
4.5577072
20
20.8346993
40
0.2890103
50
359.2759738
51
35.4014081
0
ARC
8
DEFAULT_255_1_234
10
4.4832103
20
20.8273826
40
0.3635026
50
343.1294516
51
0.5776525
0
ARC
8
DEFAULT_255_1_234
10
4.5556648
20
20.807433
40
0.2883832
50
310.8497458
51
342.744803
0
ARC
8
DEFAULT_255_1_234
10
4.5138761
20
20.8551294
40
0.3517954
50
281.5473923
51
310.9169905
0
ARC
8
DEFAULT_255_1_234
10
4.478221
20
21.0104084
40
0.5110832
50
269.6192722
51
281.9789957
0
ARC
8
DEFAULT_255_1_234
10
4.471
20
21.0104828
40
0.5111606
50
257.4584469
51
270.4287458
0
ARC
8
DEFAULT_255_1_234
10
4.4329143
20
20.8501344
40
0.3463762
50
228.7553743
51
257.8484423
0
ARC
8
DEFAULT_255_1_234
10
4.4019341
20
20.8128442
40
0.297916
50
184.0104442
51
228.5071787
0
ARC
8
DEFAULT_255_1_234
10
4.5182285
20
20.8305512
40
0.4152734
50
179.9315461
51
185.3254504
0
ARC
8
DEFAULT_255_1_234
10
4.4005931
20
20.8342992
40
0.2976554
50
145.6795913
51
180.6259649
0
ARC
8
DEFAULT_255_1_234
10
4.416928
20
20.8228929
40
0.3175776
50
115.5537925
51
145.6416199
0
ARC
8
DEFAULT_255_1_234
10
4.451021
20
20.7618028
40
0.3874232
50
113.2437915
51
116.2054627
0
ARC
8
DEFAULT_255_1_234
10
4.4357423
20
21.401658
40
0.3154751
50
222.9548379
51
244.1372485
0
ARC
8
DEFAULT_255_1_234
10
4.4235498
20
21.3879834
40
0.2972382
50
213.3439227
51
222.6271327
0
ARC
8
DEFAULT_255_1_234
10
4.4043433
20
21.3749308
40
0.274019
50
180.4316517
51
213.2713999
0
ARC
8
DEFAULT_255_1_234
10
4.4618434
20
21.379611
40
0.33158
50
179.9992944
51
181.1655061
0
ARC
8
DEFAULT_255_1_234
10
4.5027851
20
21.3830561
40
0.3725376
50
164.6186108
51
180.5292368
0
ARC
8
DEFAULT_255_1_234
10
4.4129714
20
21.4072101
40
0.2795349
50
132.2454369
51
164.5092287
0
ARC
8
DEFAULT_255_1_234
10
4.4416818
20
21.3747028
40
0.3229019
50
100.7052766
51
132.1387266
0
ARC
8
DEFAULT_255_1_234
10
4.472179
20
21.2369086
40
0.4639835
50
89.6732617
51
101.2449487
0
ARC
8
DEFAULT_255_1_234
10
4.4783988
20
21.254399
40
0.4464999
50
76.2876631
51
90.4586123
0
ARC
8
DEFAULT_255_1_234
10
4.509022
20
21.376622
40
0.3205023
50
47.8240157
51
76.4266918
0
ARC
8
DEFAULT_255_1_234
10
4.531277
20
21.402659
40
0.2862661
50
6.9168658
51
47.6261438
0
ARC
8
DEFAULT_255_1_234
10
4.4126173
20
21.380737
40
0.4067708
50
359.8419705
51
7.9694496
0
ARC
8
DEFAULT_255_1_234
10
4.446807
20
20.8366925
40
0.2513121
50
359.4454068
51
16.9256425
0
ARC
8
DEFAULT_255_1_234
10
4.4936881
20
20.8496033
40
0.2027071
50
17.292259
51
45.462717
0
ARC
8
DEFAULT_255_1_234
10
4.4882817
20
20.8449434
40
0.2098212
50
45.3028762
51
83.1921472
0
ARC
8
DEFAULT_255_1_234
10
4.4739501
20
20.7647895
40
0.2911472
50
82.2614531
51
90.143954
0
ARC
8
DEFAULT_255_1_234
10
4.4708621
20
20.788095
40
0.2678513
50
89.4959189
51
104.8579811
0
ARC
8
DEFAULT_255_1_234
10
4.453188
20
20.855089
40
0.1985654
50
104.8855873
51
135.2448349
0
ARC
8
DEFAULT_255_1_234
10
4.4581653
20
20.8506336
40
0.2052373
50
135.3398955
51
172.104394
0
ARC
8
DEFAULT_255_1_234
10
4.5388711
20
20.8351925
40
0.2873299
50
171.2651929
51
180.1859362
0
ARC
8
DEFAULT_255_1_234
10
4.5219412
20
20.8319733
40
0.2704083
50
179.515471
51
193.6466734
0
ARC
8
DEFAULT_255_1_234
10
4.4403181
20
20.8111777
40
0.1861855
50
193.3540587
51
225.8256931
0
ARC
8
DEFAULT_255_1_234
10
4.4443938
20
20.8182524
40
0.1941102
50
226.418029
51
255.8553723
0
ARC
8
DEFAULT_255_1_234
10
4.4700371
20
20.9118998
40
0.2911917
50
255.4655572
51
268.7985967
0
ARC
8
DEFAULT_255_1_234
10
4.4747563
20
20.9957491
40
0.3751331
50
268.3464808
51
270.0104874
0
ARC
8
DEFAULT_255_1_234
10
4.4770951
20
20.9273138
40
0.3067064
50
269.575914
51
282.0823146
0
ARC
8
DEFAULT_255_1_234
10
4.499586
20
20.8278803
40
0.2047712
50
281.7522535
51
306.6056425
0
ARC
8
DEFAULT_255_1_234
10
4.5094286
20
20.8117487
40
0.1859604
50
307.1350025
51
314.0277951
0
ARC
8
DEFAULT_255_1_234
10
4.505837
20
20.8143766
40
0.1903475
50
314.2553419
51
350.169324
0
ARC
8
DEFAULT_255_1_234
10
4.4206839
20
20.8328409
40
0.2774269
50
349.4145679
51
0.2930737
0
ARC
8
DEFAULT_255_1_234
10
4.4727272
20
21.3487353
40
0.2300764
50
89.477591
51
105.729794
0
ARC
8
DEFAULT_255_1_234
10
4.4591185
20
21.3992637
40
0.1777519
50
105.922966
51
135.1662921
0
ARC
8
DEFAULT_255_1_234
10
4.4611688
20
21.3978419
40
0.1802087
50
135.3053131
51
168.9882338
0
ARC
8
DEFAULT_255_1_234
10
4.543926
20
21.3788721
40
0.2650806
50
168.3802067
51
180.3602358
0
ARC
8
DEFAULT_255_1_234
10
4.521084
20
21.3751041
40
0.2422425
50
179.5029707
51
194.9126783
0
ARC
8
DEFAULT_255_1_234
10
4.4625501
20
21.359711
40
0.1817188
50
194.9722181
51
224.1943972
0
ARC
8
DEFAULT_255_1_234
10
4.4597368
20
21.3574169
40
0.1781027
50
224.2961434
51
262.0157375
0
ARC
8
DEFAULT_255_1_234
10
4.4739611
20
21.4305661
40
0.2525492
50
261.1250369
51
270.1959853
0
ARC
8
DEFAULT_255_1_234
10
4.4769366
20
21.4118339
40
0.233825
50
269.4825617
51
285.0988277
0
ARC
8
DEFAULT_255_1_234
10
4.4923525
20
21.353999
40
0.1739712
50
285.1585659
51
315.9484648
0
ARC
8
DEFAULT_255_1_234
10
4.4834537
20
21.3621886
40
0.1860616
50
316.0412958
51
351.9162715
0
ARC
8
DEFAULT_255_1_234
10
4.4101492
20
21.3763245
40
0.2606517
50
351.1056823
51
0.1936567
0
ARC
8
DEFAULT_255_1_234
10
4.4364321
20
21.3793369
40
0.234377
50
359.4789506
51
16.0679113
0
ARC
8
DEFAULT_255_1_234
10
4.484028
20
21.392181
40
0.1850875
50
16.3251951
51
44.791304
0
ARC
8
DEFAULT_255_1_234
10
4.4822561
20
21.3922339
40
0.186312
50
44.3958661
51
88.2498933
0
ARC
8
DEFAULT_255_1_234
10
4.4749115
20
21.3311154
40
0.2476868
50
86.9833827
51
90.0200148
0
LINE
8
DEFAULT_255_1_234
10
5.2378401
20
21.6848211
11
5.2378401
21
20.5154
0
LINE
8
DEFAULT_255_1_234
10
5.2378401
20
20.5154
11
5.0836307
21
20.5154
0
LINE
8
DEFAULT_255_1_234
10
5.0836307
20
20.5154
11
5.0836307
21
21.6848211
0
LINE
8
DEFAULT_255_1_234
10
5.0836307
20
21.6848211
11
5.2378401
21
21.6848211
0
LINE
8
DEFAULT_255_1_234
10
5.805684
20
21.0728026
11
5.805684
21
20.9515234
0
LINE
8
DEFAULT_255_1_234
10
5.805684
20
20.9515234
11
5.4137352
21
20.9515234
0
LINE
8
DEFAULT_255_1_234
10
5.4137352
20
20.9515234
11
5.4137352
21
21.0728026
0
LINE
8
DEFAULT_255_1_234
10
5.4137352
20
21.0728026
11
5.805684
21
21.0728026
0
ARC
8
DEFAULT_255_1_234
10
4.5090624
20
29.3145703
40
0.2822356
50
338.8763615
51
0.5166041
0
ARC
8
DEFAULT_255_1_234
10
4.5259278
20
29.3100208
40
0.2648703
50
325.8412414
51
338.4795939
0
ARC
8
DEFAULT_255_1_234
10
4.4868646
20
29.3371042
40
0.3124019
50
296.7586019
51
325.753654
0
ARC
8
DEFAULT_255_1_234
10
4.4580754
20
29.3855789
40
0.368668
50
296.0902311
51
297.3618122
0
ARC
8
DEFAULT_255_1_234
10
4.4838212
20
28.7301041
40
0.3518806
50
47.9009248
51
67.1946869
0
ARC
8
DEFAULT_255_1_234
10
4.5034454
20
28.7547395
40
0.320451
50
35.236241
51
47.551371
0
ARC
8
DEFAULT_255_1_234
10
4.5296072
20
28.7721993
40
0.2890103
50
359.2759738
51
35.4014081
0
ARC
8
DEFAULT_255_1_234
10
4.4551103
20
28.7648826
40
0.3635026
50
343.1294516
51
0.5776525
0
ARC
8
DEFAULT_255_1_234
10
4.5275648
20
28.744933
40
0.2883832
50
310.8497458
51
342.744803
0
ARC
8
DEFAULT_255_1_234
10
4.4857761
20
28.7926294
40
0.3517954
50
281.5473923
51
310.9169905
0
ARC
8
DEFAULT_255_1_234
10
4.450121
20
28.9479084
40
0.5110832
50
269.6192722
51
281.9789957
0
ARC
8
DEFAULT_255_1_234
10
4.4429
20
28.9479828
40
0.5111606
50
257.4584469
51
270.4287458
0
ARC
8
DEFAULT_255_1_234
10
4.4048143
20
28.7876344
40
0.3463762
50
228.7553743
51
257.8484423
0
ARC
8
DEFAULT_255_1_234
10
4.3738341
20
28.7503442
40
0.297916
50
184.0104442
51
228.5071787
0
ARC
8
DEFAULT_255_1_234
10
4.4901285
20
28.7680512
40
0.4152734
50
179.9315461
51
185.3254504
0
ARC
8
DEFAULT_255_1_234
10
4.3724931
20
28.7717992
40
0.2976554
50
145.6795913
51
180.6259649
0
ARC
8
DEFAULT_255_1_234
10
4.388828
20
28.7603929
40
0.3175776
50
115.5537925
51
145.6416199
0
ARC
8
DEFAULT_255_1_234
10
4.422921
20
28.6993028
40
0.3874232
50
113.2437915
51
116.2054627
0
ARC
8
DEFAULT_255_1_234
10
4.4076423
20
29.339158
40
0.3154751
50
222.9548379
51
244.1372485
0
ARC
8
DEFAULT_255_1_234
10
4.3954498
20
29.3254834
40
0.2972382
50
213.3439227
51
222.6271327
0
ARC
8
DEFAULT_255_1_234
10
4.3762433
20
29.3124308
40
0.274019
50
180.4316517
51
213.2713999
0
ARC
8
DEFAULT_255_1_234
10
4.4337434
20
29.317111
40
0.33158
50
179.9992944
51
181.1655061
0
ARC
8
DEFAULT_255_1_234
10
4.4746851
20
29.3205561
40
0.3725376
50
164.6186108
51
180.5292368
0
ARC
8
DEFAULT_255_1_234
10
4.3848714
20
29.3447101
40
0.2795349
50
132.2454369
51
164.5092287
0
ARC
8
DEFAULT_255_1_234
10
4.4135818
20
29.3122028
40
0.3229019
50
100.7052766
51
132.1387266
0
ARC
8
DEFAULT_255_1_234
10
4.444079
20
29.1744086
40
0.4639835
50
89.6732617
51
101.2449487
0
ARC
8
DEFAULT_255_1_234
10
4.4502988
20
29.191899
40
0.4464999
50
76.2876631
51
90.4586123
0
ARC
8
DEFAULT_255_1_234
10
4.480922
20
29.314122
40
0.3205023
50
47.8240157
51
76.4266918
0
ARC
8
DEFAULT_255_1_234
10
4.503177
20
29.340159
40
0.2862661
50
6.9168658
51
47.6261438
0
ARC
8
DEFAULT_255_1_234
10
4.3845173
20
29.318237
40
0.4067708
50
359.8419705
51
7.9694496
0
ARC
8
DEFAULT_255_1_234
10
4.418707
20
28.7741925
40
0.2513121
50
359.4454068
51
16.9256425
0
ARC
8
DEFAULT_255_1_234
10
4.4655881
20
28.7871033
40
0.2027071
50
17.292259
51
45.462717
0
ARC
8
DEFAULT_255_1_234
10
4.4601817
20
28.7824434
40
0.2098212
50
45.3028762
51
83.1921472
0
ARC
8
DEFAULT_255_1_234
10
4.4458501
20
28.7022895
40
0.2911472
50
82.2614531
51
90.143954
0
ARC
8
DEFAULT_255_1_234
10
4.4427621
20
28.725595
40
0.2678513
50
89.4959189
51
104.8579811
0
ARC
8
DEFAULT_255_1_234
10
4.425088
20
28.792589
40
0.1985654
50
104.8855873
51
135.2448349
0
ARC
8
DEFAULT_255_1_234
10
4.4300653
20
28.7881336
40
0.2052373
50
135.3398955
51
172.104394
0
ARC
8
DEFAULT_255_1_234
10
4.5107711
20
28.7726925
40
0.2873299
50
171.2651929
51
180.1859362
0
ARC
8
DEFAULT_255_1_234
10
4.4938412
20
28.7694733
40
0.2704083
50
179.515471
51
193.6466734
0
ARC
8
DEFAULT_255_1_234
10
4.4122181
20
28.7486777
40
0.1861855
50
193.3540587
51
225.8256931
0
ARC
8
DEFAULT_255_1_234
10
4.4162938
20
28.7557524
40
0.1941102
50
226.418029
51
255.8553723
0
ARC
8
DEFAULT_255_1_234
10
4.4419371
20
28.8493998
40
0.2911917
50
255.4655572
51
268.7985967
0
ARC
8
DEFAULT_255_1_234
10
4.4466563
20
28.9332491
40
0.3751331
50
268.3464808
51
270.0104874
0
ARC
8
DEFAULT_255_1_234
10
4.4489951
20
28.8648138
40
0.3067064
50
269.575914
51
282.0823146
0
ARC
8
DEFAULT_255_1_234
10
4.471486
20
28.7653803
40
0.2047712
50
281.7522535
51
306.6056425
0
ARC
8
DEFAULT_255_1_234
10
4.4813286
20
28.7492487
40
0.1859604
50
307.1350025
51
314.0277951
0
ARC
8
DEFAULT_255_1_234
10
4.477737
20
28.7518766
40
0.1903475
50
314.2553419
51
350.169324
0
ARC
8
DEFAULT_255_1_234
10
4.3925839
20
28.7703409
40
0.2774269
50
349.4145679
51
0.2930737
0
ARC
8
DEFAULT_255_1_234
10
4.4446272
20
29.2862353
40
0.2300764
50
89.477591
51
105.729794
0
ARC
8
DEFAULT_255_1_234
10
4.4310185
20
29.3367637
40
0.1777519
50
105.922966
51
135.1662921
0
ARC
8
DEFAULT_255_1_234
10
4.4330688
20
29.3353419
40
0.1802087
50
135.3053131
51
168.9882338
0
ARC
8
DEFAULT_255_1_234
10
4.515826
20
29.3163721
40
0.2650806
50
168.3802067
51
180.3602358
0
ARC
8
DEFAULT_255_1_234
10
4.492984
20
29.3126041
40
0.2422425
50
179.5029707
51
194.9126783
0
ARC
8
DEFAULT_255_1_234
10
4.4344501
20
29.297211
40
0.1817188
50
194.9722181
51
224.1943972
0
ARC
8
DEFAULT_255_1_234
10
4.4316368
20
29.2949169
40
0.1781027
50
224.2961434
51
262.0157375
0
ARC
8
DEFAULT_255_1_234
10
4.4458611
20
29.3680661
40
0.2525492
50
261.1250369
51
270.1959853
0
ARC
8
DEFAULT_255_1_234
10
4.4488366
20
29.3493339
40
0.233825
50
269.4825617
51
285.0988277
0
ARC
8
DEFAULT_255_1_234
10
4.4642525
20
29.291499
40
0.1739712
50
285.1585659
51
315.9484648
0
ARC
8
DEFAULT_255_1_234
10
4.4553537
20
29.2996886
40
0.1860616
50
316.0412958
51
351.9162715
0
ARC
8
DEFAULT_255_1_234
10
4.3820492
20
29.3138245
40
0.2606517
50
351.1056823
51
0.1936567
0
ARC
8
DEFAULT_255_1_234
10
4.4083321
20
29.3168369
40
0.234377
50
359.4789506
51
16.0679113
0
ARC
8
DEFAULT_255_1_234
10
4.455928
20
29.329681
40
0.1850875
50
16.3251951
51
44.791304
0
ARC
8
DEFAULT_255_1_234
10
4.4541561
20
29.3297339
40
0.186312
50
44.3958661
51
88.2498933
0
ARC
8
DEFAULT_255_1_234
10
4.4468115
20
29.2686154
40
0.2476868
50
86.9833827
51
90.0200148
0
LINE
8
DEFAULT_255_1_234
10
5.2097401
20
29.6223211
11
5.2097401
21
28.4529
0
LINE
8
DEFAULT_255_1_234
10
5.2097401
20
28.4529
11
5.0555307
21
28.4529
0
LINE
8
DEFAULT_255_1_234
10
5.0555307
20
28.4529
11
5.0555307
21
29.6223211
0
LINE
8
DEFAULT_255_1_234
10
5.0555307
20
29.6223211
11
5.2097401
21
29.6223211
0
LINE
8
DEFAULT_255_1_234
10
5.8940442
20
29.4215276
11
5.8940442
21
29.0801788
0
LINE
8
DEFAULT_255_1_234
10
5.8940442
20
29.0801788
11
6.2201328
21
29.0801788
0
LINE
8
DEFAULT_255_1_234
10
6.2201328
20
29.0801788
11
6.2201328
21
28.9396233
0
LINE
8
DEFAULT_255_1_234
10
6.2201328
20
28.9396233
11
5.8940442
21
28.9396233
0
LINE
8
DEFAULT_255_1_234
10
5.8940442
20
28.9396233
11
5.8940442
21
28.5701634
0
LINE
8
DEFAULT_255_1_234
10
5.8940442
20
28.5701634
11
5.7446539
21
28.5701634
0
LINE
8
DEFAULT_255_1_234
10
5.7446539
20
28.5701634
11
5.7446539
21
28.9396233
0
LINE
8
DEFAULT_255_1_234
10
5.7446539
20
28.9396233
11
5.4185653
21
28.9396233
0
LINE
8
DEFAULT_255_1_234
10
5.4185653
20
28.9396233
11
5.4185653
21
29.0801788
0
LINE
8
DEFAULT_255_1_234
10
5.4185653
20
29.0801788
11
5.7446539
21
29.0801788
0
LINE
8
DEFAULT_255_1_234
10
5.7446539
20
29.0801788
11
5.7446539
21
29.4215276
0
LINE
8
DEFAULT_255_1_234
10
5.7446539
20
29.4215276
11
5.8940442
21
29.4215276
0
LINE
8
DEFAULT_255_1_234
10
4.8651674
20
37.5598211
11
4.8651674
21
37.476291
0
LINE
8
DEFAULT_255_1_234
10
4.8651674
20
37.476291
11
4.3808536
21
36.3904
0
LINE
8
DEFAULT_255_1_234
10
4.3808536
20
36.3904
11
4.2250379
21
36.3904
0
LINE
8
DEFAULT_255_1_234
10
4.2250379
20
36.3904
11
4.7077454
21
37.4377387
0
LINE
8
DEFAULT_255_1_234
10
4.7077454
20
37.4377387
11
4.0748444
21
37.4377387
0
LINE
8
DEFAULT_255_1_234
10
4.0748444
20
37.4377387
11
4.0748444
21
37.5598211
0
LINE
8
DEFAULT_255_1_234
10
4.0748444
20
37.5598211
11
4.8651674
21
37.5598211
0
LINE
8
DEFAULT_255_1_234
10
5.2378401
20
37.5598211
11
5.2378401
21
36.3904
0
LINE
8
DEFAULT_255_1_234
10
5.2378401
20
36.3904
11
5.0836307
21
36.3904
0
LINE
8
DEFAULT_255_1_234
10
5.0836307
20
36.3904
11
5.0836307
21
37.5598211
0
LINE
8
DEFAULT_255_1_234
10
5.0836307
20
37.5598211
11
5.2378401
21
37.5598211
0
LINE
8
DEFAULT_255_1_234
10
5.805684
20
36.9478026
11
5.805684
21
36.8265234
0
LINE
8
DEFAULT_255_1_234
10
5.805684
20
36.8265234
11
5.4137352
21
36.8265234
0
LINE
8
DEFAULT_255_1_234
10
5.4137352
20
36.8265234
11
5.4137352
21
36.9478026
0
LINE
8
DEFAULT_255_1_234
10
5.4137352
20
36.9478026
11
5.805684
21
36.9478026
0
LINE
8
DEFAULT_255_1_234
10
4.8370674
20
45.4973211
11
4.8370674
21
45.413791
0
LINE
8
DEFAULT_255_1_234
10
4.8370674
20
45.413791
11
4.3527536
21
44.3279
0
LINE
8
DEFAULT_255_1_234
10
4.3527536
20
44.3279
11
4.1969379
21
44.3279
0
LINE
8
DEFAULT_255_1_234
10
4.1969379
20
44.3279
11
4.6796454
21
45.3752387
0
LINE
8
DEFAULT_255_1_234
10
4.6796454
20
45.3752387
11
4.0467444
21
45.3752387
0
LINE
8
DEFAULT_255_1_234
10
4.0467444
20
45.3752387
11
4.0467444
21
45.4973211
0
LINE
8
DEFAULT_255_1_234
10
4.0467444
20
45.4973211
11
4.8370674
21
45.4973211
0
LINE
8
DEFAULT_255_1_234
10
5.2097401
20
45.4973211
11
5.2097401
21
44.3279
0
LINE
8
DEFAULT_255_1_234
10
5.2097401
20
44.3279
11
5.0555307
21
44.3279
0
LINE
8
DEFAULT_255_1_234
10
5.0555307
20
44.3279
11
5.0555307
21
45.4973211
0
LINE
8
DEFAULT_255_1_234
10
5.0555307
20
45.4973211
11
5.2097401
21
45.4973211
0
LINE
8
DEFAULT_255_1_234
10
5.8940442
20
45.2965276
11
5.8940442
21
44.9551788
0
LINE
8
DEFAULT_255_1_234
10
5.8940442
20
44.9551788
11
6.2201328
21
44.9551788
0
LINE
8
DEFAULT_255_1_234
10
6.2201328
20
44.9551788
11
6.2201328
21
44.8146233
0
LINE
8
DEFAULT_255_1_234
10
6.2201328
20
44.8146233
11
5.8940442
21
44.8146233
0
LINE
8
DEFAULT_255_1_234
10
5.8940442
20
44.8146233
11
5.8940442
21
44.4451634
0
LINE
8
DEFAULT_255_1_234
10
5.8940442
20
44.4451634
11
5.7446539
21
44.4451634
0
LINE
8
DEFAULT_255_1_234
10
5.7446539
20
44.4451634
11
5.7446539
21
44.8146233
0
LINE
8
DEFAULT_255_1_234
10
5.7446539
20
44.8146233
11
5.4185653
21
44.8146233
0
LINE
8
DEFAULT_255_1_234
10
5.4185653
20
44.8146233
11
5.4185653
21
44.9551788
0
LINE
8
DEFAULT_255_1_234
10
5.4185653
20
44.9551788
11
5.7446539
21
44.9551788
0
LINE
8
DEFAULT_255_1_234
10
5.7446539
20
44.9551788
11
5.7446539
21
45.2965276
0
LINE
8
DEFAULT_255_1_234
10
5.7446539
20
45.2965276
11
5.8940442
21
45.2965276
0
LINE
8
DEFAULT_255_1_234
10
4.6667835
20
53.4356243
11
4.6932882
21
53.4356243
0
LINE
8
DEFAULT_255_1_234
10
4.6932882
20
53.4356243
11
4.6932882
21
53.309526
0
LINE
8
DEFAULT_255_1_234
10
4.6932882
20
53.309526
11
4.6659803
21
53.309526
0
LINE
8
DEFAULT_255_1_234
10
4.1190189
20
52.7103583
11
4.1190189
21
52.7673836
0
LINE
8
DEFAULT_255_1_234
10
4.2684093
20
52.7481075
11
4.2684093
21
52.6934917
0
ARC
8
DEFAULT_255_1_234
10
4.6712151
20
52.8097455
40
0.4998079
50
90.6001036
51
104.514704
0
ARC
8
DEFAULT_255_1_234
10
4.6323667
20
52.9542131
40
0.3502176
50
104.2855254
51
133.862935
0
ARC
8
DEFAULT_255_1_234
10
4.6487424
20
52.943383
40
0.3693984
50
134.5302688
51
161.6210873
0
ARC
8
DEFAULT_255_1_234
10
4.8140613
20
52.8850895
40
0.5446739
50
161.2849839
51
174.2076652
0
ARC
8
DEFAULT_255_1_234
10
4.954755
20
52.8656787
40
0.6866274
50
173.7810589
51
174.9254635
0
ARC
8
DEFAULT_255_1_234
10
4.4997382
20
52.7273839
40
0.3033419
50
95.8330959
51
138.9954921
0
ARC
8
DEFAULT_255_1_234
10
4.5220738
20
52.5995375
40
0.4328947
50
89.8753725
51
97.0544009
0
ARC
8
DEFAULT_255_1_234
10
4.5268204
20
52.6830748
40
0.3493769
50
71.6407809
51
90.6240094
0
ARC
8
DEFAULT_255_1_234
10
4.5418777
20
52.7385082
40
0.2920396
50
39.6367836
51
71.019018
0
ARC
8
DEFAULT_255_1_234
10
4.478225
20
52.6834998
40
0.3761538
50
10.658731
51
39.9043955
0
ARC
8
DEFAULT_255_1_234
10
4.3234333
20
52.6498686
40
0.5345136
50
359.682601
51
11.132623
0
ARC
8
DEFAULT_255_1_234
10
4.3194464
20
52.642801
40
0.5385081
50
347.2486944
51
0.4369317
0
ARC
8
DEFAULT_255_1_234
10
4.4861941
20
52.6026807
40
0.3670249
50
318.1409698
51
347.6118597
0
ARC
8
DEFAULT_255_1_234
10
4.5186934
20
52.5759702
40
0.3250007
50
275.6342139
51
317.8248465
0
ARC
8
DEFAULT_255_1_234
10
4.4966045
20
52.7059219
40
0.4565864
50
269.8874292
51
276.7917694
0
ARC
8
DEFAULT_255_1_234
10
4.4911116
20
52.6033743
40
0.3540676
50
246.9140195
51
270.7437342
0
ARC
8
DEFAULT_255_1_234
10
4.4917506
20
52.5891384
40
0.3412781
50
218.1665114
51
245.878116
0
ARC
8
DEFAULT_255_1_234
10
4.5796967
20
52.6627279
40
0.455911
50
191.4115814
51
218.6077802
0
ARC
8
DEFAULT_255_1_234
10
4.7735056
20
52.7061833
40
0.6545001
50
179.6345085
51
191.7836486
0
ARC
8
DEFAULT_255_1_234
10
5.3317393
20
52.7740697
40
1.2127388
50
171.4525249
51
180.3158839
0
ARC
8
DEFAULT_255_1_234
10
4.8922269
20
52.8424608
40
0.7679464
50
157.9802646
51
171.6246686
0
ARC
8
DEFAULT_255_1_234
10
4.670829
20
52.9307421
40
0.5296008
50
141.4298019
51
157.854097
0
ARC
8
DEFAULT_255_1_234
10
4.606661
20
52.9761381
40
0.4511509
50
102.8715806
51
140.8564722
0
ARC
8
DEFAULT_255_1_234
10
4.6714226
20
52.7321552
40
0.7034845
50
90.3778349
51
103.5869322
0
ARC
8
DEFAULT_255_1_234
10
4.4976002
20
52.671673
40
0.2370698
50
89.8751008
51
126.2071704
0
ARC
8
DEFAULT_255_1_234
10
4.5021792
20
52.6562303
40
0.2522934
50
124.9745049
51
144.895901
0
ARC
8
DEFAULT_255_1_234
10
4.4845982
20
52.670556
40
0.2296779
50
145.2974905
51
160.2660252
0
ARC
8
DEFAULT_255_1_234
10
4.7918521
20
52.6903071
40
0.5234525
50
179.6514266
51
190.2855912
0
ARC
8
DEFAULT_255_1_234
10
4.6224658
20
52.6583786
40
0.3510893
50
190.0945431
51
207.5098196
0
ARC
8
DEFAULT_255_1_234
10
4.5658928
20
52.6314623
40
0.288489
50
207.9583163
51
216.3251085
0
ARC
8
DEFAULT_255_1_234
10
4.5319036
20
52.6035105
40
0.2445587
50
215.7661442
51
232.5456785
0
ARC
8
DEFAULT_255_1_234
10
4.4936019
20
52.5548482
40
0.1826382
50
232.8005391
51
270.6605633
0
ARC
8
DEFAULT_255_1_234
10
4.498172
20
52.5912612
40
0.2190529
50
269.35537
51
288.4744281
0
ARC
8
DEFAULT_255_1_234
10
4.5074617
20
52.5563118
40
0.1829749
50
289.1833337
51
322.9683818
0
ARC
8
DEFAULT_255_1_234
10
4.4463139
20
52.6045391
40
0.2608399
50
322.6007884
51
346.5182367
0
ARC
8
DEFAULT_255_1_234
10
4.3305735
20
52.6340616
40
0.3802777
50
346.2582162
51
358.7741648
0
ARC
8
DEFAULT_255_1_234
10
4.2287404
20
52.6395965
40
0.4822176
50
358.3755224
51
0.0098023
0
ARC
8
DEFAULT_255_1_234
10
4.3043591
20
52.6423657
40
0.4066078
50
359.6214041
51
11.2839074
0
ARC
8
DEFAULT_255_1_234
10
4.4320738
20
52.6690066
40
0.2761514
50
11.0482309
51
31.8146458
0
ARC
8
DEFAULT_255_1_234
10
4.4629781
20
52.6857584
40
0.2410679
50
32.3035391
51
38.082671
0
ARC
8
DEFAULT_255_1_234
10
4.5050441
20
52.7238662
40
0.1844966
50
36.825067
51
85.7415724
0
ARC
8
DEFAULT_255_1_234
10
4.4983274
20
52.6738301
40
0.2349122
50
85.0140713
51
90.0513278
0
LINE
8
DEFAULT_255_1_234
10
5.2378401
20
53.4348211
11
5.2378401
21
52.2654
0
LINE
8
DEFAULT_255_1_234
10
5.2378401
20
52.2654
11
5.0836307
21
52.2654
0
LINE
8
DEFAULT_255_1_234
10
5.0836307
20
52.2654
11
5.0836307
21
53.4348211
0
LINE
8
DEFAULT_255_1_234
10
5.0836307
20
53.4348211
11
5.2378401
21
53.4348211
0
LINE
8
DEFAULT_255_1_234
10
5.805684
20
52.8228026
11
5.805684
21
52.7015234
0
LINE
8
DEFAULT_255_1_234
10
5.805684
20
52.7015234
11
5.4137352
21
52.7015234
0
LINE
8
DEFAULT_255_1_234
10
5.4137352
20
52.7015234
11
5.4137352
21
52.8228026
0
LINE
8
DEFAULT_255_1_234
10
5.4137352
20
52.8228026
11
5.805684
21
52.8228026
0
LINE
8
DEFAULT_255_1_234
10
4.6386835
20
61.3731243
11
4.6651882
21
61.3731243
0
LINE
8
DEFAULT_255_1_234
10
4.6651882
20
61.3731243
11
4.6651882
21
61.247026
0
LINE
8
DEFAULT_255_1_234
10
4.6651882
20
61.247026
11
4.6378803
21
61.247026
0
LINE
8
DEFAULT_255_1_234
10
4.0909189
20
60.6478583
11
4.0909189
21
60.7048836
0
LINE
8
DEFAULT_255_1_234
10
4.2403093
20
60.6856075
11
4.2403093
21
60.6309917
0
ARC
8
DEFAULT_255_1_234
10
4.6431151
20
60.7472455
40
0.4998079
50
90.6001036
51
104.514704
0
ARC
8
DEFAULT_255_1_234
10
4.6042667
20
60.8917131
40
0.3502176
50
104.2855254
51
133.862935
0
ARC
8
DEFAULT_255_1_234
10
4.6206424
20
60.880883
40
0.3693984
50
134.5302688
51
161.6210873
0
ARC
8
DEFAULT_255_1_234
10
4.7859613
20
60.8225895
40
0.5446739
50
161.2849839
51
174.2076652
0
ARC
8
DEFAULT_255_1_234
10
4.926655
20
60.8031787
40
0.6866274
50
173.7810589
51
174.9254635
0
ARC
8
DEFAULT_255_1_234
10
4.4716382
20
60.6648839
40
0.3033419
50
95.8330959
51
138.9954921
0
ARC
8
DEFAULT_255_1_234
10
4.4939738
20
60.5370375
40
0.4328947
50
89.8753725
51
97.0544009
0
ARC
8
DEFAULT_255_1_234
10
4.4987204
20
60.6205748
40
0.3493769
50
71.6407809
51
90.6240094
0
ARC
8
DEFAULT_255_1_234
10
4.5137777
20
60.6760082
40
0.2920396
50
39.6367836
51
71.019018
0
ARC
8
DEFAULT_255_1_234
10
4.450125
20
60.6209998
40
0.3761538
50
10.658731
51
39.9043955
0
ARC
8
DEFAULT_255_1_234
10
4.2953333
20
60.5873686
40
0.5345136
50
359.682601
51
11.132623
0
ARC
8
DEFAULT_255_1_234
10
4.2913464
20
60.580301
40
0.5385081
50
347.2486944
51
0.4369317
0
ARC
8
DEFAULT_255_1_234
10
4.4580941
20
60.5401807
40
0.3670249
50
318.1409698
51
347.6118597
0
ARC
8
DEFAULT_255_1_234
10
4.4905934
20
60.5134702
40
0.3250007
50
275.6342139
51
317.8248465
0
ARC
8
DEFAULT_255_1_234
10
4.4685045
20
60.6434219
40
0.4565864
50
269.8874292
51
276.7917694
0
ARC
8
DEFAULT_255_1_234
10
4.4630116
20
60.5408743
40
0.3540676
50
246.9140195
51
270.7437342
0
ARC
8
DEFAULT_255_1_234
10
4.4636506
20
60.5266384
40
0.3412781
50
218.1665114
51
245.878116
0
ARC
8
DEFAULT_255_1_234
10
4.5515967
20
60.6002279
40
0.455911
50
191.4115814
51
218.6077802
0
ARC
8
DEFAULT_255_1_234
10
4.7454056
20
60.6436833
40
0.6545001
50
179.6345085
51
191.7836486
0
ARC
8
DEFAULT_255_1_234
10
5.3036393
20
60.7115697
40
1.2127388
50
171.4525249
51
180.3158839
0
ARC
8
DEFAULT_255_1_234
10
4.8641269
20
60.7799608
40
0.7679464
50
157.9802646
51
171.6246686
0
ARC
8
DEFAULT_255_1_234
10
4.642729
20
60.8682421
40
0.5296008
50
141.4298019
51
157.854097
0
ARC
8
DEFAULT_255_1_234
10
4.578561
20
60.9136381
40
0.4511509
50
102.8715806
51
140.8564722
0
ARC
8
DEFAULT_255_1_234
10
4.6433226
20
60.6696552
40
0.7034845
50
90.3778349
51
103.5869322
0
ARC
8
DEFAULT_255_1_234
10
4.4695002
20
60.609173
40
0.2370698
50
89.8751008
51
126.2071704
0
ARC
8
DEFAULT_255_1_234
10
4.4740792
20
60.5937303
40
0.2522934
50
124.9745049
51
144.895901
0
ARC
8
DEFAULT_255_1_234
10
4.4564982
20
60.608056
40
0.2296779
50
145.2974905
51
160.2660252
0
ARC
8
DEFAULT_255_1_234
10
4.7637521
20
60.6278071
40
0.5234525
50
179.6514266
51
190.2855912
0
ARC
8
DEFAULT_255_1_234
10
4.5943658
20
60.5958786
40
0.3510893
50
190.0945431
51
207.5098196
0
ARC
8
DEFAULT_255_1_234
10
4.5377928
20
60.5689623
40
0.288489
50
207.9583163
51
216.3251085
0
ARC
8
DEFAULT_255_1_234
10
4.5038036
20
60.5410105
40
0.2445587
50
215.7661442
51
232.5456785
0
ARC
8
DEFAULT_255_1_234
10
4.4655019
20
60.4923482
40
0.1826382
50
232.8005391
51
270.6605633
0
ARC
8
DEFAULT_255_1_234
10
4.470072
20
60.5287612
40
0.2190529
50
269.35537
51
288.4744281
0
ARC
8
DEFAULT_255_1_234
10
4.4793617
20
60.4938118
40
0.1829749
50
289.1833337
51
322.9683818
0
ARC
8
DEFAULT_255_1_234
10
4.4182139
20
60.5420391
40
0.2608399
50
322.6007884
51
346.5182367
0
ARC
8
DEFAULT_255_1_234
10
4.3024735
20
60.5715616
40
0.3802777
50
346.2582162
51
358.7741648
0
ARC
8
DEFAULT_255_1_234
10
4.2006404
20
60.5770965
40
0.4822176
50
358.3755224
51
0.0098023
0
ARC
8
DEFAULT_255_1_234
10
4.2762591
20
60.5798657
40
0.4066078
50
359.6214041
51
11.2839074
0
ARC
8
DEFAULT_255_1_234
10
4.4039738
20
60.6065066
40
0.2761514
50
11.0482309
51
31.8146458
0
ARC
8
DEFAULT_255_1_234
10
4.4348781
20
60.6232584
40
0.2410679
50
32.3035391
51
38.082671
0
ARC
8
DEFAULT_255_1_234
10
4.4769441
20
60.6613662
40
0.1844966
50
36.825067
51
85.7415724
0
ARC
8
DEFAULT_255_1_234
10
4.4702274
20
60.6113301
40
0.2349122
50
85.0140713
51
90.0513278
0
LINE
8
DEFAULT_255_1_234
10
5.2097401
20
61.3723211
11
5.2097401
21
60.2029
0
LINE
8
DEFAULT_255_1_234
10
5.2097401
20
60.2029
11
5.0555307
21
60.2029
0
LINE
8
DEFAULT_255_1_234
10
5.0555307
20
60.2029
11
5.0555307
21
61.3723211
0
LINE
8
DEFAULT_255_1_234
10
5.0555307
20
61.3723211
11
5.2097401
21
61.3723211
0
LINE
8
DEFAULT_255_1_234
10
5.8940442
20
61.1715276
11
5.8940442
21
60.8301788
0
LINE
8
DEFAULT_255_1_234
10
5.8940442
20
60.8301788
11
6.2201328
21
60.8301788
0
LINE
8
DEFAULT_255_1_234
10
6.2201328
20
60.8301788
11
6.2201328
21
60.6896233
0
LINE
8
DEFAULT_255_1_234
10
6.2201328
20
60.6896233
11
5.8940442
21
60.6896233
0
LINE
8
DEFAULT_255_1_234
10
5.8940442
20
60.6896233
11
5.8940442
21
60.3201634
0
LINE
8
DEFAULT_255_1_234
10
5.8940442
20
60.3201634
11
5.7446539
21
60.3201634
0
LINE
8
DEFAULT_255_1_234
10
5.7446539
20
60.3201634
11
5.7446539
21
60.6896233
0
LINE
8
DEFAULT_255_1_234
10
5.7446539
20
60.6896233
11
5.4185653
21
60.6896233
0
LINE
8
DEFAULT_255_1_234
10
5.4185653
20
60.6896233
11
5.4185653
21
60.8301788
0
LINE
8
DEFAULT_255_1_234
10
5.4185653
20
60.8301788
11
5.7446539
21
60.8301788
0
LINE
8
DEFAULT_255_1_234
10
5.7446539
20
60.8301788
11
5.7446539
21
61.1715276
0
LINE
8
DEFAULT_255_1_234
10
5.7446539
20
61.1715276
11
5.8940442
21
61.1715276
0
LINE
8
DEFAULT_255_1_234
10
4.2973235
20
68.6961963
11
4.1784538
21
68.7267169
0
LINE
8
DEFAULT_255_1_234
10
4.1784538
20
68.7267169
11
4.2378887
21
69.3098211
0
LINE
8
DEFAULT_255_1_234
10
4.2378887
20
69.3098211
11
4.8370563
21
69.3098211
0
LINE
8
DEFAULT_255_1_234
10
4.8370563
20
69.3098211
11
4.8370563
21
69.1724784
0
LINE
8
DEFAULT_255_1_234
10
4.8370563
20
69.1724784
11
4.363987
21
69.1724784
0
LINE
8
DEFAULT_255_1_234
10
4.363987
20
69.1724784
11
4.3286473
21
68.8536184
0
LINE
8
DEFAULT_255_1_234
10
4.1366888
20
68.4480156
11
4.2772442
21
68.4480156
0
LINE
8
DEFAULT_255_1_234
10
4.3366791
20
68.7283232
11
4.2973235
21
68.6961963
0
ARC
8
DEFAULT_255_1_234
10
4.5141257
20
68.535623
40
0.3681349
50
93.7182161
51
120.2538958
0
ARC
8
DEFAULT_255_1_234
10
4.523552
20
68.4548394
40
0.449379
50
89.9660152
51
94.2496022
0
ARC
8
DEFAULT_255_1_234
10
4.5276254
20
68.5137549
40
0.390482
50
73.8043271
51
90.5585896
0
ARC
8
DEFAULT_255_1_234
10
4.5511151
20
68.5995602
40
0.3015334
50
41.3071453
51
73.5430202
0
ARC
8
DEFAULT_255_1_234
10
4.5094978
20
68.5637324
40
0.3564457
50
13.5075983
51
41.2174222
0
ARC
8
DEFAULT_255_1_234
10
4.3453182
20
68.5207486
40
0.5261351
50
1.1331335
51
13.8829381
0
ARC
8
DEFAULT_255_1_234
10
4.2041551
20
68.5131665
40
0.6674378
50
359.9919444
51
1.544251
0
ARC
8
DEFAULT_255_1_234
10
4.3318377
20
68.509028
40
0.5397702
50
347.8572367
51
0.4293338
0
ARC
8
DEFAULT_255_1_234
10
4.5068695
20
68.4693736
40
0.3603188
50
323.673004
51
348.1672506
0
ARC
8
DEFAULT_255_1_234
10
4.5363203
20
68.4514168
40
0.3259678
50
316.8171152
51
323.1492751
0
ARC
8
DEFAULT_255_1_234
10
4.5424392
20
68.447746
40
0.3189975
50
281.8396411
51
316.5457803
0
ARC
8
DEFAULT_255_1_234
10
4.5048656
20
68.6032762
40
0.4789527
50
269.5770101
51
282.4214771
0
ARC
8
DEFAULT_255_1_234
10
4.4977467
20
68.5819125
40
0.45759
50
256.2427136
51
270.4486331
0
ARC
8
DEFAULT_255_1_234
10
4.467837
20
68.4619229
40
0.3339303
50
228.9023911
51
256.3314342
0
ARC
8
DEFAULT_255_1_234
10
4.4604602
20
68.4502746
40
0.32031
50
193.753695
51
228.5271154
0
ARC
8
DEFAULT_255_1_234
10
4.5842556
20
68.48658
40
0.4492253
50
184.924711
51
194.497588
0
ARC
8
DEFAULT_255_1_234
10
4.6035123
20
68.4901591
40
0.3289787
50
187.3600538
51
198.6732863
0
ARC
8
DEFAULT_255_1_234
10
4.4985417
20
68.4537674
40
0.217884
50
198.4451669
51
217.794479
0
ARC
8
DEFAULT_255_1_234
10
4.4689592
20
68.4328085
40
0.1816698
50
218.2887171
51
228.5612368
0
ARC
8
DEFAULT_255_1_234
10
4.4787379
20
68.4459963
40
0.1980329
50
228.9654866
51
258.1234728
0
ARC
8
DEFAULT_255_1_234
10
4.4993089
20
68.5340833
40
0.2884748
50
257.7258293
51
270.401361
0
ARC
8
DEFAULT_255_1_234
10
4.5037975
20
68.4895821
40
0.2439788
50
269.4204404
51
286.4209037
0
ARC
8
DEFAULT_255_1_234
10
4.5186463
20
68.4356657
40
0.1880666
50
286.7251356
51
320.600362
0
ARC
8
DEFAULT_255_1_234
10
4.4803288
20
68.4667595
40
0.2374121
50
320.6712579
51
344.5441685
0
ARC
8
DEFAULT_255_1_234
10
4.3646614
20
68.5007045
40
0.3579479
50
344.2412205
51
356.7357071
0
ARC
8
DEFAULT_255_1_234
10
4.2397763
20
68.5110444
40
0.4832297
50
356.3548756
51
0.0500261
0
ARC
8
DEFAULT_255_1_234
10
4.3734272
20
68.514165
40
0.3495889
50
359.5576869
51
12.953486
0
ARC
8
DEFAULT_255_1_234
10
4.4789169
20
68.5397434
40
0.2410532
50
12.6490276
51
41.6081334
0
ARC
8
DEFAULT_255_1_234
10
4.501954
20
68.5593321
40
0.2108218
50
41.7850273
51
85.9892764
0
ARC
8
DEFAULT_255_1_234
10
4.4896277
20
68.4780462
40
0.2928454
50
84.6957577
51
90.0676183
0
ARC
8
DEFAULT_255_1_234
10
4.4872761
20
68.4111716
40
0.3597255
50
89.6804936
51
99.1614436
0
ARC
8
DEFAULT_255_1_234
10
4.4667392
20
68.5339131
40
0.235281
50
98.9830931
51
113.8908934
0
ARC
8
DEFAULT_255_1_234
10
4.4437802
20
68.5880587
40
0.176479
50
114.1950727
51
127.3641004
0
LINE
8
DEFAULT_255_1_234
10
5.2378401
20
69.3098211
11
5.2378401
21
68.1404
0
LINE
8
DEFAULT_255_1_234
10
5.2378401
20
68.1404
11
5.0836307
21
68.1404
0
LINE
8
DEFAULT_255_1_234
10
5.0836307
20
68.1404
11
5.0836307
21
69.3098211
0
LINE
8
DEFAULT_255_1_234
10
5.0836307
20
69.3098211
11
5.2378401
21
69.3098211
0
LINE
8
DEFAULT_255_1_234
10
5.805684
20
68.6978026
11
5.805684
21
68.5765234
0
LINE
8
DEFAULT_255_1_234
10
5.805684
20
68.5765234
11
5.4137352
21
68.5765234
0
LINE
8
DEFAULT_255_1_234
10
5.4137352
20
68.5765234
11
5.4137352
21
68.6978026
0
LINE
8
DEFAULT_255_1_234
10
5.4137352
20
68.6978026
11
5.805684
21
68.6978026
0
LINE
8
DEFAULT_255_1_234
10
4.2692235
20
76.6336963
11
4.1503538
21
76.6642169
0
LINE
8
DEFAULT_255_1_234
10
4.1503538
20
76.6642169
11
4.2097887
21
77.2473211
0
LINE
8
DEFAULT_255_1_234
10
4.2097887
20
77.2473211
11
4.8089563
21
77.2473211
0
LINE
8
DEFAULT_255_1_234
10
4.8089563
20
77.2473211
11
4.8089563
21
77.1099784
0
LINE
8
DEFAULT_255_1_234
10
4.8089563
20
77.1099784
11
4.335887
21
77.1099784
0
LINE
8
DEFAULT_255_1_234
10
4.335887
20
77.1099784
11
4.3005473
21
76.7911184
0
LINE
8
DEFAULT_255_1_234
10
4.1085888
20
76.3855156
11
4.2491442
21
76.3855156
0
LINE
8
DEFAULT_255_1_234
10
4.3085791
20
76.6658232
11
4.2692235
21
76.6336963
0
ARC
8
DEFAULT_255_1_234
10
4.4860257
20
76.473123
40
0.3681349
50
93.7182161
51
120.2538958
0
ARC
8
DEFAULT_255_1_234
10
4.495452
20
76.3923394
40
0.449379
50
89.9660152
51
94.2496022
0
ARC
8
DEFAULT_255_1_234
10
4.4995254
20
76.4512549
40
0.390482
50
73.8043271
51
90.5585896
0
ARC
8
DEFAULT_255_1_234
10
4.5230151
20
76.5370602
40
0.3015334
50
41.3071453
51
73.5430202
0
ARC
8
DEFAULT_255_1_234
10
4.4813978
20
76.5012324
40
0.3564457
50
13.5075983
51
41.2174222
0
ARC
8
DEFAULT_255_1_234
10
4.3172182
20
76.4582486
40
0.5261351
50
1.1331335
51
13.8829381
0
ARC
8
DEFAULT_255_1_234
10
4.1760551
20
76.4506665
40
0.6674378
50
359.9919444
51
1.544251
0
ARC
8
DEFAULT_255_1_234
10
4.3037377
20
76.446528
40
0.5397702
50
347.8572367
51
0.4293338
0
ARC
8
DEFAULT_255_1_234
10
4.4787695
20
76.4068736
40
0.3603188
50
323.673004
51
348.1672506
0
ARC
8
DEFAULT_255_1_234
10
4.5082203
20
76.3889168
40
0.3259678
50
316.8171152
51
323.1492751
0
ARC
8
DEFAULT_255_1_234
10
4.5143392
20
76.385246
40
0.3189975
50
281.8396411
51
316.5457803
0
ARC
8
DEFAULT_255_1_234
10
4.4767656
20
76.5407762
40
0.4789527
50
269.5770101
51
282.4214771
0
ARC
8
DEFAULT_255_1_234
10
4.4696467
20
76.5194125
40
0.45759
50
256.2427136
51
270.4486331
0
ARC
8
DEFAULT_255_1_234
10
4.439737
20
76.3994229
40
0.3339303
50
228.9023911
51
256.3314342
0
ARC
8
DEFAULT_255_1_234
10
4.4323602
20
76.3877746
40
0.32031
50
193.753695
51
228.5271154
0
ARC
8
DEFAULT_255_1_234
10
4.5561556
20
76.42408
40
0.4492253
50
184.924711
51
194.497588
0
ARC
8
DEFAULT_255_1_234
10
4.5754123
20
76.4276591
40
0.3289787
50
187.3600538
51
198.6732863
0
ARC
8
DEFAULT_255_1_234
10
4.4704417
20
76.3912674
40
0.217884
50
198.4451669
51
217.794479
0
ARC
8
DEFAULT_255_1_234
10
4.4408592
20
76.3703085
40
0.1816698
50
218.2887171
51
228.5612368
0
ARC
8
DEFAULT_255_1_234
10
4.4506379
20
76.3834963
40
0.1980329
50
228.9654866
51
258.1234728
0
ARC
8
DEFAULT_255_1_234
10
4.4712089
20
76.4715833
40
0.2884748
50
257.7258293
51
270.401361
0
ARC
8
DEFAULT_255_1_234
10
4.4756975
20
76.4270821
40
0.2439788
50
269.4204404
51
286.4209037
0
ARC
8
DEFAULT_255_1_234
10
4.4905463
20
76.3731657
40
0.1880666
50
286.7251356
51
320.600362
0
ARC
8
DEFAULT_255_1_234
10
4.4522288
20
76.4042595
40
0.2374121
50
320.6712579
51
344.5441685
0
ARC
8
DEFAULT_255_1_234
10
4.3365614
20
76.4382045
40
0.3579479
50
344.2412205
51
356.7357071
0
ARC
8
DEFAULT_255_1_234
10
4.2116763
20
76.4485444
40
0.4832297
50
356.3548756
51
0.0500261
0
ARC
8
DEFAULT_255_1_234
10
4.3453272
20
76.451665
40
0.3495889
50
359.5576869
51
12.953486
0
ARC
8
DEFAULT_255_1_234
10
4.4508169
20
76.4772434
40
0.2410532
50
12.6490276
51
41.6081334
0
ARC
8
DEFAULT_255_1_234
10
4.473854
20
76.4968321
40
0.2108218
50
41.7850273
51
85.9892764
0
ARC
8
DEFAULT_255_1_234
10
4.4615277
20
76.4155462
40
0.2928454
50
84.6957577
51
90.0676183
0
ARC
8
DEFAULT_255_1_234
10
4.4591761
20
76.3486716
40
0.3597255
50
89.6804936
51
99.1614436
0
ARC
8
DEFAULT_255_1_234
10
4.4386392
20
76.4714131
40
0.235281
50
98.9830931
51
113.8908934
0
ARC
8
DEFAULT_255_1_234
10
4.4156802
20
76.5255587
40
0.176479
50
114.1950727
51
127.3641004
0
LINE
8
DEFAULT_255_1_234
10
5.2097401
20
77.2473211
11
5.2097401
21
76.0779
0
LINE
8
DEFAULT_255_1_234
10
5.2097401
20
76.0779
11
5.0555307
21
76.0779
0
LINE
8
DEFAULT_255_1_234
10
5.0555307
20
76.0779
11
5.0555307
21
77.2473211
0
LINE
8
DEFAULT_255_1_234
10
5.0555307
20
77.2473211
11
5.2097401
21
77.2473211
0
LINE
8
DEFAULT_255_1_234
10
5.8940442
20
77.0465276
11
5.8940442
21
76.7051788
0
LINE
8
DEFAULT_255_1_234
10
5.8940442
20
76.7051788
11
6.2201328
21
76.7051788
0
LINE
8
DEFAULT_255_1_234
10
6.2201328
20
76.7051788
11
6.2201328
21
76.5646233
0
LINE
8
DEFAULT_255_1_234
10
6.2201328
20
76.5646233
11
5.8940442
21
76.5646233
0
LINE
8
DEFAULT_255_1_234
10
5.8940442
20
76.5646233
11
5.8940442
21
76.1951634
0
LINE
8
DEFAULT_255_1_234
10
5.8940442
20
76.1951634
11
5.7446539
21
76.1951634
0
LINE
8
DEFAULT_255_1_234
10
5.7446539
20
76.1951634
11
5.7446539
21
76.5646233
0
LINE
8
DEFAULT_255_1_234
10
5.7446539
20
76.5646233
11
5.4185653
21
76.5646233
0
LINE
8
DEFAULT_255_1_234
10
5.4185653
20
76.5646233
11
5.4185653
21
76.7051788
0
LINE
8
DEFAULT_255_1_234
10
5.4185653
20
76.7051788
11
5.7446539
21
76.7051788
0
LINE
8
DEFAULT_255_1_234
10
5.7446539
20
76.7051788
11
5.7446539
21
77.0465276
0
LINE
8
DEFAULT_255_1_234
10
5.7446539
20
77.0465276
11
5.8940442
21
77.0465276
0
LINE
8
DEFAULT_255_1_234
10
4.8432628
20
85.1848211
11
4.8432628
21
84.408152
0
LINE
8
DEFAULT_255_1_234
10
4.8432628
20
84.408152
11
5.0055039
21
84.408152
0
LINE
8
DEFAULT_255_1_234
10
5.0055039
20
84.408152
11
5.0055039
21
84.2868728
0
LINE
8
DEFAULT_255_1_234
10
5.0055039
20
84.2868728
11
4.8432628
21
84.2868728
0
LINE
8
DEFAULT_255_1_234
10
4.8432628
20
84.2868728
11
4.8432628
21
84.0154
0
LINE
8
DEFAULT_255_1_234
10
4.8432628
20
84.0154
11
4.6938725
21
84.0154
0
LINE
8
DEFAULT_255_1_234
10
4.6938725
20
84.0154
11
4.6938725
21
84.2868728
0
LINE
8
DEFAULT_255_1_234
10
4.6938725
20
84.2868728
11
4.1613682
21
84.2868728
0
LINE
8
DEFAULT_255_1_234
10
4.1613682
20
84.2868728
11
4.1613682
21
84.3744187
0
LINE
8
DEFAULT_255_1_234
10
4.1613682
20
84.3744187
11
4.6850375
21
85.1848211
0
LINE
8
DEFAULT_255_1_234
10
4.6850375
20
85.1848211
11
4.8432628
21
85.1848211
0
LINE
8
DEFAULT_255_1_234
10
4.6762026
20
84.9494912
11
4.3300347
21
84.408152
0
LINE
8
DEFAULT_255_1_234
10
4.3300347
20
84.408152
11
4.6938725
21
84.408152
0
LINE
8
DEFAULT_255_1_234
10
4.6938725
20
84.408152
11
4.6938725
21
84.9816181
0
LINE
8
DEFAULT_255_1_234
10
4.6938725
20
84.9816181
11
4.6762026
21
84.9494912
0
LINE
8
DEFAULT_255_1_234
10
5.3436401
20
85.1848211
11
5.3436401
21
84.0154
0
LINE
8
DEFAULT_255_1_234
10
5.3436401
20
84.0154
11
5.1894307
21
84.0154
0
LINE
8
DEFAULT_255_1_234
10
5.1894307
20
84.0154
11
5.1894307
21
85.1848211
0
LINE
8
DEFAULT_255_1_234
10
5.1894307
20
85.1848211
11
5.3436401
21
85.1848211
0
LINE
8
DEFAULT_255_1_234
10
5.911484
20
84.5728026
11
5.911484
21
84.4515234
0
LINE
8
DEFAULT_255_1_234
10
5.911484
20
84.4515234
11
5.5195352
21
84.4515234
0
LINE
8
DEFAULT_255_1_234
10
5.5195352
20
84.4515234
11
5.5195352
21
84.5728026
0
LINE
8
DEFAULT_255_1_234
10
5.5195352
20
84.5728026
11
5.911484
21
84.5728026
0
LINE
8
DEFAULT_255_1_234
10
4.8151628
20
93.1223211
11
4.8151628
21
92.345652
0
LINE
8
DEFAULT_255_1_234
10
4.8151628
20
92.345652
11
4.9774039
21
92.345652
0
LINE
8
DEFAULT_255_1_234
10
4.9774039
20
92.345652
11
4.9774039
21
92.2243728
0
LINE
8
DEFAULT_255_1_234
10
4.9774039
20
92.2243728
11
4.8151628
21
92.2243728
0
LINE
8
DEFAULT_255_1_234
10
4.8151628
20
92.2243728
11
4.8151628
21
91.9529
0
LINE
8
DEFAULT_255_1_234
10
4.8151628
20
91.9529
11
4.6657725
21
91.9529
0
LINE
8
DEFAULT_255_1_234
10
4.6657725
20
91.9529
11
4.6657725
21
92.2243728
0
LINE
8
DEFAULT_255_1_234
10
4.6657725
20
92.2243728
11
4.1332682
21
92.2243728
0
LINE
8
DEFAULT_255_1_234
10
4.1332682
20
92.2243728
11
4.1332682
21
92.3119187
0
LINE
8
DEFAULT_255_1_234
10
4.1332682
20
92.3119187
11
4.6569375
21
93.1223211
0
LINE
8
DEFAULT_255_1_234
10
4.6569375
20
93.1223211
11
4.8151628
21
93.1223211
0
LINE
8
DEFAULT_255_1_234
10
4.6481026
20
92.8869912
11
4.3019347
21
92.345652
0
LINE
8
DEFAULT_255_1_234
10
4.3019347
20
92.345652
11
4.6657725
21
92.345652
0
LINE
8
DEFAULT_255_1_234
10
4.6657725
20
92.345652
11
4.6657725
21
92.9191181
0
LINE
8
DEFAULT_255_1_234
10
4.6657725
20
92.9191181
11
4.6481026
21
92.8869912
0
LINE
8
DEFAULT_255_1_234
10
5.3155401
20
93.1223211
11
5.3155401
21
91.9529
0
LINE
8
DEFAULT_255_1_234
10
5.3155401
20
91.9529
11
5.1613307
21
91.9529
0
LINE
8
DEFAULT_255_1_234
10
5.1613307
20
91.9529
11
5.1613307
21
93.1223211
0
LINE
8
DEFAULT_255_1_234
10
5.1613307
20
93.1223211
11
5.3155401
21
93.1223211
0
LINE
8
DEFAULT_255_1_234
10
5.9998442
20
92.9215276
11
5.9998442
21
92.5801788
0
LINE
8
DEFAULT_255_1_234
10
5.9998442
20
92.5801788
11
6.3259328
21
92.5801788
0
LINE
8
DEFAULT_255_1_234
10
6.3259328
20
92.5801788
11
6.3259328
21
92.4396233
0
LINE
8
DEFAULT_255_1_234
10
6.3259328
20
92.4396233
11
5.9998442
21
92.4396233
0
LINE
8
DEFAULT_255_1_234
10
5.9998442
20
92.4396233
11
5.9998442
21
92.0701634
0
LINE
8
DEFAULT_255_1_234
10
5.9998442
20
92.0701634
11
5.8504539
21
92.0701634
0
LINE
8
DEFAULT_255_1_234
10
5.8504539
20
92.0701634
11
5.8504539
21
92.4396233
0
LINE
8
DEFAULT_255_1_234
10
5.8504539
20
92.4396233
11
5.5243653
21
92.4396233
0
LINE
8
DEFAULT_255_1_234
10
5.5243653
20
92.4396233
11
5.5243653
21
92.5801788
0
LINE
8
DEFAULT_255_1_234
10
5.5243653
20
92.5801788
11
5.8504539
21
92.5801788
0
LINE
8
DEFAULT_255_1_234
10
5.8504539
20
92.5801788
11
5.8504539
21
92.9215276
0
LINE
8
DEFAULT_255_1_234
10
5.8504539
20
92.9215276
11
5.9998442
21
92.9215276
0
LINE
8
DEFAULT_255_1_234
10
4.3262378
20
100.4261169
11
4.3262378
21
100.5473962
0
LINE
8
DEFAULT_255_1_234
10
4.3262378
20
100.5473962
11
4.437879
21
100.5473962
0
LINE
8
DEFAULT_255_1_234
10
4.2475268
20
100.7530087
11
4.0989396
21
100.7530087
0
LINE
8
DEFAULT_255_1_234
10
4.0884983
20
100.1988188
11
4.2378887
21
100.1988188
0
LINE
8
DEFAULT_255_1_234
10
4.437879
20
100.4261169
11
4.3262378
21
100.4261169
0
ARC
8
DEFAULT_255_1_234
10
4.4349656
20
100.8866713
40
0.3392876
50
270.4919872
51
281.8951556
0
ARC
8
DEFAULT_255_1_234
10
4.4590918
20
100.7764702
40
0.2264817
50
281.6691735
51
301.2943132
0
ARC
8
DEFAULT_255_1_234
10
4.4761128
20
100.7453304
40
0.1910381
50
301.7833094
51
311.7545298
0
ARC
8
DEFAULT_255_1_234
10
4.4852704
20
100.7351748
40
0.1773635
50
311.7323931
51
354.2802411
0
ARC
8
DEFAULT_255_1_234
10
4.4126329
20
100.7476722
40
0.2509385
50
353.0937916
51
0.1181479
0
ARC
8
DEFAULT_255_1_234
10
4.3665114
20
100.7524386
40
0.2970898
50
359.1805295
51
15.0453146
0
ARC
8
DEFAULT_255_1_234
10
4.5010951
20
100.7916992
40
0.1569564
50
13.9577229
51
77.6713066
0
ARC
8
DEFAULT_255_1_234
10
4.462448
20
100.6531949
40
0.3006298
50
76.1116566
51
90.7026153
0
ARC
8
DEFAULT_255_1_234
10
4.4565318
20
100.6805545
40
0.2732568
50
89.5324876
51
103.531937
0
ARC
8
DEFAULT_255_1_234
10
4.4364762
20
100.7604884
40
0.1908508
50
103.2931773
51
133.5619022
0
ARC
8
DEFAULT_255_1_234
10
4.4320251
20
100.7664375
40
0.1834746
50
133.8349307
51
173.5344437
0
ARC
8
DEFAULT_255_1_234
10
4.5043294
20
100.7536213
40
0.2568033
50
172.5096846
51
180.1366907
0
ARC
8
DEFAULT_255_1_234
10
4.4092188
20
100.7570622
40
0.3103056
50
155.3484492
51
180.7484736
0
ARC
8
DEFAULT_255_1_234
10
4.4043277
20
100.7541846
40
0.3070957
50
131.5744599
51
154.4798489
0
ARC
8
DEFAULT_255_1_234
10
4.4356424
20
100.722531
40
0.3515643
50
96.9875458
51
131.9690667
0
ARC
8
DEFAULT_255_1_234
10
4.4575904
20
100.5979636
40
0.4779224
50
89.8596053
51
97.7825159
0
ARC
8
DEFAULT_255_1_234
10
4.4623967
20
100.5717616
40
0.5041361
50
78.3655447
51
90.4131539
0
ARC
8
DEFAULT_255_1_234
10
4.4981885
20
100.7376887
40
0.3344039
50
56.6229102
51
78.638727
0
ARC
8
DEFAULT_255_1_234
10
4.5196829
20
100.7752805
40
0.2912001
50
47.0253525
51
56.0854072
0
ARC
8
DEFAULT_255_1_234
10
4.5216609
20
100.7792223
40
0.2869704
50
10.9208013
51
46.7778124
0
ARC
8
DEFAULT_255_1_234
10
4.3852675
20
100.7476857
40
0.426899
50
359.6364486
51
11.6087304
0
ARC
8
DEFAULT_255_1_234
10
4.5687519
20
100.7461752
40
0.243409
50
332.3549906
51
359.7179418
0
ARC
8
DEFAULT_255_1_234
10
4.5037121
20
100.7770142
40
0.3153459
50
325.2333722
51
332.8745602
0
ARC
8
DEFAULT_255_1_234
10
4.5189744
20
100.7663828
40
0.2967456
50
292.9802137
51
325.2392345
0
ARC
8
DEFAULT_255_1_234
10
4.4915118
20
100.8197863
40
0.3566604
50
292.5402179
51
293.6924929
0
ARC
8
DEFAULT_255_1_234
10
4.5307714
20
100.1743091
40
0.3307468
50
57.6435486
51
72.8625112
0
ARC
8
DEFAULT_255_1_234
10
4.5662214
20
100.2317549
40
0.2632492
50
36.7248896
51
57.4697979
0
ARC
8
DEFAULT_255_1_234
10
4.5650847
20
100.233022
40
0.2634081
50
8.0545065
51
36.356114
0
ARC
8
DEFAULT_255_1_234
10
4.4788032
20
100.2175174
40
0.3510261
50
359.8320645
51
8.5869982
0
ARC
8
DEFAULT_255_1_234
10
4.4412808
20
100.2127101
40
0.3885653
50
343.9829931
51
0.5571613
0
ARC
8
DEFAULT_255_1_234
10
4.5299005
20
100.1884438
40
0.2966924
50
311.6359546
51
343.7651759
0
ARC
8
DEFAULT_255_1_234
10
4.4920574
20
100.2311102
40
0.3537231
50
279.7829875
51
311.6255694
0
ARC
8
DEFAULT_255_1_234
10
4.4619351
20
100.374828
40
0.5004971
50
269.7286406
51
280.3856417
0
ARC
8
DEFAULT_255_1_234
10
4.4557423
20
100.3706996
40
0.4963778
50
256.6828919
51
270.4412052
0
ARC
8
DEFAULT_255_1_234
10
4.4218719
20
100.2322394
40
0.3538406
50
229.4223008
51
256.8556159
0
ARC
8
DEFAULT_255_1_234
10
4.3804112
20
100.1855736
40
0.2914296
50
181.818294
51
229.6455059
0
ARC
8
DEFAULT_255_1_234
10
4.4844068
20
100.1986496
40
0.3959084
50
179.9755256
51
183.2323064
0
ARC
8
DEFAULT_255_1_234
10
4.4671814
20
100.1966037
40
0.2293034
50
179.4465117
51
196.2869258
0
ARC
8
DEFAULT_255_1_234
10
4.4184222
20
100.1832651
40
0.1787621
50
196.5661473
51
227.705904
0
ARC
8
DEFAULT_255_1_234
10
4.4348317
20
100.2016155
40
0.2033784
50
227.7652068
51
257.8762805
0
ARC
8
DEFAULT_255_1_234
10
4.4573287
20
100.2959156
40
0.3003081
50
257.4584385
51
270.426602
0
ARC
8
DEFAULT_255_1_234
10
4.4618853
20
100.3248996
40
0.329292
50
269.5962073
51
280.8789248
0
ARC
8
DEFAULT_255_1_234
10
4.4848382
20
100.2102685
40
0.2123908
50
280.6346389
51
299.8595945
0
ARC
8
DEFAULT_255_1_234
10
4.5039289
20
100.1740212
40
0.171457
50
300.3576302
51
314.5517981
0
ARC
8
DEFAULT_255_1_234
10
4.4956349
20
100.1800919
40
0.1816095
50
315.0728369
51
345.0431014
0
ARC
8
DEFAULT_255_1_234
10
4.4033163
20
100.2069841
40
0.2777492
50
344.5986631
51
357.9269593
0
ARC
8
DEFAULT_255_1_234
10
4.3137489
20
100.2131276
40
0.3674917
50
357.4748886
51
0.0231117
0
ARC
8
DEFAULT_255_1_234
10
4.4160599
20
100.2155679
40
0.2651907
50
359.5047933
51
13.4239635
0
ARC
8
DEFAULT_255_1_234
10
4.5027242
20
100.2377478
40
0.1757509
50
12.9498199
51
48.7551375
0
ARC
8
DEFAULT_255_1_234
10
4.4844976
20
100.21284
40
0.2065134
50
49.5088623
51
72.1836453
0
ARC
8
DEFAULT_255_1_234
10
4.4487129
20
100.1066291
40
0.3185836
50
71.9010081
51
84.3554254
0
ARC
8
DEFAULT_255_1_234
10
4.4325761
20
99.9705326
40
0.4556151
50
84.0193428
51
89.333121
0
LINE
8
DEFAULT_255_1_234
10
5.2378401
20
101.0598211
11
5.2378401
21
99.8904
0
LINE
8
DEFAULT_255_1_234
10
5.2378401
20
99.8904
11
5.0836307
21
99.8904
0
LINE
8
DEFAULT_255_1_234
10
5.0836307
20
99.8904
11
5.0836307
21
101.0598211
0
LINE
8
DEFAULT_255_1_234
10
5.0836307
20
101.0598211
11
5.2378401
21
101.0598211
0
LINE
8
DEFAULT_255_1_234
10
5.805684
20
100.4478026
11
5.805684
21
100.3265234
0
LINE
8
DEFAULT_255_1_234
10
5.805684
20
100.3265234
11
5.4137352
21
100.3265234
0
LINE
8
DEFAULT_255_1_234
10
5.4137352
20
100.3265234
11
5.4137352
21
100.4478026
0
LINE
8
DEFAULT_255_1_234
10
5.4137352
20
100.4478026
11
5.805684
21
100.4478026
0
LINE
8
DEFAULT_255_1_234
10
4.2981378
20
108.3636169
11
4.2981378
21
108.4848962
0
LINE
8
DEFAULT_255_1_234
10
4.2981378
20
108.4848962
11
4.409779
21
108.4848962
0
LINE
8
DEFAULT_255_1_234
10
4.2194268
20
108.6905087
11
4.0708396
21
108.6905087
0
LINE
8
DEFAULT_255_1_234
10
4.0603983
20
108.1363188
11
4.2097887
21
108.1363188
0
LINE
8
DEFAULT_255_1_234
10
4.409779
20
108.3636169
11
4.2981378
21
108.3636169
0
ARC
8
DEFAULT_255_1_234
10
4.4068656
20
108.8241713
40
0.3392876
50
270.4919872
51
281.8951556
0
ARC
8
DEFAULT_255_1_234
10
4.4309918
20
108.7139702
40
0.2264817
50
281.6691735
51
301.2943132
0
ARC
8
DEFAULT_255_1_234
10
4.4480128
20
108.6828304
40
0.1910381
50
301.7833094
51
311.7545298
0
ARC
8
DEFAULT_255_1_234
10
4.4571704
20
108.6726748
40
0.1773635
50
311.7323931
51
354.2802411
0
ARC
8
DEFAULT_255_1_234
10
4.3845329
20
108.6851722
40
0.2509385
50
353.0937916
51
0.1181479
0
ARC
8
DEFAULT_255_1_234
10
4.3384114
20
108.6899386
40
0.2970898
50
359.1805295
51
15.0453146
0
ARC
8
DEFAULT_255_1_234
10
4.4729951
20
108.7291992
40
0.1569564
50
13.9577229
51
77.6713066
0
ARC
8
DEFAULT_255_1_234
10
4.434348
20
108.5906949
40
0.3006298
50
76.1116566
51
90.7026153
0
ARC
8
DEFAULT_255_1_234
10
4.4284318
20
108.6180545
40
0.2732568
50
89.5324876
51
103.531937
0
ARC
8
DEFAULT_255_1_234
10
4.4083762
20
108.6979884
40
0.1908508
50
103.2931773
51
133.5619022
0
ARC
8
DEFAULT_255_1_234
10
4.4039251
20
108.7039375
40
0.1834746
50
133.8349307
51
173.5344437
0
ARC
8
DEFAULT_255_1_234
10
4.4762294
20
108.6911213
40
0.2568033
50
172.5096846
51
180.1366907
0
ARC
8
DEFAULT_255_1_234
10
4.3811188
20
108.6945622
40
0.3103056
50
155.3484492
51
180.7484736
0
ARC
8
DEFAULT_255_1_234
10
4.3762277
20
108.6916846
40
0.3070957
50
131.5744599
51
154.4798489
0
ARC
8
DEFAULT_255_1_234
10
4.4075424
20
108.660031
40
0.3515643
50
96.9875458
51
131.9690667
0
ARC
8
DEFAULT_255_1_234
10
4.4294904
20
108.5354636
40
0.4779224
50
89.8596053
51
97.7825159
0
ARC
8
DEFAULT_255_1_234
10
4.4342967
20
108.5092616
40
0.5041361
50
78.3655447
51
90.4131539
0
ARC
8
DEFAULT_255_1_234
10
4.4700885
20
108.6751887
40
0.3344039
50
56.6229102
51
78.638727
0
ARC
8
DEFAULT_255_1_234
10
4.4915829
20
108.7127805
40
0.2912001
50
47.0253525
51
56.0854072
0
ARC
8
DEFAULT_255_1_234
10
4.4935609
20
108.7167223
40
0.2869704
50
10.9208013
51
46.7778124
0
ARC
8
DEFAULT_255_1_234
10
4.3571675
20
108.6851857
40
0.426899
50
359.6364486
51
11.6087304
0
ARC
8
DEFAULT_255_1_234
10
4.5406519
20
108.6836752
40
0.243409
50
332.3549906
51
359.7179418
0
ARC
8
DEFAULT_255_1_234
10
4.4756121
20
108.7145142
40
0.3153459
50
325.2333722
51
332.8745602
0
ARC
8
DEFAULT_255_1_234
10
4.4908744
20
108.7038828
40
0.2967456
50
292.9802137
51
325.2392345
0
ARC
8
DEFAULT_255_1_234
10
4.4634118
20
108.7572863
40
0.3566604
50
292.5402179
51
293.6924929
0
ARC
8
DEFAULT_255_1_234
10
4.5026714
20
108.1118091
40
0.3307468
50
57.6435486
51
72.8625112
0
ARC
8
DEFAULT_255_1_234
10
4.5381214
20
108.1692549
40
0.2632492
50
36.7248896
51
57.4697979
0
ARC
8
DEFAULT_255_1_234
10
4.5369847
20
108.170522
40
0.2634081
50
8.0545065
51
36.356114
0
ARC
8
DEFAULT_255_1_234
10
4.4507032
20
108.1550174
40
0.3510261
50
359.8320645
51
8.5869982
0
ARC
8
DEFAULT_255_1_234
10
4.4131808
20
108.1502101
40
0.3885653
50
343.9829931
51
0.5571613
0
ARC
8
DEFAULT_255_1_234
10
4.5018005
20
108.1259438
40
0.2966924
50
311.6359546
51
343.7651759
0
ARC
8
DEFAULT_255_1_234
10
4.4639574
20
108.1686102
40
0.3537231
50
279.7829875
51
311.6255694
0
ARC
8
DEFAULT_255_1_234
10
4.4338351
20
108.312328
40
0.5004971
50
269.7286406
51
280.3856417
0
ARC
8
DEFAULT_255_1_234
10
4.4276423
20
108.3081996
40
0.4963778
50
256.6828919
51
270.4412052
0
ARC
8
DEFAULT_255_1_234
10
4.3937719
20
108.1697394
40
0.3538406
50
229.4223008
51
256.8556159
0
ARC
8
DEFAULT_255_1_234
10
4.3523112
20
108.1230736
40
0.2914296
50
181.818294
51
229.6455059
0
ARC
8
DEFAULT_255_1_234
10
4.4563068
20
108.1361496
40
0.3959084
50
179.9755256
51
183.2323064
0
ARC
8
DEFAULT_255_1_234
10
4.4390814
20
108.1341037
40
0.2293034
50
179.4465117
51
196.2869258
0
ARC
8
DEFAULT_255_1_234
10
4.3903222
20
108.1207651
40
0.1787621
50
196.5661473
51
227.705904
0
ARC
8
DEFAULT_255_1_234
10
4.4067317
20
108.1391155
40
0.2033784
50
227.7652068
51
257.8762805
0
ARC
8
DEFAULT_255_1_234
10
4.4292287
20
108.2334156
40
0.3003081
50
257.4584385
51
270.426602
0
ARC
8
DEFAULT_255_1_234
10
4.4337853
20
108.2623996
40
0.329292
50
269.5962073
51
280.8789248
0
ARC
8
DEFAULT_255_1_234
10
4.4567382
20
108.1477685
40
0.2123908
50
280.6346389
51
299.8595945
0
ARC
8
DEFAULT_255_1_234
10
4.4758289
20
108.1115212
40
0.171457
50
300.3576302
51
314.5517981
0
ARC
8
DEFAULT_255_1_234
10
4.4675349
20
108.1175919
40
0.1816095
50
315.0728369
51
345.0431014
0
ARC
8
DEFAULT_255_1_234
10
4.3752163
20
108.1444841
40
0.2777492
50
344.5986631
51
357.9269593
0
ARC
8
DEFAULT_255_1_234
10
4.2856489
20
108.1506276
40
0.3674917
50
357.4748886
51
0.0231117
0
ARC
8
DEFAULT_255_1_234
10
4.3879599
20
108.1530679
40
0.2651907
50
359.5047933
51
13.4239635
0
ARC
8
DEFAULT_255_1_234
10
4.4746242
20
108.1752478
40
0.1757509
50
12.9498199
51
48.7551375
0
ARC
8
DEFAULT_255_1_234
10
4.4563976
20
108.15034
40
0.2065134
50
49.5088623
51
72.1836453
0
ARC
8
DEFAULT_255_1_234
10
4.4206129
20
108.0441291
40
0.3185836
50
71.9010081
51
84.3554254
0
ARC
8
DEFAULT_255_1_234
10
4.4044761
20
107.9080326
40
0.4556151
50
84.0193428
51
89.333121
0
LINE
8
DEFAULT_255_1_234
10
5.2097401
20
108.9973211
11
5.2097401
21
107.8279
0
LINE
8
DEFAULT_255_1_234
10
5.2097401
20
107.8279
11
5.0555307
21
107.8279
0
LINE
8
DEFAULT_255_1_234
10
5.0555307
20
107.8279
11
5.0555307
21
108.9973211
0
LINE
8
DEFAULT_255_1_234
10
5.0555307
20
108.9973211
11
5.2097401
21
108.9973211
0
LINE
8
DEFAULT_255_1_234
10
5.8940442
20
108.7965276
11
5.8940442
21
108.4551788
0
LINE
8
DEFAULT_255_1_234
10
5.8940442
20
108.4551788
11
6.2201328
21
108.4551788
0
LINE
8
DEFAULT_255_1_234
10
6.2201328
20
108.4551788
11
6.2201328
21
108.3146233
0
LINE
8
DEFAULT_255_1_234
10
6.2201328
20
108.3146233
11
5.8940442
21
108.3146233
0
LINE
8
DEFAULT_255_1_234
10
5.8940442
20
108.3146233
11
5.8940442
21
107.9451634
0
LINE
8
DEFAULT_255_1_234
10
5.8940442
20
107.9451634
11
5.7446539
21
107.9451634
0
LINE
8
DEFAULT_255_1_234
10
5.7446539
20
107.9451634
11
5.7446539
21
108.3146233
0
LINE
8
DEFAULT_255_1_234
10
5.7446539
20
108.3146233
11
5.4185653
21
108.3146233
0
LINE
8
DEFAULT_255_1_234
10
5.4185653
20
108.3146233
11
5.4185653
21
108.4551788
0
LINE
8
DEFAULT_255_1_234
10
5.4185653
20
108.4551788
11
5.7446539
21
108.4551788
0
LINE
8
DEFAULT_255_1_234
10
5.7446539
20
108.4551788
11
5.7446539
21
108.7965276
0
LINE
8
DEFAULT_255_1_234
10
5.7446539
20
108.7965276
11
5.8940442
21
108.7965276
0
LINE
8
DEFAULT_255_1_234
10
4.8764119
20
115.8866792
11
4.8764119
21
115.7654
0
LINE
8
DEFAULT_255_1_234
10
4.8764119
20
115.7654
11
4.110184
21
115.7654
0
LINE
8
DEFAULT_255_1_234
10
4.110184
20
115.7654
11
4.110184
21
115.8722221
0
LINE
8
DEFAULT_255_1_234
10
4.110184
20
115.8722221
11
4.5149836
21
116.3219995
0
LINE
8
DEFAULT_255_1_234
10
4.2362823
20
116.5902595
11
4.0876952
21
116.5902595
0
LINE
8
DEFAULT_255_1_234
10
4.6025296
20
116.2264218
11
4.2892918
21
115.8866792
0
LINE
8
DEFAULT_255_1_234
10
4.2892918
20
115.8866792
11
4.8764119
21
115.8866792
0
ARC
8
DEFAULT_255_1_234
10
3.165967
20
117.5149527
40
1.8008286
50
318.5132453
51
320.7828378
0
ARC
8
DEFAULT_255_1_234
10
3.6946644
20
117.0846426
40
1.1191493
50
320.7372736
51
323.9737074
0
ARC
8
DEFAULT_255_1_234
10
4.0866501
20
116.8006361
40
0.6350923
50
323.8961724
51
328.6421089
0
ARC
8
DEFAULT_255_1_234
10
4.2913096
20
116.6744031
40
0.3946393
50
328.8299013
51
331.789948
0
ARC
8
DEFAULT_255_1_234
10
4.3910274
20
116.6229509
40
0.2824501
50
331.4255242
51
352.9364833
0
ARC
8
DEFAULT_255_1_234
10
4.4046775
20
116.6198976
40
0.2685315
50
353.2248685
51
0.0169286
0
ARC
8
DEFAULT_255_1_234
10
4.4256652
20
116.622195
40
0.2475536
50
359.4866256
51
15.9339782
0
ARC
8
DEFAULT_255_1_234
10
4.4763637
20
116.6358286
40
0.1950618
50
16.1714718
51
43.5284424
0
ARC
8
DEFAULT_255_1_234
10
4.4840946
20
116.6435573
40
0.184134
50
43.4415429
51
83.1661404
0
ARC
8
DEFAULT_255_1_234
10
4.4706864
20
116.5698771
40
0.258926
50
82.160215
51
90.1505798
0
ARC
8
DEFAULT_255_1_234
10
4.4675291
20
116.5161865
40
0.3126255
50
89.5460705
51
102.5418777
0
ARC
8
DEFAULT_255_1_234
10
4.4432377
20
116.6192665
40
0.2067346
50
102.1739365
51
129.2061916
0
ARC
8
DEFAULT_255_1_234
10
4.4353449
20
116.6317094
40
0.1921118
50
129.7279328
51
135.7542026
0
ARC
8
DEFAULT_255_1_234
10
4.4474977
20
116.6220045
40
0.2075944
50
136.175737
51
166.3674722
0
ARC
8
DEFAULT_255_1_234
10
4.5481896
20
116.5950182
40
0.3118201
50
165.9092917
51
178.8683903
0
ARC
8
DEFAULT_255_1_234
10
4.6346757
20
116.5903179
40
0.3983935
50
178.438168
51
180.0083905
0
ARC
8
DEFAULT_255_1_234
10
4.4945359
20
116.5942231
40
0.4068601
50
163.2878735
51
180.5581814
0
ARC
8
DEFAULT_255_1_234
10
4.4143621
20
116.616284
40
0.3237344
50
133.454115
51
162.9470031
0
ARC
8
DEFAULT_255_1_234
10
4.4322162
20
116.5973
40
0.349795
50
100.7869394
51
133.4384016
0
ARC
8
DEFAULT_255_1_234
10
4.4669934
20
116.4424319
40
0.5084616
50
89.6605301
51
101.3704185
0
ARC
8
DEFAULT_255_1_234
10
4.4736273
20
116.4485496
40
0.502348
50
78.2171172
51
90.4130393
0
ARC
8
DEFAULT_255_1_234
10
4.5091351
20
116.6109637
40
0.3361092
50
55.9268222
51
78.4888551
0
ARC
8
DEFAULT_255_1_234
10
4.5287791
20
116.6448324
40
0.2970617
50
47.9292255
51
55.4054003
0
ARC
8
DEFAULT_255_1_234
10
4.5389352
20
116.6551502
40
0.2825983
50
4.3347696
51
48.0560701
0
ARC
8
DEFAULT_255_1_234
10
4.4293745
20
116.6381601
40
0.393225
50
359.925209
51
5.5967654
0
ARC
8
DEFAULT_255_1_234
10
4.4722637
20
116.6437816
40
0.3503892
50
337.8914096
51
358.9967724
0
ARC
8
DEFAULT_255_1_234
10
4.2009049
20
116.7484706
40
0.6412172
50
326.9135351
51
338.3505194
0
ARC
8
DEFAULT_255_1_234
10
3.8023353
20
117.0039284
40
1.1146189
50
319.6472867
51
327.095818
0
ARC
8
DEFAULT_255_1_234
10
3.4190356
20
117.3201
40
1.6114559
50
317.2586784
51
319.9046139
0
LINE
8
DEFAULT_255_1_234
10
5.2378401
20
116.9348211
11
5.2378401
21
115.7654
0
LINE
8
DEFAULT_255_1_234
10
5.2378401
20
115.7654
11
5.0836307
21
115.7654
0
LINE
8
DEFAULT_255_1_234
10
5.0836307
20
115.7654
11
5.0836307
21
116.9348211
0
LINE
8
DEFAULT_255_1_234
10
5.0836307
20
116.9348211
11
5.2378401
21
116.9348211
0
LINE
8
DEFAULT_255_1_234
10
5.805684
20
116.3228026
11
5.805684
21
116.2015234
0
LINE
8
DEFAULT_255_1_234
10
5.805684
20
116.2015234
11
5.4137352
21
116.2015234
0
LINE
8
DEFAULT_255_1_234
10
5.4137352
20
116.2015234
11
5.4137352
21
116.3228026
0
LINE
8
DEFAULT_255_1_234
10
5.4137352
20
116.3228026
11
5.805684
21
116.3228026
0
LINE
8
DEFAULT_255_1_234
10
4.8483119
20
123.8241792
11
4.8483119
21
123.7029
0
LINE
8
DEFAULT_255_1_234
10
4.8483119
20
123.7029
11
4.082084
21
123.7029
0
LINE
8
DEFAULT_255_1_234
10
4.082084
20
123.7029
11
4.082084
21
123.8097221
0
LINE
8
DEFAULT_255_1_234
10
4.082084
20
123.8097221
11
4.4868836
21
124.2594995
0
LINE
8
DEFAULT_255_1_234
10
4.2081823
20
124.5277595
11
4.0595952
21
124.5277595
0
LINE
8
DEFAULT_255_1_234
10
4.5744296
20
124.1639218
11
4.2611918
21
123.8241792
0
LINE
8
DEFAULT_255_1_234
10
4.2611918
20
123.8241792
11
4.8483119
21
123.8241792
0
ARC
8
DEFAULT_255_1_234
10
3.137867
20
125.4524527
40
1.8008286
50
318.5132453
51
320.7828378
0
ARC
8
DEFAULT_255_1_234
10
3.6665644
20
125.0221426
40
1.1191493
50
320.7372736
51
323.9737074
0
ARC
8
DEFAULT_255_1_234
10
4.0585501
20
124.7381361
40
0.6350923
50
323.8961724
51
328.6421089
0
ARC
8
DEFAULT_255_1_234
10
4.2632096
20
124.6119031
40
0.3946393
50
328.8299013
51
331.789948
0
ARC
8
DEFAULT_255_1_234
10
4.3629274
20
124.5604509
40
0.2824501
50
331.4255242
51
352.9364833
0
ARC
8
DEFAULT_255_1_234
10
4.3765775
20
124.5573976
40
0.2685315
50
353.2248685
51
0.0169286
0
ARC
8
DEFAULT_255_1_234
10
4.3975652
20
124.559695
40
0.2475536
50
359.4866256
51
15.9339782
0
ARC
8
DEFAULT_255_1_234
10
4.4482637
20
124.5733286
40
0.1950618
50
16.1714718
51
43.5284424
0
ARC
8
DEFAULT_255_1_234
10
4.4559946
20
124.5810573
40
0.184134
50
43.4415429
51
83.1661404
0
ARC
8
DEFAULT_255_1_234
10
4.4425864
20
124.5073771
40
0.258926
50
82.160215
51
90.1505798
0
ARC
8
DEFAULT_255_1_234
10
4.4394291
20
124.4536865
40
0.3126255
50
89.5460705
51
102.5418777
0
ARC
8
DEFAULT_255_1_234
10
4.4151377
20
124.5567665
40
0.2067346
50
102.1739365
51
129.2061916
0
ARC
8
DEFAULT_255_1_234
10
4.4072449
20
124.5692094
40
0.1921118
50
129.7279328
51
135.7542026
0
ARC
8
DEFAULT_255_1_234
10
4.4193977
20
124.5595045
40
0.2075944
50
136.175737
51
166.3674722
0
ARC
8
DEFAULT_255_1_234
10
4.5200896
20
124.5325182
40
0.3118201
50
165.9092917
51
178.8683903
0
ARC
8
DEFAULT_255_1_234
10
4.6065757
20
124.5278179
40
0.3983935
50
178.438168
51
180.0083905
0
ARC
8
DEFAULT_255_1_234
10
4.4664359
20
124.5317231
40
0.4068601
50
163.2878735
51
180.5581814
0
ARC
8
DEFAULT_255_1_234
10
4.3862621
20
124.553784
40
0.3237344
50
133.454115
51
162.9470031
0
ARC
8
DEFAULT_255_1_234
10
4.4041162
20
124.5348
40
0.349795
50
100.7869394
51
133.4384016
0
ARC
8
DEFAULT_255_1_234
10
4.4388934
20
124.3799319
40
0.5084616
50
89.6605301
51
101.3704185
0
ARC
8
DEFAULT_255_1_234
10
4.4455273
20
124.3860496
40
0.502348
50
78.2171172
51
90.4130393
0
ARC
8
DEFAULT_255_1_234
10
4.4810351
20
124.5484637
40
0.3361092
50
55.9268222
51
78.4888551
0
ARC
8
DEFAULT_255_1_234
10
4.5006791
20
124.5823324
40
0.2970617
50
47.9292255
51
55.4054003
0
ARC
8
DEFAULT_255_1_234
10
4.5108352
20
124.5926502
40
0.2825983
50
4.3347696
51
48.0560701
0
ARC
8
DEFAULT_255_1_234
10
4.4012745
20
124.5756601
40
0.393225
50
359.925209
51
5.5967654
0
ARC
8
DEFAULT_255_1_234
10
4.4441637
20
124.5812816
40
0.3503892
50
337.8914096
51
358.9967724
0
ARC
8
DEFAULT_255_1_234
10
4.1728049
20
124.6859706
40
0.6412172
50
326.9135351
51
338.3505194
0
ARC
8
DEFAULT_255_1_234
10
3.7742353
20
124.9414284
40
1.1146189
50
319.6472867
51
327.095818
0
ARC
8
DEFAULT_255_1_234
10
3.3909356
20
125.2576
40
1.6114559
50
317.2586784
51
319.9046139
0
LINE
8
DEFAULT_255_1_234
10
5.2097401
20
124.8723211
11
5.2097401
21
123.7029
0
LINE
8
DEFAULT_255_1_234
10
5.2097401
20
123.7029
11
5.0555307
21
123.7029
0
LINE
8
DEFAULT_255_1_234
10
5.0555307
20
123.7029
11
5.0555307
21
124.8723211
0
LINE
8
DEFAULT_255_1_234
10
5.0555307
20
124.8723211
11
5.2097401
21
124.8723211
0
LINE
8
DEFAULT_255_1_234
10
5.8940442
20
124.6715276
11
5.8940442
21
124.3301788
0
LINE
8
DEFAULT_255_1_234
10
5.8940442
20
124.3301788
11
6.2201328
21
124.3301788
0
LINE
8
DEFAULT_255_1_234
10
6.2201328
20
124.3301788
11
6.2201328
21
124.1896233
0
LINE
8
DEFAULT_255_1_234
10
6.2201328
20
124.1896233
11
5.8940442
21
124.1896233
0
LINE
8
DEFAULT_255_1_234
10
5.8940442
20
124.1896233
11
5.8940442
21
123.8201634
0
LINE
8
DEFAULT_255_1_234
10
5.8940442
20
123.8201634
11
5.7446539
21
123.8201634
0
LINE
8
DEFAULT_255_1_234
10
5.7446539
20
123.8201634
11
5.7446539
21
124.1896233
0
LINE
8
DEFAULT_255_1_234
10
5.7446539
20
124.1896233
11
5.4185653
21
124.1896233
0
LINE
8
DEFAULT_255_1_234
10
5.4185653
20
124.1896233
11
5.4185653
21
124.3301788
0
LINE
8
DEFAULT_255_1_234
10
5.4185653
20
124.3301788
11
5.7446539
21
124.3301788
0
LINE
8
DEFAULT_255_1_234
10
5.7446539
20
124.3301788
11
5.7446539
21
124.6715276
0
LINE
8
DEFAULT_255_1_234
10
5.7446539
20
124.6715276
11
5.8940442
21
124.6715276
0
LINE
8
DEFAULT_255_1_234
10
4.5985137
20
132.8154433
11
4.5985137
21
131.6404
0
LINE
8
DEFAULT_255_1_234
10
4.5985137
20
131.6404
11
4.4491234
21
131.6404
0
LINE
8
DEFAULT_255_1_234
10
4.4491234
20
131.6404
11
4.4491234
21
132.6307133
0
LINE
8
DEFAULT_255_1_234
10
4.4491234
20
132.6307133
11
4.1495396
21
132.5206785
0
LINE
8
DEFAULT_255_1_234
10
4.1495396
20
132.5206785
11
4.1495396
21
132.6556117
0
LINE
8
DEFAULT_255_1_234
10
4.1495396
20
132.6556117
11
4.5752217
21
132.8154433
0
LINE
8
DEFAULT_255_1_234
10
4.5752217
20
132.8154433
11
4.5985137
21
132.8154433
0
LINE
8
DEFAULT_255_1_234
10
5.2378401
20
132.8098211
11
5.2378401
21
131.6404
0
LINE
8
DEFAULT_255_1_234
10
5.2378401
20
131.6404
11
5.0836307
21
131.6404
0
LINE
8
DEFAULT_255_1_234
10
5.0836307
20
131.6404
11
5.0836307
21
132.8098211
0
LINE
8
DEFAULT_255_1_234
10
5.0836307
20
132.8098211
11
5.2378401
21
132.8098211
0
LINE
8
DEFAULT_255_1_234
10
5.805684
20
132.1978026
11
5.805684
21
132.0765234
0
LINE
8
DEFAULT_255_1_234
10
5.805684
20
132.0765234
11
5.4137352
21
132.0765234
0
LINE
8
DEFAULT_255_1_234
10
5.4137352
20
132.0765234
11
5.4137352
21
132.1978026
0
LINE
8
DEFAULT_255_1_234
10
5.4137352
20
132.1978026
11
5.805684
21
132.1978026
0
LINE
8
DEFAULT_255_1_234
10
4.5704137
20
140.7529433
11
4.5704137
21
139.5779
0
LINE
8
DEFAULT_255_1_234
10
4.5704137
20
139.5779
11
4.4210234
21
139.5779
0
LINE
8
DEFAULT_255_1_234
10
4.4210234
20
139.5779
11
4.4210234
21
140.5682133
0
LINE
8
DEFAULT_255_1_234
10
4.4210234
20
140.5682133
11
4.1214396
21
140.4581785
0
LINE
8
DEFAULT_255_1_234
10
4.1214396
20
140.4581785
11
4.1214396
21
140.5931117
0
LINE
8
DEFAULT_255_1_234
10
4.1214396
20
140.5931117
11
4.5471217
21
140.7529433
0
LINE
8
DEFAULT_255_1_234
10
4.5471217
20
140.7529433
11
4.5704137
21
140.7529433
0
LINE
8
DEFAULT_255_1_234
10
5.2097401
20
140.7473211
11
5.2097401
21
139.5779
0
LINE
8
DEFAULT_255_1_234
10
5.2097401
20
139.5779
11
5.0555307
21
139.5779
0
LINE
8
DEFAULT_255_1_234
10
5.0555307
20
139.5779
11
5.0555307
21
140.7473211
0
LINE
8
DEFAULT_255_1_234
10
5.0555307
20
140.7473211
11
5.2097401
21
140.7473211
0
LINE
8
DEFAULT_255_1_234
10
5.8940442
20
140.5465276
11
5.8940442
21
140.2051788
0
LINE
8
DEFAULT_255_1_234
10
5.8940442
20
140.2051788
11
6.2201328
21
140.2051788
0
LINE
8
DEFAULT_255_1_234
10
6.2201328
20
140.2051788
11
6.2201328
21
140.0646233
0
LINE
8
DEFAULT_255_1_234
10
6.2201328
20
140.0646233
11
5.8940442
21
140.0646233
0
LINE
8
DEFAULT_255_1_234
10
5.8940442
20
140.0646233
11
5.8940442
21
139.6951634
0
LINE
8
DEFAULT_255_1_234
10
5.8940442
20
139.6951634
11
5.7446539
21
139.6951634
0
LINE
8
DEFAULT_255_1_234
10
5.7446539
20
139.6951634
11
5.7446539
21
140.0646233
0
LINE
8
DEFAULT_255_1_234
10
5.7446539
20
140.0646233
11
5.4185653
21
140.0646233
0
LINE
8
DEFAULT_255_1_234
10
5.4185653
20
140.0646233
11
5.4185653
21
140.2051788
0
LINE
8
DEFAULT_255_1_234
10
5.4185653
20
140.2051788
11
5.7446539
21
140.2051788
0
LINE
8
DEFAULT_255_1_234
10
5.7446539
20
140.2051788
11
5.7446539
21
140.5465276
0
LINE
8
DEFAULT_255_1_234
10
5.7446539
20
140.5465276
11
5.8940442
21
140.5465276
0
LINE
8
DEFAULT_255_1_234
10
22.1784119
20
147.6366792
11
22.1784119
21
147.5154
0
LINE
8
DEFAULT_255_1_234
10
22.1784119
20
147.5154
11
21.412184
21
147.5154
0
LINE
8
DEFAULT_255_1_234
10
21.412184
20
147.5154
11
21.412184
21
147.6222221
0
LINE
8
DEFAULT_255_1_234
10
21.412184
20
147.6222221
11
21.8169836
21
148.0719995
0
LINE
8
DEFAULT_255_1_234
10
21.5382823
20
148.3402595
11
21.3896952
21
148.3402595
0
LINE
8
DEFAULT_255_1_234
10
21.9045296
20
147.9764218
11
21.5912918
21
147.6366792
0
LINE
8
DEFAULT_255_1_234
10
21.5912918
20
147.6366792
11
22.1784119
21
147.6366792
0
ARC
8
DEFAULT_255_1_234
10
20.467967
20
149.2649527
40
1.8008286
50
318.5132453
51
320.7828378
0
ARC
8
DEFAULT_255_1_234
10
20.9966644
20
148.8346426
40
1.1191493
50
320.7372736
51
323.9737074
0
ARC
8
DEFAULT_255_1_234
10
21.3886501
20
148.5506361
40
0.6350923
50
323.8961724
51
328.6421089
0
ARC
8
DEFAULT_255_1_234
10
21.5933096
20
148.4244031
40
0.3946393
50
328.8299013
51
331.789948
0
ARC
8
DEFAULT_255_1_234
10
21.6930274
20
148.3729509
40
0.2824501
50
331.4255242
51
352.9364833
0
ARC
8
DEFAULT_255_1_234
10
21.7066775
20
148.3698976
40
0.2685315
50
353.2248685
51
0.0169286
0
ARC
8
DEFAULT_255_1_234
10
21.7276652
20
148.372195
40
0.2475536
50
359.4866256
51
15.9339782
0
ARC
8
DEFAULT_255_1_234
10
21.7783637
20
148.3858286
40
0.1950618
50
16.1714718
51
43.5284424
0
ARC
8
DEFAULT_255_1_234
10
21.7860946
20
148.3935573
40
0.184134
50
43.4415429
51
83.1661404
0
ARC
8
DEFAULT_255_1_234
10
21.7726864
20
148.3198771
40
0.258926
50
82.160215
51
90.1505798
0
ARC
8
DEFAULT_255_1_234
10
21.7695291
20
148.2661865
40
0.3126255
50
89.5460705
51
102.5418777
0
ARC
8
DEFAULT_255_1_234
10
21.7452377
20
148.3692665
40
0.2067346
50
102.1739365
51
129.2061916
0
ARC
8
DEFAULT_255_1_234
10
21.7373449
20
148.3817094
40
0.1921118
50
129.7279328
51
135.7542026
0
ARC
8
DEFAULT_255_1_234
10
21.7494977
20
148.3720045
40
0.2075944
50
136.175737
51
166.3674722
0
ARC
8
DEFAULT_255_1_234
10
21.8501896
20
148.3450182
40
0.3118201
50
165.9092917
51
178.8683903
0
ARC
8
DEFAULT_255_1_234
10
21.9366757
20
148.3403179
40
0.3983935
50
178.438168
51
180.0083905
0
ARC
8
DEFAULT_255_1_234
10
21.7965359
20
148.3442231
40
0.4068601
50
163.2878735
51
180.5581814
0
ARC
8
DEFAULT_255_1_234
10
21.7163621
20
148.366284
40
0.3237344
50
133.454115
51
162.9470031
0
ARC
8
DEFAULT_255_1_234
10
21.7342162
20
148.3473
40
0.349795
50
100.7869394
51
133.4384016
0
ARC
8
DEFAULT_255_1_234
10
21.7689934
20
148.1924319
40
0.5084616
50
89.6605301
51
101.3704185
0
ARC
8
DEFAULT_255_1_234
10
21.7756273
20
148.1985496
40
0.502348
50
78.2171172
51
90.4130393
0
ARC
8
DEFAULT_255_1_234
10
21.8111351
20
148.3609637
40
0.3361092
50
55.9268222
51
78.4888551
0
ARC
8
DEFAULT_255_1_234
10
21.8307791
20
148.3948324
40
0.2970617
50
47.9292255
51
55.4054003
0
ARC
8
DEFAULT_255_1_234
10
21.8409352
20
148.4051502
40
0.2825983
50
4.3347696
51
48.0560701
0
ARC
8
DEFAULT_255_1_234
10
21.7313745
20
148.3881601
40
0.393225
50
359.925209
51
5.5967654
0
ARC
8
DEFAULT_255_1_234
10
21.7742637
20
148.3937816
40
0.3503892
50
337.8914096
51
358.9967724
0
ARC
8
DEFAULT_255_1_234
10
21.5029049
20
148.4984706
40
0.6412172
50
326.9135351
51
338.3505194
0
ARC
8
DEFAULT_255_1_234
10
21.1043353
20
148.7539284
40
1.1146189
50
319.6472867
51
327.095818
0
ARC
8
DEFAULT_255_1_234
10
20.7210356
20
149.0701
40
1.6114559
50
317.2586784
51
319.9046139
0
LINE
8
DEFAULT_255_1_234
10
22.9631127
20
148.6848211
11
22.9631127
21
147.908152
0
LINE
8
DEFAULT_255_1_234
10
22.9631127
20
147.908152
11
23.1253538
21
147.908152
0
LINE
8
DEFAULT_255_1_234
10
23.1253538
20
147.908152
11
23.1253538
21
147.7868728
0
LINE
8
DEFAULT_255_1_234
10
23.1253538
20
147.7868728
11
22.9631127
21
147.7868728
0
LINE
8
DEFAULT_255_1_234
10
22.9631127
20
147.7868728
11
22.9631127
21
147.5154
0
LINE
8
DEFAULT_255_1_234
10
22.9631127
20
147.5154
11
22.8137224
21
147.5154
0
LINE
8
DEFAULT_255_1_234
10
22.8137224
20
147.5154
11
22.8137224
21
147.7868728
0
LINE
8
DEFAULT_255_1_234
10
22.8137224
20
147.7868728
11
22.2812181
21
147.7868728
0
LINE
8
DEFAULT_255_1_234
10
22.2812181
20
147.7868728
11
22.2812181
21
147.8744187
0
LINE
8
DEFAULT_255_1_234
10
22.2812181
20
147.8744187
11
22.8048875
21
148.6848211
0
LINE
8
DEFAULT_255_1_234
10
22.8048875
20
148.6848211
11
22.9631127
21
148.6848211
0
LINE
8
DEFAULT_255_1_234
10
22.7960525
20
148.4494912
11
22.4498846
21
147.908152
0
LINE
8
DEFAULT_255_1_234
10
22.4498846
20
147.908152
11
22.8137224
21
147.908152
0
LINE
8
DEFAULT_255_1_234
10
22.8137224
20
147.908152
11
22.8137224
21
148.4816181
0
LINE
8
DEFAULT_255_1_234
10
22.8137224
20
148.4816181
11
22.7960525
21
148.4494912
0
LINE
8
DEFAULT_255_1_234
10
24.161448
20
148.097701
11
24.161448
21
147.6688062
0
LINE
8
DEFAULT_255_1_234
10
23.260287
20
148.0438884
11
23.260287
21
148.1458915
0
LINE
8
DEFAULT_255_1_234
10
24.161448
20
148.3418659
11
24.0072387
21
148.3418659
0
LINE
8
DEFAULT_255_1_234
10
23.4152996
20
148.1499073
11
23.4152996
21
148.0543296
0
LINE
8
DEFAULT_255_1_234
10
24.0080418
20
147.7097681
11
24.0080418
21
147.9724059
0
LINE
8
DEFAULT_255_1_234
10
24.0080418
20
147.9724059
11
23.7373723
21
147.9724059
0
LINE
8
DEFAULT_255_1_234
10
23.7373723
20
147.9724059
11
23.7373723
21
148.097701
0
LINE
8
DEFAULT_255_1_234
10
23.7373723
20
148.097701
11
24.161448
21
148.097701
0
ARC
8
DEFAULT_255_1_234
10
23.8782987
20
147.8681396
40
0.3462765
50
295.8437914
51
324.8549609
0
ARC
8
DEFAULT_255_1_234
10
23.8366954
20
147.9434567
40
0.4322211
50
291.5695085
51
296.4549398
0
ARC
8
DEFAULT_255_1_234
10
23.7856205
20
148.0799275
40
0.5779178
50
278.6622409
51
291.3045483
0
ARC
8
DEFAULT_255_1_234
10
23.7516697
20
148.2947408
40
0.7953952
50
270.020006
51
278.7494541
0
ARC
8
DEFAULT_255_1_234
10
23.7478621
20
148.4264036
40
0.927067
50
269.9969998
51
270.2524872
0
ARC
8
DEFAULT_255_1_234
10
23.7440334
20
148.0180589
40
0.5187361
50
253.5786322
51
270.4175299
0
ARC
8
DEFAULT_255_1_234
10
23.726699
20
147.9509236
40
0.4494451
50
238.8203306
51
253.2788235
0
ARC
8
DEFAULT_255_1_234
10
23.7247363
20
147.9458231
40
0.4440665
50
206.7883783
51
238.6962764
0
ARC
8
DEFAULT_255_1_234
10
23.8021273
20
147.9922405
40
0.5341121
50
206.1129412
51
207.4916643
0
ARC
8
DEFAULT_255_1_234
10
23.8618188
20
148.0176488
40
0.5989041
50
188.6921119
51
205.7821245
0
ARC
8
DEFAULT_255_1_234
10
24.047455
20
148.049223
40
0.7871862
50
180.3882829
51
188.9219216
0
ARC
8
DEFAULT_255_1_234
10
24.1702364
20
148.1515464
40
0.909967
50
170.2024264
51
180.3560651
0
ARC
8
DEFAULT_255_1_234
10
23.8538882
20
148.2081237
40
0.5886083
50
154.2857445
51
170.3893044
0
ARC
8
DEFAULT_255_1_234
10
23.7257085
20
148.266795
40
0.4476743
50
139.8401567
51
153.9332699
0
ARC
8
DEFAULT_255_1_234
10
23.6897821
20
148.2955577
40
0.4016697
50
98.4190291
51
139.6707122
0
ARC
8
DEFAULT_255_1_234
10
23.7277339
20
148.1110328
40
0.5898566
50
89.7659205
51
99.4415478
0
ARC
8
DEFAULT_255_1_234
10
23.7342588
20
148.1175844
40
0.5833147
50
78.0551672
51
90.4042112
0
ARC
8
DEFAULT_255_1_234
10
23.7747098
20
148.2994644
40
0.3970055
50
54.6380464
51
78.3339173
0
ARC
8
DEFAULT_255_1_234
10
23.7937154
20
148.3314795
40
0.3599102
50
50.031736
51
54.1558201
0
ARC
8
DEFAULT_255_1_234
10
23.7829942
20
148.3218766
40
0.3741624
50
18.1092409
51
49.7180913
0
ARC
8
DEFAULT_255_1_234
10
23.6373142
20
148.2685089
40
0.5292424
50
7.9672797
51
18.6984571
0
ARC
8
DEFAULT_255_1_234
10
23.652362
20
148.2808504
40
0.3600838
50
9.7557294
51
27.3215714
0
ARC
8
DEFAULT_255_1_234
10
23.7651092
20
148.3371912
40
0.2340608
50
27.7361077
51
84.5257964
0
ARC
8
DEFAULT_255_1_234
10
23.7323479
20
148.172864
40
0.4011215
50
82.106034
51
90.2001166
0
ARC
8
DEFAULT_255_1_234
10
23.7273696
20
148.2236215
40
0.3503799
50
89.4150119
51
105.5823402
0
ARC
8
DEFAULT_255_1_234
10
23.7016694
20
148.3171867
40
0.2533503
50
105.6678618
51
144.2648758
0
ARC
8
DEFAULT_255_1_234
10
23.7909949
20
148.2536289
40
0.3629787
50
144.3561283
51
162.8564086
0
ARC
8
DEFAULT_255_1_234
10
23.9993858
20
148.1867017
40
0.5818441
50
162.6076014
51
173.6780284
0
ARC
8
DEFAULT_255_1_234
10
24.3055002
20
148.149489
40
0.8902007
50
173.4670142
51
179.9730753
0
ARC
8
DEFAULT_255_1_234
10
24.1146673
20
148.050126
40
0.6993804
50
179.6556203
51
190.0080463
0
ARC
8
DEFAULT_255_1_234
10
23.8830502
20
148.0076375
40
0.4639066
50
189.8116607
51
206.6796816
0
ARC
8
DEFAULT_255_1_234
10
23.7985654
20
147.9682503
40
0.3707421
50
207.1031645
51
217.7074368
0
ARC
8
DEFAULT_255_1_234
10
23.7351343
20
147.9130559
40
0.2868417
50
216.7345547
51
265.6812148
0
ARC
8
DEFAULT_255_1_234
10
23.7482134
20
148.0034855
40
0.3780509
50
264.7366618
51
270.0611241
0
ARC
8
DEFAULT_255_1_234
10
23.7505397
20
148.2875111
40
0.662079
50
269.8335834
51
276.0539546
0
ARC
8
DEFAULT_255_1_234
10
23.7712402
20
148.097356
40
0.4708016
50
275.9894168
51
284.4615085
0
ARC
8
DEFAULT_255_1_234
10
23.7910409
20
148.0140663
40
0.3852094
50
284.7034461
51
286.4953897
0
ARC
8
DEFAULT_255_1_234
10
23.8317422
20
147.8829965
40
0.2479842
50
286.0770838
51
304.2625829
0
ARC
8
DEFAULT_255_1_234
10
23.8450836
20
147.8611594
40
0.2224291
50
304.5891602
51
317.1073298
0
ENDSEC
0
EOF