0
SECTION
2
HEADER
9
$MEASUREMENT
70
1
0
ENDSEC
0
SECTION
2
TABLES
0
TABLE
2
LTYPE
0
LTYPE
72
65
70
64
2
CONTINUOUS
3
______
73
0
40
0
0
ENDTAB
0
TABLE
2
LAYER
0
LAYER
2
DEFAULT_255_2_778
70
0
62
255
6
CONTINUOUS
0
LAYER
2
DEFAULT_255_1_234
70
0
62
255
6
CONTINUOUS
0
LAYER
2
DEFAULT_255_2_778_1
70
0
62
255
6
CONTINUOUS
0
ENDTAB
0
ENDSEC
0
SECTION
2
ENTITIES
0
ARC
8
DEFAULT_255_2_778
10
3.5700693
20
234.5552008
40
0.7914215
50
129.1312896
51
180.1450914
0
ARC
8
DEFAULT_255_2_778
10
3.5703345
20
234.5556879
40
0.7912112
50
89.854026
51
129.1684493
0
ARC
8
DEFAULT_255_2_778
10
25.7993937
20
234.5553745
40
0.7915249
50
39.4792447
51
90.147911
0
ARC
8
DEFAULT_255_2_778
10
25.7999935
20
234.5552211
40
0.7911595
50
359.8533901
51
39.5154338
0
ARC
8
DEFAULT_255_2_778
10
25.7996693
20
-1.9863514
40
0.7914836
50
309.4761667
51
0.1482649
0
ARC
8
DEFAULT_255_2_778
10
25.799398
20
-1.9867825
40
0.7913235
50
269.8517415
51
309.511178
0
ARC
8
DEFAULT_255_2_778
10
3.570342
20
-1.9867244
40
0.7913815
50
219.1282118
51
270.1454017
0
ARC
8
DEFAULT_255_2_778
10
3.5700247
20
-1.9863419
40
0.7913769
50
179.8524075
51
219.1641908
0
LINE
8
DEFAULT_255_2_778
10
3.5723503
20
235.3468967
11
25.7973503
21
235.3468967
0
LINE
8
DEFAULT_255_2_778
10
26.5911503
20
234.5531967
11
26.5911503
21
-1.9843033
0
LINE
8
DEFAULT_255_2_778
10
25.7973503
20
-2.7781033
11
3.5723503
21
-2.7781033
0
LINE
8
DEFAULT_255_2_778
10
2.7786503
20
-1.9843033
11
2.7786503
21
234.5531967
0
LINE
8
DEFAULT_255_1_234
10
9.9011657
20
-0.0296435
11
9.9011657
21
-0.1043386
0
LINE
8
DEFAULT_255_1_234
10
9.6963563
20
-0.5878493
11
9.9051815
21
-0.7516967
0
LINE
8
DEFAULT_255_1_234
10
9.9051815
20
-0.7516967
11
9.7999658
21
-0.8488808
0
LINE
8
DEFAULT_255_1_234
10
9.7999658
20
-0.8488808
11
9.5533914
21
-0.6529063
0
LINE
8
DEFAULT_255_1_234
10
8.9598459
20
-0.1147799
11
8.9598459
21
-0.0304466
0
LINE
8
DEFAULT_255_1_234
10
9.7469563
20
-0.1155831
11
9.7469563
21
-0.0288403
0
LINE
8
DEFAULT_255_1_234
10
9.1140553
20
-0.018399
11
9.1140553
21
-0.1043386
0
ARC
8
DEFAULT_255_1_234
10
9.0057909
20
-0.1082293
40
0.8953833
50
351.453011
51
0.2489685
0
ARC
8
DEFAULT_255_1_234
10
9.2642709
20
-0.1482067
40
0.6338333
50
338.6861641
51
351.5540711
0
ARC
8
DEFAULT_255_1_234
10
9.3576593
20
-0.1812172
40
0.5348431
50
336.2887631
51
338.3442418
0
ARC
8
DEFAULT_255_1_234
10
9.3916215
20
-0.1998302
40
0.4962747
50
321.1170344
51
336.6795229
0
ARC
8
DEFAULT_255_1_234
10
9.4548044
20
-0.2484794
40
0.4165565
50
305.4419708
51
320.8705636
0
ARC
8
DEFAULT_255_1_234
10
9.4351514
20
-0.1737293
40
0.4935497
50
271.6373023
51
283.8611969
0
ARC
8
DEFAULT_255_1_234
10
9.4313767
20
-0.1081428
40
0.5592206
50
269.9930596
51
271.8318864
0
ARC
8
DEFAULT_255_1_234
10
9.427621
20
-0.1889319
40
0.4784458
50
252.5219675
51
270.4416499
0
ARC
8
DEFAULT_255_1_234
10
9.4132469
20
-0.2428408
40
0.422716
50
237.5352116
51
252.1857531
0
ARC
8
DEFAULT_255_1_234
10
9.4221665
20
-0.2314637
40
0.4371052
50
209.063312
51
237.3492538
0
ARC
8
DEFAULT_255_1_234
10
9.5091513
20
-0.1768315
40
0.5397041
50
205.1183774
51
209.6470015
0
ARC
8
DEFAULT_255_1_234
10
9.588855
20
-0.143017
40
0.6262326
50
188.7215458
51
204.8240747
0
ARC
8
DEFAULT_255_1_234
10
9.7886078
20
-0.1093933
40
0.8287794
50
180.3723947
51
188.9252049
0
ARC
8
DEFAULT_255_1_234
10
9.785883
20
-0.0264598
40
0.8260467
50
169.5253763
51
180.2765336
0
ARC
8
DEFAULT_255_1_234
10
9.5956279
20
0.0085309
40
0.6326007
50
155.8315255
51
169.5089989
0
ARC
8
DEFAULT_255_1_234
10
9.467578
20
0.0679348
40
0.4914567
50
139.6258461
51
156.0379525
0
ARC
8
DEFAULT_255_1_234
10
9.4086113
20
0.1153799
40
0.4158054
50
122.6416387
51
139.3430715
0
ARC
8
DEFAULT_255_1_234
10
9.4186733
20
0.0970451
40
0.4366739
50
93.0223692
51
122.455762
0
ARC
8
DEFAULT_255_1_234
10
9.429473
20
0.0005709
40
0.5336137
50
89.975342
51
93.6341897
0
ARC
8
DEFAULT_255_1_234
10
9.4333616
20
0.0385375
40
0.4956606
50
73.9665422
51
90.4229648
0
ARC
8
DEFAULT_255_1_234
10
9.4517263
20
0.1100451
40
0.4218674
50
57.5178019
51
73.6813337
0
ARC
8
DEFAULT_255_1_234
10
9.4473046
20
0.1064462
40
0.4272816
50
28.7261108
51
57.2767933
0
ARC
8
DEFAULT_255_1_234
10
9.3562378
20
0.0501688
40
0.534218
50
24.2448911
51
29.3248482
0
ARC
8
DEFAULT_255_1_234
10
9.2636479
20
0.0118819
40
0.6343711
50
9.064382
51
23.9639114
0
ARC
8
DEFAULT_255_1_234
10
9.0380807
20
-0.0260075
40
0.8630926
50
359.7586264
51
9.1891435
0
ARC
8
DEFAULT_255_1_234
10
8.9126287
20
-0.0246657
40
0.834338
50
359.7133237
51
7.96545
0
ARC
8
DEFAULT_255_1_234
10
9.2088504
20
0.0180681
40
0.5350538
50
7.8291991
51
20.0421623
0
ARC
8
DEFAULT_255_1_234
10
9.3713067
20
0.0771606
40
0.3621841
50
20.0677553
51
35.9161685
0
ARC
8
DEFAULT_255_1_234
10
9.4488105
20
0.134767
40
0.2656263
50
35.6594382
51
85.1578074
0
ARC
8
DEFAULT_255_1_234
10
9.4303361
20
0.0232378
40
0.3784238
50
83.7959068
51
90.095906
0
ARC
8
DEFAULT_255_1_234
10
9.4260295
20
0.0965601
40
0.3051229
50
89.3102392
51
109.9889877
0
ARC
8
DEFAULT_255_1_234
10
9.4177778
20
0.1321433
40
0.2688988
50
110.9285147
51
143.9411762
0
ARC
8
DEFAULT_255_1_234
10
9.5108724
20
0.0609236
40
0.3860887
50
143.5289163
51
163.2980757
0
ARC
8
DEFAULT_255_1_234
10
9.7016545
20
0.0009433
40
0.5860659
50
163.0418846
51
174.3140048
0
ARC
8
DEFAULT_255_1_234
10
9.9420657
20
-0.0268146
40
0.8280531
50
174.0509143
51
179.4176892
0
ARC
8
DEFAULT_255_1_234
10
9.8906992
20
-0.1086366
40
0.7766558
50
179.6829237
51
188.9631324
0
ARC
8
DEFAULT_255_1_234
10
9.6236553
20
-0.1521248
40
0.5060992
50
188.8100743
51
202.9300012
0
ARC
8
DEFAULT_255_1_234
10
9.5020182
20
-0.2016145
40
0.3747967
50
203.2069261
51
215.7876482
0
ARC
8
DEFAULT_255_1_234
10
9.4171579
20
-0.2687329
40
0.2667526
50
214.7521006
51
264.2834488
0
ARC
8
DEFAULT_255_1_234
10
9.4307234
20
-0.183222
40
0.3532247
50
263.4755397
51
270.0949833
0
ARC
8
DEFAULT_255_1_234
10
9.4349345
20
-0.2093626
40
0.3271036
50
269.3649385
51
287.5152008
0
ARC
8
DEFAULT_255_1_234
10
9.4527503
20
-0.2740762
40
0.2600406
50
288.0630309
51
323.8113348
0
ARC
8
DEFAULT_255_1_234
10
9.3656345
20
-0.2090951
40
0.3687189
50
323.6547608
51
342.6590488
0
ARC
8
DEFAULT_255_1_234
10
9.162496
20
-0.1430048
40
0.5823286
50
342.4091907
51
353.6451149
0
ARC
8
DEFAULT_255_1_234
10
8.8793471
20
-0.107781
40
0.8676442
50
353.4029884
51
359.4847795
0
LINE
8
DEFAULT_255_1_234
10
10.6569522
20
0.5189243
11
10.683457
21
0.5189243
0
LINE
8
DEFAULT_255_1_234
10
10.683457
20
0.5189243
11
10.683457
21
0.392826
0
LINE
8
DEFAULT_255_1_234
10
10.683457
20
0.392826
11
10.6561491
21
0.392826
0
LINE
8
DEFAULT_255_1_234
10
10.1091877
20
-0.2063417
11
10.1091877
21
-0.1493164
0
LINE
8
DEFAULT_255_1_234
10
10.258578
20
-0.1685925
11
10.258578
21
-0.2232083
0
ARC
8
DEFAULT_255_1_234
10
10.6613839
20
-0.1069545
40
0.4998079
50
90.6001036
51
104.514704
0
ARC
8
DEFAULT_255_1_234
10
10.6225354
20
0.0375131
40
0.3502176
50
104.2855254
51
133.862935
0
ARC
8
DEFAULT_255_1_234
10
10.6389112
20
0.026683
40
0.3693984
50
134.5302688
51
161.6210873
0
ARC
8
DEFAULT_255_1_234
10
10.80423
20
-0.0316105
40
0.5446739
50
161.2849839
51
174.2076652
0
ARC
8
DEFAULT_255_1_234
10
10.9449237
20
-0.0510213
40
0.6866274
50
173.7810589
51
174.9254635
0
ARC
8
DEFAULT_255_1_234
10
10.4899069
20
-0.1893161
40
0.3033419
50
95.8330959
51
138.9954921
0
ARC
8
DEFAULT_255_1_234
10
10.5122425
20
-0.3171625
40
0.4328947
50
89.8753725
51
97.0544009
0
ARC
8
DEFAULT_255_1_234
10
10.5169891
20
-0.2336252
40
0.3493769
50
71.6407809
51
90.6240094
0
ARC
8
DEFAULT_255_1_234
10
10.5320465
20
-0.1781918
40
0.2920396
50
39.6367836
51
71.019018
0
ARC
8
DEFAULT_255_1_234
10
10.4683938
20
-0.2332002
40
0.3761538
50
10.658731
51
39.9043955
0
ARC
8
DEFAULT_255_1_234
10
10.3136021
20
-0.2668314
40
0.5345136
50
359.682601
51
11.132623
0
ARC
8
DEFAULT_255_1_234
10
10.3096151
20
-0.273899
40
0.5385081
50
347.2486944
51
0.4369317
0
ARC
8
DEFAULT_255_1_234
10
10.4763628
20
-0.3140193
40
0.3670249
50
318.1409698
51
347.6118597
0
ARC
8
DEFAULT_255_1_234
10
10.5088621
20
-0.3407298
40
0.3250007
50
275.6342139
51
317.8248465
0
ARC
8
DEFAULT_255_1_234
10
10.4867733
20
-0.2107781
40
0.4565864
50
269.8874292
51
276.7917694
0
ARC
8
DEFAULT_255_1_234
10
10.4812803
20
-0.3133257
40
0.3540676
50
246.9140195
51
270.7437342
0
ARC
8
DEFAULT_255_1_234
10
10.4819194
20
-0.3275616
40
0.3412781
50
218.1665114
51
245.878116
0
ARC
8
DEFAULT_255_1_234
10
10.5698654
20
-0.2539721
40
0.455911
50
191.4115814
51
218.6077802
0
ARC
8
DEFAULT_255_1_234
10
10.7636744
20
-0.2105167
40
0.6545001
50
179.6345085
51
191.7836486
0
ARC
8
DEFAULT_255_1_234
10
11.321908
20
-0.1426303
40
1.2127388
50
171.4525249
51
180.3158839
0
ARC
8
DEFAULT_255_1_234
10
10.8823956
20
-0.0742392
40
0.7679464
50
157.9802646
51
171.6246686
0
ARC
8
DEFAULT_255_1_234
10
10.6609977
20
0.0140421
40
0.5296008
50
141.4298019
51
157.854097
0
ARC
8
DEFAULT_255_1_234
10
10.5968298
20
0.0594381
40
0.4511509
50
102.8715806
51
140.8564722
0
ARC
8
DEFAULT_255_1_234
10
10.6615913
20
-0.1845448
40
0.7034845
50
90.3778349
51
103.5869322
0
ARC
8
DEFAULT_255_1_234
10
10.487769
20
-0.245027
40
0.2370698
50
89.8751008
51
126.2071704
0
ARC
8
DEFAULT_255_1_234
10
10.4923479
20
-0.2604697
40
0.2522934
50
124.9745049
51
144.895901
0
ARC
8
DEFAULT_255_1_234
10
10.474767
20
-0.246144
40
0.2296779
50
145.2974905
51
160.2660252
0
ARC
8
DEFAULT_255_1_234
10
10.7820209
20
-0.2263929
40
0.5234525
50
179.6514266
51
190.2855912
0
ARC
8
DEFAULT_255_1_234
10
10.6126346
20
-0.2583214
40
0.3510893
50
190.0945431
51
207.5098196
0
ARC
8
DEFAULT_255_1_234
10
10.5560616
20
-0.2852377
40
0.288489
50
207.9583163
51
216.3251085
0
ARC
8
DEFAULT_255_1_234
10
10.5220723
20
-0.3131895
40
0.2445587
50
215.7661442
51
232.5456785
0
ARC
8
DEFAULT_255_1_234
10
10.4837706
20
-0.3618518
40
0.1826382
50
232.8005391
51
270.6605633
0
ARC
8
DEFAULT_255_1_234
10
10.4883407
20
-0.3254388
40
0.2190529
50
269.35537
51
288.4744281
0
ARC
8
DEFAULT_255_1_234
10
10.4976304
20
-0.3603882
40
0.1829749
50
289.1833337
51
322.9683818
0
ARC
8
DEFAULT_255_1_234
10
10.4364827
20
-0.3121609
40
0.2608399
50
322.6007884
51
346.5182367
0
ARC
8
DEFAULT_255_1_234
10
10.3207423
20
-0.2826384
40
0.3802777
50
346.2582162
51
358.7741648
0
ARC
8
DEFAULT_255_1_234
10
10.2189091
20
-0.2771035
40
0.4822176
50
358.3755224
51
0.0098023
0
ARC
8
DEFAULT_255_1_234
10
10.2945279
20
-0.2743343
40
0.4066078
50
359.6214041
51
11.2839074
0
ARC
8
DEFAULT_255_1_234
10
10.4222426
20
-0.2476934
40
0.2761514
50
11.0482309
51
31.8146458
0
ARC
8
DEFAULT_255_1_234
10
10.4531468
20
-0.2309416
40
0.2410679
50
32.3035391
51
38.082671
0
ARC
8
DEFAULT_255_1_234
10
10.4952128
20
-0.1928338
40
0.1844966
50
36.825067
51
85.7415724
0
ARC
8
DEFAULT_255_1_234
10
10.4884962
20
-0.2428699
40
0.2349122
50
85.0140713
51
90.0513278
0
LINE
8
DEFAULT_255_1_234
10
11.6512814
20
0.5181211
11
11.6512814
21
-0.258548
0
LINE
8
DEFAULT_255_1_234
10
11.6512814
20
-0.258548
11
11.8135226
21
-0.258548
0
LINE
8
DEFAULT_255_1_234
10
11.8135226
20
-0.258548
11
11.8135226
21
-0.3798272
0
LINE
8
DEFAULT_255_1_234
10
11.8135226
20
-0.3798272
11
11.6512814
21
-0.3798272
0
LINE
8
DEFAULT_255_1_234
10
11.6512814
20
-0.3798272
11
11.6512814
21
-0.6513
0
LINE
8
DEFAULT_255_1_234
10
11.6512814
20
-0.6513
11
11.5018911
21
-0.6513
0
LINE
8
DEFAULT_255_1_234
10
11.5018911
20
-0.6513
11
11.5018911
21
-0.3798272
0
LINE
8
DEFAULT_255_1_234
10
11.5018911
20
-0.3798272
11
10.9693869
21
-0.3798272
0
LINE
8
DEFAULT_255_1_234
10
10.9693869
20
-0.3798272
11
10.9693869
21
-0.2922813
0
LINE
8
DEFAULT_255_1_234
10
10.9693869
20
-0.2922813
11
11.4930562
21
0.5181211
0
LINE
8
DEFAULT_255_1_234
10
11.4930562
20
0.5181211
11
11.6512814
21
0.5181211
0
LINE
8
DEFAULT_255_1_234
10
11.4842213
20
0.2827912
11
11.1380534
21
-0.258548
0
LINE
8
DEFAULT_255_1_234
10
11.1380534
20
-0.258548
11
11.5018911
21
-0.258548
0
LINE
8
DEFAULT_255_1_234
10
11.5018911
20
-0.258548
11
11.5018911
21
0.3149181
0
LINE
8
DEFAULT_255_1_234
10
11.5018911
20
0.3149181
11
11.4842213
21
0.2827912
0
LINE
8
DEFAULT_255_1_234
10
12.7941978
20
0.5181211
11
12.7941978
21
0.3912196
0
LINE
8
DEFAULT_255_1_234
10
12.7941978
20
0.3912196
11
12.4183125
21
0.3912196
0
LINE
8
DEFAULT_255_1_234
10
12.4183125
20
0.3912196
11
12.4183125
21
-0.6513
0
LINE
8
DEFAULT_255_1_234
10
12.4183125
20
-0.6513
11
12.2649063
21
-0.6513
0
LINE
8
DEFAULT_255_1_234
10
12.2649063
20
-0.6513
11
12.2649063
21
0.3912196
0
LINE
8
DEFAULT_255_1_234
10
12.2649063
20
0.3912196
11
11.8898241
21
0.3912196
0
LINE
8
DEFAULT_255_1_234
10
11.8898241
20
0.3912196
11
11.8898241
21
0.5181211
0
LINE
8
DEFAULT_255_1_234
10
11.8898241
20
0.5181211
11
12.7941978
21
0.5181211
0
LINE
8
DEFAULT_255_1_234
10
13.6503811
20
-0.2802337
11
13.8053937
21
-0.2802337
0
LINE
8
DEFAULT_255_1_234
10
12.9050358
20
-0.1212053
11
12.9050358
21
-0.0087609
0
LINE
8
DEFAULT_255_1_234
10
13.8053937
20
0.1422357
11
13.6503811
21
0.1422357
0
LINE
8
DEFAULT_255_1_234
10
13.0600483
20
-0.0127768
11
13.0600483
21
-0.1260243
0
ARC
8
DEFAULT_255_1_234
10
13.2573323
20
-0.2205154
40
0.5513052
50
340.1774281
51
353.7814284
0
ARC
8
DEFAULT_255_1_234
10
13.4144676
20
-0.2790418
40
0.3836379
50
311.4558989
51
340.4421614
0
ARC
8
DEFAULT_255_1_234
10
13.4111344
20
-0.2679472
40
0.3941894
50
282.4333181
51
310.7513653
0
ARC
8
DEFAULT_255_1_234
10
13.3672083
20
-0.0864321
40
0.5809175
50
269.9358511
51
282.809604
0
ARC
8
DEFAULT_255_1_234
10
13.3620149
20
0.0593212
40
0.7266847
50
270.0021091
51
270.3581957
0
ARC
8
DEFAULT_255_1_234
10
13.3567566
20
-0.2007415
40
0.4666519
50
250.7884749
51
270.6489167
0
ARC
8
DEFAULT_255_1_234
10
13.3399401
20
-0.2644681
40
0.4009729
50
219.3627325
51
250.0611886
0
ARC
8
DEFAULT_255_1_234
10
13.4228612
20
-0.1939958
40
0.5097822
50
193.5479632
51
219.5756669
0
ARC
8
DEFAULT_255_1_234
10
13.6600233
20
-0.1324081
40
0.7547848
50
181.1218675
51
193.87563
0
ARC
8
DEFAULT_255_1_234
10
13.8670414
20
-0.121342
40
0.9620055
50
179.9918545
51
181.5394234
0
ARC
8
DEFAULT_255_1_234
10
13.6819516
20
-0.0050212
40
0.7769248
50
169.5837241
51
180.2757934
0
ARC
8
DEFAULT_255_1_234
10
13.4982454
20
0.0289229
40
0.590109
50
155.0365899
51
169.6003176
0
ARC
8
DEFAULT_255_1_234
10
13.3846918
20
0.0836677
40
0.4640625
50
136.783148
51
155.2472683
0
ARC
8
DEFAULT_255_1_234
10
13.3457395
20
0.1167562
40
0.4130255
50
121.7633186
51
136.428115
0
ARC
8
DEFAULT_255_1_234
10
13.3592357
20
0.0918227
40
0.4413323
50
95.6459699
51
121.5490577
0
ARC
8
DEFAULT_255_1_234
10
13.3749639
20
-0.0190051
40
0.55319
50
89.924208
51
96.1377933
0
ARC
8
DEFAULT_255_1_234
10
13.3800072
20
-0.0071458
40
0.5413475
50
76.6779277
51
90.4563316
0
ARC
8
DEFAULT_255_1_234
10
13.4193695
20
0.1519114
40
0.3775041
50
47.485847
51
76.9287264
0
ARC
8
DEFAULT_255_1_234
10
13.4046668
20
0.1419159
40
0.3948286
50
16.5424086
51
46.8933463
0
ARC
8
DEFAULT_255_1_234
10
13.2438825
20
0.0890861
40
0.564021
50
5.4072051
51
17.0365086
0
ARC
8
DEFAULT_255_1_234
10
13.0999842
20
0.0659679
40
0.5556559
50
7.8891745
51
15.9239216
0
ARC
8
DEFAULT_255_1_234
10
13.2986856
20
0.1236631
40
0.3487515
50
15.7653144
51
27.9410532
0
ARC
8
DEFAULT_255_1_234
10
13.4091073
20
0.182779
40
0.2235026
50
27.8166557
51
46.4008329
0
ARC
8
DEFAULT_255_1_234
10
13.4140716
20
0.1822082
40
0.2205286
50
47.4371857
51
75.0698205
0
ARC
8
DEFAULT_255_1_234
10
13.3832111
20
0.0747765
40
0.3322915
50
74.7008593
51
87.8124495
0
ARC
8
DEFAULT_255_1_234
10
13.3758798
20
-0.0308156
40
0.4380987
50
87.3814673
51
90.0240855
0
ARC
8
DEFAULT_255_1_234
10
13.3720341
20
0.0869291
40
0.3203749
50
89.3451631
51
108.5745436
0
ARC
8
DEFAULT_255_1_234
10
13.3583447
20
0.1382908
40
0.2673494
50
109.2998449
51
143.3037509
0
ARC
8
DEFAULT_255_1_234
10
13.4345519
20
0.0796881
40
0.3634757
50
143.0753173
51
163.1916937
0
ARC
8
DEFAULT_255_1_234
10
13.6297247
20
0.0180967
40
0.5681262
50
162.9373603
51
174.6208611
0
ARC
8
DEFAULT_255_1_234
10
13.8923289
20
-0.010699
40
0.8322832
50
174.3419979
51
180.1430411
0
ARC
8
DEFAULT_255_1_234
10
13.7992445
20
-0.1301302
40
0.7392076
50
179.6817502
51
189.150529
0
ARC
8
DEFAULT_255_1_234
10
13.5491694
20
-0.171781
40
0.4856932
50
188.9910863
51
203.5773039
0
ARC
8
DEFAULT_255_1_234
10
13.4412026
20
-0.2165789
40
0.3688271
50
203.9077269
51
215.1312379
0
ARC
8
DEFAULT_255_1_234
10
13.348912
20
-0.2881059
40
0.2522457
50
213.9071664
51
263.8849284
0
ARC
8
DEFAULT_255_1_234
10
13.3614449
20
-0.2096482
40
0.3316174
50
263.1758525
51
270.1031083
0
ARC
8
DEFAULT_255_1_234
10
13.3646541
20
-0.0849635
40
0.4563091
50
269.6719807
51
279.0609165
0
ARC
8
DEFAULT_255_1_234
10
13.3913309
20
-0.2462093
40
0.2928759
50
278.8750225
51
293.6346586
0
ARC
8
DEFAULT_255_1_234
10
13.4233517
20
-0.32141
40
0.2111472
50
293.8553404
51
310.0518804
0
ARC
8
DEFAULT_255_1_234
10
13.4238371
20
-0.3276484
40
0.2060917
50
311.0646779
51
332.0108348
0
ARC
8
DEFAULT_255_1_234
10
13.3046098
20
-0.2619022
40
0.3422352
50
331.6588543
51
343.2878891
0
ARC
8
DEFAULT_255_1_234
10
13.0983613
20
-0.1985202
40
0.5580003
50
343.1446044
51
351.010618
0
ARC
8
DEFAULT_255_1_234
10
12.9442259
20
-0.1704129
40
0.7146438
50
350.7157277
51
351.1602153
0
LINE
8
DEFAULT_255_1_234
10
14.6985229
20
-0.6513
11
14.44472
21
-0.1782306
0
LINE
8
DEFAULT_255_1_234
10
14.44472
20
-0.1782306
11
14.1700346
21
-0.1782306
0
LINE
8
DEFAULT_255_1_234
10
14.1700346
20
-0.1782306
11
14.1700346
21
-0.6513
0
LINE
8
DEFAULT_255_1_234
10
14.1700346
20
-0.6513
11
14.015022
21
-0.6513
0
LINE
8
DEFAULT_255_1_234
10
14.015022
20
-0.6513
11
14.015022
21
0.5181211
0
LINE
8
DEFAULT_255_1_234
10
14.015022
20
0.5181211
11
14.4021518
21
0.5181211
0
LINE
8
DEFAULT_255_1_234
10
14.5892913
20
-0.1453005
11
14.8639768
21
-0.6416619
0
LINE
8
DEFAULT_255_1_234
10
14.8639768
20
-0.6416619
11
14.8639768
21
-0.6513
0
LINE
8
DEFAULT_255_1_234
10
14.8639768
20
-0.6513
11
14.6985229
21
-0.6513
0
LINE
8
DEFAULT_255_1_234
10
14.1700346
20
0.3912196
11
14.1700346
21
-0.0521323
0
LINE
8
DEFAULT_255_1_234
10
14.1700346
20
-0.0521323
11
14.4069708
21
-0.0521323
0
LINE
8
DEFAULT_255_1_234
10
14.4061677
20
0.3912196
11
14.1700346
21
0.3912196
0
ARC
8
DEFAULT_255_1_234
10
14.4063157
20
-0.1780239
40
0.6961575
50
80.653586
51
90.3427061
0
ARC
8
DEFAULT_255_1_234
10
14.4482632
20
0.0682348
40
0.4463577
50
65.6987447
51
80.8329603
0
ARC
8
DEFAULT_255_1_234
10
14.4960273
20
0.1777322
40
0.3269094
50
50.0017161
51
65.4305835
0
ARC
8
DEFAULT_255_1_234
10
14.5178737
20
0.2072482
40
0.2902647
50
11.628416
51
49.5603263
0
ARC
8
DEFAULT_255_1_234
10
14.3643073
20
0.1697299
40
0.4482792
50
359.5655735
51
12.3691
0
ARC
8
DEFAULT_255_1_234
10
14.4719933
20
0.1634644
40
0.3405924
50
341.9983148
51
0.4822259
0
ARC
8
DEFAULT_255_1_234
10
14.5114773
20
0.1527471
40
0.2997359
50
323.8609373
51
341.61416
0
ARC
8
DEFAULT_255_1_234
10
14.4813017
20
0.1760484
40
0.3378487
50
296.7018614
51
323.6876402
0
ARC
8
DEFAULT_255_1_234
10
14.4371913
20
0.2549235
40
0.4281516
50
290.8086567
51
297.2323311
0
ARC
8
DEFAULT_255_1_234
10
14.4095442
20
0.3072351
40
0.3593766
50
269.589728
51
281.8058135
0
ARC
8
DEFAULT_255_1_234
10
14.4346341
20
0.1924743
40
0.2419125
50
281.5501019
51
303.9357432
0
ARC
8
DEFAULT_255_1_234
10
14.4483529
20
0.1686936
40
0.2145323
50
304.4415616
51
311.2106213
0
ARC
8
DEFAULT_255_1_234
10
14.4615634
20
0.1547632
40
0.1953505
50
310.9875673
51
356.2715578
0
ARC
8
DEFAULT_255_1_234
10
14.3859283
20
0.1660422
40
0.2716331
50
354.9348262
51
0.0609027
0
ARC
8
DEFAULT_255_1_234
10
14.3672157
20
0.1687435
40
0.2903554
50
359.5239371
51
12.8808918
0
ARC
8
DEFAULT_255_1_234
10
14.4649713
20
0.1926728
40
0.1897315
50
12.4173452
51
43.1022135
0
ARC
8
DEFAULT_255_1_234
10
14.4711317
20
0.1963724
40
0.1827118
50
43.5751728
51
48.203944
0
ARC
8
DEFAULT_255_1_234
10
14.4541809
20
0.1742302
40
0.2105272
50
48.7809703
51
72.6969569
0
ARC
8
DEFAULT_255_1_234
10
14.4187434
20
0.066682
40
0.3237537
50
72.3702241
51
84.8791103
0
ARC
8
DEFAULT_255_1_234
10
14.403991
20
-0.0675231
40
0.4587478
50
84.5400526
51
89.7281406
0
LINE
8
DEFAULT_255_1_234
10
15.7723664
20
0.5181211
11
15.7723664
21
0.3912196
0
LINE
8
DEFAULT_255_1_234
10
15.7723664
20
0.3912196
11
15.396481
21
0.3912196
0
LINE
8
DEFAULT_255_1_234
10
15.396481
20
0.3912196
11
15.396481
21
-0.6513
0
LINE
8
DEFAULT_255_1_234
10
15.396481
20
-0.6513
11
15.2430748
21
-0.6513
0
LINE
8
DEFAULT_255_1_234
10
15.2430748
20
-0.6513
11
15.2430748
21
0.3912196
0
LINE
8
DEFAULT_255_1_234
10
15.2430748
20
0.3912196
11
14.8679926
21
0.3912196
0
LINE
8
DEFAULT_255_1_234
10
14.8679926
20
0.3912196
11
14.8679926
21
0.5181211
0
LINE
8
DEFAULT_255_1_234
10
14.8679926
20
0.5181211
11
15.7723664
21
0.5181211
0
LINE
8
DEFAULT_255_1_234
10
16.3514547
20
-0.6513
11
15.9458519
21
-0.6513
0
LINE
8
DEFAULT_255_1_234
10
15.9458519
20
-0.6513
11
15.9458519
21
0.5181211
0
LINE
8
DEFAULT_255_1_234
10
15.9458519
20
0.5181211
11
16.3281626
21
0.5181211
0
LINE
8
DEFAULT_255_1_234
10
16.3570769
20
-0.1043386
11
16.1000613
21
-0.1043386
0
LINE
8
DEFAULT_255_1_234
10
16.1000613
20
-0.1043386
11
16.1000613
21
-0.5252017
0
LINE
8
DEFAULT_255_1_234
10
16.1000613
20
-0.5252017
11
16.3546674
21
-0.5252017
0
LINE
8
DEFAULT_255_1_234
10
16.1000613
20
0.3912196
11
16.1000613
21
0.0193501
0
LINE
8
DEFAULT_255_1_234
10
16.1000613
20
0.0193501
11
16.3329817
21
0.0193501
0
LINE
8
DEFAULT_255_1_234
10
16.3281626
20
0.3912196
11
16.1000613
21
0.3912196
0
ARC
8
DEFAULT_255_1_234
10
16.3319335
20
-0.2186099
40
0.7367406
50
82.1257326
51
90.2932599
0
ARC
8
DEFAULT_255_1_234
10
16.370829
20
0.0532013
40
0.4621653
50
69.9044149
51
82.2857423
0
ARC
8
DEFAULT_255_1_234
10
16.4278968
20
0.2074637
40
0.2976871
50
51.1838526
51
70.0181538
0
ARC
8
DEFAULT_255_1_234
10
16.4533934
20
0.244524
40
0.2528517
50
12.1017251
51
50.4214761
0
ARC
8
DEFAULT_255_1_234
10
16.3149808
20
0.2097676
40
0.3955061
50
359.5251267
51
12.8211707
0
ARC
8
DEFAULT_255_1_234
10
16.4729735
20
0.2028344
40
0.2375281
50
323.4908128
51
0.8817314
0
ARC
8
DEFAULT_255_1_234
10
16.4311421
20
0.235155
40
0.2903817
50
298.6825083
51
323.2756573
0
ARC
8
DEFAULT_255_1_234
10
16.3949784
20
0.2952649
40
0.3604842
50
293.1999386
51
299.1396394
0
ARC
8
DEFAULT_255_1_234
10
16.4622757
20
-0.3132874
40
0.2871098
50
54.0011765
51
74.9167975
0
ARC
8
DEFAULT_255_1_234
10
16.4739116
20
-0.2935668
40
0.2643248
50
36.3580696
51
53.5291921
0
ARC
8
DEFAULT_255_1_234
10
16.4612358
20
-0.3026002
40
0.2798884
50
4.8189881
51
36.3089977
0
ARC
8
DEFAULT_255_1_234
10
16.3833194
20
-0.313573
40
0.358478
50
359.9370252
51
5.5204067
0
ARC
8
DEFAULT_255_1_234
10
16.3508715
20
-0.3176333
40
0.3909429
50
344.7478609
51
0.5373281
0
ARC
8
DEFAULT_255_1_234
10
16.4499686
20
-0.3443456
40
0.2883093
50
311.1786488
51
344.6886812
0
ARC
8
DEFAULT_255_1_234
10
16.4207734
20
-0.3080013
40
0.3348923
50
286.0418249
51
310.8441291
0
ARC
8
DEFAULT_255_1_234
10
16.3700565
20
-0.1433193
40
0.5071869
50
274.1042341
51
286.4071509
0
ARC
8
DEFAULT_255_1_234
10
16.3523821
20
0.0450229
40
0.6963234
50
269.9236873
51
274.445647
0
ARC
8
DEFAULT_255_1_234
10
16.3569822
20
-0.1889463
40
0.3362634
50
269.6055768
51
281.3740047
0
ARC
8
DEFAULT_255_1_234
10
16.380046
20
-0.2982647
40
0.224546
50
281.1055983
51
302.5132223
0
ARC
8
DEFAULT_255_1_234
10
16.3947359
20
-0.3246177
40
0.1944357
50
303.0368945
51
311.8811219
0
ARC
8
DEFAULT_255_1_234
10
16.4018766
20
-0.333111
40
0.1833454
50
311.9916004
51
351.7143462
0
ARC
8
DEFAULT_255_1_234
10
16.3201996
20
-0.316607
40
0.2665871
50
350.7339597
51
0.2221581
0
ARC
8
DEFAULT_255_1_234
10
16.3094442
20
-0.3109533
40
0.2773789
50
359.0456241
51
17.2296242
0
ARC
8
DEFAULT_255_1_234
10
16.4133559
20
-0.2800837
40
0.1689915
50
17.6685481
51
78.9940892
0
ARC
8
DEFAULT_255_1_234
10
16.3616723
20
-0.4655776
40
0.3612658
50
76.5635957
51
90.6980921
0
LINE
8
DEFAULT_255_1_234
10
16.3572707
20
-0.1043387
11
16.3570769
21
-0.1043386
0
ARC
8
DEFAULT_255_1_234
10
16.3352383
20
0.3479036
40
0.3285612
50
269.6064736
51
281.4533503
0
ARC
8
DEFAULT_255_1_234
10
16.3575203
20
0.2427688
40
0.2210975
50
281.2041486
51
302.5148063
0
ARC
8
DEFAULT_255_1_234
10
16.3712053
20
0.2181241
40
0.1929674
50
303.021671
51
309.8369575
0
ARC
8
DEFAULT_255_1_234
10
16.3895515
20
0.1975488
40
0.1654181
50
309.5228395
51
356.9509836
0
ARC
8
DEFAULT_255_1_234
10
16.3232097
20
0.2070932
40
0.2322512
50
355.4701227
51
0.0492546
0
ARC
8
DEFAULT_255_1_234
10
16.2953188
20
0.2093094
40
0.2601498
50
359.5558597
51
11.2096359
0
ARC
8
DEFAULT_255_1_234
10
16.3910478
20
0.229123
40
0.1623975
50
10.9182341
51
31.3230275
0
ARC
8
DEFAULT_255_1_234
10
16.4196211
20
0.2450214
40
0.1297302
50
31.8852677
51
52.1412565
0
ARC
8
DEFAULT_255_1_234
10
16.3921944
20
0.206275
40
0.1771663
50
52.8285564
51
71.9850297
0
ARC
8
DEFAULT_255_1_234
10
16.3546121
20
0.0956664
40
0.2939794
50
71.6863486
51
82.8455995
0
ARC
8
DEFAULT_255_1_234
10
16.3306657
20
-0.0852851
40
0.476506
50
82.6984714
51
90.1729175
0
ARC
8
DEFAULT_255_1_234
10
16.3284291
20
0.0370623
40
0.3541573
50
89.8708275
51
90.0431131
0
LINE
8
DEFAULT_255_1_234
10
17.0373651
20
0.5181211
11
17.2220951
21
-0.2826432
0
LINE
8
DEFAULT_255_1_234
10
17.2220951
20
-0.2826432
11
17.244584
21
-0.4368526
0
LINE
8
DEFAULT_255_1_234
10
17.244584
20
-0.4368526
11
17.2775141
21
-0.2979035
0
LINE
8
DEFAULT_255_1_234
10
17.2775141
20
-0.2979035
11
17.5088282
21
0.5181211
0
LINE
8
DEFAULT_255_1_234
10
17.5088282
20
0.5181211
11
17.6389423
21
0.5181211
0
LINE
8
DEFAULT_255_1_234
10
17.6389423
20
0.5181211
11
17.8646342
21
-0.2979035
0
LINE
8
DEFAULT_255_1_234
10
17.8646342
20
-0.2979035
11
17.8967611
21
-0.4392621
0
LINE
8
DEFAULT_255_1_234
10
17.8967611
20
-0.4392621
11
17.9216595
21
-0.28184
0
LINE
8
DEFAULT_255_1_234
10
17.9216595
20
-0.28184
11
18.1031768
21
0.5181211
0
LINE
8
DEFAULT_255_1_234
10
18.1031768
20
0.5181211
11
18.2581894
21
0.5181211
0
LINE
8
DEFAULT_255_1_234
10
18.2581894
20
0.5181211
11
17.974669
21
-0.6513
0
LINE
8
DEFAULT_255_1_234
10
17.974669
20
-0.6513
11
17.8341136
21
-0.6513
0
LINE
8
DEFAULT_255_1_234
10
17.8341136
20
-0.6513
11
17.5931614
21
0.2008674
0
LINE
8
DEFAULT_255_1_234
10
17.5931614
20
0.2008674
11
17.5746884
21
0.2900197
0
LINE
8
DEFAULT_255_1_234
10
17.5746884
20
0.2900197
11
17.5562154
21
0.2008674
0
LINE
8
DEFAULT_255_1_234
10
17.5562154
20
0.2008674
11
17.3064284
21
-0.6513
0
LINE
8
DEFAULT_255_1_234
10
17.3064284
20
-0.6513
11
17.1658729
21
-0.6513
0
LINE
8
DEFAULT_255_1_234
10
17.1658729
20
-0.6513
11
16.8831558
21
0.5181211
0
LINE
8
DEFAULT_255_1_234
10
16.8831558
20
0.5181211
11
17.0373651
21
0.5181211
0
LINE
8
DEFAULT_255_1_234
10
19.3280169
20
0.5181211
11
19.3280169
21
-0.6513
0
LINE
8
DEFAULT_255_1_234
10
19.3280169
20
-0.6513
11
19.1730043
21
-0.6513
0
LINE
8
DEFAULT_255_1_234
10
19.1730043
20
-0.6513
11
18.5842779
21
0.249861
0
LINE
8
DEFAULT_255_1_234
10
18.5842779
20
0.249861
11
18.5842779
21
-0.6513
0
LINE
8
DEFAULT_255_1_234
10
18.5842779
20
-0.6513
11
18.4292654
21
-0.6513
0
LINE
8
DEFAULT_255_1_234
10
18.4292654
20
-0.6513
11
18.4292654
21
0.5181211
0
LINE
8
DEFAULT_255_1_234
10
18.4292654
20
0.5181211
11
18.5842779
21
0.5181211
0
LINE
8
DEFAULT_255_1_234
10
18.5842779
20
0.5181211
11
19.1746107
21
-0.3870558
0
LINE
8
DEFAULT_255_1_234
10
19.1746107
20
-0.3870558
11
19.1746107
21
0.5181211
0
LINE
8
DEFAULT_255_1_234
10
19.1746107
20
0.5181211
11
19.3280169
21
0.5181211
0
LINE
8
DEFAULT_255_1_234
10
11.7326657
20
229.4998565
11
11.7326657
21
229.4251614
0
LINE
8
DEFAULT_255_1_234
10
11.5278563
20
228.9416507
11
11.7366815
21
228.7778033
0
LINE
8
DEFAULT_255_1_234
10
11.7366815
20
228.7778033
11
11.6314658
21
228.6806192
0
LINE
8
DEFAULT_255_1_234
10
11.6314658
20
228.6806192
11
11.3848914
21
228.8765937
0
LINE
8
DEFAULT_255_1_234
10
10.7913459
20
229.4147201
11
10.7913459
21
229.4990534
0
LINE
8
DEFAULT_255_1_234
10
11.5784563
20
229.4139169
11
11.5784563
21
229.5006597
0
LINE
8
DEFAULT_255_1_234
10
10.9455553
20
229.511101
11
10.9455553
21
229.4251614
0
ARC
8
DEFAULT_255_1_234
10
10.8372909
20
229.4212707
40
0.8953833
50
351.453011
51
0.2489685
0
ARC
8
DEFAULT_255_1_234
10
11.0957709
20
229.3812933
40
0.6338333
50
338.6861641
51
351.5540711
0
ARC
8
DEFAULT_255_1_234
10
11.1891593
20
229.3482828
40
0.5348431
50
336.2887631
51
338.3442418
0
ARC
8
DEFAULT_255_1_234
10
11.2231215
20
229.3296698
40
0.4962747
50
321.1170344
51
336.6795229
0
ARC
8
DEFAULT_255_1_234
10
11.2863044
20
229.2810206
40
0.4165565
50
305.4419708
51
320.8705636
0
ARC
8
DEFAULT_255_1_234
10
11.2666514
20
229.3557707
40
0.4935497
50
271.6373023
51
283.8611969
0
ARC
8
DEFAULT_255_1_234
10
11.2628767
20
229.4213572
40
0.5592206
50
269.9930596
51
271.8318864
0
ARC
8
DEFAULT_255_1_234
10
11.259121
20
229.3405681
40
0.4784458
50
252.5219675
51
270.4416499
0
ARC
8
DEFAULT_255_1_234
10
11.2447469
20
229.2866592
40
0.422716
50
237.5352116
51
252.1857531
0
ARC
8
DEFAULT_255_1_234
10
11.2536665
20
229.2980363
40
0.4371052
50
209.063312
51
237.3492538
0
ARC
8
DEFAULT_255_1_234
10
11.3406513
20
229.3526685
40
0.5397041
50
205.1183774
51
209.6470015
0
ARC
8
DEFAULT_255_1_234
10
11.420355
20
229.386483
40
0.6262326
50
188.7215458
51
204.8240747
0
ARC
8
DEFAULT_255_1_234
10
11.6201078
20
229.4201067
40
0.8287794
50
180.3723947
51
188.9252049
0
ARC
8
DEFAULT_255_1_234
10
11.617383
20
229.5030402
40
0.8260467
50
169.5253763
51
180.2765336
0
ARC
8
DEFAULT_255_1_234
10
11.4271279
20
229.5380309
40
0.6326007
50
155.8315255
51
169.5089989
0
ARC
8
DEFAULT_255_1_234
10
11.299078
20
229.5974348
40
0.4914567
50
139.6258461
51
156.0379525
0
ARC
8
DEFAULT_255_1_234
10
11.2401113
20
229.6448799
40
0.4158054
50
122.6416387
51
139.3430715
0
ARC
8
DEFAULT_255_1_234
10
11.2501733
20
229.6265451
40
0.4366739
50
93.0223692
51
122.455762
0
ARC
8
DEFAULT_255_1_234
10
11.260973
20
229.5300709
40
0.5336137
50
89.975342
51
93.6341897
0
ARC
8
DEFAULT_255_1_234
10
11.2648616
20
229.5680375
40
0.4956606
50
73.9665422
51
90.4229648
0
ARC
8
DEFAULT_255_1_234
10
11.2832263
20
229.6395451
40
0.4218674
50
57.5178019
51
73.6813337
0
ARC
8
DEFAULT_255_1_234
10
11.2788046
20
229.6359462
40
0.4272816
50
28.7261108
51
57.2767933
0
ARC
8
DEFAULT_255_1_234
10
11.1877378
20
229.5796688
40
0.534218
50
24.2448911
51
29.3248482
0
ARC
8
DEFAULT_255_1_234
10
11.0951479
20
229.5413819
40
0.6343711
50
9.064382
51
23.9639114
0
ARC
8
DEFAULT_255_1_234
10
10.8695807
20
229.5034925
40
0.8630926
50
359.7586264
51
9.1891435
0
ARC
8
DEFAULT_255_1_234
10
10.7441287
20
229.5048343
40
0.834338
50
359.7133237
51
7.96545
0
ARC
8
DEFAULT_255_1_234
10
11.0403504
20
229.5475681
40
0.5350538
50
7.8291991
51
20.0421623
0
ARC
8
DEFAULT_255_1_234
10
11.2028067
20
229.6066606
40
0.3621841
50
20.0677553
51
35.9161685
0
ARC
8
DEFAULT_255_1_234
10
11.2803105
20
229.664267
40
0.2656263
50
35.6594382
51
85.1578074
0
ARC
8
DEFAULT_255_1_234
10
11.2618361
20
229.5527378
40
0.3784238
50
83.7959068
51
90.095906
0
ARC
8
DEFAULT_255_1_234
10
11.2575295
20
229.6260601
40
0.3051229
50
89.3102392
51
109.9889877
0
ARC
8
DEFAULT_255_1_234
10
11.2492778
20
229.6616433
40
0.2688988
50
110.9285147
51
143.9411762
0
ARC
8
DEFAULT_255_1_234
10
11.3423724
20
229.5904236
40
0.3860887
50
143.5289163
51
163.2980757
0
ARC
8
DEFAULT_255_1_234
10
11.5331545
20
229.5304433
40
0.5860659
50
163.0418846
51
174.3140048
0
ARC
8
DEFAULT_255_1_234
10
11.7735657
20
229.5026854
40
0.8280531
50
174.0509143
51
179.4176892
0
ARC
8
DEFAULT_255_1_234
10
11.7221992
20
229.4208634
40
0.7766558
50
179.6829237
51
188.9631324
0
ARC
8
DEFAULT_255_1_234
10
11.4551553
20
229.3773752
40
0.5060992
50
188.8100743
51
202.9300012
0
ARC
8
DEFAULT_255_1_234
10
11.3335182
20
229.3278855
40
0.3747967
50
203.2069261
51
215.7876482
0
ARC
8
DEFAULT_255_1_234
10
11.2486579
20
229.2607671
40
0.2667526
50
214.7521006
51
264.2834488
0
ARC
8
DEFAULT_255_1_234
10
11.2622234
20
229.346278
40
0.3532247
50
263.4755397
51
270.0949833
0
ARC
8
DEFAULT_255_1_234
10
11.2664345
20
229.3201374
40
0.3271036
50
269.3649385
51
287.5152008
0
ARC
8
DEFAULT_255_1_234
10
11.2842503
20
229.2554238
40
0.2600406
50
288.0630309
51
323.8113348
0
ARC
8
DEFAULT_255_1_234
10
11.1971345
20
229.3204049
40
0.3687189
50
323.6547608
51
342.6590488
0
ARC
8
DEFAULT_255_1_234
10
10.993996
20
229.3864952
40
0.5823286
50
342.4091907
51
353.6451149
0
ARC
8
DEFAULT_255_1_234
10
10.7108471
20
229.421719
40
0.8676442
50
353.4029884
51
359.4847795
0
LINE
8
DEFAULT_255_1_234
10
12.6635441
20
229.4356026
11
12.6635441
21
229.3143234
0
LINE
8
DEFAULT_255_1_234
10
12.6635441
20
229.3143234
11
12.2715953
21
229.3143234
0
LINE
8
DEFAULT_255_1_234
10
12.2715953
20
229.3143234
11
12.2715953
21
229.4356026
0
LINE
8
DEFAULT_255_1_234
10
12.2715953
20
229.4356026
11
12.6635441
21
229.4356026
0
LINE
8
DEFAULT_255_1_234
10
14.0144825
20
229.7094849
11
13.85947
21
229.7094849
0
LINE
8
DEFAULT_255_1_234
10
13.1671341
20
229.2171394
11
13.3221467
21
229.2171394
0
ARC
8
DEFAULT_255_1_234
10
13.9253513
20
230.6041768
40
1.252368
50
248.9199003
51
254.1439814
0
ARC
8
DEFAULT_255_1_234
10
13.7573007
20
230.1715234
40
0.788226
50
241.633709
51
249.0064503
0
ARC
8
DEFAULT_255_1_234
10
13.6044402
20
229.8914317
40
0.4691427
50
230.498225
51
241.8087113
0
ARC
8
DEFAULT_255_1_234
10
13.5259976
20
229.7914906
40
0.3421437
50
227.4064532
51
229.9881192
0
ARC
8
DEFAULT_255_1_234
10
13.4772497
20
229.7439088
40
0.2741476
50
200.6781896
51
228.1763934
0
ARC
8
DEFAULT_255_1_234
10
13.4844807
20
229.7424077
40
0.2804109
50
179.5061581
51
199.8694617
0
ARC
8
DEFAULT_255_1_234
10
13.4835559
20
229.749821
40
0.2795204
50
132.4834203
51
181.0242172
0
ARC
8
DEFAULT_255_1_234
10
13.5431141
20
229.6935704
40
0.3612768
50
129.2532479
51
133.4242687
0
ARC
8
DEFAULT_255_1_234
10
13.5577591
20
229.6715965
40
0.3875675
50
101.98776
51
128.8742646
0
ARC
8
DEFAULT_255_1_234
10
13.5976202
20
229.4994741
40
0.5642249
50
89.5906553
51
102.3169264
0
ARC
8
DEFAULT_255_1_234
10
13.6046694
20
229.5313148
40
0.5323783
50
77.2360837
51
90.3248275
0
ARC
8
DEFAULT_255_1_234
10
13.6253773
20
229.62804
40
0.4334697
50
63.837784
51
77.0809408
0
ARC
8
DEFAULT_255_1_234
10
13.6531535
20
229.6797911
40
0.3747796
50
45.9864267
51
64.1607727
0
ARC
8
DEFAULT_255_1_234
10
13.6792416
20
229.7095866
40
0.3352302
50
32.2747395
51
45.6547121
0
ARC
8
DEFAULT_255_1_234
10
13.6858857
20
229.711488
40
0.328603
50
359.6507365
51
32.6130309
0
ARC
8
DEFAULT_255_1_234
10
13.5915952
20
229.711966
40
0.2678863
50
359.469343
51
14.9832209
0
ARC
8
DEFAULT_255_1_234
10
13.6621014
20
229.7308539
40
0.1948938
50
14.9781179
51
48.2004265
0
ARC
8
DEFAULT_255_1_234
10
13.6456658
20
229.7101983
40
0.2212521
50
48.5927837
51
74.1241538
0
ARC
8
DEFAULT_255_1_234
10
13.6123148
20
229.6001248
40
0.3362561
50
73.7888341
51
86.6652678
0
ARC
8
DEFAULT_255_1_234
10
13.6020714
20
229.4793881
40
0.4573953
50
86.2640471
51
90.0526343
0
ARC
8
DEFAULT_255_1_234
10
13.5992426
20
229.5189192
40
0.4178709
50
89.6697524
51
99.2309573
0
ARC
8
DEFAULT_255_1_234
10
13.5749877
20
229.6633964
40
0.2713749
50
99.069534
51
113.7658566
0
ARC
8
DEFAULT_255_1_234
10
13.5476068
20
229.7279677
40
0.2012469
50
114.0401004
51
127.9850673
0
ARC
8
DEFAULT_255_1_234
10
13.5235632
20
229.757573
40
0.1631167
50
127.7287463
51
176.7105154
0
ARC
8
DEFAULT_255_1_234
10
13.5914349
20
229.7474693
40
0.2315392
50
175.1779447
51
180.0581938
0
ARC
8
DEFAULT_255_1_234
10
13.5071196
20
229.7462428
40
0.1472271
50
179.6142195
51
228.1246017
0
ARC
8
DEFAULT_255_1_234
10
13.5512865
20
229.7871308
40
0.2072299
50
226.5779593
51
230.8800004
0
ARC
8
DEFAULT_255_1_234
10
13.5983944
20
229.8496636
40
0.2854818
50
231.4635071
51
241.9260842
0
ARC
8
DEFAULT_255_1_234
10
13.7181122
20
230.06998
40
0.53622
50
241.7178533
51
248.3259551
0
ARC
8
DEFAULT_255_1_234
10
13.8566493
20
230.4132064
40
0.9063478
50
248.2007737
51
252.4528373
0
ARC
8
DEFAULT_255_1_234
10
13.9770218
20
230.7853441
40
1.2974635
50
252.3391078
51
254.3469452
0
ARC
8
DEFAULT_255_1_234
10
13.2227921
20
228.0876148
40
1.5037162
50
71.0197183
51
74.4087047
0
ARC
8
DEFAULT_255_1_234
10
13.3922606
20
228.5768111
40
0.9859993
50
66.1847285
51
71.086374
0
ARC
8
DEFAULT_255_1_234
10
13.5478918
20
228.92722
40
0.6025855
50
59.3536294
51
66.2691831
0
ARC
8
DEFAULT_255_1_234
10
13.6367571
20
229.0775609
40
0.4279449
50
49.1020879
51
59.3293958
0
ARC
8
DEFAULT_255_1_234
10
13.7186311
20
229.1708834
40
0.3038015
50
32.7919921
51
49.2505539
0
ARC
8
DEFAULT_255_1_234
10
13.7507401
20
229.1937191
40
0.264448
50
31.1181161
51
32.4005348
0
ARC
8
DEFAULT_255_1_234
10
13.7418938
20
229.1901779
40
0.2738556
50
8.1116974
51
30.7958831
0
ARC
8
DEFAULT_255_1_234
10
13.6608607
20
229.1763753
40
0.3560327
50
359.8389159
51
8.4706516
0
ARC
8
DEFAULT_255_1_234
10
13.7234398
20
229.1715137
40
0.2934776
50
337.4731098
51
0.7537279
0
ARC
8
DEFAULT_255_1_234
10
13.7413093
20
229.1695387
40
0.2762607
50
307.5917067
51
336.4315538
0
ARC
8
DEFAULT_255_1_234
10
13.6952921
20
229.2208102
40
0.3449979
50
307.6551545
51
308.4529766
0
ARC
8
DEFAULT_255_1_234
10
13.672264
20
229.256325
40
0.3871988
50
284.3734338
51
307.1424381
0
ARC
8
DEFAULT_255_1_234
10
13.622747
20
229.4384932
40
0.5759636
50
272.4382747
51
284.646547
0
ARC
8
DEFAULT_255_1_234
10
13.6100679
20
229.6184893
40
0.7563528
50
269.9708387
51
272.8178037
0
ARC
8
DEFAULT_255_1_234
10
13.6057718
20
229.4146716
40
0.5525489
50
248.2707594
51
270.4055579
0
ARC
8
DEFAULT_255_1_234
10
13.6003459
20
229.3956192
40
0.5328452
50
246.1383403
51
248.0542782
0
ARC
8
DEFAULT_255_1_234
10
13.5584838
20
229.3076843
40
0.4355005
50
233.1670131
51
246.4950969
0
ARC
8
DEFAULT_255_1_234
10
13.5030743
20
229.2328812
40
0.3424126
50
215.3403242
51
233.0843104
0
ARC
8
DEFAULT_255_1_234
10
13.4758175
20
229.2130549
40
0.3087104
50
179.2419209
51
215.2648451
0
ARC
8
DEFAULT_255_1_234
10
13.5525768
20
229.2144666
40
0.2304457
50
179.335461
51
199.1045811
0
ARC
8
DEFAULT_255_1_234
10
13.5193445
20
229.2057766
40
0.1962176
50
199.8828939
51
232.7063202
0
ARC
8
DEFAULT_255_1_234
10
13.5665713
20
229.2651788
40
0.2720938
50
232.3738199
51
255.5136649
0
ARC
8
DEFAULT_255_1_234
10
13.600658
20
229.3895835
40
0.4010747
50
255.2446292
51
267.5320849
0
ARC
8
DEFAULT_255_1_234
10
13.6094203
20
229.5128702
40
0.5246356
50
267.1557994
51
270.0286766
0
ARC
8
DEFAULT_255_1_234
10
13.6121976
20
229.468495
40
0.4802668
50
269.7000017
51
278.1660162
0
ARC
8
DEFAULT_255_1_234
10
13.637798
20
229.2954515
40
0.3053425
50
278.0231263
51
290.625471
0
ARC
8
DEFAULT_255_1_234
10
13.6725667
20
229.2027025
40
0.206291
50
290.6619762
51
307.0370976
0
ARC
8
DEFAULT_255_1_234
10
13.7026057
20
229.1658504
40
0.1587906
50
306.3943566
51
355.3030547
0
ARC
8
DEFAULT_255_1_234
10
13.6513988
20
229.1735113
40
0.2104809
50
354.3660432
51
0.0698737
0
ARC
8
DEFAULT_255_1_234
10
13.6656333
20
229.1757617
40
0.1962563
50
359.417946
51
16.1971788
0
ARC
8
DEFAULT_255_1_234
10
13.7111644
20
229.1882418
40
0.149053
50
16.4723299
51
52.6262157
0
ARC
8
DEFAULT_255_1_234
10
13.6290698
20
229.0798433
40
0.2850296
50
52.7386432
51
62.4979148
0
ARC
8
DEFAULT_255_1_234
10
13.4905774
20
228.8192283
40
0.5801521
50
62.2515216
51
68.1220564
0
ARC
8
DEFAULT_255_1_234
10
13.3185685
20
228.3964872
40
1.0365451
50
68.0062803
51
71.8053402
0
ARC
8
DEFAULT_255_1_234
10
13.1390057
20
227.8579758
40
1.6042013
50
71.7183119
51
73.9258742
0
LINE
8
DEFAULT_255_1_234
10
14.1534316
20
229.2886218
11
14.1534316
21
229.3159297
0
LINE
8
DEFAULT_255_1_234
10
14.8907452
20
229.3319932
11
14.8907452
21
229.2701488
0
LINE
8
DEFAULT_255_1_234
10
14.8907452
20
229.2701488
11
14.3020188
21
229.2701488
0
LINE
8
DEFAULT_255_1_234
10
14.7887421
20
229.1006792
11
14.8795007
21
229.0299999
0
LINE
8
DEFAULT_255_1_234
10
14.3068378
20
229.3922313
11
14.742158
21
229.3922313
0
LINE
8
DEFAULT_255_1_234
10
14.742158
20
229.3922313
11
14.742158
21
229.4034757
0
ARC
8
DEFAULT_255_1_234
10
14.5473681
20
229.2997332
40
0.4376191
50
252.3266134
51
270.5810217
0
ARC
8
DEFAULT_255_1_234
10
14.526877
20
229.2256644
40
0.3608374
50
223.3000567
51
251.8561855
0
ARC
8
DEFAULT_255_1_234
10
14.5480131
20
229.2461937
40
0.3902993
50
190.9374509
51
223.3654032
0
ARC
8
DEFAULT_255_1_234
10
14.7205103
20
229.2851885
40
0.5670891
50
179.6531105
51
191.4989439
0
ARC
8
DEFAULT_255_1_234
10
14.7327115
20
229.3191417
40
0.5792888
50
167.4007466
51
180.3176909
0
ARC
8
DEFAULT_255_1_234
10
14.6275177
20
229.3413885
40
0.471777
50
154.1835823
51
167.250763
0
ARC
8
DEFAULT_255_1_234
10
14.5643644
20
229.3746417
40
0.4004528
50
134.3149965
51
154.5315275
0
ARC
8
DEFAULT_255_1_234
10
14.5426139
20
229.3937228
40
0.371612
50
122.8616532
51
133.9707695
0
ARC
8
DEFAULT_255_1_234
10
14.5322714
20
229.4159703
40
0.3473289
50
89.8249009
51
123.4199222
0
ARC
8
DEFAULT_255_1_234
10
14.5372755
20
229.3512967
40
0.4120197
50
74.7876118
51
90.5482747
0
ARC
8
DEFAULT_255_1_234
10
14.5666498
20
229.459803
40
0.2996077
50
39.8178249
51
74.7633718
0
ARC
8
DEFAULT_255_1_234
10
14.5153818
20
229.4198351
40
0.3645855
50
16.8990863
51
39.4829761
0
ARC
8
DEFAULT_255_1_234
10
14.3259114
20
229.3591526
40
0.5635218
50
4.9636328
51
17.2026414
0
ARC
8
DEFAULT_255_1_234
10
14.0841185
20
229.333634
40
0.8066286
50
359.8834553
51
5.2834307
0
ARC
8
DEFAULT_255_1_234
10
14.6878709
20
229.2767803
40
0.3859091
50
180.9846213
51
194.9401313
0
ARC
8
DEFAULT_255_1_234
10
14.5828987
20
229.2480849
40
0.2770883
50
194.80314
51
222.0412631
0
ARC
8
DEFAULT_255_1_234
10
14.5524869
20
229.2179116
40
0.2343055
50
221.5417084
51
268.8614402
0
ARC
8
DEFAULT_255_1_234
10
14.5597863
20
229.2855686
40
0.3021528
50
267.732405
51
270.0097136
0
ARC
8
DEFAULT_255_1_234
10
14.5615673
20
229.3057105
40
0.3222994
50
269.6924892
51
280.4117579
0
ARC
8
DEFAULT_255_1_234
10
14.579208
20
229.2138193
40
0.2287344
50
280.2255091
51
298.6338936
0
ARC
8
DEFAULT_255_1_234
10
14.5908872
20
229.1894223
40
0.2017294
50
299.0430333
51
300.4643464
0
ARC
8
DEFAULT_255_1_234
10
14.5228878
20
229.3028038
40
0.3339357
50
300.6577328
51
322.0378878
0
ARC
8
DEFAULT_255_1_234
10
14.4878417
20
229.3332021
40
0.3802736
50
321.6750233
51
322.3046845
0
ARC
8
DEFAULT_255_1_234
10
14.5809378
20
229.216537
40
0.3520454
50
276.9728461
51
328.0035423
0
ARC
8
DEFAULT_255_1_234
10
14.5532431
20
229.3645841
40
0.5024498
50
269.8361028
51
278.0581756
0
ARC
8
DEFAULT_255_1_234
10
14.5305168
20
229.4390757
40
0.202159
50
89.2018686
51
117.2851756
0
ARC
8
DEFAULT_255_1_234
10
14.5358337
20
229.4348752
40
0.2083484
50
118.0551165
51
137.4540413
0
ARC
8
DEFAULT_255_1_234
10
14.5733077
20
229.4008304
40
0.2589774
50
137.5109581
51
158.8516286
0
ARC
8
DEFAULT_255_1_234
10
14.6870913
20
229.3549074
40
0.38167
50
158.5845963
51
170.1721436
0
ARC
8
DEFAULT_255_1_234
10
14.8040302
20
229.3316823
40
0.5008657
50
169.8376422
51
173.0566086
0
ARC
8
DEFAULT_255_1_234
10
14.3343376
20
229.3827509
40
0.4083467
50
2.9091802
51
12.8847116
0
ARC
8
DEFAULT_255_1_234
10
14.4714053
20
229.4150101
40
0.2675383
50
12.6957781
51
28.6404489
0
ARC
8
DEFAULT_255_1_234
10
14.5255723
20
229.4430458
40
0.2065654
50
29.0169854
51
41.1487595
0
ARC
8
DEFAULT_255_1_234
10
14.5458509
20
229.4607003
40
0.1796786
50
41.1646065
51
85.0013516
0
ARC
8
DEFAULT_255_1_234
10
14.5337605
20
229.3872431
40
0.2539726
50
83.7280015
51
90.0964893
0
LINE
8
DEFAULT_255_1_234
10
15.4826843
20
229.7520531
11
15.4826843
21
229.6139072
0
LINE
8
DEFAULT_255_1_234
10
15.2112115
20
229.4950375
11
15.2112115
21
228.8782
0
LINE
8
DEFAULT_255_1_234
10
15.2112115
20
228.8782
11
15.0626244
21
228.8782
0
LINE
8
DEFAULT_255_1_234
10
15.0626244
20
228.8782
11
15.0626244
21
229.7472341
0
LINE
8
DEFAULT_255_1_234
10
15.0626244
20
229.7472341
11
15.2071957
21
229.7472341
0
LINE
8
DEFAULT_255_1_234
10
15.2071957
20
229.7472341
11
15.2096052
21
229.6468374
0
ARC
8
DEFAULT_255_1_234
10
15.4160248
20
229.2079342
40
0.4114092
50
80.6754243
51
86.8932892
0
ARC
8
DEFAULT_255_1_234
10
15.4099783
20
229.11117
40
0.5083596
50
86.8038578
51
90.0431435
0
ARC
8
DEFAULT_255_1_234
10
15.4062763
20
229.3568866
40
0.2626638
50
89.2759698
51
106.6213787
0
ARC
8
DEFAULT_255_1_234
10
15.3858327
20
229.431183
40
0.1856317
50
107.1346045
51
157.6458115
0
ARC
8
DEFAULT_255_1_234
10
15.4549929
20
229.3928311
40
0.2643398
50
155.6586782
51
157.2539184
0
ARC
8
DEFAULT_255_1_234
10
15.4345131
20
229.5097157
40
0.2634121
50
127.8165941
51
148.6302098
0
ARC
8
DEFAULT_255_1_234
10
15.40916
20
229.5357218
40
0.2273596
50
91.3329982
51
126.7875809
0
ARC
8
DEFAULT_255_1_234
10
15.416754
20
229.4642195
40
0.299078
50
89.986594
51
92.4688449
0
ARC
8
DEFAULT_255_1_234
10
15.4175935
20
229.4917078
40
0.2715908
50
85.3589899
51
90.1623399
0
ARC
8
DEFAULT_255_1_234
10
15.4260451
20
229.5921164
40
0.1708278
50
78.401942
51
85.4594656
0
ARC
8
DEFAULT_255_1_234
10
15.4405335
20
229.6612236
40
0.1002194
50
67.7858312
51
78.5728455
0
ARC
8
DEFAULT_255_1_234
10
15.4513188
20
229.6891887
40
0.0702548
50
63.4835954
51
67.3062642
0
LINE
8
DEFAULT_255_1_234
10
15.7806618
20
229.7472341
11
15.7806618
21
228.8782
0
LINE
8
DEFAULT_255_1_234
10
15.7806618
20
228.8782
11
15.6320746
21
228.8782
0
LINE
8
DEFAULT_255_1_234
10
15.6320746
20
228.8782
11
15.6320746
21
229.7472341
0
LINE
8
DEFAULT_255_1_234
10
15.6320746
20
229.7472341
11
15.7806618
21
229.7472341
0
ARC
8
DEFAULT_255_1_234
10
15.7178895
20
229.9786889
40
0.097867
50
161.415052
51
180.5526306
0
ARC
8
DEFAULT_255_1_234
10
15.7054673
20
229.9821077
40
0.0850062
50
138.1827368
51
160.9307106
0
ARC
8
DEFAULT_255_1_234
10
15.6944619
20
229.9916588
40
0.0704362
50
104.6368899
51
138.0039868
0
ARC
8
DEFAULT_255_1_234
10
15.7051773
20
229.9549963
40
0.1086221
50
92.0600725
51
105.2189128
0
ARC
8
DEFAULT_255_1_234
10
15.7075122
20
229.9207117
40
0.1429728
50
89.9756393
51
92.5012496
0
ARC
8
DEFAULT_255_1_234
10
15.7085141
20
229.9432731
40
0.1204151
50
78.0235316
51
90.4478182
0
ARC
8
DEFAULT_255_1_234
10
15.7177233
20
229.9846295
40
0.0780493
50
55.051506
51
78.3369085
0
ARC
8
DEFAULT_255_1_234
10
15.7227507
20
229.9930711
40
0.0682538
50
42.0501187
51
54.4513741
0
ARC
8
DEFAULT_255_1_234
10
15.7092374
20
229.9806798
40
0.0865878
50
1.7497075
51
42.1496013
0
ARC
8
DEFAULT_255_1_234
10
15.6837707
20
229.9777738
40
0.1121515
50
359.9852656
51
2.8364544
0
ARC
8
DEFAULT_255_1_234
10
15.7003699
20
229.9768229
40
0.0955566
50
342.1070653
51
0.552888
0
ARC
8
DEFAULT_255_1_234
10
15.7146397
20
229.9728904
40
0.0807713
50
316.7107116
51
341.6516965
0
ARC
8
DEFAULT_255_1_234
10
15.7213434
20
229.9668823
40
0.0717724
50
285.4397031
51
316.5324284
0
ARC
8
DEFAULT_255_1_234
10
15.7103351
20
230.0034554
40
0.1099597
50
272.3547054
51
285.8953117
0
ARC
8
DEFAULT_255_1_234
10
15.7076509
20
230.0400048
40
0.1465932
50
269.9695369
51
272.8160237
0
ARC
8
DEFAULT_255_1_234
10
15.706669
20
230.0180863
40
0.1246779
50
258.8431134
51
270.4153935
0
ARC
8
DEFAULT_255_1_234
10
15.6976733
20
229.9745414
40
0.0802162
50
238.5431189
51
259.1288175
0
ARC
8
DEFAULT_255_1_234
10
15.6908618
20
229.9621856
40
0.0661247
50
222.5062634
51
237.9906969
0
ARC
8
DEFAULT_255_1_234
10
15.7036205
20
229.9737889
40
0.0833707
50
184.1069131
51
222.460413
0
ARC
8
DEFAULT_255_1_234
10
15.7305446
20
229.9776349
40
0.1105176
50
179.9429482
51
185.0960898
0
LINE
8
DEFAULT_255_1_234
10
15.9806521
20
229.2886218
11
15.9806521
21
229.3159297
0
LINE
8
DEFAULT_255_1_234
10
16.7179656
20
229.3319932
11
16.7179656
21
229.2701488
0
LINE
8
DEFAULT_255_1_234
10
16.7179656
20
229.2701488
11
16.1292392
21
229.2701488
0
LINE
8
DEFAULT_255_1_234
10
16.6159625
20
229.1006792
11
16.7067212
21
229.0299999
0
LINE
8
DEFAULT_255_1_234
10
16.1340583
20
229.3922313
11
16.5693785
21
229.3922313
0
LINE
8
DEFAULT_255_1_234
10
16.5693785
20
229.3922313
11
16.5693785
21
229.4034757
0
ARC
8
DEFAULT_255_1_234
10
16.3745886
20
229.2997332
40
0.4376191
50
252.3266134
51
270.5810217
0
ARC
8
DEFAULT_255_1_234
10
16.3540975
20
229.2256644
40
0.3608374
50
223.3000567
51
251.8561855
0
ARC
8
DEFAULT_255_1_234
10
16.3752335
20
229.2461937
40
0.3902993
50
190.9374509
51
223.3654032
0
ARC
8
DEFAULT_255_1_234
10
16.5477308
20
229.2851885
40
0.5670891
50
179.6531105
51
191.4989439
0
ARC
8
DEFAULT_255_1_234
10
16.559932
20
229.3191417
40
0.5792888
50
167.4007466
51
180.3176909
0
ARC
8
DEFAULT_255_1_234
10
16.4547381
20
229.3413885
40
0.471777
50
154.1835823
51
167.250763
0
ARC
8
DEFAULT_255_1_234
10
16.3915849
20
229.3746417
40
0.4004528
50
134.3149965
51
154.5315275
0
ARC
8
DEFAULT_255_1_234
10
16.3698344
20
229.3937228
40
0.371612
50
122.8616532
51
133.9707695
0
ARC
8
DEFAULT_255_1_234
10
16.3594918
20
229.4159703
40
0.3473289
50
89.8249009
51
123.4199222
0
ARC
8
DEFAULT_255_1_234
10
16.3644959
20
229.3512967
40
0.4120197
50
74.7876118
51
90.5482747
0
ARC
8
DEFAULT_255_1_234
10
16.3938702
20
229.459803
40
0.2996077
50
39.8178249
51
74.7633718
0
ARC
8
DEFAULT_255_1_234
10
16.3426023
20
229.4198351
40
0.3645855
50
16.8990863
51
39.4829761
0
ARC
8
DEFAULT_255_1_234
10
16.1531319
20
229.3591526
40
0.5635218
50
4.9636328
51
17.2026414
0
ARC
8
DEFAULT_255_1_234
10
15.9113389
20
229.333634
40
0.8066286
50
359.8834553
51
5.2834307
0
ARC
8
DEFAULT_255_1_234
10
16.5150914
20
229.2767803
40
0.3859091
50
180.9846213
51
194.9401313
0
ARC
8
DEFAULT_255_1_234
10
16.4101191
20
229.2480849
40
0.2770883
50
194.80314
51
222.0412631
0
ARC
8
DEFAULT_255_1_234
10
16.3797073
20
229.2179116
40
0.2343055
50
221.5417084
51
268.8614402
0
ARC
8
DEFAULT_255_1_234
10
16.3870068
20
229.2855686
40
0.3021528
50
267.732405
51
270.0097136
0
ARC
8
DEFAULT_255_1_234
10
16.3887878
20
229.3057105
40
0.3222994
50
269.6924892
51
280.4117579
0
ARC
8
DEFAULT_255_1_234
10
16.4064285
20
229.2138193
40
0.2287344
50
280.2255091
51
298.6338936
0
ARC
8
DEFAULT_255_1_234
10
16.4181077
20
229.1894223
40
0.2017294
50
299.0430333
51
300.4643464
0
ARC
8
DEFAULT_255_1_234
10
16.3501082
20
229.3028038
40
0.3339357
50
300.6577328
51
322.0378878
0
ARC
8
DEFAULT_255_1_234
10
16.3150621
20
229.3332021
40
0.3802736
50
321.6750233
51
322.3046845
0
ARC
8
DEFAULT_255_1_234
10
16.4081583
20
229.216537
40
0.3520454
50
276.9728461
51
328.0035423
0
ARC
8
DEFAULT_255_1_234
10
16.3804635
20
229.3645841
40
0.5024498
50
269.8361028
51
278.0581756
0
ARC
8
DEFAULT_255_1_234
10
16.3577373
20
229.4390757
40
0.202159
50
89.2018686
51
117.2851756
0
ARC
8
DEFAULT_255_1_234
10
16.3630542
20
229.4348752
40
0.2083484
50
118.0551165
51
137.4540413
0
ARC
8
DEFAULT_255_1_234
10
16.4005282
20
229.4008304
40
0.2589774
50
137.5109581
51
158.8516286
0
ARC
8
DEFAULT_255_1_234
10
16.5143117
20
229.3549074
40
0.38167
50
158.5845963
51
170.1721436
0
ARC
8
DEFAULT_255_1_234
10
16.6312507
20
229.3316823
40
0.5008657
50
169.8376422
51
173.0566086
0
ARC
8
DEFAULT_255_1_234
10
16.1615581
20
229.3827509
40
0.4083467
50
2.9091802
51
12.8847116
0
ARC
8
DEFAULT_255_1_234
10
16.2986257
20
229.4150101
40
0.2675383
50
12.6957781
51
28.6404489
0
ARC
8
DEFAULT_255_1_234
10
16.3527928
20
229.4430458
40
0.2065654
50
29.0169854
51
41.1487595
0
ARC
8
DEFAULT_255_1_234
10
16.3730713
20
229.4607003
40
0.1796786
50
41.1646065
51
85.0013516
0
ARC
8
DEFAULT_255_1_234
10
16.360981
20
229.3872431
40
0.2539726
50
83.7280015
51
90.0964893
0
LINE
8
DEFAULT_255_1_234
10
17.5363998
20
229.4918248
11
17.3870094
21
229.4918248
0
LINE
8
DEFAULT_255_1_234
10
16.853702
20
229.1456569
11
17.0022892
21
229.1456569
0
ARC
8
DEFAULT_255_1_234
10
17.2681913
20
229.1101959
40
0.1276617
50
359.3334982
51
18.5871358
0
ARC
8
DEFAULT_255_1_234
10
17.289055
20
229.1157133
40
0.1061371
50
19.3540742
51
54.6485071
0
ARC
8
DEFAULT_255_1_234
10
17.2386452
20
229.0461919
40
0.1920087
50
54.3827097
51
65.0622807
0
ARC
8
DEFAULT_255_1_234
10
17.1617848
20
228.88449
40
0.3710447
50
64.8282493
51
71.4200025
0
ARC
8
DEFAULT_255_1_234
10
17.0715724
20
228.6198107
40
0.6506741
50
71.3164301
51
75.8006402
0
ARC
8
DEFAULT_255_1_234
10
16.9874544
20
228.2957561
40
0.9854641
50
75.6809531
51
78.0061883
0
ARC
8
DEFAULT_255_1_234
10
17.4323077
20
230.393677
40
1.1591028
50
254.6901892
51
258.0466452
0
ARC
8
DEFAULT_255_1_234
10
17.3284985
20
230.0177781
40
0.7691345
50
249.9010773
51
254.755261
0
ARC
8
DEFAULT_255_1_234
10
17.2281327
20
229.7451982
40
0.478665
50
243.3097214
51
249.9709442
0
ARC
8
DEFAULT_255_1_234
10
17.1652349
20
229.6197778
40
0.3383568
50
234.4047477
51
243.2862168
0
ARC
8
DEFAULT_255_1_234
10
17.1029872
20
229.5338232
40
0.2322322
50
220.8667099
51
234.5493881
0
ARC
8
DEFAULT_255_1_234
10
17.0687813
20
229.5026817
40
0.1859923
50
214.3062465
51
220.5065136
0
ARC
8
DEFAULT_255_1_234
10
17.0661892
20
229.499588
40
0.1821108
50
186.912965
51
213.9618616
0
ARC
8
DEFAULT_255_1_234
10
17.1193987
20
229.5082009
40
0.2359799
50
179.8808832
51
187.4339886
0
ARC
8
DEFAULT_255_1_234
10
17.103912
20
229.5102088
40
0.2204978
50
132.005434
51
180.3942919
0
ARC
8
DEFAULT_255_1_234
10
17.1695734
20
229.4496083
40
0.3095791
50
129.2319861
51
133.5302299
0
ARC
8
DEFAULT_255_1_234
10
17.1749242
20
229.4401928
40
0.3202615
50
100.4410011
51
128.9081242
0
ARC
8
DEFAULT_255_1_234
10
17.2023126
20
229.3116455
40
0.4516583
50
89.6985377
51
100.9026564
0
ARC
8
DEFAULT_255_1_234
10
17.2080168
20
229.2956166
40
0.4676928
50
77.6965325
51
90.4076836
0
ARC
8
DEFAULT_255_1_234
10
17.2411152
20
229.4383413
40
0.3211988
50
50.7276602
51
78.0399361
0
ARC
8
DEFAULT_255_1_234
10
17.285561
20
229.4901296
40
0.2529778
50
25.7545084
51
51.0957453
0
ARC
8
DEFAULT_255_1_234
10
17.2856835
20
229.4951206
40
0.250738
50
359.2468627
51
24.7394243
0
ARC
8
DEFAULT_255_1_234
10
17.2572287
20
229.4922664
40
0.1297815
50
359.8050318
51
45.1544908
0
ARC
8
DEFAULT_255_1_234
10
17.2165429
20
229.4574794
40
0.1831883
50
43.8047702
51
49.6271585
0
ARC
8
DEFAULT_255_1_234
10
17.217333
20
229.4575678
40
0.18261
50
49.7980766
51
82.1218353
0
ARC
8
DEFAULT_255_1_234
10
17.2054302
20
229.3928998
40
0.2483163
50
81.4465357
51
90.1710293
0
ARC
8
DEFAULT_255_1_234
10
17.2029905
20
229.340288
40
0.300932
50
89.6766211
51
99.1264602
0
ARC
8
DEFAULT_255_1_234
10
17.1858367
20
229.4436537
40
0.1961547
50
98.968313
51
113.4570237
0
ARC
8
DEFAULT_255_1_234
10
17.1662452
20
229.4904965
40
0.1453859
50
113.722589
51
127.4763106
0
ARC
8
DEFAULT_255_1_234
10
17.1494098
20
229.5105124
40
0.1192639
50
126.9083309
51
150.3165862
0
ARC
8
DEFAULT_255_1_234
10
17.1446431
20
229.5155981
40
0.112623
50
151.3635175
51
180.0701457
0
ARC
8
DEFAULT_255_1_234
10
17.1755215
20
229.513499
40
0.1435149
50
179.2169974
51
179.9954013
0
ARC
8
DEFAULT_255_1_234
10
17.1394273
20
229.5122056
40
0.1074286
50
179.3040112
51
198.4225446
0
ARC
8
DEFAULT_255_1_234
10
17.1202406
20
229.5072127
40
0.0876573
50
199.2895851
51
238.6034594
0
ARC
8
DEFAULT_255_1_234
10
17.1805253
20
229.601845
40
0.1998512
50
237.9846301
51
246.8744712
0
ARC
8
DEFAULT_255_1_234
10
17.2663198
20
229.7981205
40
0.4140547
50
246.6234531
51
251.8168941
0
ARC
8
DEFAULT_255_1_234
10
17.3693741
20
230.1075905
40
0.7402308
50
251.713434
51
255.0778414
0
ARC
8
DEFAULT_255_1_234
10
17.4893004
20
230.5542563
40
1.2027155
50
255.0367487
51
257.4705983
0
ARC
8
DEFAULT_255_1_234
10
16.9785014
20
228.2528863
40
1.1546601
50
73.6837552
51
77.5016755
0
ARC
8
DEFAULT_255_1_234
10
17.0873789
20
228.6228581
40
0.7690009
50
68.7044154
51
73.7249639
0
ARC
8
DEFAULT_255_1_234
10
17.1776809
20
228.8555654
40
0.5193873
50
63.590599
51
68.6626804
0
ARC
8
DEFAULT_255_1_234
10
17.2547828
20
229.0093123
40
0.3473927
50
54.7106439
51
63.7013633
0
ARC
8
DEFAULT_255_1_234
10
17.3172283
20
229.09654
40
0.2401192
50
41.0622434
51
54.8487496
0
ARC
8
DEFAULT_255_1_234
10
17.3513669
20
229.1278592
40
0.1938094
50
34.4950568
51
40.7105546
0
ARC
8
DEFAULT_255_1_234
10
17.3560477
20
229.1327078
40
0.1872106
50
9.3763373
51
34.0833615
0
ARC
8
DEFAULT_255_1_234
10
17.2907347
20
229.1201728
40
0.2536988
50
359.7694872
51
9.7663171
0
ARC
8
DEFAULT_255_1_234
10
17.3104848
20
229.1158764
40
0.2339696
50
335.8654732
51
0.8022045
0
ARC
8
DEFAULT_255_1_234
10
17.3179892
20
229.1172197
40
0.2277108
50
307.7357725
51
334.7849066
0
ARC
8
DEFAULT_255_1_234
10
17.2779068
20
229.1622645
40
0.2878951
50
307.0241536
51
308.5578354
0
ARC
8
DEFAULT_255_1_234
10
17.2521399
20
229.2008801
40
0.3342515
50
282.9362969
51
306.5646424
0
ARC
8
DEFAULT_255_1_234
10
17.2159697
20
229.3476108
40
0.4853615
50
271.1026298
51
283.2200835
0
ARC
8
DEFAULT_255_1_234
10
17.2095941
20
229.4717418
40
0.6096052
50
269.9919117
51
271.4772449
0
ARC
8
DEFAULT_255_1_234
10
17.2069696
20
229.3639436
40
0.5018135
50
259.0723564
51
270.289833
0
ARC
8
DEFAULT_255_1_234
10
17.1857428
20
229.2522271
40
0.388099
50
245.4963068
51
259.0227342
0
ARC
8
DEFAULT_255_1_234
10
17.1579384
20
229.1940615
40
0.3236422
50
228.9684658
51
245.7044727
0
ARC
8
DEFAULT_255_1_234
10
17.1313828
20
229.1613575
40
0.2815426
50
214.4011705
51
228.6759915
0
ARC
8
DEFAULT_255_1_234
10
17.1024569
20
229.145529
40
0.2487548
50
179.9705531
51
215.1572795
0
ARC
8
DEFAULT_255_1_234
10
17.1725168
20
229.1528806
40
0.1703809
50
182.4299387
51
203.0329699
0
ARC
8
DEFAULT_255_1_234
10
17.1540826
20
229.1472396
40
0.1512226
50
203.798802
51
232.548466
0
ARC
8
DEFAULT_255_1_234
10
17.1817347
20
229.1823826
40
0.1959374
50
232.3782728
51
256.3934612
0
ARC
8
DEFAULT_255_1_234
10
17.2047709
20
229.2713842
40
0.2878639
50
256.104506
51
268.4626716
0
ARC
8
DEFAULT_255_1_234
10
17.2094193
20
229.3510487
40
0.3676329
50
268.0715632
51
270.0138206
0
ARC
8
DEFAULT_255_1_234
10
17.2112718
20
229.3238083
40
0.3403971
50
269.7031147
51
278.8341955
0
ARC
8
DEFAULT_255_1_234
10
17.2294811
20
229.2107876
40
0.2259217
50
278.6728789
51
292.8232582
0
ARC
8
DEFAULT_255_1_234
10
17.2495349
20
229.1606449
40
0.171929
50
293.1452328
51
303.6655899
0
ARC
8
DEFAULT_255_1_234
10
17.2760228
20
229.1230204
40
0.1259367
50
303.1248165
51
321.742847
0
ARC
8
DEFAULT_255_1_234
10
17.2946109
20
229.1067156
40
0.1012531
50
322.4748573
51
1.1291126
0
LINE
8
DEFAULT_255_2_778
10
10.5738396
20
231.4025073
11
9.3932396
21
231.4025073
0
LINE
8
DEFAULT_255_2_778
10
9.3932396
20
231.4025073
11
9.9837396
21
232.4251073
0
LINE
8
DEFAULT_255_2_778
10
9.9837396
20
232.4251073
11
11.1643396
21
232.4251073
0
LINE
8
DEFAULT_255_2_778
10
11.1643396
20
232.4251073
11
10.5738396
21
231.4025073
0
LINE
8
DEFAULT_255_2_778
10
10.5738396
20
231.4025073
11
10.5738396
21
231.4025073
0
LINE
8
DEFAULT_255_2_778
10
11.7546396
20
231.4025073
11
12.9354396
21
231.4025073
0
LINE
8
DEFAULT_255_2_778
10
12.9354396
20
231.4025073
11
12.3451396
21
232.4251073
0
LINE
8
DEFAULT_255_2_778
10
12.3451396
20
232.4251073
11
11.1643396
21
232.4251073
0
LINE
8
DEFAULT_255_2_778
10
11.1643396
20
232.4251073
11
11.7546396
21
231.4025073
0
LINE
8
DEFAULT_255_2_778
10
11.7546396
20
231.4025073
11
11.7546396
21
231.4025073
0
LINE
8
DEFAULT_255_2_778
10
11.7545823
20
233.4477146
11
11.1642823
21
234.4703146
0
LINE
8
DEFAULT_255_2_778
10
11.1642823
20
234.4703146
11
10.5737823
21
233.4477146
0
LINE
8
DEFAULT_255_2_778
10
10.5737823
20
233.4477146
11
11.1642823
21
232.4251146
0
LINE
8
DEFAULT_255_2_778
10
11.1642823
20
232.4251146
11
11.7545823
21
233.4477146
0
LINE
8
DEFAULT_255_2_778
10
11.7545823
20
233.4477146
11
11.7545823
21
233.4477146
0
ARC
8
DEFAULT_255_2_778
10
16.5183731
20
233.0939426
40
0.5650491
50
268.7543645
51
289.1417717
0
ARC
8
DEFAULT_255_2_778
10
16.606208
20
232.8387531
40
0.2951681
50
289.2776255
51
3.7648372
0
ARC
8
DEFAULT_255_2_778
10
16.3901618
20
232.8653085
40
0.5106278
50
359.1949826
51
0.0020862
0
ARC
8
DEFAULT_255_2_778
10
16.547449
20
232.8512832
40
0.1541914
50
280.2616216
51
358.5297855
0
ARC
8
DEFAULT_255_2_778
10
16.5080075
20
232.963855
40
0.2726346
50
269.5969454
51
284.2065679
0
ARC
8
DEFAULT_255_2_778
10
16.4981967
20
232.9482316
40
0.2571258
50
246.5290903
51
271.7590909
0
ARC
8
DEFAULT_255_2_778
10
16.4527148
20
232.8402009
40
0.1399248
50
188.1071678
51
245.9934684
0
ARC
8
DEFAULT_255_2_778
10
16.4829007
20
232.8471617
40
0.1708111
50
179.9445314
51
188.990814
0
ARC
8
DEFAULT_255_2_778
10
16.4924507
20
232.8539849
40
0.3763411
50
178.2272621
51
205.8283807
0
ARC
8
DEFAULT_255_2_778
10
16.4132476
20
232.8362833
40
0.2979176
50
209.4028057
51
263.0375728
0
ARC
8
DEFAULT_255_2_778
10
16.5005111
20
233.2109629
40
0.6816586
50
259.5722942
51
270.4689037
0
ARC
8
DEFAULT_255_2_778
10
17.411252
20
233.2671767
40
0.1217154
50
2.0482843
51
87.015299
0
ARC
8
DEFAULT_255_2_778
10
17.4060617
20
233.2715852
40
0.126828
50
353.0600847
51
359.9737428
0
ARC
8
DEFAULT_255_2_778
10
17.4110442
20
233.2684555
40
0.1215295
50
270.5739762
51
354.2410513
0
ARC
8
DEFAULT_255_2_778
10
17.4065059
20
233.3046297
40
0.1578027
50
269.9941256
51
272.0902921
0
ARC
8
DEFAULT_255_2_778
10
17.414084
20
232.8537295
40
0.1400686
50
358.2807293
51
95.6106825
0
ARC
8
DEFAULT_255_2_778
10
17.4103233
20
232.8498963
40
0.1437669
50
266.9962473
51
359.8528392
0
ARC
8
DEFAULT_255_2_778
10
17.4725249
20
232.8901988
40
0.3335288
50
268.2414507
51
302.0223478
0
ARC
8
DEFAULT_255_2_778
10
17.5091261
20
232.814883
40
0.2504234
50
304.0600275
51
2.0468005
0
ARC
8
DEFAULT_255_2_778
10
17.4832788
20
232.8215521
40
0.2761203
50
0.4720601
51
65.8403529
0
ARC
8
DEFAULT_255_2_778
10
17.5191655
20
232.8863061
40
0.2024466
50
67.606893
51
75.8693222
0
ARC
8
DEFAULT_255_2_778
10
17.5042026
20
233.293922
40
0.2208874
50
286.9473417
51
358.0074963
0
ARC
8
DEFAULT_255_2_778
10
17.4710866
20
233.3027045
40
0.2544031
50
356.2897886
51
0.0050857
0
ARC
8
DEFAULT_255_2_778
10
17.497262
20
233.3077946
40
0.2282839
50
358.7280137
51
81.8073164
0
ARC
8
DEFAULT_255_2_778
10
17.4216369
20
233.0563283
40
0.4895182
50
77.2355086
51
90.5088275
0
ARC
8
DEFAULT_255_2_778
10
17.5842742
20
232.0918263
40
0.130243
50
89.9974494
51
92.6776592
0
ARC
8
DEFAULT_255_2_778
10
17.5843316
20
232.0923872
40
0.129682
50
45.0880141
51
90.022782
0
ARC
8
DEFAULT_255_2_778
10
17.5844118
20
232.092419
40
0.1296029
50
0.001866
51
45.1031959
0
ARC
8
DEFAULT_255_2_778
10
17.5845123
20
232.0924202
40
0.1295026
50
357.4803735
51
0.0013544
0
ARC
8
DEFAULT_255_2_778
10
17.5901979
20
232.0885512
40
0.1237052
50
339.8672523
51
359.1550732
0
ARC
8
DEFAULT_255_2_778
10
17.5794513
20
232.0857079
40
0.1329691
50
272.0853006
51
342.6124646
0
ARC
8
DEFAULT_255_2_778
10
17.6596145
20
232.1239661
40
0.2575135
50
286.787355
51
290.6121696
0
ARC
8
DEFAULT_255_2_778
10
17.6689461
20
232.1096533
40
0.24086
50
289.7330405
51
342.3216972
0
ARC
8
DEFAULT_255_2_778
10
17.641261
20
232.1144954
40
0.268735
50
343.130572
51
0.3905272
0
ARC
8
DEFAULT_255_2_778
10
17.6578783
20
232.1318767
40
0.2525904
50
356.4706028
51
80.1788963
0
ARC
8
DEFAULT_255_2_778
10
17.5921649
20
231.9049163
40
0.4881286
50
77.1212301
51
90.4900821
0
ARC
8
DEFAULT_255_2_778
10
17.5166337
20
231.607236
40
0.1865405
50
50.1507009
51
92.9634648
0
ARC
8
DEFAULT_255_2_778
10
17.5301354
20
231.6355678
40
0.1563319
50
12.621233
51
47.2950617
0
ARC
8
DEFAULT_255_2_778
10
16.8485884
20
231.5026726
40
0.8506657
50
2.8173892
51
11.3253986
0
ARC
8
DEFAULT_255_2_778
10
-29.2295733
20
228.0063175
40
47.060992
50
4.3048394
51
4.3117143
0
ARC
8
DEFAULT_255_2_778
10
18.5500859
20
231.578784
40
0.8523717
50
182.6850102
51
191.2954256
0
ARC
8
DEFAULT_255_2_778
10
17.9656837
20
231.4724399
40
0.2586603
50
193.5512904
51
195.3825538
0
ARC
8
DEFAULT_255_2_778
10
19.3415679
20
231.7300916
40
1.4608773
50
182.5958701
51
192.9049706
0
ARC
8
DEFAULT_255_2_778
10
17.6207606
20
231.6584215
40
0.261487
50
1.2064311
51
30.4123358
0
ARC
8
DEFAULT_255_2_778
10
17.6663626
20
231.673476
40
0.2147766
50
33.1081154
51
71.7312197
0
LINE
8
DEFAULT_255_2_778
10
13.4657897
20
231.8380271
11
13.9385897
21
231.8380271
0
LINE
8
DEFAULT_255_2_778
10
13.9385897
20
231.8380271
11
13.9385897
21
232.0094271
0
LINE
8
DEFAULT_255_2_778
10
13.9385897
20
232.0094271
11
13.4657897
21
232.0094271
0
LINE
8
DEFAULT_255_2_778
10
13.4657897
20
232.0094271
11
13.4657897
21
232.2203271
0
LINE
8
DEFAULT_255_2_778
10
13.4657897
20
232.2203271
11
13.9977897
21
232.2203271
0
LINE
8
DEFAULT_255_2_778
10
13.9977897
20
232.2203271
11
13.9977897
21
232.3917271
0
LINE
8
DEFAULT_255_2_778
10
13.9977897
20
232.3917271
11
13.4657897
21
232.3917271
0
LINE
8
DEFAULT_255_2_778
10
13.4657897
20
232.3917271
11
13.2651897
21
232.3917271
0
LINE
8
DEFAULT_255_2_778
10
13.2651897
20
232.3917271
11
13.2651897
21
232.2203271
0
LINE
8
DEFAULT_255_2_778
10
13.2651897
20
232.2203271
11
13.2651897
21
231.5739271
0
LINE
8
DEFAULT_255_2_778
10
13.2651897
20
231.5739271
11
13.2651897
21
231.4024271
0
LINE
8
DEFAULT_255_2_778
10
13.2651897
20
231.4024271
11
13.4657897
21
231.4024271
0
LINE
8
DEFAULT_255_2_778
10
13.4657897
20
231.4024271
11
14.0118897
21
231.4024271
0
LINE
8
DEFAULT_255_2_778
10
14.0118897
20
231.4024271
11
14.0118897
21
231.5739271
0
LINE
8
DEFAULT_255_2_778
10
14.0118897
20
231.5739271
11
13.4657897
21
231.5739271
0
LINE
8
DEFAULT_255_2_778
10
13.4657897
20
231.5739271
11
13.4657897
21
231.8377271
0
LINE
8
DEFAULT_255_2_778
10
13.4657897
20
231.8377271
11
13.4657897
21
231.8380271
0
LINE
8
DEFAULT_255_2_778
10
13.4519897
20
233.2921271
11
13.6620897
21
232.5568271
0
LINE
8
DEFAULT_255_2_778
10
13.6620897
20
232.5568271
11
13.6704897
21
232.5568271
0
LINE
8
DEFAULT_255_2_778
10
13.6704897
20
232.5568271
11
13.8464897
21
232.5568271
0
LINE
8
DEFAULT_255_2_778
10
13.8464897
20
232.5568271
11
13.8546897
21
232.5568271
0
LINE
8
DEFAULT_255_2_778
10
13.8546897
20
232.5568271
11
14.0647897
21
233.2921271
0
LINE
8
DEFAULT_255_2_778
10
14.0647897
20
233.2921271
11
14.0647897
21
232.5568271
0
LINE
8
DEFAULT_255_2_778
10
14.0647897
20
232.5568271
11
14.2515897
21
232.5568271
0
LINE
8
DEFAULT_255_2_778
10
14.2515897
20
232.5568271
11
14.2515897
21
233.5461271
0
LINE
8
DEFAULT_255_2_778
10
14.2515897
20
233.5461271
11
14.1496897
21
233.5461271
0
LINE
8
DEFAULT_255_2_778
10
14.1496897
20
233.5461271
11
14.0615897
21
233.5461271
0
LINE
8
DEFAULT_255_2_778
10
14.0615897
20
233.5461271
11
13.9655897
21
233.5461271
0
LINE
8
DEFAULT_255_2_778
10
13.9655897
20
233.5461271
11
13.7583897
21
232.8518271
0
LINE
8
DEFAULT_255_2_778
10
13.7583897
20
232.8518271
11
13.5511897
21
233.5461271
0
LINE
8
DEFAULT_255_2_778
10
13.5511897
20
233.5461271
11
13.4551897
21
233.5461271
0
LINE
8
DEFAULT_255_2_778
10
13.4551897
20
233.5461271
11
13.3669897
21
233.5461271
0
LINE
8
DEFAULT_255_2_778
10
13.3669897
20
233.5461271
11
13.2651897
21
233.5461271
0
LINE
8
DEFAULT_255_2_778
10
13.2651897
20
233.5461271
11
13.2651897
21
232.5568271
0
LINE
8
DEFAULT_255_2_778
10
13.2651897
20
232.5568271
11
13.4519897
21
232.5568271
0
LINE
8
DEFAULT_255_2_778
10
13.4519897
20
232.5568271
11
13.4519897
21
233.2921271
0
LINE
8
DEFAULT_255_2_778
10
13.4519897
20
233.2921271
11
13.4519897
21
233.2921271
0
LINE
8
DEFAULT_255_2_778
10
18.0056897
20
233.5461271
11
17.8064897
21
233.5461271
0
LINE
8
DEFAULT_255_2_778
10
17.8064897
20
233.5461271
11
17.8064897
21
232.5568271
0
LINE
8
DEFAULT_255_2_778
10
17.8064897
20
232.5568271
11
18.0056897
21
232.5568271
0
LINE
8
DEFAULT_255_2_778
10
18.0056897
20
232.5568271
11
18.0056897
21
233.5461271
0
LINE
8
DEFAULT_255_2_778
10
18.0056897
20
233.5461271
11
18.0056897
21
233.5461271
0
LINE
8
DEFAULT_255_2_778
10
18.1681897
20
232.3920271
11
17.9689897
21
232.3920271
0
LINE
8
DEFAULT_255_2_778
10
17.9689897
20
232.3920271
11
17.9689897
21
231.4027271
0
LINE
8
DEFAULT_255_2_778
10
17.9689897
20
231.4027271
11
18.1681897
21
231.4027271
0
LINE
8
DEFAULT_255_2_778
10
18.1681897
20
231.4027271
11
18.1681897
21
232.3920271
0
LINE
8
DEFAULT_255_2_778
10
18.1681897
20
232.3920271
11
18.1681897
21
232.3920271
0
LINE
8
DEFAULT_255_2_778
10
19.9765897
20
233.5461271
11
19.7773897
21
233.5461271
0
LINE
8
DEFAULT_255_2_778
10
19.7773897
20
233.5461271
11
19.7773897
21
232.5568271
0
LINE
8
DEFAULT_255_2_778
10
19.7773897
20
232.5568271
11
19.9765897
21
232.5568271
0
LINE
8
DEFAULT_255_2_778
10
19.9765897
20
232.5568271
11
19.9765897
21
233.5461271
0
LINE
8
DEFAULT_255_2_778
10
19.9765897
20
233.5461271
11
19.9765897
21
233.5461271
0
LINE
8
DEFAULT_255_2_778
10
14.5298897
20
233.5461271
11
14.3306897
21
233.5461271
0
LINE
8
DEFAULT_255_2_778
10
14.3306897
20
233.5461271
11
14.3306897
21
232.5568271
0
LINE
8
DEFAULT_255_2_778
10
14.3306897
20
232.5568271
11
14.5298897
21
232.5568271
0
LINE
8
DEFAULT_255_2_778
10
14.5298897
20
232.5568271
11
14.5298897
21
233.5461271
0
LINE
8
DEFAULT_255_2_778
10
14.5298897
20
233.5461271
11
14.5298897
21
233.5461271
0
LINE
8
DEFAULT_255_2_778
10
19.4989897
20
233.1601271
11
19.1029897
21
233.1601271
0
LINE
8
DEFAULT_255_2_778
10
19.1029897
20
233.1601271
11
19.1029897
21
233.5458271
0
LINE
8
DEFAULT_255_2_778
10
19.1029897
20
233.5458271
11
18.9068897
21
233.5458271
0
LINE
8
DEFAULT_255_2_778
10
18.9068897
20
233.5458271
11
18.9068897
21
232.5568271
0
LINE
8
DEFAULT_255_2_778
10
18.9068897
20
232.5568271
11
19.1029897
21
232.5568271
0
LINE
8
DEFAULT_255_2_778
10
19.1029897
20
232.5568271
11
19.1029897
21
232.9886271
0
LINE
8
DEFAULT_255_2_778
10
19.1029897
20
232.9886271
11
19.4989897
21
232.9886271
0
LINE
8
DEFAULT_255_2_778
10
19.4989897
20
232.9886271
11
19.4989897
21
232.5568271
0
LINE
8
DEFAULT_255_2_778
10
19.4989897
20
232.5568271
11
19.6950897
21
232.5568271
0
LINE
8
DEFAULT_255_2_778
10
19.6950897
20
232.5568271
11
19.6950897
21
233.5458271
0
LINE
8
DEFAULT_255_2_778
10
19.6950897
20
233.5458271
11
19.4989897
21
233.5458271
0
LINE
8
DEFAULT_255_2_778
10
19.4989897
20
233.5458271
11
19.4989897
21
233.1601271
0
LINE
8
DEFAULT_255_2_778
10
19.4989897
20
233.1601271
11
19.4989897
21
233.1601271
0
LINE
8
DEFAULT_255_2_778
10
14.8246897
20
232.5568271
11
15.0280897
21
232.5568271
0
LINE
8
DEFAULT_255_2_778
10
15.0280897
20
232.5568271
11
15.0280897
21
233.3747271
0
LINE
8
DEFAULT_255_2_778
10
15.0280897
20
233.3747271
11
15.2696897
21
233.3747271
0
LINE
8
DEFAULT_255_2_778
10
15.2696897
20
233.3747271
11
15.2696897
21
233.5461271
0
LINE
8
DEFAULT_255_2_778
10
15.2696897
20
233.5461271
11
15.0280897
21
233.5461271
0
LINE
8
DEFAULT_255_2_778
10
15.0280897
20
233.5461271
11
14.8246897
21
233.5461271
0
LINE
8
DEFAULT_255_2_778
10
14.8246897
20
233.5461271
11
14.5830897
21
233.5461271
0
LINE
8
DEFAULT_255_2_778
10
14.5830897
20
233.5461271
11
14.5830897
21
233.3747271
0
LINE
8
DEFAULT_255_2_778
10
14.5830897
20
233.3747271
11
14.8246897
21
233.3747271
0
LINE
8
DEFAULT_255_2_778
10
14.8246897
20
233.3747271
11
14.8246897
21
232.5568271
0
LINE
8
DEFAULT_255_2_778
10
14.8246897
20
232.5568271
11
14.8246897
21
232.5568271
0
LINE
8
DEFAULT_255_2_778
10
16.6422897
20
231.4027271
11
16.8454897
21
231.4027271
0
LINE
8
DEFAULT_255_2_778
10
16.8454897
20
231.4027271
11
16.8454897
21
232.2205271
0
LINE
8
DEFAULT_255_2_778
10
16.8454897
20
232.2205271
11
17.0873897
21
232.2205271
0
LINE
8
DEFAULT_255_2_778
10
17.0873897
20
232.2205271
11
17.0873897
21
232.3923271
0
LINE
8
DEFAULT_255_2_778
10
17.0873897
20
232.3923271
11
16.8454897
21
232.3923271
0
LINE
8
DEFAULT_255_2_778
10
16.8454897
20
232.3923271
11
16.6422897
21
232.3923271
0
LINE
8
DEFAULT_255_2_778
10
16.6422897
20
232.3923271
11
16.4004897
21
232.3923271
0
LINE
8
DEFAULT_255_2_778
10
16.4004897
20
232.3923271
11
16.4004897
21
232.2205271
0
LINE
8
DEFAULT_255_2_778
10
16.4004897
20
232.2205271
11
16.6422897
21
232.2205271
0
LINE
8
DEFAULT_255_2_778
10
16.6422897
20
232.2205271
11
16.6422897
21
231.4027271
0
LINE
8
DEFAULT_255_2_778
10
16.6422897
20
231.4027271
11
16.6422897
21
231.4027271
0
LINE
8
DEFAULT_255_2_778
10
16.9007897
20
232.8653271
11
16.9007897
21
233.5458271
0
LINE
8
DEFAULT_255_2_778
10
16.9007897
20
233.5458271
11
16.7015897
21
233.5458271
0
LINE
8
DEFAULT_255_2_778
10
16.7015897
20
233.5458271
11
16.7015897
21
232.8473271
0
LINE
8
DEFAULT_255_2_778
10
16.3120897
20
232.8473271
11
16.3120897
21
233.5458271
0
LINE
8
DEFAULT_255_2_778
10
16.3120897
20
233.5458271
11
16.1162897
21
233.5458271
0
LINE
8
DEFAULT_255_2_778
10
16.1162897
20
233.5458271
11
16.1162897
21
232.8656271
0
LINE
8
DEFAULT_255_2_778
10
15.0000897
20
231.8380271
11
15.4730897
21
231.8380271
0
LINE
8
DEFAULT_255_2_778
10
15.4730897
20
231.8380271
11
15.4730897
21
232.0094271
0
LINE
8
DEFAULT_255_2_778
10
15.4730897
20
232.0094271
11
15.0000897
21
232.0094271
0
LINE
8
DEFAULT_255_2_778
10
15.0000897
20
232.0094271
11
15.0000897
21
232.2203271
0
LINE
8
DEFAULT_255_2_778
10
15.0000897
20
232.2203271
11
15.5320897
21
232.2203271
0
LINE
8
DEFAULT_255_2_778
10
15.5320897
20
232.2203271
11
15.5320897
21
232.3917271
0
LINE
8
DEFAULT_255_2_778
10
15.5320897
20
232.3917271
11
15.0000897
21
232.3917271
0
LINE
8
DEFAULT_255_2_778
10
15.0000897
20
232.3917271
11
14.7997897
21
232.3917271
0
LINE
8
DEFAULT_255_2_778
10
14.7997897
20
232.3917271
11
14.7997897
21
232.2203271
0
LINE
8
DEFAULT_255_2_778
10
14.7997897
20
232.2203271
11
14.7997897
21
231.5739271
0
LINE
8
DEFAULT_255_2_778
10
14.7997897
20
231.5739271
11
14.7997897
21
231.4024271
0
LINE
8
DEFAULT_255_2_778
10
14.7997897
20
231.4024271
11
15.0000897
21
231.4024271
0
LINE
8
DEFAULT_255_2_778
10
15.0000897
20
231.4024271
11
15.5461897
21
231.4024271
0
LINE
8
DEFAULT_255_2_778
10
15.5461897
20
231.4024271
11
15.5461897
21
231.5739271
0
LINE
8
DEFAULT_255_2_778
10
15.5461897
20
231.5739271
11
15.0000897
21
231.5739271
0
LINE
8
DEFAULT_255_2_778
10
15.0000897
20
231.5739271
11
15.0000897
21
231.8377271
0
LINE
8
DEFAULT_255_2_778
10
15.0000897
20
231.8377271
11
15.0000897
21
231.8380271
0
LINE
8
DEFAULT_255_2_778
10
17.4064897
20
233.1468271
11
17.1690897
21
233.1468271
0
LINE
8
DEFAULT_255_2_778
10
17.1690897
20
233.1468271
11
17.1690897
21
233.3884271
0
LINE
8
DEFAULT_255_2_778
10
17.1690897
20
233.3884271
11
17.4175897
21
233.3884271
0
LINE
8
DEFAULT_255_2_778
10
17.4175897
20
233.3884271
11
17.4175897
21
233.3887271
0
LINE
8
DEFAULT_255_2_778
10
17.4027897
20
232.7060271
11
17.1690897
21
232.7060271
0
LINE
8
DEFAULT_255_2_778
10
17.1690897
20
232.7060271
11
17.1690897
21
232.9931271
0
LINE
8
DEFAULT_255_2_778
10
17.1690897
20
232.9931271
11
17.4003897
21
232.9931271
0
LINE
8
DEFAULT_255_2_778
10
17.1767897
20
232.5568271
11
17.4622897
21
232.5568271
0
LINE
8
DEFAULT_255_2_778
10
17.4172897
20
233.5458271
11
17.1770897
21
233.5458271
0
LINE
8
DEFAULT_255_2_778
10
17.1770897
20
233.5458271
11
16.9722897
21
233.5458271
0
LINE
8
DEFAULT_255_2_778
10
16.9722897
20
233.5458271
11
16.9711897
21
233.5458271
0
LINE
8
DEFAULT_255_2_778
10
16.9711897
20
233.5458271
11
16.9711897
21
232.5568271
0
LINE
8
DEFAULT_255_2_778
10
16.9711897
20
232.5568271
11
16.9722897
21
232.5568271
0
LINE
8
DEFAULT_255_2_778
10
16.9722897
20
232.5568271
11
17.1770897
21
232.5568271
0
LINE
8
DEFAULT_255_2_778
10
17.1770897
20
232.5568271
11
17.1767897
21
232.5568271
0
LINE
8
DEFAULT_255_2_778
10
17.3368897
20
231.9525271
11
17.3368897
21
232.2219271
0
LINE
8
DEFAULT_255_2_778
10
17.3368897
20
232.2219271
11
17.5781897
21
232.2219271
0
LINE
8
DEFAULT_255_2_778
10
17.5842897
20
231.9528271
11
17.3370897
21
231.9528271
0
LINE
8
DEFAULT_255_2_778
10
17.3370897
20
231.9528271
11
17.3368897
21
231.9525271
0
LINE
8
DEFAULT_255_2_778
10
17.5879897
20
232.3930271
11
17.3368897
21
232.3930271
0
LINE
8
DEFAULT_255_2_778
10
17.3368897
20
232.3930271
11
17.1383897
21
232.3930271
0
LINE
8
DEFAULT_255_2_778
10
17.1383897
20
232.3930271
11
17.1362897
21
232.3930271
0
LINE
8
DEFAULT_255_2_778
10
17.1362897
20
232.3930271
11
17.1362897
21
231.4038271
0
LINE
8
DEFAULT_255_2_778
10
17.1362897
20
231.4038271
11
17.3368897
21
231.4038271
0
LINE
8
DEFAULT_255_2_778
10
17.3368897
20
231.4038271
11
17.3368897
21
231.7935271
0
LINE
8
DEFAULT_255_2_778
10
17.3368897
20
231.7935271
11
17.5069897
21
231.7935271
0
LINE
8
DEFAULT_255_2_778
10
17.7162897
20
231.4038271
11
17.9175897
21
231.4038271
0
LINE
8
DEFAULT_255_2_778
10
14.2763897
20
232.3920271
11
14.0760897
21
232.3920271
0
LINE
8
DEFAULT_255_2_778
10
14.0760897
20
232.3920271
11
14.0760897
21
231.5742271
0
LINE
8
DEFAULT_255_2_778
10
14.0760897
20
231.5742271
11
14.0760897
21
231.4027271
0
LINE
8
DEFAULT_255_2_778
10
14.0760897
20
231.4027271
11
14.2763897
21
231.4027271
0
LINE
8
DEFAULT_255_2_778
10
14.2763897
20
231.4027271
11
14.7428897
21
231.4027271
0
LINE
8
DEFAULT_255_2_778
10
14.7428897
20
231.4027271
11
14.7428897
21
231.5742271
0
LINE
8
DEFAULT_255_2_778
10
14.7428897
20
231.5742271
11
14.2763897
21
231.5742271
0
LINE
8
DEFAULT_255_2_778
10
14.2763897
20
231.5742271
11
14.2763897
21
232.3920271
0
LINE
8
DEFAULT_255_2_778
10
14.2763897
20
232.3920271
11
14.2763897
21
232.3920271
0
ARC
8
DEFAULT_255_2_778
10
15.4584271
20
232.0177969
40
0.9681224
50
72.4822103
51
81.3184214
0
ARC
8
DEFAULT_255_2_778
10
15.7160297
20
232.7944918
40
0.1503783
50
28.8883513
51
77.0092434
0
ARC
8
DEFAULT_255_2_778
10
15.7432379
20
232.8234196
40
0.113238
50
358.9917455
51
22.7117017
0
ARC
8
DEFAULT_255_2_778
10
15.7394861
20
232.8275918
40
0.1171346
50
289.2958104
51
356.9831562
0
ARC
8
DEFAULT_255_2_778
10
15.6668261
20
232.9850882
40
0.2902651
50
268.4665462
51
292.5613311
0
ARC
8
DEFAULT_255_2_778
10
15.6496856
20
232.9260179
40
0.2312808
50
236.4956947
51
272.3225735
0
ARC
8
DEFAULT_255_2_778
10
15.6106646
20
232.8577839
40
0.1529307
50
178.9722202
51
234.5742435
0
ARC
8
DEFAULT_255_2_778
10
15.5656113
20
232.8482079
40
0.3002058
50
177.6481608
51
245.5596397
0
ARC
8
DEFAULT_255_2_778
10
15.6409971
20
233.0204561
40
0.488217
50
245.8690375
51
267.169035
0
ARC
8
DEFAULT_255_2_778
10
15.6671503
20
233.2714916
40
0.7403648
50
266.1069867
51
270.0547972
0
ARC
8
DEFAULT_255_2_778
10
15.6772894
20
233.1027135
40
0.5716642
50
269.0547216
51
287.7147747
0
ARC
8
DEFAULT_255_2_778
10
15.7598889
20
232.8570091
40
0.3125017
50
286.995984
51
325.1221533
0
ARC
8
DEFAULT_255_2_778
10
15.7678294
20
232.840461
40
0.2966627
50
326.8673922
51
0.8625726
0
ARC
8
DEFAULT_255_2_778
10
15.7898286
20
232.8490409
40
0.2746606
50
359.1417932
51
76.9739731
0
ARC
8
DEFAULT_255_2_778
10
15.6705461
20
232.5681719
40
0.577616
50
71.7185727
51
79.1315439
0
ARC
8
DEFAULT_255_2_778
10
14.2492968
20
225.214567
40
8.0673056
50
79.0662148
51
79.6216572
0
ARC
8
DEFAULT_255_2_778
10
16.4356585
20
237.0922581
40
4.0099443
50
259.1227669
51
259.4665204
0
ARC
8
DEFAULT_255_2_778
10
15.7836732
20
233.7972142
40
0.6513291
50
249.9945768
51
260.7485895
0
ARC
8
DEFAULT_255_2_778
10
15.5880401
20
233.2861999
40
0.1046098
50
178.6705173
51
254.9333545
0
ARC
8
DEFAULT_255_2_778
10
15.6049957
20
233.2827688
40
0.1216785
50
93.288632
51
177.2403935
0
ARC
8
DEFAULT_255_2_778
10
15.6585677
20
233.0957752
40
0.3143588
50
89.6189463
51
101.1057977
0
ARC
8
DEFAULT_255_2_778
10
15.6722733
20
233.207616
40
0.2028439
50
53.5634072
51
93.2825843
0
ARC
8
DEFAULT_255_2_778
10
15.7018505
20
233.2658144
40
0.1388739
50
357.1985816
51
49.1152298
0
ARC
8
DEFAULT_255_2_778
10
15.7254907
20
233.2590274
40
0.3087677
50
359.9999335
51
2.3703878
0
ARC
8
DEFAULT_255_2_778
10
15.7353555
20
233.2605337
40
0.298851
50
2.1600756
51
60.1092229
0
ARC
8
DEFAULT_255_2_778
10
15.6766212
20
233.1539133
40
0.4205645
50
60.4106856
51
86.1444419
0
ARC
8
DEFAULT_255_2_778
10
15.6536151
20
232.9772228
40
0.5985046
50
85.0843314
51
90.0628677
0
ARC
8
DEFAULT_255_2_778
10
15.6529718
20
233.1006466
40
0.4750804
50
90.001616
51
92.2300394
0
ARC
8
DEFAULT_255_2_778
10
15.6281193
20
233.205787
40
0.3696351
50
89.0131319
51
149.6364996
0
ARC
8
DEFAULT_255_2_778
10
15.5505461
20
233.2780055
40
0.2671974
50
154.5962367
51
180.4885883
0
ARC
8
DEFAULT_255_2_778
10
15.5651524
20
233.276484
40
0.281795
50
180.1539064
51
255.1120325
0
ARC
8
DEFAULT_255_2_778
10
15.7094242
20
233.599332
40
0.6333958
50
249.9962237
51
260.4976723
0
ARC
8
DEFAULT_255_2_778
10
18.2470963
20
232.0189351
40
0.967002
50
72.4685023
51
81.3064395
0
ARC
8
DEFAULT_255_2_778
10
18.5045397
20
232.794527
40
0.1503535
50
28.8782248
51
76.9904304
0
ARC
8
DEFAULT_255_2_778
10
18.5317197
20
232.8234189
40
0.1132561
50
358.9922779
51
22.7082666
0
ARC
8
DEFAULT_255_2_778
10
18.5280402
20
232.8275088
40
0.1170763
50
289.2761556
51
357.0223042
0
ARC
8
DEFAULT_255_2_778
10
18.4553612
20
232.9853836
40
0.2905613
50
268.4611814
51
292.5289055
0
ARC
8
DEFAULT_255_2_778
10
18.4381801
20
232.9269175
40
0.2321799
50
236.6698634
51
272.3149402
0
ARC
8
DEFAULT_255_2_778
10
18.39878
20
232.8577762
40
0.1528464
50
178.9687581
51
234.7686008
0
ARC
8
DEFAULT_255_2_778
10
18.3540113
20
232.8482079
40
0.3002058
50
177.6481608
51
245.5596397
0
ARC
8
DEFAULT_255_2_778
10
18.4293971
20
233.0204561
40
0.488217
50
245.8690375
51
267.169035
0
ARC
8
DEFAULT_255_2_778
10
18.4555503
20
233.2714916
40
0.7403648
50
266.1069867
51
270.0547972
0
ARC
8
DEFAULT_255_2_778
10
18.4656836
20
233.1033451
40
0.5722957
50
269.0563423
51
287.7048702
0
ARC
8
DEFAULT_255_2_778
10
18.548344
20
232.8573682
40
0.312856
50
286.9832601
51
325.0871916
0
ARC
8
DEFAULT_255_2_778
10
18.5567708
20
232.8404856
40
0.2964208
50
326.8311942
51
0.8585267
0
ARC
8
DEFAULT_255_2_778
10
18.5785756
20
232.8491282
40
0.2746149
50
359.1234265
51
76.9343785
0
ARC
8
DEFAULT_255_2_778
10
18.4596421
20
232.5692965
40
0.5764934
50
71.6999697
51
79.1198353
0
ARC
8
DEFAULT_255_2_778
10
17.0173657
20
225.0925392
40
8.1910887
50
79.0843627
51
79.6321368
0
ARC
8
DEFAULT_255_2_778
10
19.2200266
20
237.0720177
40
3.9892176
50
259.1314419
51
259.4772924
0
ARC
8
DEFAULT_255_2_778
10
18.5723251
20
233.7966131
40
0.6507003
50
249.9919323
51
260.7592458
0
ARC
8
DEFAULT_255_2_778
10
18.376901
20
233.2861546
40
0.1045718
50
178.6452075
51
254.9151907
0
ARC
8
DEFAULT_255_2_778
10
18.3939581
20
233.2827016
40
0.121744
50
93.2745253
51
177.21023
0
ARC
8
DEFAULT_255_2_778
10
18.4475726
20
233.0956052
40
0.3145287
50
89.6200387
51
101.1027534
0
ARC
8
DEFAULT_255_2_778
10
18.4613489
20
233.2089453
40
0.2015212
50
53.1490002
51
93.3256649
0
ARC
8
DEFAULT_255_2_778
10
18.4902753
20
233.2657519
40
0.1391457
50
357.2298288
51
48.6469881
0
ARC
8
DEFAULT_255_2_778
10
18.5137232
20
233.2590226
40
0.3092351
50
0.0008291
51
2.3676985
0
ARC
8
DEFAULT_255_2_778
10
18.5240744
20
233.2605868
40
0.2988304
50
2.1500394
51
60.0956838
0
ARC
8
DEFAULT_255_2_778
10
18.4654399
20
233.1540909
40
0.4203859
50
60.40452
51
86.1455285
0
ARC
8
DEFAULT_255_2_778
10
18.4424157
20
232.9772686
40
0.5984588
50
85.0841409
51
90.0629301
0
ARC
8
DEFAULT_255_2_778
10
18.4417778
20
233.1002392
40
0.4754878
50
90.0023409
51
92.3231329
0
ARC
8
DEFAULT_255_2_778
10
18.4167555
20
233.2055604
40
0.3698206
50
89.1093915
51
149.6400816
0
ARC
8
DEFAULT_255_2_778
10
18.338761
20
233.2779917
40
0.2669122
50
154.6001925
51
180.486137
0
ARC
8
DEFAULT_255_2_778
10
18.3537607
20
233.2766152
40
0.2819037
50
180.1805176
51
255.132702
0
ARC
8
DEFAULT_255_2_778
10
18.4982264
20
233.5998784
40
0.6339516
50
250.0026216
51
260.4967164
0
ARC
8
DEFAULT_255_2_778
10
16.008917
20
231.8070283
40
0.2519711
50
190.2626864
51
267.3480013
0
ARC
8
DEFAULT_255_2_778
10
16.2443543
20
231.8983548
40
0.5022041
50
179.6723028
51
195.7380858
0
ARC
8
DEFAULT_255_2_778
10
16.1790511
20
231.9138671
40
0.4370755
50
148.7005643
51
181.6572045
0
ARC
8
DEFAULT_255_2_778
10
15.9957576
20
232.0239723
40
0.2232598
50
89.6148479
51
148.4074796
0
ARC
8
DEFAULT_255_2_778
10
16.0060936
20
232.046049
40
0.201372
50
41.9769772
51
92.5146611
0
ARC
8
DEFAULT_255_2_778
10
15.9522078
20
232.0083523
40
0.2667646
50
15.1848537
51
40.2549591
0
ARC
8
DEFAULT_255_2_778
10
16.028123
20
232.0186326
40
0.3935735
50
8.7091682
51
82.0550801
0
ARC
8
DEFAULT_255_2_778
10
15.9931241
20
231.8721871
40
0.543642
50
80.5350289
51
90.1544743
0
ARC
8
DEFAULT_255_2_778
10
15.9818804
20
231.9608192
40
0.4551129
50
88.7689246
51
119.6437418
0
ARC
8
DEFAULT_255_2_778
10
16.0077717
20
231.9645647
40
0.4653013
50
122.644121
51
173.3997839
0
ARC
8
DEFAULT_255_2_778
10
16.2711934
20
231.9002568
40
0.7351371
50
170.7798304
51
180.1348114
0
ARC
8
DEFAULT_255_2_778
10
16.1372822
20
231.88492
40
0.6013778
50
178.7034849
51
210.5604279
0
ARC
8
DEFAULT_255_2_778
10
15.9706312
20
231.7944377
40
0.4119265
50
211.5090145
51
265.8592607
0
ARC
8
DEFAULT_255_2_778
10
15.9911883
20
231.9185521
40
0.5373252
50
264.628472
51
270.0501277
0
ARC
8
DEFAULT_255_2_778
10
16.002337
20
231.8504685
40
0.4693629
50
268.6963312
51
300.2191972
0
ARC
8
DEFAULT_255_2_778
10
16.0350684
20
231.7725124
40
0.3856821
50
301.8465101
51
353.7503927
0
ARC
8
DEFAULT_255_2_778
10
16.0015787
20
231.7664387
40
0.2111558
50
268.8276188
51
350.2079995
0
ARC
8
DEFAULT_255_2_778
10
18.6896799
20
231.8069824
40
0.2519281
50
190.2538303
51
267.3332171
0
ARC
8
DEFAULT_255_2_778
10
18.9252249
20
231.8983581
40
0.5022746
50
179.672724
51
195.7362088
0
ARC
8
DEFAULT_255_2_778
10
18.8600432
20
231.9138917
40
0.4372682
50
148.7196987
51
181.6596982
0
ARC
8
DEFAULT_255_2_778
10
18.676443
20
232.0240906
40
0.2231415
50
89.6108896
51
148.4244661
0
ARC
8
DEFAULT_255_2_778
10
18.686876
20
232.046067
40
0.2013576
50
42.5913083
51
92.5383066
0
ARC
8
DEFAULT_255_2_778
10
18.6345542
20
232.0096973
40
0.2646316
50
15.0085433
51
40.7215892
0
ARC
8
DEFAULT_255_2_778
10
18.708623
20
232.0186326
40
0.3935735
50
8.7091682
51
82.0550801
0
ARC
8
DEFAULT_255_2_778
10
18.6736241
20
231.8721871
40
0.543642
50
80.5350289
51
90.1544743
0
ARC
8
DEFAULT_255_2_778
10
18.6623804
20
231.9608192
40
0.4551129
50
88.7689246
51
119.6437418
0
ARC
8
DEFAULT_255_2_778
10
18.6882717
20
231.9645647
40
0.4653013
50
122.644121
51
173.3997839
0
ARC
8
DEFAULT_255_2_778
10
18.9516934
20
231.9002568
40
0.7351371
50
170.7798304
51
180.1348114
0
ARC
8
DEFAULT_255_2_778
10
18.8177822
20
231.88492
40
0.6013778
50
178.7034849
51
210.5604279
0
ARC
8
DEFAULT_255_2_778
10
18.6511312
20
231.7944377
40
0.4119265
50
211.5090145
51
265.8592607
0
ARC
8
DEFAULT_255_2_778
10
18.6716883
20
231.9185521
40
0.5373252
50
264.628472
51
270.0501277
0
ARC
8
DEFAULT_255_2_778
10
18.682837
20
231.8504685
40
0.4693629
50
268.6963312
51
300.2191972
0
ARC
8
DEFAULT_255_2_778
10
18.7155684
20
231.7725124
40
0.3856821
50
301.8465101
51
353.7503927
0
ARC
8
DEFAULT_255_2_778
10
18.6820648
20
231.7664604
40
0.2111733
50
268.8857714
51
350.2028431
0
LINE
8
DEFAULT_255_2_778
10
15.4577584
20
232.8605271
11
15.2656584
21
232.8605271
0
LINE
8
DEFAULT_255_2_778
10
15.8405584
20
233.2590271
11
16.0342584
21
233.2590271
0
LINE
8
DEFAULT_255_2_778
10
18.2459584
20
232.8605271
11
18.0540584
21
232.8605271
0
LINE
8
DEFAULT_255_2_778
10
18.6292584
20
233.2590271
11
18.8229584
21
233.2590271
0
LINE
8
DEFAULT_255_2_778
10
16.2096584
20
232.0782271
11
16.4171584
21
232.0782271
0
LINE
8
DEFAULT_255_2_778
10
16.4184584
20
231.7305271
11
16.2096584
21
231.7305271
0
LINE
8
DEFAULT_255_2_778
10
18.8901584
20
232.0782271
11
19.0976584
21
232.0782271
0
LINE
8
DEFAULT_255_2_778
10
19.0989584
20
231.7305271
11
18.8901584
21
231.7305271
0
LINE
8
DEFAULT_255_2_778
10
9.3932417
20
219.4719069
11
10.7161417
21
219.4719069
0
LINE
8
DEFAULT_255_2_778
10
10.7161417
20
219.4719069
11
10.7161417
21
114.9615069
0
LINE
8
DEFAULT_255_2_778
10
9.3932834
20
114.9614333
11
12.0390834
21
114.9614333
0
LINE
8
DEFAULT_255_2_778
10
12.0390834
20
114.9614333
11
12.0390834
21
109.6697333
0
LINE
8
DEFAULT_255_2_778
10
12.0390834
20
109.6697333
11
9.3932834
21
109.6697333
0
LINE
8
DEFAULT_255_2_778
10
9.3932834
20
109.6697333
11
9.3932834
21
114.9614333
0
ARC
8
DEFAULT_255_2_778_1
10
13.1928591
20
109.772177
40
4.816461
50
120.9442904
51
122.351755
0
ARC
8
DEFAULT_255_2_778_1
10
12.7462523
20
110.4758039
40
3.9830657
50
122.3407904
51
124.1946752
0
ARC
8
DEFAULT_255_2_778_1
10
12.3063464
20
111.1223306
40
3.2010724
50
124.1855758
51
126.4338849
0
ARC
8
DEFAULT_255_2_778_1
10
11.9204129
20
111.6450611
40
2.5513094
50
126.4326926
51
128.8877368
0
ARC
8
DEFAULT_255_2_778_1
10
11.5855968
20
112.0594658
40
2.0185498
50
128.8749205
51
131.8726567
0
ARC
8
DEFAULT_255_2_778_1
10
11.2884677
20
112.3904854
40
1.5737356
50
131.8616166
51
135.4168838
0
ARC
8
DEFAULT_255_2_778_1
10
11.025668
20
112.6486765
40
1.2053256
50
135.3893975
51
139.9687014
0
ARC
8
DEFAULT_255_2_778_1
10
10.7927889
20
112.8435102
40
0.9016937
50
139.9301659
51
145.9260426
0
ARC
8
DEFAULT_255_2_778_1
10
10.596654
20
112.9755104
40
0.6652776
50
145.8787362
51
153.8146208
0
ARC
8
DEFAULT_255_2_778_1
10
10.4445553
20
113.0498797
40
0.4959714
50
153.770634
51
164.3484794
0
ARC
8
DEFAULT_255_2_778_1
10
10.3432387
20
113.0780786
40
0.3908039
50
164.3220276
51
179.8083066
0
ARC
8
DEFAULT_255_2_778_1
10
10.3642789
20
113.086215
40
0.4118985
50
180.9499449
51
213.8111542
0
ARC
8
DEFAULT_255_2_778_1
10
10.6401828
20
113.2557896
40
0.73561
50
212.8271214
51
224.258472
0
ARC
8
DEFAULT_255_2_778_1
10
11.0230335
20
113.6251236
40
1.267567
50
224.1376218
51
231.4508261
0
ARC
8
DEFAULT_255_2_778_1
10
11.6657195
20
114.4281168
40
2.2960809
50
231.3955893
51
236.1256478
0
ARC
8
DEFAULT_255_2_778_1
10
13.4980223
20
117.1746293
40
5.5976905
50
236.2233172
51
239.1314682
0
ARC
8
DEFAULT_255_2_778_1
10
25.447927
20
136.9023568
40
28.6623793
50
238.8606853
51
239.0711101
0
ARC
8
DEFAULT_255_2_778_1
10
6.2757281
20
104.8052653
40
8.7248518
50
57.2420924
51
59.4062964
0
ARC
8
DEFAULT_255_2_778_1
10
9.5034241
20
109.8362102
40
2.747542
50
52.8289294
51
57.079028
0
ARC
8
DEFAULT_255_2_778_1
10
10.2780783
20
110.8565488
40
1.466457
50
46.3041868
51
52.8596521
0
ARC
8
DEFAULT_255_2_778_1
10
10.7103073
20
111.3066842
40
0.8424061
50
36.2174211
51
46.4090895
0
ARC
8
DEFAULT_255_2_778_1
10
10.9948088
20
111.5115128
40
0.4918609
50
17.400375
51
36.5489745
0
ARC
8
DEFAULT_255_2_778_1
10
11.1088994
20
111.5513754
40
0.3710912
50
0.0676858
51
16.7951297
0
ARC
8
DEFAULT_255_2_778_1
10
11.0878613
20
111.5532428
40
0.3921317
50
343.8035191
51
359.7912046
0
ARC
8
DEFAULT_255_2_778_1
10
10.9815912
20
111.5837167
40
0.5026844
50
333.2506233
51
343.8465691
0
ARC
8
DEFAULT_255_2_778_1
10
10.8277757
20
111.6604313
40
0.6745679
50
325.6600948
51
333.3122657
0
ARC
8
DEFAULT_255_2_778_1
10
10.6323344
20
111.7932296
40
0.9108568
50
319.7560915
51
325.6976089
0
ARC
8
DEFAULT_255_2_778_1
10
10.404199
20
111.9850002
40
1.2088854
50
315.4577584
51
319.8037947
0
ARC
8
DEFAULT_255_2_778_1
10
10.1408127
20
112.2438507
40
1.5781764
50
311.7298824
51
315.4670864
0
ARC
8
DEFAULT_255_2_778_1
10
9.8317879
20
112.5894074
40
2.0417554
50
308.723055
51
311.7470879
0
ARC
8
DEFAULT_255_2_778_1
10
9.477589
20
113.0306492
40
2.6075745
50
306.1165163
51
308.7300151
0
ARC
8
DEFAULT_255_2_778_1
10
9.0746091
20
113.5819523
40
3.2904564
50
303.9559446
51
306.1266333
0
ARC
8
DEFAULT_255_2_778_1
10
8.6630432
20
114.191215
40
4.0257023
50
302.3733397
51
303.9712246
0
ARC
8
DEFAULT_255_2_778_1
10
8.2434347
20
114.8527058
40
4.8090549
50
300.9434827
51
302.3758078
0
LINE
8
DEFAULT_255_2_778
10
10.7161335
20
109.669747
11
10.7161335
21
5.159347
0
LINE
8
DEFAULT_255_2_778
10
10.7161335
20
5.159347
11
9.3932335
21
5.159347
0
LINE
8
DEFAULT_255_2_778
10
19.9765335
20
219.471847
11
18.6536335
21
219.471847
0
LINE
8
DEFAULT_255_2_778
10
18.6536335
20
219.471847
11
18.6536335
21
210.211447
0
LINE
8
DEFAULT_255_2_778
10
17.3307834
20
210.2114333
11
19.9765834
21
210.2114333
0
LINE
8
DEFAULT_255_2_778
10
19.9765834
20
210.2114333
11
19.9765834
21
204.9197333
0
LINE
8
DEFAULT_255_2_778
10
19.9765834
20
204.9197333
11
17.3307834
21
204.9197333
0
LINE
8
DEFAULT_255_2_778
10
17.3307834
20
204.9197333
11
17.3307834
21
210.2114333
0
ARC
8
DEFAULT_255_2_778_1
10
21.1303591
20
205.022177
40
4.816461
50
120.9442904
51
122.351755
0
ARC
8
DEFAULT_255_2_778_1
10
20.6837523
20
205.7258039
40
3.9830657
50
122.3407904
51
124.1946752
0
ARC
8
DEFAULT_255_2_778_1
10
20.2438464
20
206.3723306
40
3.2010724
50
124.1855758
51
126.4338849
0
ARC
8
DEFAULT_255_2_778_1
10
19.8579129
20
206.8950611
40
2.5513094
50
126.4326926
51
128.8877368
0
ARC
8
DEFAULT_255_2_778_1
10
19.5230968
20
207.3094658
40
2.0185498
50
128.8749205
51
131.8726567
0
ARC
8
DEFAULT_255_2_778_1
10
19.2259677
20
207.6404854
40
1.5737356
50
131.8616166
51
135.4168838
0
ARC
8
DEFAULT_255_2_778_1
10
18.963168
20
207.8986765
40
1.2053256
50
135.3893975
51
139.9687014
0
ARC
8
DEFAULT_255_2_778_1
10
18.7302889
20
208.0935102
40
0.9016937
50
139.9301659
51
145.9260426
0
ARC
8
DEFAULT_255_2_778_1
10
18.534154
20
208.2255104
40
0.6652776
50
145.8787362
51
153.8146208
0
ARC
8
DEFAULT_255_2_778_1
10
18.3820553
20
208.2998797
40
0.4959714
50
153.770634
51
164.3484794
0
ARC
8
DEFAULT_255_2_778_1
10
18.2807387
20
208.3280786
40
0.3908039
50
164.3220276
51
179.8083066
0
ARC
8
DEFAULT_255_2_778_1
10
18.3017789
20
208.336215
40
0.4118985
50
180.9499449
51
213.8111542
0
ARC
8
DEFAULT_255_2_778_1
10
18.5776828
20
208.5057896
40
0.73561
50
212.8271214
51
224.258472
0
ARC
8
DEFAULT_255_2_778_1
10
18.9605335
20
208.8751236
40
1.267567
50
224.1376218
51
231.4508261
0
ARC
8
DEFAULT_255_2_778_1
10
19.6032195
20
209.6781168
40
2.2960809
50
231.3955893
51
236.1256478
0
ARC
8
DEFAULT_255_2_778_1
10
21.4355223
20
212.4246293
40
5.5976905
50
236.2233172
51
239.1314682
0
ARC
8
DEFAULT_255_2_778_1
10
33.385427
20
232.1523568
40
28.6623793
50
238.8606853
51
239.0711101
0
ARC
8
DEFAULT_255_2_778_1
10
14.2132281
20
200.0552653
40
8.7248518
50
57.2420924
51
59.4062964
0
ARC
8
DEFAULT_255_2_778_1
10
17.4409241
20
205.0862102
40
2.747542
50
52.8289294
51
57.079028
0
ARC
8
DEFAULT_255_2_778_1
10
18.2155783
20
206.1065488
40
1.466457
50
46.3041868
51
52.8596521
0
ARC
8
DEFAULT_255_2_778_1
10
18.6478073
20
206.5566842
40
0.8424061
50
36.2174211
51
46.4090895
0
ARC
8
DEFAULT_255_2_778_1
10
18.9323088
20
206.7615128
40
0.4918609
50
17.400375
51
36.5489745
0
ARC
8
DEFAULT_255_2_778_1
10
19.0463994
20
206.8013754
40
0.3710912
50
0.0676858
51
16.7951297
0
ARC
8
DEFAULT_255_2_778_1
10
19.0253613
20
206.8032428
40
0.3921317
50
343.8035191
51
359.7912046
0
ARC
8
DEFAULT_255_2_778_1
10
18.9190912
20
206.8337167
40
0.5026844
50
333.2506233
51
343.8465691
0
ARC
8
DEFAULT_255_2_778_1
10
18.7652757
20
206.9104313
40
0.6745679
50
325.6600948
51
333.3122657
0
ARC
8
DEFAULT_255_2_778_1
10
18.5698344
20
207.0432296
40
0.9108568
50
319.7560915
51
325.6976089
0
ARC
8
DEFAULT_255_2_778_1
10
18.341699
20
207.2350002
40
1.2088854
50
315.4577584
51
319.8037947
0
ARC
8
DEFAULT_255_2_778_1
10
18.0783127
20
207.4938507
40
1.5781764
50
311.7298824
51
315.4670864
0
ARC
8
DEFAULT_255_2_778_1
10
17.7692879
20
207.8394074
40
2.0417554
50
308.723055
51
311.7470879
0
ARC
8
DEFAULT_255_2_778_1
10
17.415089
20
208.2806492
40
2.6075745
50
306.1165163
51
308.7300151
0
ARC
8
DEFAULT_255_2_778_1
10
17.0121091
20
208.8319523
40
3.2904564
50
303.9559446
51
306.1266333
0
ARC
8
DEFAULT_255_2_778_1
10
16.6005432
20
209.441215
40
4.0257023
50
302.3733397
51
303.9712246
0
ARC
8
DEFAULT_255_2_778_1
10
16.1809347
20
210.1027058
40
4.8090549
50
300.9434827
51
302.3758078
0
LINE
8
DEFAULT_255_2_778
10
18.6536417
20
204.9198082
11
18.6536417
21
195.6594082
0
LINE
8
DEFAULT_255_2_778
10
18.6536417
20
195.6594082
11
19.9765417
21
195.6594082
0
LINE
8
DEFAULT_255_1_234
10
4.9274119
20
227.0116792
11
4.9274119
21
226.8904
0
LINE
8
DEFAULT_255_1_234
10
4.9274119
20
226.8904
11
4.161184
21
226.8904
0
LINE
8
DEFAULT_255_1_234
10
4.161184
20
226.8904
11
4.161184
21
226.9972221
0
LINE
8
DEFAULT_255_1_234
10
4.161184
20
226.9972221
11
4.5659836
21
227.4469995
0
LINE
8
DEFAULT_255_1_234
10
4.2872823
20
227.7152595
11
4.1386952
21
227.7152595
0
LINE
8
DEFAULT_255_1_234
10
4.6535296
20
227.3514218
11
4.3402918
21
227.0116792
0
LINE
8
DEFAULT_255_1_234
10
4.3402918
20
227.0116792
11
4.9274119
21
227.0116792
0
ARC
8
DEFAULT_255_1_234
10
3.216967
20
228.6399527
40
1.8008286
50
318.5132453
51
320.7828378
0
ARC
8
DEFAULT_255_1_234
10
3.7456644
20
228.2096426
40
1.1191493
50
320.7372736
51
323.9737074
0
ARC
8
DEFAULT_255_1_234
10
4.1376501
20
227.9256361
40
0.6350923
50
323.8961724
51
328.6421089
0
ARC
8
DEFAULT_255_1_234
10
4.3423096
20
227.7994031
40
0.3946393
50
328.8299013
51
331.789948
0
ARC
8
DEFAULT_255_1_234
10
4.4420274
20
227.7479509
40
0.2824501
50
331.4255242
51
352.9364833
0
ARC
8
DEFAULT_255_1_234
10
4.4556775
20
227.7448976
40
0.2685315
50
353.2248685
51
0.0169286
0
ARC
8
DEFAULT_255_1_234
10
4.4766652
20
227.747195
40
0.2475536
50
359.4866256
51
15.9339782
0
ARC
8
DEFAULT_255_1_234
10
4.5273637
20
227.7608286
40
0.1950618
50
16.1714718
51
43.5284424
0
ARC
8
DEFAULT_255_1_234
10
4.5350946
20
227.7685573
40
0.184134
50
43.4415429
51
83.1661404
0
ARC
8
DEFAULT_255_1_234
10
4.5216864
20
227.6948771
40
0.258926
50
82.160215
51
90.1505798
0
ARC
8
DEFAULT_255_1_234
10
4.5185291
20
227.6411865
40
0.3126255
50
89.5460705
51
102.5418777
0
ARC
8
DEFAULT_255_1_234
10
4.4942377
20
227.7442665
40
0.2067346
50
102.1739365
51
129.2061916
0
ARC
8
DEFAULT_255_1_234
10
4.4863449
20
227.7567094
40
0.1921118
50
129.7279328
51
135.7542026
0
ARC
8
DEFAULT_255_1_234
10
4.4984977
20
227.7470045
40
0.2075944
50
136.175737
51
166.3674722
0
ARC
8
DEFAULT_255_1_234
10
4.5991896
20
227.7200182
40
0.3118201
50
165.9092917
51
178.8683903
0
ARC
8
DEFAULT_255_1_234
10
4.6856757
20
227.7153179
40
0.3983935
50
178.438168
51
180.0083905
0
ARC
8
DEFAULT_255_1_234
10
4.5455359
20
227.7192231
40
0.4068601
50
163.2878735
51
180.5581814
0
ARC
8
DEFAULT_255_1_234
10
4.4653621
20
227.741284
40
0.3237344
50
133.454115
51
162.9470031
0
ARC
8
DEFAULT_255_1_234
10
4.4832162
20
227.7223
40
0.349795
50
100.7869394
51
133.4384016
0
ARC
8
DEFAULT_255_1_234
10
4.5179934
20
227.5674319
40
0.5084616
50
89.6605301
51
101.3704185
0
ARC
8
DEFAULT_255_1_234
10
4.5246273
20
227.5735496
40
0.502348
50
78.2171172
51
90.4130393
0
ARC
8
DEFAULT_255_1_234
10
4.5601351
20
227.7359637
40
0.3361092
50
55.9268222
51
78.4888551
0
ARC
8
DEFAULT_255_1_234
10
4.5797791
20
227.7698324
40
0.2970617
50
47.9292255
51
55.4054003
0
ARC
8
DEFAULT_255_1_234
10
4.5899352
20
227.7801502
40
0.2825983
50
4.3347696
51
48.0560701
0
ARC
8
DEFAULT_255_1_234
10
4.4803745
20
227.7631601
40
0.393225
50
359.925209
51
5.5967654
0
ARC
8
DEFAULT_255_1_234
10
4.5232637
20
227.7687816
40
0.3503892
50
337.8914096
51
358.9967724
0
ARC
8
DEFAULT_255_1_234
10
4.2519049
20
227.8734706
40
0.6412172
50
326.9135351
51
338.3505194
0
ARC
8
DEFAULT_255_1_234
10
3.8533353
20
228.1289284
40
1.1146189
50
319.6472867
51
327.095818
0
ARC
8
DEFAULT_255_1_234
10
3.4700356
20
228.4451
40
1.6114559
50
317.2586784
51
319.9046139
0
LINE
8
DEFAULT_255_1_234
10
5.7121127
20
228.0598211
11
5.7121127
21
227.283152
0
LINE
8
DEFAULT_255_1_234
10
5.7121127
20
227.283152
11
5.8743538
21
227.283152
0
LINE
8
DEFAULT_255_1_234
10
5.8743538
20
227.283152
11
5.8743538
21
227.1618728
0
LINE
8
DEFAULT_255_1_234
10
5.8743538
20
227.1618728
11
5.7121127
21
227.1618728
0
LINE
8
DEFAULT_255_1_234
10
5.7121127
20
227.1618728
11
5.7121127
21
226.8904
0
LINE
8
DEFAULT_255_1_234
10
5.7121127
20
226.8904
11
5.5627224
21
226.8904
0
LINE
8
DEFAULT_255_1_234
10
5.5627224
20
226.8904
11
5.5627224
21
227.1618728
0
LINE
8
DEFAULT_255_1_234
10
5.5627224
20
227.1618728
11
5.0302181
21
227.1618728
0
LINE
8
DEFAULT_255_1_234
10
5.0302181
20
227.1618728
11
5.0302181
21
227.2494187
0
LINE
8
DEFAULT_255_1_234
10
5.0302181
20
227.2494187
11
5.5538875
21
228.0598211
0
LINE
8
DEFAULT_255_1_234
10
5.5538875
20
228.0598211
11
5.7121127
21
228.0598211
0
LINE
8
DEFAULT_255_1_234
10
5.5450525
20
227.8244912
11
5.1988846
21
227.283152
0
LINE
8
DEFAULT_255_1_234
10
5.1988846
20
227.283152
11
5.5627224
21
227.283152
0
LINE
8
DEFAULT_255_1_234
10
5.5627224
20
227.283152
11
5.5627224
21
227.8566181
0
LINE
8
DEFAULT_255_1_234
10
5.5627224
20
227.8566181
11
5.5450525
21
227.8244912
0
LINE
8
DEFAULT_255_1_234
10
6.101652
20
228.0598211
11
6.434166
21
227.0952093
0
LINE
8
DEFAULT_255_1_234
10
6.434166
20
227.0952093
11
6.7682863
21
228.0598211
0
LINE
8
DEFAULT_255_1_234
10
6.7682863
20
228.0598211
11
6.9369528
21
228.0598211
0
LINE
8
DEFAULT_255_1_234
10
6.9369528
20
228.0598211
11
6.5032389
21
226.8904
0
LINE
8
DEFAULT_255_1_234
10
6.5032389
20
226.8904
11
6.3666994
21
226.8904
0
LINE
8
DEFAULT_255_1_234
10
6.3666994
20
226.8904
11
5.9337887
21
228.0598211
0
LINE
8
DEFAULT_255_1_234
10
5.9337887
20
228.0598211
11
6.101652
21
228.0598211
0
LINE
8
DEFAULT_255_1_234
10
4.872323
20
5.0114663
11
5.0273355
21
5.0114663
0
LINE
8
DEFAULT_255_1_234
10
4.1269777
20
5.1704947
11
4.1269777
21
5.2829391
0
LINE
8
DEFAULT_255_1_234
10
5.0273355
20
5.4339357
11
4.872323
21
5.4339357
0
LINE
8
DEFAULT_255_1_234
10
4.2819902
20
5.2789232
11
4.2819902
21
5.1656757
0
ARC
8
DEFAULT_255_1_234
10
4.4792742
20
5.0711846
40
0.5513052
50
340.1774281
51
353.7814284
0
ARC
8
DEFAULT_255_1_234
10
4.6364095
20
5.0126582
40
0.3836379
50
311.4558989
51
340.4421614
0
ARC
8
DEFAULT_255_1_234
10
4.6330763
20
5.0237528
40
0.3941894
50
282.4333181
51
310.7513653
0
ARC
8
DEFAULT_255_1_234
10
4.5891502
20
5.2052679
40
0.5809175
50
269.9358511
51
282.809604
0
ARC
8
DEFAULT_255_1_234
10
4.5839568
20
5.3510212
40
0.7266847
50
270.0021091
51
270.3581957
0
ARC
8
DEFAULT_255_1_234
10
4.5786985
20
5.0909585
40
0.4666519
50
250.7884749
51
270.6489167
0
ARC
8
DEFAULT_255_1_234
10
4.561882
20
5.0272319
40
0.4009729
50
219.3627325
51
250.0611886
0
ARC
8
DEFAULT_255_1_234
10
4.6448031
20
5.0977042
40
0.5097822
50
193.5479632
51
219.5756669
0
ARC
8
DEFAULT_255_1_234
10
4.8819652
20
5.1592919
40
0.7547848
50
181.1218675
51
193.87563
0
ARC
8
DEFAULT_255_1_234
10
5.0889833
20
5.170358
40
0.9620055
50
179.9918545
51
181.5394234
0
ARC
8
DEFAULT_255_1_234
10
4.9038935
20
5.2866788
40
0.7769248
50
169.5837241
51
180.2757934
0
ARC
8
DEFAULT_255_1_234
10
4.7201873
20
5.3206229
40
0.590109
50
155.0365899
51
169.6003176
0
ARC
8
DEFAULT_255_1_234
10
4.6066337
20
5.3753677
40
0.4640625
50
136.783148
51
155.2472683
0
ARC
8
DEFAULT_255_1_234
10
4.5676814
20
5.4084562
40
0.4130255
50
121.7633186
51
136.428115
0
ARC
8
DEFAULT_255_1_234
10
4.5811776
20
5.3835227
40
0.4413323
50
95.6459699
51
121.5490577
0
ARC
8
DEFAULT_255_1_234
10
4.5969058
20
5.2726949
40
0.55319
50
89.924208
51
96.1377933
0
ARC
8
DEFAULT_255_1_234
10
4.6019491
20
5.2845542
40
0.5413475
50
76.6779277
51
90.4563316
0
ARC
8
DEFAULT_255_1_234
10
4.6413114
20
5.4436114
40
0.3775041
50
47.485847
51
76.9287264
0
ARC
8
DEFAULT_255_1_234
10
4.6266087
20
5.4336159
40
0.3948286
50
16.5424086
51
46.8933463
0
ARC
8
DEFAULT_255_1_234
10
4.4658244
20
5.3807861
40
0.564021
50
5.4072051
51
17.0365086
0
ARC
8
DEFAULT_255_1_234
10
4.3219261
20
5.3576679
40
0.5556559
50
7.8891745
51
15.9239216
0
ARC
8
DEFAULT_255_1_234
10
4.5206274
20
5.4153631
40
0.3487515
50
15.7653144
51
27.9410532
0
ARC
8
DEFAULT_255_1_234
10
4.6310492
20
5.474479
40
0.2235026
50
27.8166557
51
46.4008329
0
ARC
8
DEFAULT_255_1_234
10
4.6360135
20
5.4739082
40
0.2205286
50
47.4371857
51
75.0698205
0
ARC
8
DEFAULT_255_1_234
10
4.6051529
20
5.3664765
40
0.3322915
50
74.7008593
51
87.8124495
0
ARC
8
DEFAULT_255_1_234
10
4.5978217
20
5.2608844
40
0.4380987
50
87.3814673
51
90.0240855
0
ARC
8
DEFAULT_255_1_234
10
4.593976
20
5.3786291
40
0.3203749
50
89.3451631
51
108.5745436
0
ARC
8
DEFAULT_255_1_234
10
4.5802865
20
5.4299908
40
0.2673494
50
109.2998449
51
143.3037509
0
ARC
8
DEFAULT_255_1_234
10
4.6564938
20
5.3713881
40
0.3634757
50
143.0753173
51
163.1916937
0
ARC
8
DEFAULT_255_1_234
10
4.8516666
20
5.3097967
40
0.5681262
50
162.9373603
51
174.6208611
0
ARC
8
DEFAULT_255_1_234
10
5.1142708
20
5.281001
40
0.8322832
50
174.3419979
51
180.1430411
0
ARC
8
DEFAULT_255_1_234
10
5.0211864
20
5.1615698
40
0.7392076
50
179.6817502
51
189.150529
0
ARC
8
DEFAULT_255_1_234
10
4.7711112
20
5.119919
40
0.4856932
50
188.9910863
51
203.5773039
0
ARC
8
DEFAULT_255_1_234
10
4.6631445
20
5.0751211
40
0.3688271
50
203.9077269
51
215.1312379
0
ARC
8
DEFAULT_255_1_234
10
4.5708539
20
5.0035941
40
0.2522457
50
213.9071664
51
263.8849284
0
ARC
8
DEFAULT_255_1_234
10
4.5833868
20
5.0820518
40
0.3316174
50
263.1758525
51
270.1031083
0
ARC
8
DEFAULT_255_1_234
10
4.586596
20
5.2067365
40
0.4563091
50
269.6719807
51
279.0609165
0
ARC
8
DEFAULT_255_1_234
10
4.6132728
20
5.0454907
40
0.2928759
50
278.8750225
51
293.6346586
0
ARC
8
DEFAULT_255_1_234
10
4.6452936
20
4.97029
40
0.2111472
50
293.8553404
51
310.0518804
0
ARC
8
DEFAULT_255_1_234
10
4.645779
20
4.9640516
40
0.2060917
50
311.0646779
51
332.0108348
0
ARC
8
DEFAULT_255_1_234
10
4.5265517
20
5.0297978
40
0.3422352
50
331.6588543
51
343.2878891
0
ARC
8
DEFAULT_255_1_234
10
4.3203032
20
5.0931798
40
0.5580003
50
343.1446044
51
351.010618
0
ARC
8
DEFAULT_255_1_234
10
4.1661678
20
5.1212871
40
0.7146438
50
350.7157277
51
351.1602153
0
LINE
8
DEFAULT_255_1_234
10
6.0224679
20
5.8098211
11
6.0224679
21
5.6829196
0
LINE
8
DEFAULT_255_1_234
10
6.0224679
20
5.6829196
11
5.6465826
21
5.6829196
0
LINE
8
DEFAULT_255_1_234
10
5.6465826
20
5.6829196
11
5.6465826
21
4.6404
0
LINE
8
DEFAULT_255_1_234
10
5.6465826
20
4.6404
11
5.4931764
21
4.6404
0
LINE
8
DEFAULT_255_1_234
10
5.4931764
20
4.6404
11
5.4931764
21
5.6829196
0
LINE
8
DEFAULT_255_1_234
10
5.4931764
20
5.6829196
11
5.1180942
21
5.6829196
0
LINE
8
DEFAULT_255_1_234
10
5.1180942
20
5.6829196
11
5.1180942
21
5.8098211
0
LINE
8
DEFAULT_255_1_234
10
5.1180942
20
5.8098211
11
6.0224679
21
5.8098211
0
ARC
8
DEFAULT_255_1_234
10
6.5843795
20
5.5020703
40
0.2822356
50
338.8763615
51
0.5166041
0
ARC
8
DEFAULT_255_1_234
10
6.6012449
20
5.4975208
40
0.2648703
50
325.8412414
51
338.4795939
0
ARC
8
DEFAULT_255_1_234
10
6.5621817
20
5.5246042
40
0.3124019
50
296.7586019
51
325.753654
0
ARC
8
DEFAULT_255_1_234
10
6.5333925
20
5.5730789
40
0.368668
50
296.0902311
51
297.3618122
0
ARC
8
DEFAULT_255_1_234
10
6.5591383
20
4.9176041
40
0.3518806
50
47.9009248
51
67.1946869
0
ARC
8
DEFAULT_255_1_234
10
6.5787625
20
4.9422395
40
0.320451
50
35.236241
51
47.551371
0
ARC
8
DEFAULT_255_1_234
10
6.6049243
20
4.9596993
40
0.2890103
50
359.2759738
51
35.4014081
0
ARC
8
DEFAULT_255_1_234
10
6.5304274
20
4.9523826
40
0.3635026
50
343.1294516
51
0.5776525
0
ARC
8
DEFAULT_255_1_234
10
6.6028819
20
4.932433
40
0.2883832
50
310.8497458
51
342.744803
0
ARC
8
DEFAULT_255_1_234
10
6.5610932
20
4.9801294
40
0.3517954
50
281.5473923
51
310.9169905
0
ARC
8
DEFAULT_255_1_234
10
6.5254381
20
5.1354084
40
0.5110832
50
269.6192722
51
281.9789957
0
ARC
8
DEFAULT_255_1_234
10
6.518217
20
5.1354828
40
0.5111606
50
257.4584469
51
270.4287458
0
ARC
8
DEFAULT_255_1_234
10
6.4801313
20
4.9751344
40
0.3463762
50
228.7553743
51
257.8484423
0
ARC
8
DEFAULT_255_1_234
10
6.4491512
20
4.9378442
40
0.297916
50
184.0104442
51
228.5071787
0
ARC
8
DEFAULT_255_1_234
10
6.5654456
20
4.9555512
40
0.4152734
50
179.9315461
51
185.3254504
0
ARC
8
DEFAULT_255_1_234
10
6.4478101
20
4.9592992
40
0.2976554
50
145.6795913
51
180.6259649
0
ARC
8
DEFAULT_255_1_234
10
6.4641451
20
4.9478929
40
0.3175776
50
115.5537925
51
145.6416199
0
ARC
8
DEFAULT_255_1_234
10
6.4982381
20
4.8868028
40
0.3874232
50
113.2437915
51
116.2054627
0
ARC
8
DEFAULT_255_1_234
10
6.4829594
20
5.526658
40
0.3154751
50
222.9548379
51
244.1372485
0
ARC
8
DEFAULT_255_1_234
10
6.4707669
20
5.5129834
40
0.2972382
50
213.3439227
51
222.6271327
0
ARC
8
DEFAULT_255_1_234
10
6.4515603
20
5.4999308
40
0.274019
50
180.4316517
51
213.2713999
0
ARC
8
DEFAULT_255_1_234
10
6.5090605
20
5.504611
40
0.33158
50
179.9992944
51
181.1655061
0
ARC
8
DEFAULT_255_1_234
10
6.5500022
20
5.5080561
40
0.3725376
50
164.6186108
51
180.5292368
0
ARC
8
DEFAULT_255_1_234
10
6.4601885
20
5.5322101
40
0.2795349
50
132.2454369
51
164.5092287
0
ARC
8
DEFAULT_255_1_234
10
6.4888989
20
5.4997028
40
0.3229019
50
100.7052766
51
132.1387266
0
ARC
8
DEFAULT_255_1_234
10
6.5193961
20
5.3619086
40
0.4639835
50
89.6732617
51
101.2449487
0
ARC
8
DEFAULT_255_1_234
10
6.5256159
20
5.379399
40
0.4464999
50
76.2876631
51
90.4586123
0
ARC
8
DEFAULT_255_1_234
10
6.5562391
20
5.501622
40
0.3205023
50
47.8240157
51
76.4266918
0
ARC
8
DEFAULT_255_1_234
10
6.5784941
20
5.527659
40
0.2862661
50
6.9168658
51
47.6261438
0
ARC
8
DEFAULT_255_1_234
10
6.4598344
20
5.505737
40
0.4067708
50
359.8419705
51
7.9694496
0
ARC
8
DEFAULT_255_1_234
10
6.4940241
20
4.9616925
40
0.2513121
50
359.4454068
51
16.9256425
0
ARC
8
DEFAULT_255_1_234
10
6.5409052
20
4.9746033
40
0.2027071
50
17.292259
51
45.462717
0
ARC
8
DEFAULT_255_1_234
10
6.5354988
20
4.9699434
40
0.2098212
50
45.3028762
51
83.1921472
0
ARC
8
DEFAULT_255_1_234
10
6.5211672
20
4.8897895
40
0.2911472
50
82.2614531
51
90.143954
0
ARC
8
DEFAULT_255_1_234
10
6.5180792
20
4.913095
40
0.2678513
50
89.4959189
51
104.8579811
0
ARC
8
DEFAULT_255_1_234
10
6.5004051
20
4.980089
40
0.1985654
50
104.8855873
51
135.2448349
0
ARC
8
DEFAULT_255_1_234
10
6.5053824
20
4.9756336
40
0.2052373
50
135.3398955
51
172.104394
0
ARC
8
DEFAULT_255_1_234
10
6.5860882
20
4.9601925
40
0.2873299
50
171.2651929
51
180.1859362
0
ARC
8
DEFAULT_255_1_234
10
6.5691583
20
4.9569733
40
0.2704083
50
179.515471
51
193.6466734
0
ARC
8
DEFAULT_255_1_234
10
6.4875352
20
4.9361777
40
0.1861855
50
193.3540587
51
225.8256931
0
ARC
8
DEFAULT_255_1_234
10
6.4916109
20
4.9432524
40
0.1941102
50
226.418029
51
255.8553723
0
ARC
8
DEFAULT_255_1_234
10
6.5172542
20
5.0368998
40
0.2911917
50
255.4655572
51
268.7985967
0
ARC
8
DEFAULT_255_1_234
10
6.5219734
20
5.1207491
40
0.3751331
50
268.3464808
51
270.0104874
0
ARC
8
DEFAULT_255_1_234
10
6.5243122
20
5.0523138
40
0.3067064
50
269.575914
51
282.0823146
0
ARC
8
DEFAULT_255_1_234
10
6.5468031
20
4.9528803
40
0.2047712
50
281.7522535
51
306.6056425
0
ARC
8
DEFAULT_255_1_234
10
6.5566457
20
4.9367487
40
0.1859604
50
307.1350025
51
314.0277951
0
ARC
8
DEFAULT_255_1_234
10
6.5530541
20
4.9393766
40
0.1903475
50
314.2553419
51
350.169324
0
ARC
8
DEFAULT_255_1_234
10
6.467901
20
4.9578409
40
0.2774269
50
349.4145679
51
0.2930737
0
ARC
8
DEFAULT_255_1_234
10
6.5199443
20
5.4737353
40
0.2300764
50
89.477591
51
105.729794
0
ARC
8
DEFAULT_255_1_234
10
6.5063356
20
5.5242637
40
0.1777519
50
105.922966
51
135.1662921
0
ARC
8
DEFAULT_255_1_234
10
6.5083859
20
5.5228419
40
0.1802087
50
135.3053131
51
168.9882338
0
ARC
8
DEFAULT_255_1_234
10
6.5911431
20
5.5038721
40
0.2650806
50
168.3802067
51
180.3602358
0
ARC
8
DEFAULT_255_1_234
10
6.568301
20
5.5001041
40
0.2422425
50
179.5029707
51
194.9126783
0
ARC
8
DEFAULT_255_1_234
10
6.5097671
20
5.484711
40
0.1817188
50
194.9722181
51
224.1943972
0
ARC
8
DEFAULT_255_1_234
10
6.5069539
20
5.4824169
40
0.1781027
50
224.2961434
51
262.0157375
0
ARC
8
DEFAULT_255_1_234
10
6.5211782
20
5.5555661
40
0.2525492
50
261.1250369
51
270.1959853
0
ARC
8
DEFAULT_255_1_234
10
6.5241537
20
5.5368339
40
0.233825
50
269.4825617
51
285.0988277
0
ARC
8
DEFAULT_255_1_234
10
6.5395696
20
5.478999
40
0.1739712
50
285.1585659
51
315.9484648
0
ARC
8
DEFAULT_255_1_234
10
6.5306708
20
5.4871886
40
0.1860616
50
316.0412958
51
351.9162715
0
ARC
8
DEFAULT_255_1_234
10
6.4573663
20
5.5013245
40
0.2606517
50
351.1056823
51
0.1936567
0
ARC
8
DEFAULT_255_1_234
10
6.4836492
20
5.5043369
40
0.234377
50
359.4789506
51
16.0679113
0
ARC
8
DEFAULT_255_1_234
10
6.5312451
20
5.517181
40
0.1850875
50
16.3251951
51
44.791304
0
ARC
8
DEFAULT_255_1_234
10
6.5294732
20
5.5172339
40
0.186312
50
44.3958661
51
88.2498933
0
ARC
8
DEFAULT_255_1_234
10
6.5221286
20
5.4561154
40
0.2476868
50
86.9833827
51
90.0200148
0
LINE
8
DEFAULT_255_1_234
10
4.872323
20
12.9489663
11
5.0273355
21
12.9489663
0
LINE
8
DEFAULT_255_1_234
10
4.1269777
20
13.1079947
11
4.1269777
21
13.2204391
0
LINE
8
DEFAULT_255_1_234
10
5.0273355
20
13.3714357
11
4.872323
21
13.3714357
0
LINE
8
DEFAULT_255_1_234
10
4.2819902
20
13.2164232
11
4.2819902
21
13.1031757
0
ARC
8
DEFAULT_255_1_234
10
4.4792742
20
13.0086846
40
0.5513052
50
340.1774281
51
353.7814284
0
ARC
8
DEFAULT_255_1_234
10
4.6364095
20
12.9501582
40
0.3836379
50
311.4558989
51
340.4421614
0
ARC
8
DEFAULT_255_1_234
10
4.6330763
20
12.9612528
40
0.3941894
50
282.4333181
51
310.7513653
0
ARC
8
DEFAULT_255_1_234
10
4.5891502
20
13.1427679
40
0.5809175
50
269.9358511
51
282.809604
0
ARC
8
DEFAULT_255_1_234
10
4.5839568
20
13.2885212
40
0.7266847
50
270.0021091
51
270.3581957
0
ARC
8
DEFAULT_255_1_234
10
4.5786985
20
13.0284585
40
0.4666519
50
250.7884749
51
270.6489167
0
ARC
8
DEFAULT_255_1_234
10
4.561882
20
12.9647319
40
0.4009729
50
219.3627325
51
250.0611886
0
ARC
8
DEFAULT_255_1_234
10
4.6448031
20
13.0352042
40
0.5097822
50
193.5479632
51
219.5756669
0
ARC
8
DEFAULT_255_1_234
10
4.8819652
20
13.0967919
40
0.7547848
50
181.1218675
51
193.87563
0
ARC
8
DEFAULT_255_1_234
10
5.0889833
20
13.107858
40
0.9620055
50
179.9918545
51
181.5394234
0
ARC
8
DEFAULT_255_1_234
10
4.9038935
20
13.2241788
40
0.7769248
50
169.5837241
51
180.2757934
0
ARC
8
DEFAULT_255_1_234
10
4.7201873
20
13.2581229
40
0.590109
50
155.0365899
51
169.6003176
0
ARC
8
DEFAULT_255_1_234
10
4.6066337
20
13.3128677
40
0.4640625
50
136.783148
51
155.2472683
0
ARC
8
DEFAULT_255_1_234
10
4.5676814
20
13.3459562
40
0.4130255
50
121.7633186
51
136.428115
0
ARC
8
DEFAULT_255_1_234
10
4.5811776
20
13.3210227
40
0.4413323
50
95.6459699
51
121.5490577
0
ARC
8
DEFAULT_255_1_234
10
4.5969058
20
13.2101949
40
0.55319
50
89.924208
51
96.1377933
0
ARC
8
DEFAULT_255_1_234
10
4.6019491
20
13.2220542
40
0.5413475
50
76.6779277
51
90.4563316
0
ARC
8
DEFAULT_255_1_234
10
4.6413114
20
13.3811114
40
0.3775041
50
47.485847
51
76.9287264
0
ARC
8
DEFAULT_255_1_234
10
4.6266087
20
13.3711159
40
0.3948286
50
16.5424086
51
46.8933463
0
ARC
8
DEFAULT_255_1_234
10
4.4658244
20
13.3182861
40
0.564021
50
5.4072051
51
17.0365086
0
ARC
8
DEFAULT_255_1_234
10
4.3219261
20
13.2951679
40
0.5556559
50
7.8891745
51
15.9239216
0
ARC
8
DEFAULT_255_1_234
10
4.5206274
20
13.3528631
40
0.3487515
50
15.7653144
51
27.9410532
0
ARC
8
DEFAULT_255_1_234
10
4.6310492
20
13.411979
40
0.2235026
50
27.8166557
51
46.4008329
0
ARC
8
DEFAULT_255_1_234
10
4.6360135
20
13.4114082
40
0.2205286
50
47.4371857
51
75.0698205
0
ARC
8
DEFAULT_255_1_234
10
4.6051529
20
13.3039765
40
0.3322915
50
74.7008593
51
87.8124495
0
ARC
8
DEFAULT_255_1_234
10
4.5978217
20
13.1983844
40
0.4380987
50
87.3814673
51
90.0240855
0
ARC
8
DEFAULT_255_1_234
10
4.593976
20
13.3161291
40
0.3203749
50
89.3451631
51
108.5745436
0
ARC
8
DEFAULT_255_1_234
10
4.5802865
20
13.3674908
40
0.2673494
50
109.2998449
51
143.3037509
0
ARC
8
DEFAULT_255_1_234
10
4.6564938
20
13.3088881
40
0.3634757
50
143.0753173
51
163.1916937
0
ARC
8
DEFAULT_255_1_234
10
4.8516666
20
13.2472967
40
0.5681262
50
162.9373603
51
174.6208611
0
ARC
8
DEFAULT_255_1_234
10
5.1142708
20
13.218501
40
0.8322832
50
174.3419979
51
180.1430411
0
ARC
8
DEFAULT_255_1_234
10
5.0211864
20
13.0990698
40
0.7392076
50
179.6817502
51
189.150529
0
ARC
8
DEFAULT_255_1_234
10
4.7711112
20
13.057419
40
0.4856932
50
188.9910863
51
203.5773039
0
ARC
8
DEFAULT_255_1_234
10
4.6631445
20
13.0126211
40
0.3688271
50
203.9077269
51
215.1312379
0
ARC
8
DEFAULT_255_1_234
10
4.5708539
20
12.9410941
40
0.2522457
50
213.9071664
51
263.8849284
0
ARC
8
DEFAULT_255_1_234
10
4.5833868
20
13.0195518
40
0.3316174
50
263.1758525
51
270.1031083
0
ARC
8
DEFAULT_255_1_234
10
4.586596
20
13.1442365
40
0.4563091
50
269.6719807
51
279.0609165
0
ARC
8
DEFAULT_255_1_234
10
4.6132728
20
12.9829907
40
0.2928759
50
278.8750225
51
293.6346586
0
ARC
8
DEFAULT_255_1_234
10
4.6452936
20
12.90779
40
0.2111472
50
293.8553404
51
310.0518804
0
ARC
8
DEFAULT_255_1_234
10
4.645779
20
12.9015516
40
0.2060917
50
311.0646779
51
332.0108348
0
ARC
8
DEFAULT_255_1_234
10
4.5265517
20
12.9672978
40
0.3422352
50
331.6588543
51
343.2878891
0
ARC
8
DEFAULT_255_1_234
10
4.3203032
20
13.0306798
40
0.5580003
50
343.1446044
51
351.010618
0
ARC
8
DEFAULT_255_1_234
10
4.1661678
20
13.0587871
40
0.7146438
50
350.7157277
51
351.1602153
0
LINE
8
DEFAULT_255_1_234
10
6.0224679
20
13.7473211
11
6.0224679
21
13.6204196
0
LINE
8
DEFAULT_255_1_234
10
6.0224679
20
13.6204196
11
5.6465826
21
13.6204196
0
LINE
8
DEFAULT_255_1_234
10
5.6465826
20
13.6204196
11
5.6465826
21
12.5779
0
LINE
8
DEFAULT_255_1_234
10
5.6465826
20
12.5779
11
5.4931764
21
12.5779
0
LINE
8
DEFAULT_255_1_234
10
5.4931764
20
12.5779
11
5.4931764
21
13.6204196
0
LINE
8
DEFAULT_255_1_234
10
5.4931764
20
13.6204196
11
5.1180942
21
13.6204196
0
LINE
8
DEFAULT_255_1_234
10
5.1180942
20
13.6204196
11
5.1180942
21
13.7473211
0
LINE
8
DEFAULT_255_1_234
10
5.1180942
20
13.7473211
11
6.0224679
21
13.7473211
0
ARC
8
DEFAULT_255_1_234
10
6.5843795
20
13.4395703
40
0.2822356
50
338.8763615
51
0.5166041
0
ARC
8
DEFAULT_255_1_234
10
6.6012449
20
13.4350208
40
0.2648703
50
325.8412414
51
338.4795939
0
ARC
8
DEFAULT_255_1_234
10
6.5621817
20
13.4621042
40
0.3124019
50
296.7586019
51
325.753654
0
ARC
8
DEFAULT_255_1_234
10
6.5333925
20
13.5105789
40
0.368668
50
296.0902311
51
297.3618122
0
ARC
8
DEFAULT_255_1_234
10
6.5591383
20
12.8551041
40
0.3518806
50
47.9009248
51
67.1946869
0
ARC
8
DEFAULT_255_1_234
10
6.5787625
20
12.8797395
40
0.320451
50
35.236241
51
47.551371
0
ARC
8
DEFAULT_255_1_234
10
6.6049243
20
12.8971993
40
0.2890103
50
359.2759738
51
35.4014081
0
ARC
8
DEFAULT_255_1_234
10
6.5304274
20
12.8898826
40
0.3635026
50
343.1294516
51
0.5776525
0
ARC
8
DEFAULT_255_1_234
10
6.6028819
20
12.869933
40
0.2883832
50
310.8497458
51
342.744803
0
ARC
8
DEFAULT_255_1_234
10
6.5610932
20
12.9176294
40
0.3517954
50
281.5473923
51
310.9169905
0
ARC
8
DEFAULT_255_1_234
10
6.5254381
20
13.0729084
40
0.5110832
50
269.6192722
51
281.9789957
0
ARC
8
DEFAULT_255_1_234
10
6.518217
20
13.0729828
40
0.5111606
50
257.4584469
51
270.4287458
0
ARC
8
DEFAULT_255_1_234
10
6.4801313
20
12.9126344
40
0.3463762
50
228.7553743
51
257.8484423
0
ARC
8
DEFAULT_255_1_234
10
6.4491512
20
12.8753442
40
0.297916
50
184.0104442
51
228.5071787
0
ARC
8
DEFAULT_255_1_234
10
6.5654456
20
12.8930512
40
0.4152734
50
179.9315461
51
185.3254504
0
ARC
8
DEFAULT_255_1_234
10
6.4478101
20
12.8967992
40
0.2976554
50
145.6795913
51
180.6259649
0
ARC
8
DEFAULT_255_1_234
10
6.4641451
20
12.8853929
40
0.3175776
50
115.5537925
51
145.6416199
0
ARC
8
DEFAULT_255_1_234
10
6.4982381
20
12.8243028
40
0.3874232
50
113.2437915
51
116.2054627
0
ARC
8
DEFAULT_255_1_234
10
6.4829594
20
13.464158
40
0.3154751
50
222.9548379
51
244.1372485
0
ARC
8
DEFAULT_255_1_234
10
6.4707669
20
13.4504834
40
0.2972382
50
213.3439227
51
222.6271327
0
ARC
8
DEFAULT_255_1_234
10
6.4515603
20
13.4374308
40
0.274019
50
180.4316517
51
213.2713999
0
ARC
8
DEFAULT_255_1_234
10
6.5090605
20
13.442111
40
0.33158
50
179.9992944
51
181.1655061
0
ARC
8
DEFAULT_255_1_234
10
6.5500022
20
13.4455561
40
0.3725376
50
164.6186108
51
180.5292368
0
ARC
8
DEFAULT_255_1_234
10
6.4601885
20
13.4697101
40
0.2795349
50
132.2454369
51
164.5092287
0
ARC
8
DEFAULT_255_1_234
10
6.4888989
20
13.4372028
40
0.3229019
50
100.7052766
51
132.1387266
0
ARC
8
DEFAULT_255_1_234
10
6.5193961
20
13.2994086
40
0.4639835
50
89.6732617
51
101.2449487
0
ARC
8
DEFAULT_255_1_234
10
6.5256159
20
13.316899
40
0.4464999
50
76.2876631
51
90.4586123
0
ARC
8
DEFAULT_255_1_234
10
6.5562391
20
13.439122
40
0.3205023
50
47.8240157
51
76.4266918
0
ARC
8
DEFAULT_255_1_234
10
6.5784941
20
13.465159
40
0.2862661
50
6.9168658
51
47.6261438
0
ARC
8
DEFAULT_255_1_234
10
6.4598344
20
13.443237
40
0.4067708
50
359.8419705
51
7.9694496
0
ARC
8
DEFAULT_255_1_234
10
6.4940241
20
12.8991925
40
0.2513121
50
359.4454068
51
16.9256425
0
ARC
8
DEFAULT_255_1_234
10
6.5409052
20
12.9121033
40
0.2027071
50
17.292259
51
45.462717
0
ARC
8
DEFAULT_255_1_234
10
6.5354988
20
12.9074434
40
0.2098212
50
45.3028762
51
83.1921472
0
ARC
8
DEFAULT_255_1_234
10
6.5211672
20
12.8272895
40
0.2911472
50
82.2614531
51
90.143954
0
ARC
8
DEFAULT_255_1_234
10
6.5180792
20
12.850595
40
0.2678513
50
89.4959189
51
104.8579811
0
ARC
8
DEFAULT_255_1_234
10
6.5004051
20
12.917589
40
0.1985654
50
104.8855873
51
135.2448349
0
ARC
8
DEFAULT_255_1_234
10
6.5053824
20
12.9131336
40
0.2052373
50
135.3398955
51
172.104394
0
ARC
8
DEFAULT_255_1_234
10
6.5860882
20
12.8976925
40
0.2873299
50
171.2651929
51
180.1859362
0
ARC
8
DEFAULT_255_1_234
10
6.5691583
20
12.8944733
40
0.2704083
50
179.515471
51
193.6466734
0
ARC
8
DEFAULT_255_1_234
10
6.4875352
20
12.8736777
40
0.1861855
50
193.3540587
51
225.8256931
0
ARC
8
DEFAULT_255_1_234
10
6.4916109
20
12.8807524
40
0.1941102
50
226.418029
51
255.8553723
0
ARC
8
DEFAULT_255_1_234
10
6.5172542
20
12.9743998
40
0.2911917
50
255.4655572
51
268.7985967
0
ARC
8
DEFAULT_255_1_234
10
6.5219734
20
13.0582491
40
0.3751331
50
268.3464808
51
270.0104874
0
ARC
8
DEFAULT_255_1_234
10
6.5243122
20
12.9898138
40
0.3067064
50
269.575914
51
282.0823146
0
ARC
8
DEFAULT_255_1_234
10
6.5468031
20
12.8903803
40
0.2047712
50
281.7522535
51
306.6056425
0
ARC
8
DEFAULT_255_1_234
10
6.5566457
20
12.8742487
40
0.1859604
50
307.1350025
51
314.0277951
0
ARC
8
DEFAULT_255_1_234
10
6.5530541
20
12.8768766
40
0.1903475
50
314.2553419
51
350.169324
0
ARC
8
DEFAULT_255_1_234
10
6.467901
20
12.8953409
40
0.2774269
50
349.4145679
51
0.2930737
0
ARC
8
DEFAULT_255_1_234
10
6.5199443
20
13.4112353
40
0.2300764
50
89.477591
51
105.729794
0
ARC
8
DEFAULT_255_1_234
10
6.5063356
20
13.4617637
40
0.1777519
50
105.922966
51
135.1662921
0
ARC
8
DEFAULT_255_1_234
10
6.5083859
20
13.4603419
40
0.1802087
50
135.3053131
51
168.9882338
0
ARC
8
DEFAULT_255_1_234
10
6.5911431
20
13.4413721
40
0.2650806
50
168.3802067
51
180.3602358
0
ARC
8
DEFAULT_255_1_234
10
6.568301
20
13.4376041
40
0.2422425
50
179.5029707
51
194.9126783
0
ARC
8
DEFAULT_255_1_234
10
6.5097671
20
13.422211
40
0.1817188
50
194.9722181
51
224.1943972
0
ARC
8
DEFAULT_255_1_234
10
6.5069539
20
13.4199169
40
0.1781027
50
224.2961434
51
262.0157375
0
ARC
8
DEFAULT_255_1_234
10
6.5211782
20
13.4930661
40
0.2525492
50
261.1250369
51
270.1959853
0
ARC
8
DEFAULT_255_1_234
10
6.5241537
20
13.4743339
40
0.233825
50
269.4825617
51
285.0988277
0
ARC
8
DEFAULT_255_1_234
10
6.5395696
20
13.416499
40
0.1739712
50
285.1585659
51
315.9484648
0
ARC
8
DEFAULT_255_1_234
10
6.5306708
20
13.4246886
40
0.1860616
50
316.0412958
51
351.9162715
0
ARC
8
DEFAULT_255_1_234
10
6.4573663
20
13.4388245
40
0.2606517
50
351.1056823
51
0.1936567
0
ARC
8
DEFAULT_255_1_234
10
6.4836492
20
13.4418369
40
0.234377
50
359.4789506
51
16.0679113
0
ARC
8
DEFAULT_255_1_234
10
6.5312451
20
13.454681
40
0.1850875
50
16.3251951
51
44.791304
0
ARC
8
DEFAULT_255_1_234
10
6.5294732
20
13.4547339
40
0.186312
50
44.3958661
51
88.2498933
0
ARC
8
DEFAULT_255_1_234
10
6.5221286
20
13.3936154
40
0.2476868
50
86.9833827
51
90.0200148
0
LINE
8
DEFAULT_255_1_234
10
4.872323
20
20.8864663
11
5.0273355
21
20.8864663
0
LINE
8
DEFAULT_255_1_234
10
4.1269777
20
21.0454947
11
4.1269777
21
21.1579391
0
LINE
8
DEFAULT_255_1_234
10
5.0273355
20
21.3089357
11
4.872323
21
21.3089357
0
LINE
8
DEFAULT_255_1_234
10
4.2819902
20
21.1539232
11
4.2819902
21
21.0406757
0
ARC
8
DEFAULT_255_1_234
10
4.4792742
20
20.9461846
40
0.5513052
50
340.1774281
51
353.7814284
0
ARC
8
DEFAULT_255_1_234
10
4.6364095
20
20.8876582
40
0.3836379
50
311.4558989
51
340.4421614
0
ARC
8
DEFAULT_255_1_234
10
4.6330763
20
20.8987528
40
0.3941894
50
282.4333181
51
310.7513653
0
ARC
8
DEFAULT_255_1_234
10
4.5891502
20
21.0802679
40
0.5809175
50
269.9358511
51
282.809604
0
ARC
8
DEFAULT_255_1_234
10
4.5839568
20
21.2260212
40
0.7266847
50
270.0021091
51
270.3581957
0
ARC
8
DEFAULT_255_1_234
10
4.5786985
20
20.9659585
40
0.4666519
50
250.7884749
51
270.6489167
0
ARC
8
DEFAULT_255_1_234
10
4.561882
20
20.9022319
40
0.4009729
50
219.3627325
51
250.0611886
0
ARC
8
DEFAULT_255_1_234
10
4.6448031
20
20.9727042
40
0.5097822
50
193.5479632
51
219.5756669
0
ARC
8
DEFAULT_255_1_234
10
4.8819652
20
21.0342919
40
0.7547848
50
181.1218675
51
193.87563
0
ARC
8
DEFAULT_255_1_234
10
5.0889833
20
21.045358
40
0.9620055
50
179.9918545
51
181.5394234
0
ARC
8
DEFAULT_255_1_234
10
4.9038935
20
21.1616788
40
0.7769248
50
169.5837241
51
180.2757934
0
ARC
8
DEFAULT_255_1_234
10
4.7201873
20
21.1956229
40
0.590109
50
155.0365899
51
169.6003176
0
ARC
8
DEFAULT_255_1_234
10
4.6066337
20
21.2503677
40
0.4640625
50
136.783148
51
155.2472683
0
ARC
8
DEFAULT_255_1_234
10
4.5676814
20
21.2834562
40
0.4130255
50
121.7633186
51
136.428115
0
ARC
8
DEFAULT_255_1_234
10
4.5811776
20
21.2585227
40
0.4413323
50
95.6459699
51
121.5490577
0
ARC
8
DEFAULT_255_1_234
10
4.5969058
20
21.1476949
40
0.55319
50
89.924208
51
96.1377933
0
ARC
8
DEFAULT_255_1_234
10
4.6019491
20
21.1595542
40
0.5413475
50
76.6779277
51
90.4563316
0
ARC
8
DEFAULT_255_1_234
10
4.6413114
20
21.3186114
40
0.3775041
50
47.485847
51
76.9287264
0
ARC
8
DEFAULT_255_1_234
10
4.6266087
20
21.3086159
40
0.3948286
50
16.5424086
51
46.8933463
0
ARC
8
DEFAULT_255_1_234
10
4.4658244
20
21.2557861
40
0.564021
50
5.4072051
51
17.0365086
0
ARC
8
DEFAULT_255_1_234
10
4.3219261
20
21.2326679
40
0.5556559
50
7.8891745
51
15.9239216
0
ARC
8
DEFAULT_255_1_234
10
4.5206274
20
21.2903631
40
0.3487515
50
15.7653144
51
27.9410532
0
ARC
8
DEFAULT_255_1_234
10
4.6310492
20
21.349479
40
0.2235026
50
27.8166557
51
46.4008329
0
ARC
8
DEFAULT_255_1_234
10
4.6360135
20
21.3489082
40
0.2205286
50
47.4371857
51
75.0698205
0
ARC
8
DEFAULT_255_1_234
10
4.6051529
20
21.2414765
40
0.3322915
50
74.7008593
51
87.8124495
0
ARC
8
DEFAULT_255_1_234
10
4.5978217
20
21.1358844
40
0.4380987
50
87.3814673
51
90.0240855
0
ARC
8
DEFAULT_255_1_234
10
4.593976
20
21.2536291
40
0.3203749
50
89.3451631
51
108.5745436
0
ARC
8
DEFAULT_255_1_234
10
4.5802865
20
21.3049908
40
0.2673494
50
109.2998449
51
143.3037509
0
ARC
8
DEFAULT_255_1_234
10
4.6564938
20
21.2463881
40
0.3634757
50
143.0753173
51
163.1916937
0
ARC
8
DEFAULT_255_1_234
10
4.8516666
20
21.1847967
40
0.5681262
50
162.9373603
51
174.6208611
0
ARC
8
DEFAULT_255_1_234
10
5.1142708
20
21.156001
40
0.8322832
50
174.3419979
51
180.1430411
0
ARC
8
DEFAULT_255_1_234
10
5.0211864
20
21.0365698
40
0.7392076
50
179.6817502
51
189.150529
0
ARC
8
DEFAULT_255_1_234
10
4.7711112
20
20.994919
40
0.4856932
50
188.9910863
51
203.5773039
0
ARC
8
DEFAULT_255_1_234
10
4.6631445
20
20.9501211
40
0.3688271
50
203.9077269
51
215.1312379
0
ARC
8
DEFAULT_255_1_234
10
4.5708539
20
20.8785941
40
0.2522457
50
213.9071664
51
263.8849284
0
ARC
8
DEFAULT_255_1_234
10
4.5833868
20
20.9570518
40
0.3316174
50
263.1758525
51
270.1031083
0
ARC
8
DEFAULT_255_1_234
10
4.586596
20
21.0817365
40
0.4563091
50
269.6719807
51
279.0609165
0
ARC
8
DEFAULT_255_1_234
10
4.6132728
20
20.9204907
40
0.2928759
50
278.8750225
51
293.6346586
0
ARC
8
DEFAULT_255_1_234
10
4.6452936
20
20.84529
40
0.2111472
50
293.8553404
51
310.0518804
0
ARC
8
DEFAULT_255_1_234
10
4.645779
20
20.8390516
40
0.2060917
50
311.0646779
51
332.0108348
0
ARC
8
DEFAULT_255_1_234
10
4.5265517
20
20.9047978
40
0.3422352
50
331.6588543
51
343.2878891
0
ARC
8
DEFAULT_255_1_234
10
4.3203032
20
20.9681798
40
0.5580003
50
343.1446044
51
351.010618
0
ARC
8
DEFAULT_255_1_234
10
4.1661678
20
20.9962871
40
0.7146438
50
350.7157277
51
351.1602153
0
LINE
8
DEFAULT_255_1_234
10
6.0224679
20
21.6848211
11
6.0224679
21
21.5579196
0
LINE
8
DEFAULT_255_1_234
10
6.0224679
20
21.5579196
11
5.6465826
21
21.5579196
0
LINE
8
DEFAULT_255_1_234
10
5.6465826
20
21.5579196
11
5.6465826
21
20.5154
0
LINE
8
DEFAULT_255_1_234
10
5.6465826
20
20.5154
11
5.4931764
21
20.5154
0
LINE
8
DEFAULT_255_1_234
10
5.4931764
20
20.5154
11
5.4931764
21
21.5579196
0
LINE
8
DEFAULT_255_1_234
10
5.4931764
20
21.5579196
11
5.1180942
21
21.5579196
0
LINE
8
DEFAULT_255_1_234
10
5.1180942
20
21.5579196
11
5.1180942
21
21.6848211
0
LINE
8
DEFAULT_255_1_234
10
5.1180942
20
21.6848211
11
6.0224679
21
21.6848211
0
LINE
8
DEFAULT_255_1_234
10
6.9123845
20
21.6848211
11
6.9123845
21
21.601291
0
LINE
8
DEFAULT_255_1_234
10
6.9123845
20
21.601291
11
6.4280707
21
20.5154
0
LINE
8
DEFAULT_255_1_234
10
6.4280707
20
20.5154
11
6.272255
21
20.5154
0
LINE
8
DEFAULT_255_1_234
10
6.272255
20
20.5154
11
6.7549625
21
21.5627387
0
LINE
8
DEFAULT_255_1_234
10
6.7549625
20
21.5627387
11
6.1220615
21
21.5627387
0
LINE
8
DEFAULT_255_1_234
10
6.1220615
20
21.5627387
11
6.1220615
21
21.6848211
0
LINE
8
DEFAULT_255_1_234
10
6.1220615
20
21.6848211
11
6.9123845
21
21.6848211
0
LINE
8
DEFAULT_255_1_234
10
4.872323
20
28.8239663
11
5.0273355
21
28.8239663
0
LINE
8
DEFAULT_255_1_234
10
4.1269777
20
28.9829947
11
4.1269777
21
29.0954391
0
LINE
8
DEFAULT_255_1_234
10
5.0273355
20
29.2464357
11
4.872323
21
29.2464357
0
LINE
8
DEFAULT_255_1_234
10
4.2819902
20
29.0914232
11
4.2819902
21
28.9781757
0
ARC
8
DEFAULT_255_1_234
10
4.4792742
20
28.8836846
40
0.5513052
50
340.1774281
51
353.7814284
0
ARC
8
DEFAULT_255_1_234
10
4.6364095
20
28.8251582
40
0.3836379
50
311.4558989
51
340.4421614
0
ARC
8
DEFAULT_255_1_234
10
4.6330763
20
28.8362528
40
0.3941894
50
282.4333181
51
310.7513653
0
ARC
8
DEFAULT_255_1_234
10
4.5891502
20
29.0177679
40
0.5809175
50
269.9358511
51
282.809604
0
ARC
8
DEFAULT_255_1_234
10
4.5839568
20
29.1635212
40
0.7266847
50
270.0021091
51
270.3581957
0
ARC
8
DEFAULT_255_1_234
10
4.5786985
20
28.9034585
40
0.4666519
50
250.7884749
51
270.6489167
0
ARC
8
DEFAULT_255_1_234
10
4.561882
20
28.8397319
40
0.4009729
50
219.3627325
51
250.0611886
0
ARC
8
DEFAULT_255_1_234
10
4.6448031
20
28.9102042
40
0.5097822
50
193.5479632
51
219.5756669
0
ARC
8
DEFAULT_255_1_234
10
4.8819652
20
28.9717919
40
0.7547848
50
181.1218675
51
193.87563
0
ARC
8
DEFAULT_255_1_234
10
5.0889833
20
28.982858
40
0.9620055
50
179.9918545
51
181.5394234
0
ARC
8
DEFAULT_255_1_234
10
4.9038935
20
29.0991788
40
0.7769248
50
169.5837241
51
180.2757934
0
ARC
8
DEFAULT_255_1_234
10
4.7201873
20
29.1331229
40
0.590109
50
155.0365899
51
169.6003176
0
ARC
8
DEFAULT_255_1_234
10
4.6066337
20
29.1878677
40
0.4640625
50
136.783148
51
155.2472683
0
ARC
8
DEFAULT_255_1_234
10
4.5676814
20
29.2209562
40
0.4130255
50
121.7633186
51
136.428115
0
ARC
8
DEFAULT_255_1_234
10
4.5811776
20
29.1960227
40
0.4413323
50
95.6459699
51
121.5490577
0
ARC
8
DEFAULT_255_1_234
10
4.5969058
20
29.0851949
40
0.55319
50
89.924208
51
96.1377933
0
ARC
8
DEFAULT_255_1_234
10
4.6019491
20
29.0970542
40
0.5413475
50
76.6779277
51
90.4563316
0
ARC
8
DEFAULT_255_1_234
10
4.6413114
20
29.2561114
40
0.3775041
50
47.485847
51
76.9287264
0
ARC
8
DEFAULT_255_1_234
10
4.6266087
20
29.2461159
40
0.3948286
50
16.5424086
51
46.8933463
0
ARC
8
DEFAULT_255_1_234
10
4.4658244
20
29.1932861
40
0.564021
50
5.4072051
51
17.0365086
0
ARC
8
DEFAULT_255_1_234
10
4.3219261
20
29.1701679
40
0.5556559
50
7.8891745
51
15.9239216
0
ARC
8
DEFAULT_255_1_234
10
4.5206274
20
29.2278631
40
0.3487515
50
15.7653144
51
27.9410532
0
ARC
8
DEFAULT_255_1_234
10
4.6310492
20
29.286979
40
0.2235026
50
27.8166557
51
46.4008329
0
ARC
8
DEFAULT_255_1_234
10
4.6360135
20
29.2864082
40
0.2205286
50
47.4371857
51
75.0698205
0
ARC
8
DEFAULT_255_1_234
10
4.6051529
20
29.1789765
40
0.3322915
50
74.7008593
51
87.8124495
0
ARC
8
DEFAULT_255_1_234
10
4.5978217
20
29.0733844
40
0.4380987
50
87.3814673
51
90.0240855
0
ARC
8
DEFAULT_255_1_234
10
4.593976
20
29.1911291
40
0.3203749
50
89.3451631
51
108.5745436
0
ARC
8
DEFAULT_255_1_234
10
4.5802865
20
29.2424908
40
0.2673494
50
109.2998449
51
143.3037509
0
ARC
8
DEFAULT_255_1_234
10
4.6564938
20
29.1838881
40
0.3634757
50
143.0753173
51
163.1916937
0
ARC
8
DEFAULT_255_1_234
10
4.8516666
20
29.1222967
40
0.5681262
50
162.9373603
51
174.6208611
0
ARC
8
DEFAULT_255_1_234
10
5.1142708
20
29.093501
40
0.8322832
50
174.3419979
51
180.1430411
0
ARC
8
DEFAULT_255_1_234
10
5.0211864
20
28.9740698
40
0.7392076
50
179.6817502
51
189.150529
0
ARC
8
DEFAULT_255_1_234
10
4.7711112
20
28.932419
40
0.4856932
50
188.9910863
51
203.5773039
0
ARC
8
DEFAULT_255_1_234
10
4.6631445
20
28.8876211
40
0.3688271
50
203.9077269
51
215.1312379
0
ARC
8
DEFAULT_255_1_234
10
4.5708539
20
28.8160941
40
0.2522457
50
213.9071664
51
263.8849284
0
ARC
8
DEFAULT_255_1_234
10
4.5833868
20
28.8945518
40
0.3316174
50
263.1758525
51
270.1031083
0
ARC
8
DEFAULT_255_1_234
10
4.586596
20
29.0192365
40
0.4563091
50
269.6719807
51
279.0609165
0
ARC
8
DEFAULT_255_1_234
10
4.6132728
20
28.8579907
40
0.2928759
50
278.8750225
51
293.6346586
0
ARC
8
DEFAULT_255_1_234
10
4.6452936
20
28.78279
40
0.2111472
50
293.8553404
51
310.0518804
0
ARC
8
DEFAULT_255_1_234
10
4.645779
20
28.7765516
40
0.2060917
50
311.0646779
51
332.0108348
0
ARC
8
DEFAULT_255_1_234
10
4.5265517
20
28.8422978
40
0.3422352
50
331.6588543
51
343.2878891
0
ARC
8
DEFAULT_255_1_234
10
4.3203032
20
28.9056798
40
0.5580003
50
343.1446044
51
351.010618
0
ARC
8
DEFAULT_255_1_234
10
4.1661678
20
28.9337871
40
0.7146438
50
350.7157277
51
351.1602153
0
LINE
8
DEFAULT_255_1_234
10
6.0224679
20
29.6223211
11
6.0224679
21
29.4954196
0
LINE
8
DEFAULT_255_1_234
10
6.0224679
20
29.4954196
11
5.6465826
21
29.4954196
0
LINE
8
DEFAULT_255_1_234
10
5.6465826
20
29.4954196
11
5.6465826
21
28.4529
0
LINE
8
DEFAULT_255_1_234
10
5.6465826
20
28.4529
11
5.4931764
21
28.4529
0
LINE
8
DEFAULT_255_1_234
10
5.4931764
20
28.4529
11
5.4931764
21
29.4954196
0
LINE
8
DEFAULT_255_1_234
10
5.4931764
20
29.4954196
11
5.1180942
21
29.4954196
0
LINE
8
DEFAULT_255_1_234
10
5.1180942
20
29.4954196
11
5.1180942
21
29.6223211
0
LINE
8
DEFAULT_255_1_234
10
5.1180942
20
29.6223211
11
6.0224679
21
29.6223211
0
LINE
8
DEFAULT_255_1_234
10
6.9123845
20
29.6223211
11
6.9123845
21
29.538791
0
LINE
8
DEFAULT_255_1_234
10
6.9123845
20
29.538791
11
6.4280707
21
28.4529
0
LINE
8
DEFAULT_255_1_234
10
6.4280707
20
28.4529
11
6.272255
21
28.4529
0
LINE
8
DEFAULT_255_1_234
10
6.272255
20
28.4529
11
6.7549625
21
29.5002387
0
LINE
8
DEFAULT_255_1_234
10
6.7549625
20
29.5002387
11
6.1220615
21
29.5002387
0
LINE
8
DEFAULT_255_1_234
10
6.1220615
20
29.5002387
11
6.1220615
21
29.6223211
0
LINE
8
DEFAULT_255_1_234
10
6.1220615
20
29.6223211
11
6.9123845
21
29.6223211
0
LINE
8
DEFAULT_255_1_234
10
4.872323
20
36.7614663
11
5.0273355
21
36.7614663
0
LINE
8
DEFAULT_255_1_234
10
4.1269777
20
36.9204947
11
4.1269777
21
37.0329391
0
LINE
8
DEFAULT_255_1_234
10
5.0273355
20
37.1839357
11
4.872323
21
37.1839357
0
LINE
8
DEFAULT_255_1_234
10
4.2819902
20
37.0289232
11
4.2819902
21
36.9156757
0
ARC
8
DEFAULT_255_1_234
10
4.4792742
20
36.8211846
40
0.5513052
50
340.1774281
51
353.7814284
0
ARC
8
DEFAULT_255_1_234
10
4.6364095
20
36.7626582
40
0.3836379
50
311.4558989
51
340.4421614
0
ARC
8
DEFAULT_255_1_234
10
4.6330763
20
36.7737528
40
0.3941894
50
282.4333181
51
310.7513653
0
ARC
8
DEFAULT_255_1_234
10
4.5891502
20
36.9552679
40
0.5809175
50
269.9358511
51
282.809604
0
ARC
8
DEFAULT_255_1_234
10
4.5839568
20
37.1010212
40
0.7266847
50
270.0021091
51
270.3581957
0
ARC
8
DEFAULT_255_1_234
10
4.5786985
20
36.8409585
40
0.4666519
50
250.7884749
51
270.6489167
0
ARC
8
DEFAULT_255_1_234
10
4.561882
20
36.7772319
40
0.4009729
50
219.3627325
51
250.0611886
0
ARC
8
DEFAULT_255_1_234
10
4.6448031
20
36.8477042
40
0.5097822
50
193.5479632
51
219.5756669
0
ARC
8
DEFAULT_255_1_234
10
4.8819652
20
36.9092919
40
0.7547848
50
181.1218675
51
193.87563
0
ARC
8
DEFAULT_255_1_234
10
5.0889833
20
36.920358
40
0.9620055
50
179.9918545
51
181.5394234
0
ARC
8
DEFAULT_255_1_234
10
4.9038935
20
37.0366788
40
0.7769248
50
169.5837241
51
180.2757934
0
ARC
8
DEFAULT_255_1_234
10
4.7201873
20
37.0706229
40
0.590109
50
155.0365899
51
169.6003176
0
ARC
8
DEFAULT_255_1_234
10
4.6066337
20
37.1253677
40
0.4640625
50
136.783148
51
155.2472683
0
ARC
8
DEFAULT_255_1_234
10
4.5676814
20
37.1584562
40
0.4130255
50
121.7633186
51
136.428115
0
ARC
8
DEFAULT_255_1_234
10
4.5811776
20
37.1335227
40
0.4413323
50
95.6459699
51
121.5490577
0
ARC
8
DEFAULT_255_1_234
10
4.5969058
20
37.0226949
40
0.55319
50
89.924208
51
96.1377933
0
ARC
8
DEFAULT_255_1_234
10
4.6019491
20
37.0345542
40
0.5413475
50
76.6779277
51
90.4563316
0
ARC
8
DEFAULT_255_1_234
10
4.6413114
20
37.1936114
40
0.3775041
50
47.485847
51
76.9287264
0
ARC
8
DEFAULT_255_1_234
10
4.6266087
20
37.1836159
40
0.3948286
50
16.5424086
51
46.8933463
0
ARC
8
DEFAULT_255_1_234
10
4.4658244
20
37.1307861
40
0.564021
50
5.4072051
51
17.0365086
0
ARC
8
DEFAULT_255_1_234
10
4.3219261
20
37.1076679
40
0.5556559
50
7.8891745
51
15.9239216
0
ARC
8
DEFAULT_255_1_234
10
4.5206274
20
37.1653631
40
0.3487515
50
15.7653144
51
27.9410532
0
ARC
8
DEFAULT_255_1_234
10
4.6310492
20
37.224479
40
0.2235026
50
27.8166557
51
46.4008329
0
ARC
8
DEFAULT_255_1_234
10
4.6360135
20
37.2239082
40
0.2205286
50
47.4371857
51
75.0698205
0
ARC
8
DEFAULT_255_1_234
10
4.6051529
20
37.1164765
40
0.3322915
50
74.7008593
51
87.8124495
0
ARC
8
DEFAULT_255_1_234
10
4.5978217
20
37.0108844
40
0.4380987
50
87.3814673
51
90.0240855
0
ARC
8
DEFAULT_255_1_234
10
4.593976
20
37.1286291
40
0.3203749
50
89.3451631
51
108.5745436
0
ARC
8
DEFAULT_255_1_234
10
4.5802865
20
37.1799908
40
0.2673494
50
109.2998449
51
143.3037509
0
ARC
8
DEFAULT_255_1_234
10
4.6564938
20
37.1213881
40
0.3634757
50
143.0753173
51
163.1916937
0
ARC
8
DEFAULT_255_1_234
10
4.8516666
20
37.0597967
40
0.5681262
50
162.9373603
51
174.6208611
0
ARC
8
DEFAULT_255_1_234
10
5.1142708
20
37.031001
40
0.8322832
50
174.3419979
51
180.1430411
0
ARC
8
DEFAULT_255_1_234
10
5.0211864
20
36.9115698
40
0.7392076
50
179.6817502
51
189.150529
0
ARC
8
DEFAULT_255_1_234
10
4.7711112
20
36.869919
40
0.4856932
50
188.9910863
51
203.5773039
0
ARC
8
DEFAULT_255_1_234
10
4.6631445
20
36.8251211
40
0.3688271
50
203.9077269
51
215.1312379
0
ARC
8
DEFAULT_255_1_234
10
4.5708539
20
36.7535941
40
0.2522457
50
213.9071664
51
263.8849284
0
ARC
8
DEFAULT_255_1_234
10
4.5833868
20
36.8320518
40
0.3316174
50
263.1758525
51
270.1031083
0
ARC
8
DEFAULT_255_1_234
10
4.586596
20
36.9567365
40
0.4563091
50
269.6719807
51
279.0609165
0
ARC
8
DEFAULT_255_1_234
10
4.6132728
20
36.7954907
40
0.2928759
50
278.8750225
51
293.6346586
0
ARC
8
DEFAULT_255_1_234
10
4.6452936
20
36.72029
40
0.2111472
50
293.8553404
51
310.0518804
0
ARC
8
DEFAULT_255_1_234
10
4.645779
20
36.7140516
40
0.2060917
50
311.0646779
51
332.0108348
0
ARC
8
DEFAULT_255_1_234
10
4.5265517
20
36.7797978
40
0.3422352
50
331.6588543
51
343.2878891
0
ARC
8
DEFAULT_255_1_234
10
4.3203032
20
36.8431798
40
0.5580003
50
343.1446044
51
351.010618
0
ARC
8
DEFAULT_255_1_234
10
4.1661678
20
36.8712871
40
0.7146438
50
350.7157277
51
351.1602153
0
LINE
8
DEFAULT_255_1_234
10
6.0224679
20
37.5598211
11
6.0224679
21
37.4329196
0
LINE
8
DEFAULT_255_1_234
10
6.0224679
20
37.4329196
11
5.6465826
21
37.4329196
0
LINE
8
DEFAULT_255_1_234
10
5.6465826
20
37.4329196
11
5.6465826
21
36.3904
0
LINE
8
DEFAULT_255_1_234
10
5.6465826
20
36.3904
11
5.4931764
21
36.3904
0
LINE
8
DEFAULT_255_1_234
10
5.4931764
20
36.3904
11
5.4931764
21
37.4329196
0
LINE
8
DEFAULT_255_1_234
10
5.4931764
20
37.4329196
11
5.1180942
21
37.4329196
0
LINE
8
DEFAULT_255_1_234
10
5.1180942
20
37.4329196
11
5.1180942
21
37.5598211
0
LINE
8
DEFAULT_255_1_234
10
5.1180942
20
37.5598211
11
6.0224679
21
37.5598211
0
LINE
8
DEFAULT_255_1_234
10
6.7140006
20
37.5606243
11
6.7405053
21
37.5606243
0
LINE
8
DEFAULT_255_1_234
10
6.7405053
20
37.5606243
11
6.7405053
21
37.434526
0
LINE
8
DEFAULT_255_1_234
10
6.7405053
20
37.434526
11
6.7131974
21
37.434526
0
LINE
8
DEFAULT_255_1_234
10
6.166236
20
36.8353583
11
6.166236
21
36.8923836
0
LINE
8
DEFAULT_255_1_234
10
6.3156264
20
36.8731075
11
6.3156264
21
36.8184917
0
ARC
8
DEFAULT_255_1_234
10
6.7184322
20
36.9347455
40
0.4998079
50
90.6001036
51
104.514704
0
ARC
8
DEFAULT_255_1_234
10
6.6795837
20
37.0792131
40
0.3502176
50
104.2855254
51
133.862935
0
ARC
8
DEFAULT_255_1_234
10
6.6959595
20
37.068383
40
0.3693984
50
134.5302688
51
161.6210873
0
ARC
8
DEFAULT_255_1_234
10
6.8612783
20
37.0100895
40
0.5446739
50
161.2849839
51
174.2076652
0
ARC
8
DEFAULT_255_1_234
10
7.0019721
20
36.9906787
40
0.6866274
50
173.7810589
51
174.9254635
0
ARC
8
DEFAULT_255_1_234
10
6.5469553
20
36.8523839
40
0.3033419
50
95.8330959
51
138.9954921
0
ARC
8
DEFAULT_255_1_234
10
6.5692909
20
36.7245375
40
0.4328947
50
89.8753725
51
97.0544009
0
ARC
8
DEFAULT_255_1_234
10
6.5740375
20
36.8080748
40
0.3493769
50
71.6407809
51
90.6240094
0
ARC
8
DEFAULT_255_1_234
10
6.5890948
20
36.8635082
40
0.2920396
50
39.6367836
51
71.019018
0
ARC
8
DEFAULT_255_1_234
10
6.5254421
20
36.8084998
40
0.3761538
50
10.658731
51
39.9043955
0
ARC
8
DEFAULT_255_1_234
10
6.3706504
20
36.7748686
40
0.5345136
50
359.682601
51
11.132623
0
ARC
8
DEFAULT_255_1_234
10
6.3666635
20
36.767801
40
0.5385081
50
347.2486944
51
0.4369317
0
ARC
8
DEFAULT_255_1_234
10
6.5334112
20
36.7276807
40
0.3670249
50
318.1409698
51
347.6118597
0
ARC
8
DEFAULT_255_1_234
10
6.5659105
20
36.7009702
40
0.3250007
50
275.6342139
51
317.8248465
0
ARC
8
DEFAULT_255_1_234
10
6.5438216
20
36.8309219
40
0.4565864
50
269.8874292
51
276.7917694
0
ARC
8
DEFAULT_255_1_234
10
6.5383287
20
36.7283743
40
0.3540676
50
246.9140195
51
270.7437342
0
ARC
8
DEFAULT_255_1_234
10
6.5389677
20
36.7141384
40
0.3412781
50
218.1665114
51
245.878116
0
ARC
8
DEFAULT_255_1_234
10
6.6269138
20
36.7877279
40
0.455911
50
191.4115814
51
218.6077802
0
ARC
8
DEFAULT_255_1_234
10
6.8207227
20
36.8311833
40
0.6545001
50
179.6345085
51
191.7836486
0
ARC
8
DEFAULT_255_1_234
10
7.3789564
20
36.8990697
40
1.2127388
50
171.4525249
51
180.3158839
0
ARC
8
DEFAULT_255_1_234
10
6.9394439
20
36.9674608
40
0.7679464
50
157.9802646
51
171.6246686
0
ARC
8
DEFAULT_255_1_234
10
6.718046
20
37.0557421
40
0.5296008
50
141.4298019
51
157.854097
0
ARC
8
DEFAULT_255_1_234
10
6.6538781
20
37.1011381
40
0.4511509
50
102.8715806
51
140.8564722
0
ARC
8
DEFAULT_255_1_234
10
6.7186397
20
36.8571552
40
0.7034845
50
90.3778349
51
103.5869322
0
ARC
8
DEFAULT_255_1_234
10
6.5448173
20
36.796673
40
0.2370698
50
89.8751008
51
126.2071704
0
ARC
8
DEFAULT_255_1_234
10
6.5493963
20
36.7812303
40
0.2522934
50
124.9745049
51
144.895901
0
ARC
8
DEFAULT_255_1_234
10
6.5318153
20
36.795556
40
0.2296779
50
145.2974905
51
160.2660252
0
ARC
8
DEFAULT_255_1_234
10
6.8390692
20
36.8153071
40
0.5234525
50
179.6514266
51
190.2855912
0
ARC
8
DEFAULT_255_1_234
10
6.6696829
20
36.7833786
40
0.3510893
50
190.0945431
51
207.5098196
0
ARC
8
DEFAULT_255_1_234
10
6.6131099
20
36.7564623
40
0.288489
50
207.9583163
51
216.3251085
0
ARC
8
DEFAULT_255_1_234
10
6.5791207
20
36.7285105
40
0.2445587
50
215.7661442
51
232.5456785
0
ARC
8
DEFAULT_255_1_234
10
6.540819
20
36.6798482
40
0.1826382
50
232.8005391
51
270.6605633
0
ARC
8
DEFAULT_255_1_234
10
6.5453891
20
36.7162612
40
0.2190529
50
269.35537
51
288.4744281
0
ARC
8
DEFAULT_255_1_234
10
6.5546788
20
36.6813118
40
0.1829749
50
289.1833337
51
322.9683818
0
ARC
8
DEFAULT_255_1_234
10
6.493531
20
36.7295391
40
0.2608399
50
322.6007884
51
346.5182367
0
ARC
8
DEFAULT_255_1_234
10
6.3777906
20
36.7590616
40
0.3802777
50
346.2582162
51
358.7741648
0
ARC
8
DEFAULT_255_1_234
10
6.2759575
20
36.7645965
40
0.4822176
50
358.3755224
51
0.0098023
0
ARC
8
DEFAULT_255_1_234
10
6.3515762
20
36.7673657
40
0.4066078
50
359.6214041
51
11.2839074
0
ARC
8
DEFAULT_255_1_234
10
6.4792909
20
36.7940066
40
0.2761514
50
11.0482309
51
31.8146458
0
ARC
8
DEFAULT_255_1_234
10
6.5101952
20
36.8107584
40
0.2410679
50
32.3035391
51
38.082671
0
ARC
8
DEFAULT_255_1_234
10
6.5522612
20
36.8488662
40
0.1844966
50
36.825067
51
85.7415724
0
ARC
8
DEFAULT_255_1_234
10
6.5455445
20
36.7988301
40
0.2349122
50
85.0140713
51
90.0513278
0
LINE
8
DEFAULT_255_1_234
10
4.872323
20
44.6989663
11
5.0273355
21
44.6989663
0
LINE
8
DEFAULT_255_1_234
10
4.1269777
20
44.8579947
11
4.1269777
21
44.9704391
0
LINE
8
DEFAULT_255_1_234
10
5.0273355
20
45.1214357
11
4.872323
21
45.1214357
0
LINE
8
DEFAULT_255_1_234
10
4.2819902
20
44.9664232
11
4.2819902
21
44.8531757
0
ARC
8
DEFAULT_255_1_234
10
4.4792742
20
44.7586846
40
0.5513052
50
340.1774281
51
353.7814284
0
ARC
8
DEFAULT_255_1_234
10
4.6364095
20
44.7001582
40
0.3836379
50
311.4558989
51
340.4421614
0
ARC
8
DEFAULT_255_1_234
10
4.6330763
20
44.7112528
40
0.3941894
50
282.4333181
51
310.7513653
0
ARC
8
DEFAULT_255_1_234
10
4.5891502
20
44.8927679
40
0.5809175
50
269.9358511
51
282.809604
0
ARC
8
DEFAULT_255_1_234
10
4.5839568
20
45.0385212
40
0.7266847
50
270.0021091
51
270.3581957
0
ARC
8
DEFAULT_255_1_234
10
4.5786985
20
44.7784585
40
0.4666519
50
250.7884749
51
270.6489167
0
ARC
8
DEFAULT_255_1_234
10
4.561882
20
44.7147319
40
0.4009729
50
219.3627325
51
250.0611886
0
ARC
8
DEFAULT_255_1_234
10
4.6448031
20
44.7852042
40
0.5097822
50
193.5479632
51
219.5756669
0
ARC
8
DEFAULT_255_1_234
10
4.8819652
20
44.8467919
40
0.7547848
50
181.1218675
51
193.87563
0
ARC
8
DEFAULT_255_1_234
10
5.0889833
20
44.857858
40
0.9620055
50
179.9918545
51
181.5394234
0
ARC
8
DEFAULT_255_1_234
10
4.9038935
20
44.9741788
40
0.7769248
50
169.5837241
51
180.2757934
0
ARC
8
DEFAULT_255_1_234
10
4.7201873
20
45.0081229
40
0.590109
50
155.0365899
51
169.6003176
0
ARC
8
DEFAULT_255_1_234
10
4.6066337
20
45.0628677
40
0.4640625
50
136.783148
51
155.2472683
0
ARC
8
DEFAULT_255_1_234
10
4.5676814
20
45.0959562
40
0.4130255
50
121.7633186
51
136.428115
0
ARC
8
DEFAULT_255_1_234
10
4.5811776
20
45.0710227
40
0.4413323
50
95.6459699
51
121.5490577
0
ARC
8
DEFAULT_255_1_234
10
4.5969058
20
44.9601949
40
0.55319
50
89.924208
51
96.1377933
0
ARC
8
DEFAULT_255_1_234
10
4.6019491
20
44.9720542
40
0.5413475
50
76.6779277
51
90.4563316
0
ARC
8
DEFAULT_255_1_234
10
4.6413114
20
45.1311114
40
0.3775041
50
47.485847
51
76.9287264
0
ARC
8
DEFAULT_255_1_234
10
4.6266087
20
45.1211159
40
0.3948286
50
16.5424086
51
46.8933463
0
ARC
8
DEFAULT_255_1_234
10
4.4658244
20
45.0682861
40
0.564021
50
5.4072051
51
17.0365086
0
ARC
8
DEFAULT_255_1_234
10
4.3219261
20
45.0451679
40
0.5556559
50
7.8891745
51
15.9239216
0
ARC
8
DEFAULT_255_1_234
10
4.5206274
20
45.1028631
40
0.3487515
50
15.7653144
51
27.9410532
0
ARC
8
DEFAULT_255_1_234
10
4.6310492
20
45.161979
40
0.2235026
50
27.8166557
51
46.4008329
0
ARC
8
DEFAULT_255_1_234
10
4.6360135
20
45.1614082
40
0.2205286
50
47.4371857
51
75.0698205
0
ARC
8
DEFAULT_255_1_234
10
4.6051529
20
45.0539765
40
0.3322915
50
74.7008593
51
87.8124495
0
ARC
8
DEFAULT_255_1_234
10
4.5978217
20
44.9483844
40
0.4380987
50
87.3814673
51
90.0240855
0
ARC
8
DEFAULT_255_1_234
10
4.593976
20
45.0661291
40
0.3203749
50
89.3451631
51
108.5745436
0
ARC
8
DEFAULT_255_1_234
10
4.5802865
20
45.1174908
40
0.2673494
50
109.2998449
51
143.3037509
0
ARC
8
DEFAULT_255_1_234
10
4.6564938
20
45.0588881
40
0.3634757
50
143.0753173
51
163.1916937
0
ARC
8
DEFAULT_255_1_234
10
4.8516666
20
44.9972967
40
0.5681262
50
162.9373603
51
174.6208611
0
ARC
8
DEFAULT_255_1_234
10
5.1142708
20
44.968501
40
0.8322832
50
174.3419979
51
180.1430411
0
ARC
8
DEFAULT_255_1_234
10
5.0211864
20
44.8490698
40
0.7392076
50
179.6817502
51
189.150529
0
ARC
8
DEFAULT_255_1_234
10
4.7711112
20
44.807419
40
0.4856932
50
188.9910863
51
203.5773039
0
ARC
8
DEFAULT_255_1_234
10
4.6631445
20
44.7626211
40
0.3688271
50
203.9077269
51
215.1312379
0
ARC
8
DEFAULT_255_1_234
10
4.5708539
20
44.6910941
40
0.2522457
50
213.9071664
51
263.8849284
0
ARC
8
DEFAULT_255_1_234
10
4.5833868
20
44.7695518
40
0.3316174
50
263.1758525
51
270.1031083
0
ARC
8
DEFAULT_255_1_234
10
4.586596
20
44.8942365
40
0.4563091
50
269.6719807
51
279.0609165
0
ARC
8
DEFAULT_255_1_234
10
4.6132728
20
44.7329907
40
0.2928759
50
278.8750225
51
293.6346586
0
ARC
8
DEFAULT_255_1_234
10
4.6452936
20
44.65779
40
0.2111472
50
293.8553404
51
310.0518804
0
ARC
8
DEFAULT_255_1_234
10
4.645779
20
44.6515516
40
0.2060917
50
311.0646779
51
332.0108348
0
ARC
8
DEFAULT_255_1_234
10
4.5265517
20
44.7172978
40
0.3422352
50
331.6588543
51
343.2878891
0
ARC
8
DEFAULT_255_1_234
10
4.3203032
20
44.7806798
40
0.5580003
50
343.1446044
51
351.010618
0
ARC
8
DEFAULT_255_1_234
10
4.1661678
20
44.8087871
40
0.7146438
50
350.7157277
51
351.1602153
0
LINE
8
DEFAULT_255_1_234
10
6.0224679
20
45.4973211
11
6.0224679
21
45.3704196
0
LINE
8
DEFAULT_255_1_234
10
6.0224679
20
45.3704196
11
5.6465826
21
45.3704196
0
LINE
8
DEFAULT_255_1_234
10
5.6465826
20
45.3704196
11
5.6465826
21
44.3279
0
LINE
8
DEFAULT_255_1_234
10
5.6465826
20
44.3279
11
5.4931764
21
44.3279
0
LINE
8
DEFAULT_255_1_234
10
5.4931764
20
44.3279
11
5.4931764
21
45.3704196
0
LINE
8
DEFAULT_255_1_234
10
5.4931764
20
45.3704196
11
5.1180942
21
45.3704196
0
LINE
8
DEFAULT_255_1_234
10
5.1180942
20
45.3704196
11
5.1180942
21
45.4973211
0
LINE
8
DEFAULT_255_1_234
10
5.1180942
20
45.4973211
11
6.0224679
21
45.4973211
0
LINE
8
DEFAULT_255_1_234
10
6.7140006
20
45.4981243
11
6.7405053
21
45.4981243
0
LINE
8
DEFAULT_255_1_234
10
6.7405053
20
45.4981243
11
6.7405053
21
45.372026
0
LINE
8
DEFAULT_255_1_234
10
6.7405053
20
45.372026
11
6.7131974
21
45.372026
0
LINE
8
DEFAULT_255_1_234
10
6.166236
20
44.7728583
11
6.166236
21
44.8298836
0
LINE
8
DEFAULT_255_1_234
10
6.3156264
20
44.8106075
11
6.3156264
21
44.7559917
0
ARC
8
DEFAULT_255_1_234
10
6.7184322
20
44.8722455
40
0.4998079
50
90.6001036
51
104.514704
0
ARC
8
DEFAULT_255_1_234
10
6.6795837
20
45.0167131
40
0.3502176
50
104.2855254
51
133.862935
0
ARC
8
DEFAULT_255_1_234
10
6.6959595
20
45.005883
40
0.3693984
50
134.5302688
51
161.6210873
0
ARC
8
DEFAULT_255_1_234
10
6.8612783
20
44.9475895
40
0.5446739
50
161.2849839
51
174.2076652
0
ARC
8
DEFAULT_255_1_234
10
7.0019721
20
44.9281787
40
0.6866274
50
173.7810589
51
174.9254635
0
ARC
8
DEFAULT_255_1_234
10
6.5469553
20
44.7898839
40
0.3033419
50
95.8330959
51
138.9954921
0
ARC
8
DEFAULT_255_1_234
10
6.5692909
20
44.6620375
40
0.4328947
50
89.8753725
51
97.0544009
0
ARC
8
DEFAULT_255_1_234
10
6.5740375
20
44.7455748
40
0.3493769
50
71.6407809
51
90.6240094
0
ARC
8
DEFAULT_255_1_234
10
6.5890948
20
44.8010082
40
0.2920396
50
39.6367836
51
71.019018
0
ARC
8
DEFAULT_255_1_234
10
6.5254421
20
44.7459998
40
0.3761538
50
10.658731
51
39.9043955
0
ARC
8
DEFAULT_255_1_234
10
6.3706504
20
44.7123686
40
0.5345136
50
359.682601
51
11.132623
0
ARC
8
DEFAULT_255_1_234
10
6.3666635
20
44.705301
40
0.5385081
50
347.2486944
51
0.4369317
0
ARC
8
DEFAULT_255_1_234
10
6.5334112
20
44.6651807
40
0.3670249
50
318.1409698
51
347.6118597
0
ARC
8
DEFAULT_255_1_234
10
6.5659105
20
44.6384702
40
0.3250007
50
275.6342139
51
317.8248465
0
ARC
8
DEFAULT_255_1_234
10
6.5438216
20
44.7684219
40
0.4565864
50
269.8874292
51
276.7917694
0
ARC
8
DEFAULT_255_1_234
10
6.5383287
20
44.6658743
40
0.3540676
50
246.9140195
51
270.7437342
0
ARC
8
DEFAULT_255_1_234
10
6.5389677
20
44.6516384
40
0.3412781
50
218.1665114
51
245.878116
0
ARC
8
DEFAULT_255_1_234
10
6.6269138
20
44.7252279
40
0.455911
50
191.4115814
51
218.6077802
0
ARC
8
DEFAULT_255_1_234
10
6.8207227
20
44.7686833
40
0.6545001
50
179.6345085
51
191.7836486
0
ARC
8
DEFAULT_255_1_234
10
7.3789564
20
44.8365697
40
1.2127388
50
171.4525249
51
180.3158839
0
ARC
8
DEFAULT_255_1_234
10
6.9394439
20
44.9049608
40
0.7679464
50
157.9802646
51
171.6246686
0
ARC
8
DEFAULT_255_1_234
10
6.718046
20
44.9932421
40
0.5296008
50
141.4298019
51
157.854097
0
ARC
8
DEFAULT_255_1_234
10
6.6538781
20
45.0386381
40
0.4511509
50
102.8715806
51
140.8564722
0
ARC
8
DEFAULT_255_1_234
10
6.7186397
20
44.7946552
40
0.7034845
50
90.3778349
51
103.5869322
0
ARC
8
DEFAULT_255_1_234
10
6.5448173
20
44.734173
40
0.2370698
50
89.8751008
51
126.2071704
0
ARC
8
DEFAULT_255_1_234
10
6.5493963
20
44.7187303
40
0.2522934
50
124.9745049
51
144.895901
0
ARC
8
DEFAULT_255_1_234
10
6.5318153
20
44.733056
40
0.2296779
50
145.2974905
51
160.2660252
0
ARC
8
DEFAULT_255_1_234
10
6.8390692
20
44.7528071
40
0.5234525
50
179.6514266
51
190.2855912
0
ARC
8
DEFAULT_255_1_234
10
6.6696829
20
44.7208786
40
0.3510893
50
190.0945431
51
207.5098196
0
ARC
8
DEFAULT_255_1_234
10
6.6131099
20
44.6939623
40
0.288489
50
207.9583163
51
216.3251085
0
ARC
8
DEFAULT_255_1_234
10
6.5791207
20
44.6660105
40
0.2445587
50
215.7661442
51
232.5456785
0
ARC
8
DEFAULT_255_1_234
10
6.540819
20
44.6173482
40
0.1826382
50
232.8005391
51
270.6605633
0
ARC
8
DEFAULT_255_1_234
10
6.5453891
20
44.6537612
40
0.2190529
50
269.35537
51
288.4744281
0
ARC
8
DEFAULT_255_1_234
10
6.5546788
20
44.6188118
40
0.1829749
50
289.1833337
51
322.9683818
0
ARC
8
DEFAULT_255_1_234
10
6.493531
20
44.6670391
40
0.2608399
50
322.6007884
51
346.5182367
0
ARC
8
DEFAULT_255_1_234
10
6.3777906
20
44.6965616
40
0.3802777
50
346.2582162
51
358.7741648
0
ARC
8
DEFAULT_255_1_234
10
6.2759575
20
44.7020965
40
0.4822176
50
358.3755224
51
0.0098023
0
ARC
8
DEFAULT_255_1_234
10
6.3515762
20
44.7048657
40
0.4066078
50
359.6214041
51
11.2839074
0
ARC
8
DEFAULT_255_1_234
10
6.4792909
20
44.7315066
40
0.2761514
50
11.0482309
51
31.8146458
0
ARC
8
DEFAULT_255_1_234
10
6.5101952
20
44.7482584
40
0.2410679
50
32.3035391
51
38.082671
0
ARC
8
DEFAULT_255_1_234
10
6.5522612
20
44.7863662
40
0.1844966
50
36.825067
51
85.7415724
0
ARC
8
DEFAULT_255_1_234
10
6.5455445
20
44.7363301
40
0.2349122
50
85.0140713
51
90.0513278
0
LINE
8
DEFAULT_255_1_234
10
4.872323
20
52.6364663
11
5.0273355
21
52.6364663
0
LINE
8
DEFAULT_255_1_234
10
4.1269777
20
52.7954947
11
4.1269777
21
52.9079391
0
LINE
8
DEFAULT_255_1_234
10
5.0273355
20
53.0589357
11
4.872323
21
53.0589357
0
LINE
8
DEFAULT_255_1_234
10
4.2819902
20
52.9039232
11
4.2819902
21
52.7906757
0
ARC
8
DEFAULT_255_1_234
10
4.4792742
20
52.6961846
40
0.5513052
50
340.1774281
51
353.7814284
0
ARC
8
DEFAULT_255_1_234
10
4.6364095
20
52.6376582
40
0.3836379
50
311.4558989
51
340.4421614
0
ARC
8
DEFAULT_255_1_234
10
4.6330763
20
52.6487528
40
0.3941894
50
282.4333181
51
310.7513653
0
ARC
8
DEFAULT_255_1_234
10
4.5891502
20
52.8302679
40
0.5809175
50
269.9358511
51
282.809604
0
ARC
8
DEFAULT_255_1_234
10
4.5839568
20
52.9760212
40
0.7266847
50
270.0021091
51
270.3581957
0
ARC
8
DEFAULT_255_1_234
10
4.5786985
20
52.7159585
40
0.4666519
50
250.7884749
51
270.6489167
0
ARC
8
DEFAULT_255_1_234
10
4.561882
20
52.6522319
40
0.4009729
50
219.3627325
51
250.0611886
0
ARC
8
DEFAULT_255_1_234
10
4.6448031
20
52.7227042
40
0.5097822
50
193.5479632
51
219.5756669
0
ARC
8
DEFAULT_255_1_234
10
4.8819652
20
52.7842919
40
0.7547848
50
181.1218675
51
193.87563
0
ARC
8
DEFAULT_255_1_234
10
5.0889833
20
52.795358
40
0.9620055
50
179.9918545
51
181.5394234
0
ARC
8
DEFAULT_255_1_234
10
4.9038935
20
52.9116788
40
0.7769248
50
169.5837241
51
180.2757934
0
ARC
8
DEFAULT_255_1_234
10
4.7201873
20
52.9456229
40
0.590109
50
155.0365899
51
169.6003176
0
ARC
8
DEFAULT_255_1_234
10
4.6066337
20
53.0003677
40
0.4640625
50
136.783148
51
155.2472683
0
ARC
8
DEFAULT_255_1_234
10
4.5676814
20
53.0334562
40
0.4130255
50
121.7633186
51
136.428115
0
ARC
8
DEFAULT_255_1_234
10
4.5811776
20
53.0085227
40
0.4413323
50
95.6459699
51
121.5490577
0
ARC
8
DEFAULT_255_1_234
10
4.5969058
20
52.8976949
40
0.55319
50
89.924208
51
96.1377933
0
ARC
8
DEFAULT_255_1_234
10
4.6019491
20
52.9095542
40
0.5413475
50
76.6779277
51
90.4563316
0
ARC
8
DEFAULT_255_1_234
10
4.6413114
20
53.0686114
40
0.3775041
50
47.485847
51
76.9287264
0
ARC
8
DEFAULT_255_1_234
10
4.6266087
20
53.0586159
40
0.3948286
50
16.5424086
51
46.8933463
0
ARC
8
DEFAULT_255_1_234
10
4.4658244
20
53.0057861
40
0.564021
50
5.4072051
51
17.0365086
0
ARC
8
DEFAULT_255_1_234
10
4.3219261
20
52.9826679
40
0.5556559
50
7.8891745
51
15.9239216
0
ARC
8
DEFAULT_255_1_234
10
4.5206274
20
53.0403631
40
0.3487515
50
15.7653144
51
27.9410532
0
ARC
8
DEFAULT_255_1_234
10
4.6310492
20
53.099479
40
0.2235026
50
27.8166557
51
46.4008329
0
ARC
8
DEFAULT_255_1_234
10
4.6360135
20
53.0989082
40
0.2205286
50
47.4371857
51
75.0698205
0
ARC
8
DEFAULT_255_1_234
10
4.6051529
20
52.9914765
40
0.3322915
50
74.7008593
51
87.8124495
0
ARC
8
DEFAULT_255_1_234
10
4.5978217
20
52.8858844
40
0.4380987
50
87.3814673
51
90.0240855
0
ARC
8
DEFAULT_255_1_234
10
4.593976
20
53.0036291
40
0.3203749
50
89.3451631
51
108.5745436
0
ARC
8
DEFAULT_255_1_234
10
4.5802865
20
53.0549908
40
0.2673494
50
109.2998449
51
143.3037509
0
ARC
8
DEFAULT_255_1_234
10
4.6564938
20
52.9963881
40
0.3634757
50
143.0753173
51
163.1916937
0
ARC
8
DEFAULT_255_1_234
10
4.8516666
20
52.9347967
40
0.5681262
50
162.9373603
51
174.6208611
0
ARC
8
DEFAULT_255_1_234
10
5.1142708
20
52.906001
40
0.8322832
50
174.3419979
51
180.1430411
0
ARC
8
DEFAULT_255_1_234
10
5.0211864
20
52.7865698
40
0.7392076
50
179.6817502
51
189.150529
0
ARC
8
DEFAULT_255_1_234
10
4.7711112
20
52.744919
40
0.4856932
50
188.9910863
51
203.5773039
0
ARC
8
DEFAULT_255_1_234
10
4.6631445
20
52.7001211
40
0.3688271
50
203.9077269
51
215.1312379
0
ARC
8
DEFAULT_255_1_234
10
4.5708539
20
52.6285941
40
0.2522457
50
213.9071664
51
263.8849284
0
ARC
8
DEFAULT_255_1_234
10
4.5833868
20
52.7070518
40
0.3316174
50
263.1758525
51
270.1031083
0
ARC
8
DEFAULT_255_1_234
10
4.586596
20
52.8317365
40
0.4563091
50
269.6719807
51
279.0609165
0
ARC
8
DEFAULT_255_1_234
10
4.6132728
20
52.6704907
40
0.2928759
50
278.8750225
51
293.6346586
0
ARC
8
DEFAULT_255_1_234
10
4.6452936
20
52.59529
40
0.2111472
50
293.8553404
51
310.0518804
0
ARC
8
DEFAULT_255_1_234
10
4.645779
20
52.5890516
40
0.2060917
50
311.0646779
51
332.0108348
0
ARC
8
DEFAULT_255_1_234
10
4.5265517
20
52.6547978
40
0.3422352
50
331.6588543
51
343.2878891
0
ARC
8
DEFAULT_255_1_234
10
4.3203032
20
52.7181798
40
0.5580003
50
343.1446044
51
351.010618
0
ARC
8
DEFAULT_255_1_234
10
4.1661678
20
52.7462871
40
0.7146438
50
350.7157277
51
351.1602153
0
LINE
8
DEFAULT_255_1_234
10
6.0224679
20
53.4348211
11
6.0224679
21
53.3079196
0
LINE
8
DEFAULT_255_1_234
10
6.0224679
20
53.3079196
11
5.6465826
21
53.3079196
0
LINE
8
DEFAULT_255_1_234
10
5.6465826
20
53.3079196
11
5.6465826
21
52.2654
0
LINE
8
DEFAULT_255_1_234
10
5.6465826
20
52.2654
11
5.4931764
21
52.2654
0
LINE
8
DEFAULT_255_1_234
10
5.4931764
20
52.2654
11
5.4931764
21
53.3079196
0
LINE
8
DEFAULT_255_1_234
10
5.4931764
20
53.3079196
11
5.1180942
21
53.3079196
0
LINE
8
DEFAULT_255_1_234
10
5.1180942
20
53.3079196
11
5.1180942
21
53.4348211
0
LINE
8
DEFAULT_255_1_234
10
5.1180942
20
53.4348211
11
6.0224679
21
53.4348211
0
LINE
8
DEFAULT_255_1_234
10
6.3445406
20
52.8211963
11
6.2256709
21
52.8517169
0
LINE
8
DEFAULT_255_1_234
10
6.2256709
20
52.8517169
11
6.2851058
21
53.4348211
0
LINE
8
DEFAULT_255_1_234
10
6.2851058
20
53.4348211
11
6.8842734
21
53.4348211
0
LINE
8
DEFAULT_255_1_234
10
6.8842734
20
53.4348211
11
6.8842734
21
53.2974784
0
LINE
8
DEFAULT_255_1_234
10
6.8842734
20
53.2974784
11
6.4112041
21
53.2974784
0
LINE
8
DEFAULT_255_1_234
10
6.4112041
20
53.2974784
11
6.3758644
21
52.9786184
0
LINE
8
DEFAULT_255_1_234
10
6.1839059
20
52.5730156
11
6.3244613
21
52.5730156
0
LINE
8
DEFAULT_255_1_234
10
6.3838961
20
52.8533232
11
6.3445406
21
52.8211963
0
ARC
8
DEFAULT_255_1_234
10
6.5613428
20
52.660623
40
0.3681349
50
93.7182161
51
120.2538958
0
ARC
8
DEFAULT_255_1_234
10
6.5707691
20
52.5798394
40
0.449379
50
89.9660152
51
94.2496022
0
ARC
8
DEFAULT_255_1_234
10
6.5748425
20
52.6387549
40
0.390482
50
73.8043271
51
90.5585896
0
ARC
8
DEFAULT_255_1_234
10
6.5983322
20
52.7245602
40
0.3015334
50
41.3071453
51
73.5430202
0
ARC
8
DEFAULT_255_1_234
10
6.5567149
20
52.6887324
40
0.3564457
50
13.5075983
51
41.2174222
0
ARC
8
DEFAULT_255_1_234
10
6.3925353
20
52.6457486
40
0.5261351
50
1.1331335
51
13.8829381
0
ARC
8
DEFAULT_255_1_234
10
6.2513722
20
52.6381665
40
0.6674378
50
359.9919444
51
1.544251
0
ARC
8
DEFAULT_255_1_234
10
6.3790548
20
52.634028
40
0.5397702
50
347.8572367
51
0.4293338
0
ARC
8
DEFAULT_255_1_234
10
6.5540866
20
52.5943736
40
0.3603188
50
323.673004
51
348.1672506
0
ARC
8
DEFAULT_255_1_234
10
6.5835374
20
52.5764168
40
0.3259678
50
316.8171152
51
323.1492751
0
ARC
8
DEFAULT_255_1_234
10
6.5896563
20
52.572746
40
0.3189975
50
281.8396411
51
316.5457803
0
ARC
8
DEFAULT_255_1_234
10
6.5520826
20
52.7282762
40
0.4789527
50
269.5770101
51
282.4214771
0
ARC
8
DEFAULT_255_1_234
10
6.5449638
20
52.7069125
40
0.45759
50
256.2427136
51
270.4486331
0
ARC
8
DEFAULT_255_1_234
10
6.515054
20
52.5869229
40
0.3339303
50
228.9023911
51
256.3314342
0
ARC
8
DEFAULT_255_1_234
10
6.5076773
20
52.5752746
40
0.32031
50
193.753695
51
228.5271154
0
ARC
8
DEFAULT_255_1_234
10
6.6314727
20
52.61158
40
0.4492253
50
184.924711
51
194.497588
0
ARC
8
DEFAULT_255_1_234
10
6.6507294
20
52.6151591
40
0.3289787
50
187.3600538
51
198.6732863
0
ARC
8
DEFAULT_255_1_234
10
6.5457588
20
52.5787674
40
0.217884
50
198.4451669
51
217.794479
0
ARC
8
DEFAULT_255_1_234
10
6.5161763
20
52.5578085
40
0.1816698
50
218.2887171
51
228.5612368
0
ARC
8
DEFAULT_255_1_234
10
6.525955
20
52.5709963
40
0.1980329
50
228.9654866
51
258.1234728
0
ARC
8
DEFAULT_255_1_234
10
6.546526
20
52.6590833
40
0.2884748
50
257.7258293
51
270.401361
0
ARC
8
DEFAULT_255_1_234
10
6.5510146
20
52.6145821
40
0.2439788
50
269.4204404
51
286.4209037
0
ARC
8
DEFAULT_255_1_234
10
6.5658634
20
52.5606657
40
0.1880666
50
286.7251356
51
320.600362
0
ARC
8
DEFAULT_255_1_234
10
6.5275459
20
52.5917595
40
0.2374121
50
320.6712579
51
344.5441685
0
ARC
8
DEFAULT_255_1_234
10
6.4118785
20
52.6257045
40
0.3579479
50
344.2412205
51
356.7357071
0
ARC
8
DEFAULT_255_1_234
10
6.2869934
20
52.6360444
40
0.4832297
50
356.3548756
51
0.0500261
0
ARC
8
DEFAULT_255_1_234
10
6.4206443
20
52.639165
40
0.3495889
50
359.5576869
51
12.953486
0
ARC
8
DEFAULT_255_1_234
10
6.526134
20
52.6647434
40
0.2410532
50
12.6490276
51
41.6081334
0
ARC
8
DEFAULT_255_1_234
10
6.5491711
20
52.6843321
40
0.2108218
50
41.7850273
51
85.9892764
0
ARC
8
DEFAULT_255_1_234
10
6.5368448
20
52.6030462
40
0.2928454
50
84.6957577
51
90.0676183
0
ARC
8
DEFAULT_255_1_234
10
6.5344932
20
52.5361716
40
0.3597255
50
89.6804936
51
99.1614436
0
ARC
8
DEFAULT_255_1_234
10
6.5139563
20
52.6589131
40
0.235281
50
98.9830931
51
113.8908934
0
ARC
8
DEFAULT_255_1_234
10
6.4909973
20
52.7130587
40
0.176479
50
114.1950727
51
127.3641004
0
LINE
8
DEFAULT_255_1_234
10
4.872323
20
60.5739663
11
5.0273355
21
60.5739663
0
LINE
8
DEFAULT_255_1_234
10
4.1269777
20
60.7329947
11
4.1269777
21
60.8454391
0
LINE
8
DEFAULT_255_1_234
10
5.0273355
20
60.9964357
11
4.872323
21
60.9964357
0
LINE
8
DEFAULT_255_1_234
10
4.2819902
20
60.8414232
11
4.2819902
21
60.7281757
0
ARC
8
DEFAULT_255_1_234
10
4.4792742
20
60.6336846
40
0.5513052
50
340.1774281
51
353.7814284
0
ARC
8
DEFAULT_255_1_234
10
4.6364095
20
60.5751582
40
0.3836379
50
311.4558989
51
340.4421614
0
ARC
8
DEFAULT_255_1_234
10
4.6330763
20
60.5862528
40
0.3941894
50
282.4333181
51
310.7513653
0
ARC
8
DEFAULT_255_1_234
10
4.5891502
20
60.7677679
40
0.5809175
50
269.9358511
51
282.809604
0
ARC
8
DEFAULT_255_1_234
10
4.5839568
20
60.9135212
40
0.7266847
50
270.0021091
51
270.3581957
0
ARC
8
DEFAULT_255_1_234
10
4.5786985
20
60.6534585
40
0.4666519
50
250.7884749
51
270.6489167
0
ARC
8
DEFAULT_255_1_234
10
4.561882
20
60.5897319
40
0.4009729
50
219.3627325
51
250.0611886
0
ARC
8
DEFAULT_255_1_234
10
4.6448031
20
60.6602042
40
0.5097822
50
193.5479632
51
219.5756669
0
ARC
8
DEFAULT_255_1_234
10
4.8819652
20
60.7217919
40
0.7547848
50
181.1218675
51
193.87563
0
ARC
8
DEFAULT_255_1_234
10
5.0889833
20
60.732858
40
0.9620055
50
179.9918545
51
181.5394234
0
ARC
8
DEFAULT_255_1_234
10
4.9038935
20
60.8491788
40
0.7769248
50
169.5837241
51
180.2757934
0
ARC
8
DEFAULT_255_1_234
10
4.7201873
20
60.8831229
40
0.590109
50
155.0365899
51
169.6003176
0
ARC
8
DEFAULT_255_1_234
10
4.6066337
20
60.9378677
40
0.4640625
50
136.783148
51
155.2472683
0
ARC
8
DEFAULT_255_1_234
10
4.5676814
20
60.9709562
40
0.4130255
50
121.7633186
51
136.428115
0
ARC
8
DEFAULT_255_1_234
10
4.5811776
20
60.9460227
40
0.4413323
50
95.6459699
51
121.5490577
0
ARC
8
DEFAULT_255_1_234
10
4.5969058
20
60.8351949
40
0.55319
50
89.924208
51
96.1377933
0
ARC
8
DEFAULT_255_1_234
10
4.6019491
20
60.8470542
40
0.5413475
50
76.6779277
51
90.4563316
0
ARC
8
DEFAULT_255_1_234
10
4.6413114
20
61.0061114
40
0.3775041
50
47.485847
51
76.9287264
0
ARC
8
DEFAULT_255_1_234
10
4.6266087
20
60.9961159
40
0.3948286
50
16.5424086
51
46.8933463
0
ARC
8
DEFAULT_255_1_234
10
4.4658244
20
60.9432861
40
0.564021
50
5.4072051
51
17.0365086
0
ARC
8
DEFAULT_255_1_234
10
4.3219261
20
60.9201679
40
0.5556559
50
7.8891745
51
15.9239216
0
ARC
8
DEFAULT_255_1_234
10
4.5206274
20
60.9778631
40
0.3487515
50
15.7653144
51
27.9410532
0
ARC
8
DEFAULT_255_1_234
10
4.6310492
20
61.036979
40
0.2235026
50
27.8166557
51
46.4008329
0
ARC
8
DEFAULT_255_1_234
10
4.6360135
20
61.0364082
40
0.2205286
50
47.4371857
51
75.0698205
0
ARC
8
DEFAULT_255_1_234
10
4.6051529
20
60.9289765
40
0.3322915
50
74.7008593
51
87.8124495
0
ARC
8
DEFAULT_255_1_234
10
4.5978217
20
60.8233844
40
0.4380987
50
87.3814673
51
90.0240855
0
ARC
8
DEFAULT_255_1_234
10
4.593976
20
60.9411291
40
0.3203749
50
89.3451631
51
108.5745436
0
ARC
8
DEFAULT_255_1_234
10
4.5802865
20
60.9924908
40
0.2673494
50
109.2998449
51
143.3037509
0
ARC
8
DEFAULT_255_1_234
10
4.6564938
20
60.9338881
40
0.3634757
50
143.0753173
51
163.1916937
0
ARC
8
DEFAULT_255_1_234
10
4.8516666
20
60.8722967
40
0.5681262
50
162.9373603
51
174.6208611
0
ARC
8
DEFAULT_255_1_234
10
5.1142708
20
60.843501
40
0.8322832
50
174.3419979
51
180.1430411
0
ARC
8
DEFAULT_255_1_234
10
5.0211864
20
60.7240698
40
0.7392076
50
179.6817502
51
189.150529
0
ARC
8
DEFAULT_255_1_234
10
4.7711112
20
60.682419
40
0.4856932
50
188.9910863
51
203.5773039
0
ARC
8
DEFAULT_255_1_234
10
4.6631445
20
60.6376211
40
0.3688271
50
203.9077269
51
215.1312379
0
ARC
8
DEFAULT_255_1_234
10
4.5708539
20
60.5660941
40
0.2522457
50
213.9071664
51
263.8849284
0
ARC
8
DEFAULT_255_1_234
10
4.5833868
20
60.6445518
40
0.3316174
50
263.1758525
51
270.1031083
0
ARC
8
DEFAULT_255_1_234
10
4.586596
20
60.7692365
40
0.4563091
50
269.6719807
51
279.0609165
0
ARC
8
DEFAULT_255_1_234
10
4.6132728
20
60.6079907
40
0.2928759
50
278.8750225
51
293.6346586
0
ARC
8
DEFAULT_255_1_234
10
4.6452936
20
60.53279
40
0.2111472
50
293.8553404
51
310.0518804
0
ARC
8
DEFAULT_255_1_234
10
4.645779
20
60.5265516
40
0.2060917
50
311.0646779
51
332.0108348
0
ARC
8
DEFAULT_255_1_234
10
4.5265517
20
60.5922978
40
0.3422352
50
331.6588543
51
343.2878891
0
ARC
8
DEFAULT_255_1_234
10
4.3203032
20
60.6556798
40
0.5580003
50
343.1446044
51
351.010618
0
ARC
8
DEFAULT_255_1_234
10
4.1661678
20
60.6837871
40
0.7146438
50
350.7157277
51
351.1602153
0
LINE
8
DEFAULT_255_1_234
10
6.0224679
20
61.3723211
11
6.0224679
21
61.2454196
0
LINE
8
DEFAULT_255_1_234
10
6.0224679
20
61.2454196
11
5.6465826
21
61.2454196
0
LINE
8
DEFAULT_255_1_234
10
5.6465826
20
61.2454196
11
5.6465826
21
60.2029
0
LINE
8
DEFAULT_255_1_234
10
5.6465826
20
60.2029
11
5.4931764
21
60.2029
0
LINE
8
DEFAULT_255_1_234
10
5.4931764
20
60.2029
11
5.4931764
21
61.2454196
0
LINE
8
DEFAULT_255_1_234
10
5.4931764
20
61.2454196
11
5.1180942
21
61.2454196
0
LINE
8
DEFAULT_255_1_234
10
5.1180942
20
61.2454196
11
5.1180942
21
61.3723211
0
LINE
8
DEFAULT_255_1_234
10
5.1180942
20
61.3723211
11
6.0224679
21
61.3723211
0
LINE
8
DEFAULT_255_1_234
10
6.3445406
20
60.7586963
11
6.2256709
21
60.7892169
0
LINE
8
DEFAULT_255_1_234
10
6.2256709
20
60.7892169
11
6.2851058
21
61.3723211
0
LINE
8
DEFAULT_255_1_234
10
6.2851058
20
61.3723211
11
6.8842734
21
61.3723211
0
LINE
8
DEFAULT_255_1_234
10
6.8842734
20
61.3723211
11
6.8842734
21
61.2349784
0
LINE
8
DEFAULT_255_1_234
10
6.8842734
20
61.2349784
11
6.4112041
21
61.2349784
0
LINE
8
DEFAULT_255_1_234
10
6.4112041
20
61.2349784
11
6.3758644
21
60.9161184
0
LINE
8
DEFAULT_255_1_234
10
6.1839059
20
60.5105156
11
6.3244613
21
60.5105156
0
LINE
8
DEFAULT_255_1_234
10
6.3838961
20
60.7908232
11
6.3445406
21
60.7586963
0
ARC
8
DEFAULT_255_1_234
10
6.5613428
20
60.598123
40
0.3681349
50
93.7182161
51
120.2538958
0
ARC
8
DEFAULT_255_1_234
10
6.5707691
20
60.5173394
40
0.449379
50
89.9660152
51
94.2496022
0
ARC
8
DEFAULT_255_1_234
10
6.5748425
20
60.5762549
40
0.390482
50
73.8043271
51
90.5585896
0
ARC
8
DEFAULT_255_1_234
10
6.5983322
20
60.6620602
40
0.3015334
50
41.3071453
51
73.5430202
0
ARC
8
DEFAULT_255_1_234
10
6.5567149
20
60.6262324
40
0.3564457
50
13.5075983
51
41.2174222
0
ARC
8
DEFAULT_255_1_234
10
6.3925353
20
60.5832486
40
0.5261351
50
1.1331335
51
13.8829381
0
ARC
8
DEFAULT_255_1_234
10
6.2513722
20
60.5756665
40
0.6674378
50
359.9919444
51
1.544251
0
ARC
8
DEFAULT_255_1_234
10
6.3790548
20
60.571528
40
0.5397702
50
347.8572367
51
0.4293338
0
ARC
8
DEFAULT_255_1_234
10
6.5540866
20
60.5318736
40
0.3603188
50
323.673004
51
348.1672506
0
ARC
8
DEFAULT_255_1_234
10
6.5835374
20
60.5139168
40
0.3259678
50
316.8171152
51
323.1492751
0
ARC
8
DEFAULT_255_1_234
10
6.5896563
20
60.510246
40
0.3189975
50
281.8396411
51
316.5457803
0
ARC
8
DEFAULT_255_1_234
10
6.5520826
20
60.6657762
40
0.4789527
50
269.5770101
51
282.4214771
0
ARC
8
DEFAULT_255_1_234
10
6.5449638
20
60.6444125
40
0.45759
50
256.2427136
51
270.4486331
0
ARC
8
DEFAULT_255_1_234
10
6.515054
20
60.5244229
40
0.3339303
50
228.9023911
51
256.3314342
0
ARC
8
DEFAULT_255_1_234
10
6.5076773
20
60.5127746
40
0.32031
50
193.753695
51
228.5271154
0
ARC
8
DEFAULT_255_1_234
10
6.6314727
20
60.54908
40
0.4492253
50
184.924711
51
194.497588
0
ARC
8
DEFAULT_255_1_234
10
6.6507294
20
60.5526591
40
0.3289787
50
187.3600538
51
198.6732863
0
ARC
8
DEFAULT_255_1_234
10
6.5457588
20
60.5162674
40
0.217884
50
198.4451669
51
217.794479
0
ARC
8
DEFAULT_255_1_234
10
6.5161763
20
60.4953085
40
0.1816698
50
218.2887171
51
228.5612368
0
ARC
8
DEFAULT_255_1_234
10
6.525955
20
60.5084963
40
0.1980329
50
228.9654866
51
258.1234728
0
ARC
8
DEFAULT_255_1_234
10
6.546526
20
60.5965833
40
0.2884748
50
257.7258293
51
270.401361
0
ARC
8
DEFAULT_255_1_234
10
6.5510146
20
60.5520821
40
0.2439788
50
269.4204404
51
286.4209037
0
ARC
8
DEFAULT_255_1_234
10
6.5658634
20
60.4981657
40
0.1880666
50
286.7251356
51
320.600362
0
ARC
8
DEFAULT_255_1_234
10
6.5275459
20
60.5292595
40
0.2374121
50
320.6712579
51
344.5441685
0
ARC
8
DEFAULT_255_1_234
10
6.4118785
20
60.5632045
40
0.3579479
50
344.2412205
51
356.7357071
0
ARC
8
DEFAULT_255_1_234
10
6.2869934
20
60.5735444
40
0.4832297
50
356.3548756
51
0.0500261
0
ARC
8
DEFAULT_255_1_234
10
6.4206443
20
60.576665
40
0.3495889
50
359.5576869
51
12.953486
0
ARC
8
DEFAULT_255_1_234
10
6.526134
20
60.6022434
40
0.2410532
50
12.6490276
51
41.6081334
0
ARC
8
DEFAULT_255_1_234
10
6.5491711
20
60.6218321
40
0.2108218
50
41.7850273
51
85.9892764
0
ARC
8
DEFAULT_255_1_234
10
6.5368448
20
60.5405462
40
0.2928454
50
84.6957577
51
90.0676183
0
ARC
8
DEFAULT_255_1_234
10
6.5344932
20
60.4736716
40
0.3597255
50
89.6804936
51
99.1614436
0
ARC
8
DEFAULT_255_1_234
10
6.5139563
20
60.5964131
40
0.235281
50
98.9830931
51
113.8908934
0
ARC
8
DEFAULT_255_1_234
10
6.4909973
20
60.6505587
40
0.176479
50
114.1950727
51
127.3641004
0
LINE
8
DEFAULT_255_1_234
10
4.978123
20
68.5114663
11
5.1331355
21
68.5114663
0
LINE
8
DEFAULT_255_1_234
10
4.2327777
20
68.6704947
11
4.2327777
21
68.7829391
0
LINE
8
DEFAULT_255_1_234
10
5.1331355
20
68.9339357
11
4.978123
21
68.9339357
0
LINE
8
DEFAULT_255_1_234
10
4.3877902
20
68.7789232
11
4.3877902
21
68.6656757
0
ARC
8
DEFAULT_255_1_234
10
4.5850742
20
68.5711846
40
0.5513052
50
340.1774281
51
353.7814284
0
ARC
8
DEFAULT_255_1_234
10
4.7422095
20
68.5126582
40
0.3836379
50
311.4558989
51
340.4421614
0
ARC
8
DEFAULT_255_1_234
10
4.7388763
20
68.5237528
40
0.3941894
50
282.4333181
51
310.7513653
0
ARC
8
DEFAULT_255_1_234
10
4.6949502
20
68.7052679
40
0.5809175
50
269.9358511
51
282.809604
0
ARC
8
DEFAULT_255_1_234
10
4.6897568
20
68.8510212
40
0.7266847
50
270.0021091
51
270.3581957
0
ARC
8
DEFAULT_255_1_234
10
4.6844985
20
68.5909585
40
0.4666519
50
250.7884749
51
270.6489167
0
ARC
8
DEFAULT_255_1_234
10
4.667682
20
68.5272319
40
0.4009729
50
219.3627325
51
250.0611886
0
ARC
8
DEFAULT_255_1_234
10
4.7506031
20
68.5977042
40
0.5097822
50
193.5479632
51
219.5756669
0
ARC
8
DEFAULT_255_1_234
10
4.9877652
20
68.6592919
40
0.7547848
50
181.1218675
51
193.87563
0
ARC
8
DEFAULT_255_1_234
10
5.1947833
20
68.670358
40
0.9620055
50
179.9918545
51
181.5394234
0
ARC
8
DEFAULT_255_1_234
10
5.0096935
20
68.7866788
40
0.7769248
50
169.5837241
51
180.2757934
0
ARC
8
DEFAULT_255_1_234
10
4.8259873
20
68.8206229
40
0.590109
50
155.0365899
51
169.6003176
0
ARC
8
DEFAULT_255_1_234
10
4.7124337
20
68.8753677
40
0.4640625
50
136.783148
51
155.2472683
0
ARC
8
DEFAULT_255_1_234
10
4.6734814
20
68.9084562
40
0.4130255
50
121.7633186
51
136.428115
0
ARC
8
DEFAULT_255_1_234
10
4.6869776
20
68.8835227
40
0.4413323
50
95.6459699
51
121.5490577
0
ARC
8
DEFAULT_255_1_234
10
4.7027058
20
68.7726949
40
0.55319
50
89.924208
51
96.1377933
0
ARC
8
DEFAULT_255_1_234
10
4.7077491
20
68.7845542
40
0.5413475
50
76.6779277
51
90.4563316
0
ARC
8
DEFAULT_255_1_234
10
4.7471114
20
68.9436114
40
0.3775041
50
47.485847
51
76.9287264
0
ARC
8
DEFAULT_255_1_234
10
4.7324087
20
68.9336159
40
0.3948286
50
16.5424086
51
46.8933463
0
ARC
8
DEFAULT_255_1_234
10
4.5716244
20
68.8807861
40
0.564021
50
5.4072051
51
17.0365086
0
ARC
8
DEFAULT_255_1_234
10
4.4277261
20
68.8576679
40
0.5556559
50
7.8891745
51
15.9239216
0
ARC
8
DEFAULT_255_1_234
10
4.6264274
20
68.9153631
40
0.3487515
50
15.7653144
51
27.9410532
0
ARC
8
DEFAULT_255_1_234
10
4.7368492
20
68.974479
40
0.2235026
50
27.8166557
51
46.4008329
0
ARC
8
DEFAULT_255_1_234
10
4.7418135
20
68.9739082
40
0.2205286
50
47.4371857
51
75.0698205
0
ARC
8
DEFAULT_255_1_234
10
4.7109529
20
68.8664765
40
0.3322915
50
74.7008593
51
87.8124495
0
ARC
8
DEFAULT_255_1_234
10
4.7036217
20
68.7608844
40
0.4380987
50
87.3814673
51
90.0240855
0
ARC
8
DEFAULT_255_1_234
10
4.699776
20
68.8786291
40
0.3203749
50
89.3451631
51
108.5745436
0
ARC
8
DEFAULT_255_1_234
10
4.6860865
20
68.9299908
40
0.2673494
50
109.2998449
51
143.3037509
0
ARC
8
DEFAULT_255_1_234
10
4.7622938
20
68.8713881
40
0.3634757
50
143.0753173
51
163.1916937
0
ARC
8
DEFAULT_255_1_234
10
4.9574666
20
68.8097967
40
0.5681262
50
162.9373603
51
174.6208611
0
ARC
8
DEFAULT_255_1_234
10
5.2200708
20
68.781001
40
0.8322832
50
174.3419979
51
180.1430411
0
ARC
8
DEFAULT_255_1_234
10
5.1269864
20
68.6615698
40
0.7392076
50
179.6817502
51
189.150529
0
ARC
8
DEFAULT_255_1_234
10
4.8769112
20
68.619919
40
0.4856932
50
188.9910863
51
203.5773039
0
ARC
8
DEFAULT_255_1_234
10
4.7689445
20
68.5751211
40
0.3688271
50
203.9077269
51
215.1312379
0
ARC
8
DEFAULT_255_1_234
10
4.6766539
20
68.5035941
40
0.2522457
50
213.9071664
51
263.8849284
0
ARC
8
DEFAULT_255_1_234
10
4.6891868
20
68.5820518
40
0.3316174
50
263.1758525
51
270.1031083
0
ARC
8
DEFAULT_255_1_234
10
4.692396
20
68.7067365
40
0.4563091
50
269.6719807
51
279.0609165
0
ARC
8
DEFAULT_255_1_234
10
4.7190728
20
68.5454907
40
0.2928759
50
278.8750225
51
293.6346586
0
ARC
8
DEFAULT_255_1_234
10
4.7510936
20
68.47029
40
0.2111472
50
293.8553404
51
310.0518804
0
ARC
8
DEFAULT_255_1_234
10
4.751579
20
68.4640516
40
0.2060917
50
311.0646779
51
332.0108348
0
ARC
8
DEFAULT_255_1_234
10
4.6323517
20
68.5297978
40
0.3422352
50
331.6588543
51
343.2878891
0
ARC
8
DEFAULT_255_1_234
10
4.4261032
20
68.5931798
40
0.5580003
50
343.1446044
51
351.010618
0
ARC
8
DEFAULT_255_1_234
10
4.2719678
20
68.6212871
40
0.7146438
50
350.7157277
51
351.1602153
0
LINE
8
DEFAULT_255_1_234
10
6.1282679
20
69.3098211
11
6.1282679
21
69.1829196
0
LINE
8
DEFAULT_255_1_234
10
6.1282679
20
69.1829196
11
5.7523826
21
69.1829196
0
LINE
8
DEFAULT_255_1_234
10
5.7523826
20
69.1829196
11
5.7523826
21
68.1404
0
LINE
8
DEFAULT_255_1_234
10
5.7523826
20
68.1404
11
5.5989764
21
68.1404
0
LINE
8
DEFAULT_255_1_234
10
5.5989764
20
68.1404
11
5.5989764
21
69.1829196
0
LINE
8
DEFAULT_255_1_234
10
5.5989764
20
69.1829196
11
5.2238942
21
69.1829196
0
LINE
8
DEFAULT_255_1_234
10
5.2238942
20
69.1829196
11
5.2238942
21
69.3098211
0
LINE
8
DEFAULT_255_1_234
10
5.2238942
20
69.3098211
11
6.1282679
21
69.3098211
0
LINE
8
DEFAULT_255_1_234
10
6.8904799
20
69.3098211
11
6.8904799
21
68.533152
0
LINE
8
DEFAULT_255_1_234
10
6.8904799
20
68.533152
11
7.052721
21
68.533152
0
LINE
8
DEFAULT_255_1_234
10
7.052721
20
68.533152
11
7.052721
21
68.4118728
0
LINE
8
DEFAULT_255_1_234
10
7.052721
20
68.4118728
11
6.8904799
21
68.4118728
0
LINE
8
DEFAULT_255_1_234
10
6.8904799
20
68.4118728
11
6.8904799
21
68.1404
0
LINE
8
DEFAULT_255_1_234
10
6.8904799
20
68.1404
11
6.7410896
21
68.1404
0
LINE
8
DEFAULT_255_1_234
10
6.7410896
20
68.1404
11
6.7410896
21
68.4118728
0
LINE
8
DEFAULT_255_1_234
10
6.7410896
20
68.4118728
11
6.2085853
21
68.4118728
0
LINE
8
DEFAULT_255_1_234
10
6.2085853
20
68.4118728
11
6.2085853
21
68.4994187
0
LINE
8
DEFAULT_255_1_234
10
6.2085853
20
68.4994187
11
6.7322546
21
69.3098211
0
LINE
8
DEFAULT_255_1_234
10
6.7322546
20
69.3098211
11
6.8904799
21
69.3098211
0
LINE
8
DEFAULT_255_1_234
10
6.7234197
20
69.0744912
11
6.3772518
21
68.533152
0
LINE
8
DEFAULT_255_1_234
10
6.3772518
20
68.533152
11
6.7410896
21
68.533152
0
LINE
8
DEFAULT_255_1_234
10
6.7410896
20
68.533152
11
6.7410896
21
69.1066181
0
LINE
8
DEFAULT_255_1_234
10
6.7410896
20
69.1066181
11
6.7234197
21
69.0744912
0
LINE
8
DEFAULT_255_1_234
10
4.978123
20
76.4489663
11
5.1331355
21
76.4489663
0
LINE
8
DEFAULT_255_1_234
10
4.2327777
20
76.6079947
11
4.2327777
21
76.7204391
0
LINE
8
DEFAULT_255_1_234
10
5.1331355
20
76.8714357
11
4.978123
21
76.8714357
0
LINE
8
DEFAULT_255_1_234
10
4.3877902
20
76.7164232
11
4.3877902
21
76.6031757
0
ARC
8
DEFAULT_255_1_234
10
4.5850742
20
76.5086846
40
0.5513052
50
340.1774281
51
353.7814284
0
ARC
8
DEFAULT_255_1_234
10
4.7422095
20
76.4501582
40
0.3836379
50
311.4558989
51
340.4421614
0
ARC
8
DEFAULT_255_1_234
10
4.7388763
20
76.4612528
40
0.3941894
50
282.4333181
51
310.7513653
0
ARC
8
DEFAULT_255_1_234
10
4.6949502
20
76.6427679
40
0.5809175
50
269.9358511
51
282.809604
0
ARC
8
DEFAULT_255_1_234
10
4.6897568
20
76.7885212
40
0.7266847
50
270.0021091
51
270.3581957
0
ARC
8
DEFAULT_255_1_234
10
4.6844985
20
76.5284585
40
0.4666519
50
250.7884749
51
270.6489167
0
ARC
8
DEFAULT_255_1_234
10
4.667682
20
76.4647319
40
0.4009729
50
219.3627325
51
250.0611886
0
ARC
8
DEFAULT_255_1_234
10
4.7506031
20
76.5352042
40
0.5097822
50
193.5479632
51
219.5756669
0
ARC
8
DEFAULT_255_1_234
10
4.9877652
20
76.5967919
40
0.7547848
50
181.1218675
51
193.87563
0
ARC
8
DEFAULT_255_1_234
10
5.1947833
20
76.607858
40
0.9620055
50
179.9918545
51
181.5394234
0
ARC
8
DEFAULT_255_1_234
10
5.0096935
20
76.7241788
40
0.7769248
50
169.5837241
51
180.2757934
0
ARC
8
DEFAULT_255_1_234
10
4.8259873
20
76.7581229
40
0.590109
50
155.0365899
51
169.6003176
0
ARC
8
DEFAULT_255_1_234
10
4.7124337
20
76.8128677
40
0.4640625
50
136.783148
51
155.2472683
0
ARC
8
DEFAULT_255_1_234
10
4.6734814
20
76.8459562
40
0.4130255
50
121.7633186
51
136.428115
0
ARC
8
DEFAULT_255_1_234
10
4.6869776
20
76.8210227
40
0.4413323
50
95.6459699
51
121.5490577
0
ARC
8
DEFAULT_255_1_234
10
4.7027058
20
76.7101949
40
0.55319
50
89.924208
51
96.1377933
0
ARC
8
DEFAULT_255_1_234
10
4.7077491
20
76.7220542
40
0.5413475
50
76.6779277
51
90.4563316
0
ARC
8
DEFAULT_255_1_234
10
4.7471114
20
76.8811114
40
0.3775041
50
47.485847
51
76.9287264
0
ARC
8
DEFAULT_255_1_234
10
4.7324087
20
76.8711159
40
0.3948286
50
16.5424086
51
46.8933463
0
ARC
8
DEFAULT_255_1_234
10
4.5716244
20
76.8182861
40
0.564021
50
5.4072051
51
17.0365086
0
ARC
8
DEFAULT_255_1_234
10
4.4277261
20
76.7951679
40
0.5556559
50
7.8891745
51
15.9239216
0
ARC
8
DEFAULT_255_1_234
10
4.6264274
20
76.8528631
40
0.3487515
50
15.7653144
51
27.9410532
0
ARC
8
DEFAULT_255_1_234
10
4.7368492
20
76.911979
40
0.2235026
50
27.8166557
51
46.4008329
0
ARC
8
DEFAULT_255_1_234
10
4.7418135
20
76.9114082
40
0.2205286
50
47.4371857
51
75.0698205
0
ARC
8
DEFAULT_255_1_234
10
4.7109529
20
76.8039765
40
0.3322915
50
74.7008593
51
87.8124495
0
ARC
8
DEFAULT_255_1_234
10
4.7036217
20
76.6983844
40
0.4380987
50
87.3814673
51
90.0240855
0
ARC
8
DEFAULT_255_1_234
10
4.699776
20
76.8161291
40
0.3203749
50
89.3451631
51
108.5745436
0
ARC
8
DEFAULT_255_1_234
10
4.6860865
20
76.8674908
40
0.2673494
50
109.2998449
51
143.3037509
0
ARC
8
DEFAULT_255_1_234
10
4.7622938
20
76.8088881
40
0.3634757
50
143.0753173
51
163.1916937
0
ARC
8
DEFAULT_255_1_234
10
4.9574666
20
76.7472967
40
0.5681262
50
162.9373603
51
174.6208611
0
ARC
8
DEFAULT_255_1_234
10
5.2200708
20
76.718501
40
0.8322832
50
174.3419979
51
180.1430411
0
ARC
8
DEFAULT_255_1_234
10
5.1269864
20
76.5990698
40
0.7392076
50
179.6817502
51
189.150529
0
ARC
8
DEFAULT_255_1_234
10
4.8769112
20
76.557419
40
0.4856932
50
188.9910863
51
203.5773039
0
ARC
8
DEFAULT_255_1_234
10
4.7689445
20
76.5126211
40
0.3688271
50
203.9077269
51
215.1312379
0
ARC
8
DEFAULT_255_1_234
10
4.6766539
20
76.4410941
40
0.2522457
50
213.9071664
51
263.8849284
0
ARC
8
DEFAULT_255_1_234
10
4.6891868
20
76.5195518
40
0.3316174
50
263.1758525
51
270.1031083
0
ARC
8
DEFAULT_255_1_234
10
4.692396
20
76.6442365
40
0.4563091
50
269.6719807
51
279.0609165
0
ARC
8
DEFAULT_255_1_234
10
4.7190728
20
76.4829907
40
0.2928759
50
278.8750225
51
293.6346586
0
ARC
8
DEFAULT_255_1_234
10
4.7510936
20
76.40779
40
0.2111472
50
293.8553404
51
310.0518804
0
ARC
8
DEFAULT_255_1_234
10
4.751579
20
76.4015516
40
0.2060917
50
311.0646779
51
332.0108348
0
ARC
8
DEFAULT_255_1_234
10
4.6323517
20
76.4672978
40
0.3422352
50
331.6588543
51
343.2878891
0
ARC
8
DEFAULT_255_1_234
10
4.4261032
20
76.5306798
40
0.5580003
50
343.1446044
51
351.010618
0
ARC
8
DEFAULT_255_1_234
10
4.2719678
20
76.5587871
40
0.7146438
50
350.7157277
51
351.1602153
0
LINE
8
DEFAULT_255_1_234
10
6.1282679
20
77.2473211
11
6.1282679
21
77.1204196
0
LINE
8
DEFAULT_255_1_234
10
6.1282679
20
77.1204196
11
5.7523826
21
77.1204196
0
LINE
8
DEFAULT_255_1_234
10
5.7523826
20
77.1204196
11
5.7523826
21
76.0779
0
LINE
8
DEFAULT_255_1_234
10
5.7523826
20
76.0779
11
5.5989764
21
76.0779
0
LINE
8
DEFAULT_255_1_234
10
5.5989764
20
76.0779
11
5.5989764
21
77.1204196
0
LINE
8
DEFAULT_255_1_234
10
5.5989764
20
77.1204196
11
5.2238942
21
77.1204196
0
LINE
8
DEFAULT_255_1_234
10
5.2238942
20
77.1204196
11
5.2238942
21
77.2473211
0
LINE
8
DEFAULT_255_1_234
10
5.2238942
20
77.2473211
11
6.1282679
21
77.2473211
0
LINE
8
DEFAULT_255_1_234
10
6.8904799
20
77.2473211
11
6.8904799
21
76.470652
0
LINE
8
DEFAULT_255_1_234
10
6.8904799
20
76.470652
11
7.052721
21
76.470652
0
LINE
8
DEFAULT_255_1_234
10
7.052721
20
76.470652
11
7.052721
21
76.3493728
0
LINE
8
DEFAULT_255_1_234
10
7.052721
20
76.3493728
11
6.8904799
21
76.3493728
0
LINE
8
DEFAULT_255_1_234
10
6.8904799
20
76.3493728
11
6.8904799
21
76.0779
0
LINE
8
DEFAULT_255_1_234
10
6.8904799
20
76.0779
11
6.7410896
21
76.0779
0
LINE
8
DEFAULT_255_1_234
10
6.7410896
20
76.0779
11
6.7410896
21
76.3493728
0
LINE
8
DEFAULT_255_1_234
10
6.7410896
20
76.3493728
11
6.2085853
21
76.3493728
0
LINE
8
DEFAULT_255_1_234
10
6.2085853
20
76.3493728
11
6.2085853
21
76.4369187
0
LINE
8
DEFAULT_255_1_234
10
6.2085853
20
76.4369187
11
6.7322546
21
77.2473211
0
LINE
8
DEFAULT_255_1_234
10
6.7322546
20
77.2473211
11
6.8904799
21
77.2473211
0
LINE
8
DEFAULT_255_1_234
10
6.7234197
20
77.0119912
11
6.3772518
21
76.470652
0
LINE
8
DEFAULT_255_1_234
10
6.3772518
20
76.470652
11
6.7410896
21
76.470652
0
LINE
8
DEFAULT_255_1_234
10
6.7410896
20
76.470652
11
6.7410896
21
77.0441181
0
LINE
8
DEFAULT_255_1_234
10
6.7410896
20
77.0441181
11
6.7234197
21
77.0119912
0
LINE
8
DEFAULT_255_1_234
10
4.872323
20
84.3864663
11
5.0273355
21
84.3864663
0
LINE
8
DEFAULT_255_1_234
10
4.1269777
20
84.5454947
11
4.1269777
21
84.6579391
0
LINE
8
DEFAULT_255_1_234
10
5.0273355
20
84.8089357
11
4.872323
21
84.8089357
0
LINE
8
DEFAULT_255_1_234
10
4.2819902
20
84.6539232
11
4.2819902
21
84.5406757
0
ARC
8
DEFAULT_255_1_234
10
4.4792742
20
84.4461846
40
0.5513052
50
340.1774281
51
353.7814284
0
ARC
8
DEFAULT_255_1_234
10
4.6364095
20
84.3876582
40
0.3836379
50
311.4558989
51
340.4421614
0
ARC
8
DEFAULT_255_1_234
10
4.6330763
20
84.3987528
40
0.3941894
50
282.4333181
51
310.7513653
0
ARC
8
DEFAULT_255_1_234
10
4.5891502
20
84.5802679
40
0.5809175
50
269.9358511
51
282.809604
0
ARC
8
DEFAULT_255_1_234
10
4.5839568
20
84.7260212
40
0.7266847
50
270.0021091
51
270.3581957
0
ARC
8
DEFAULT_255_1_234
10
4.5786985
20
84.4659585
40
0.4666519
50
250.7884749
51
270.6489167
0
ARC
8
DEFAULT_255_1_234
10
4.561882
20
84.4022319
40
0.4009729
50
219.3627325
51
250.0611886
0
ARC
8
DEFAULT_255_1_234
10
4.6448031
20
84.4727042
40
0.5097822
50
193.5479632
51
219.5756669
0
ARC
8
DEFAULT_255_1_234
10
4.8819652
20
84.5342919
40
0.7547848
50
181.1218675
51
193.87563
0
ARC
8
DEFAULT_255_1_234
10
5.0889833
20
84.545358
40
0.9620055
50
179.9918545
51
181.5394234
0
ARC
8
DEFAULT_255_1_234
10
4.9038935
20
84.6616788
40
0.7769248
50
169.5837241
51
180.2757934
0
ARC
8
DEFAULT_255_1_234
10
4.7201873
20
84.6956229
40
0.590109
50
155.0365899
51
169.6003176
0
ARC
8
DEFAULT_255_1_234
10
4.6066337
20
84.7503677
40
0.4640625
50
136.783148
51
155.2472683
0
ARC
8
DEFAULT_255_1_234
10
4.5676814
20
84.7834562
40
0.4130255
50
121.7633186
51
136.428115
0
ARC
8
DEFAULT_255_1_234
10
4.5811776
20
84.7585227
40
0.4413323
50
95.6459699
51
121.5490577
0
ARC
8
DEFAULT_255_1_234
10
4.5969058
20
84.6476949
40
0.55319
50
89.924208
51
96.1377933
0
ARC
8
DEFAULT_255_1_234
10
4.6019491
20
84.6595542
40
0.5413475
50
76.6779277
51
90.4563316
0
ARC
8
DEFAULT_255_1_234
10
4.6413114
20
84.8186114
40
0.3775041
50
47.485847
51
76.9287264
0
ARC
8
DEFAULT_255_1_234
10
4.6266087
20
84.8086159
40
0.3948286
50
16.5424086
51
46.8933463
0
ARC
8
DEFAULT_255_1_234
10
4.4658244
20
84.7557861
40
0.564021
50
5.4072051
51
17.0365086
0
ARC
8
DEFAULT_255_1_234
10
4.3219261
20
84.7326679
40
0.5556559
50
7.8891745
51
15.9239216
0
ARC
8
DEFAULT_255_1_234
10
4.5206274
20
84.7903631
40
0.3487515
50
15.7653144
51
27.9410532
0
ARC
8
DEFAULT_255_1_234
10
4.6310492
20
84.849479
40
0.2235026
50
27.8166557
51
46.4008329
0
ARC
8
DEFAULT_255_1_234
10
4.6360135
20
84.8489082
40
0.2205286
50
47.4371857
51
75.0698205
0
ARC
8
DEFAULT_255_1_234
10
4.6051529
20
84.7414765
40
0.3322915
50
74.7008593
51
87.8124495
0
ARC
8
DEFAULT_255_1_234
10
4.5978217
20
84.6358844
40
0.4380987
50
87.3814673
51
90.0240855
0
ARC
8
DEFAULT_255_1_234
10
4.593976
20
84.7536291
40
0.3203749
50
89.3451631
51
108.5745436
0
ARC
8
DEFAULT_255_1_234
10
4.5802865
20
84.8049908
40
0.2673494
50
109.2998449
51
143.3037509
0
ARC
8
DEFAULT_255_1_234
10
4.6564938
20
84.7463881
40
0.3634757
50
143.0753173
51
163.1916937
0
ARC
8
DEFAULT_255_1_234
10
4.8516666
20
84.6847967
40
0.5681262
50
162.9373603
51
174.6208611
0
ARC
8
DEFAULT_255_1_234
10
5.1142708
20
84.656001
40
0.8322832
50
174.3419979
51
180.1430411
0
ARC
8
DEFAULT_255_1_234
10
5.0211864
20
84.5365698
40
0.7392076
50
179.6817502
51
189.150529
0
ARC
8
DEFAULT_255_1_234
10
4.7711112
20
84.494919
40
0.4856932
50
188.9910863
51
203.5773039
0
ARC
8
DEFAULT_255_1_234
10
4.6631445
20
84.4501211
40
0.3688271
50
203.9077269
51
215.1312379
0
ARC
8
DEFAULT_255_1_234
10
4.5708539
20
84.3785941
40
0.2522457
50
213.9071664
51
263.8849284
0
ARC
8
DEFAULT_255_1_234
10
4.5833868
20
84.4570518
40
0.3316174
50
263.1758525
51
270.1031083
0
ARC
8
DEFAULT_255_1_234
10
4.586596
20
84.5817365
40
0.4563091
50
269.6719807
51
279.0609165
0
ARC
8
DEFAULT_255_1_234
10
4.6132728
20
84.4204907
40
0.2928759
50
278.8750225
51
293.6346586
0
ARC
8
DEFAULT_255_1_234
10
4.6452936
20
84.34529
40
0.2111472
50
293.8553404
51
310.0518804
0
ARC
8
DEFAULT_255_1_234
10
4.645779
20
84.3390516
40
0.2060917
50
311.0646779
51
332.0108348
0
ARC
8
DEFAULT_255_1_234
10
4.5265517
20
84.4047978
40
0.3422352
50
331.6588543
51
343.2878891
0
ARC
8
DEFAULT_255_1_234
10
4.3203032
20
84.4681798
40
0.5580003
50
343.1446044
51
351.010618
0
ARC
8
DEFAULT_255_1_234
10
4.1661678
20
84.4962871
40
0.7146438
50
350.7157277
51
351.1602153
0
LINE
8
DEFAULT_255_1_234
10
6.0224679
20
85.1848211
11
6.0224679
21
85.0579196
0
LINE
8
DEFAULT_255_1_234
10
6.0224679
20
85.0579196
11
5.6465826
21
85.0579196
0
LINE
8
DEFAULT_255_1_234
10
5.6465826
20
85.0579196
11
5.6465826
21
84.0154
0
LINE
8
DEFAULT_255_1_234
10
5.6465826
20
84.0154
11
5.4931764
21
84.0154
0
LINE
8
DEFAULT_255_1_234
10
5.4931764
20
84.0154
11
5.4931764
21
85.0579196
0
LINE
8
DEFAULT_255_1_234
10
5.4931764
20
85.0579196
11
5.1180942
21
85.0579196
0
LINE
8
DEFAULT_255_1_234
10
5.1180942
20
85.0579196
11
5.1180942
21
85.1848211
0
LINE
8
DEFAULT_255_1_234
10
5.1180942
20
85.1848211
11
6.0224679
21
85.1848211
0
LINE
8
DEFAULT_255_1_234
10
6.3734549
20
84.5511169
11
6.3734549
21
84.6723962
0
LINE
8
DEFAULT_255_1_234
10
6.3734549
20
84.6723962
11
6.485096
21
84.6723962
0
LINE
8
DEFAULT_255_1_234
10
6.2947438
20
84.8780087
11
6.1461567
21
84.8780087
0
LINE
8
DEFAULT_255_1_234
10
6.1357154
20
84.3238188
11
6.2851058
21
84.3238188
0
LINE
8
DEFAULT_255_1_234
10
6.485096
20
84.5511169
11
6.3734549
21
84.5511169
0
ARC
8
DEFAULT_255_1_234
10
6.4821827
20
85.0116713
40
0.3392876
50
270.4919872
51
281.8951556
0
ARC
8
DEFAULT_255_1_234
10
6.5063088
20
84.9014702
40
0.2264817
50
281.6691735
51
301.2943132
0
ARC
8
DEFAULT_255_1_234
10
6.5233299
20
84.8703304
40
0.1910381
50
301.7833094
51
311.7545298
0
ARC
8
DEFAULT_255_1_234
10
6.5324874
20
84.8601748
40
0.1773635
50
311.7323931
51
354.2802411
0
ARC
8
DEFAULT_255_1_234
10
6.45985
20
84.8726722
40
0.2509385
50
353.0937916
51
0.1181479
0
ARC
8
DEFAULT_255_1_234
10
6.4137285
20
84.8774386
40
0.2970898
50
359.1805295
51
15.0453146
0
ARC
8
DEFAULT_255_1_234
10
6.5483122
20
84.9166992
40
0.1569564
50
13.9577229
51
77.6713066
0
ARC
8
DEFAULT_255_1_234
10
6.5096651
20
84.7781949
40
0.3006298
50
76.1116566
51
90.7026153
0
ARC
8
DEFAULT_255_1_234
10
6.5037489
20
84.8055545
40
0.2732568
50
89.5324876
51
103.531937
0
ARC
8
DEFAULT_255_1_234
10
6.4836933
20
84.8854884
40
0.1908508
50
103.2931773
51
133.5619022
0
ARC
8
DEFAULT_255_1_234
10
6.4792422
20
84.8914375
40
0.1834746
50
133.8349307
51
173.5344437
0
ARC
8
DEFAULT_255_1_234
10
6.5515465
20
84.8786213
40
0.2568033
50
172.5096846
51
180.1366907
0
ARC
8
DEFAULT_255_1_234
10
6.4564358
20
84.8820622
40
0.3103056
50
155.3484492
51
180.7484736
0
ARC
8
DEFAULT_255_1_234
10
6.4515448
20
84.8791846
40
0.3070957
50
131.5744599
51
154.4798489
0
ARC
8
DEFAULT_255_1_234
10
6.4828595
20
84.847531
40
0.3515643
50
96.9875458
51
131.9690667
0
ARC
8
DEFAULT_255_1_234
10
6.5048075
20
84.7229636
40
0.4779224
50
89.8596053
51
97.7825159
0
ARC
8
DEFAULT_255_1_234
10
6.5096138
20
84.6967616
40
0.5041361
50
78.3655447
51
90.4131539
0
ARC
8
DEFAULT_255_1_234
10
6.5454056
20
84.8626887
40
0.3344039
50
56.6229102
51
78.638727
0
ARC
8
DEFAULT_255_1_234
10
6.5668999
20
84.9002805
40
0.2912001
50
47.0253525
51
56.0854072
0
ARC
8
DEFAULT_255_1_234
10
6.568878
20
84.9042223
40
0.2869704
50
10.9208013
51
46.7778124
0
ARC
8
DEFAULT_255_1_234
10
6.4324846
20
84.8726857
40
0.426899
50
359.6364486
51
11.6087304
0
ARC
8
DEFAULT_255_1_234
10
6.615969
20
84.8711752
40
0.243409
50
332.3549906
51
359.7179418
0
ARC
8
DEFAULT_255_1_234
10
6.5509292
20
84.9020142
40
0.3153459
50
325.2333722
51
332.8745602
0
ARC
8
DEFAULT_255_1_234
10
6.5661915
20
84.8913828
40
0.2967456
50
292.9802137
51
325.2392345
0
ARC
8
DEFAULT_255_1_234
10
6.5387289
20
84.9447863
40
0.3566604
50
292.5402179
51
293.6924929
0
ARC
8
DEFAULT_255_1_234
10
6.5779885
20
84.2993091
40
0.3307468
50
57.6435486
51
72.8625112
0
ARC
8
DEFAULT_255_1_234
10
6.6134385
20
84.3567549
40
0.2632492
50
36.7248896
51
57.4697979
0
ARC
8
DEFAULT_255_1_234
10
6.6123017
20
84.358022
40
0.2634081
50
8.0545065
51
36.356114
0
ARC
8
DEFAULT_255_1_234
10
6.5260203
20
84.3425174
40
0.3510261
50
359.8320645
51
8.5869982
0
ARC
8
DEFAULT_255_1_234
10
6.4884979
20
84.3377101
40
0.3885653
50
343.9829931
51
0.5571613
0
ARC
8
DEFAULT_255_1_234
10
6.5771176
20
84.3134438
40
0.2966924
50
311.6359546
51
343.7651759
0
ARC
8
DEFAULT_255_1_234
10
6.5392745
20
84.3561102
40
0.3537231
50
279.7829875
51
311.6255694
0
ARC
8
DEFAULT_255_1_234
10
6.5091521
20
84.499828
40
0.5004971
50
269.7286406
51
280.3856417
0
ARC
8
DEFAULT_255_1_234
10
6.5029594
20
84.4956996
40
0.4963778
50
256.6828919
51
270.4412052
0
ARC
8
DEFAULT_255_1_234
10
6.469089
20
84.3572394
40
0.3538406
50
229.4223008
51
256.8556159
0
ARC
8
DEFAULT_255_1_234
10
6.4276283
20
84.3105736
40
0.2914296
50
181.818294
51
229.6455059
0
ARC
8
DEFAULT_255_1_234
10
6.5316239
20
84.3236496
40
0.3959084
50
179.9755256
51
183.2323064
0
ARC
8
DEFAULT_255_1_234
10
6.5143985
20
84.3216037
40
0.2293034
50
179.4465117
51
196.2869258
0
ARC
8
DEFAULT_255_1_234
10
6.4656393
20
84.3082651
40
0.1787621
50
196.5661473
51
227.705904
0
ARC
8
DEFAULT_255_1_234
10
6.4820488
20
84.3266155
40
0.2033784
50
227.7652068
51
257.8762805
0
ARC
8
DEFAULT_255_1_234
10
6.5045458
20
84.4209156
40
0.3003081
50
257.4584385
51
270.426602
0
ARC
8
DEFAULT_255_1_234
10
6.5091024
20
84.4498996
40
0.329292
50
269.5962073
51
280.8789248
0
ARC
8
DEFAULT_255_1_234
10
6.5320553
20
84.3352685
40
0.2123908
50
280.6346389
51
299.8595945
0
ARC
8
DEFAULT_255_1_234
10
6.5511459
20
84.2990212
40
0.171457
50
300.3576302
51
314.5517981
0
ARC
8
DEFAULT_255_1_234
10
6.5428519
20
84.3050919
40
0.1816095
50
315.0728369
51
345.0431014
0
ARC
8
DEFAULT_255_1_234
10
6.4505334
20
84.3319841
40
0.2777492
50
344.5986631
51
357.9269593
0
ARC
8
DEFAULT_255_1_234
10
6.360966
20
84.3381276
40
0.3674917
50
357.4748886
51
0.0231117
0
ARC
8
DEFAULT_255_1_234
10
6.4632769
20
84.3405679
40
0.2651907
50
359.5047933
51
13.4239635
0
ARC
8
DEFAULT_255_1_234
10
6.5499413
20
84.3627478
40
0.1757509
50
12.9498199
51
48.7551375
0
ARC
8
DEFAULT_255_1_234
10
6.5317147
20
84.33784
40
0.2065134
50
49.5088623
51
72.1836453
0
ARC
8
DEFAULT_255_1_234
10
6.49593
20
84.2316291
40
0.3185836
50
71.9010081
51
84.3554254
0
ARC
8
DEFAULT_255_1_234
10
6.4797932
20
84.0955326
40
0.4556151
50
84.0193428
51
89.333121
0
LINE
8
DEFAULT_255_1_234
10
4.872323
20
92.3239663
11
5.0273355
21
92.3239663
0
LINE
8
DEFAULT_255_1_234
10
4.1269777
20
92.4829947
11
4.1269777
21
92.5954391
0
LINE
8
DEFAULT_255_1_234
10
5.0273355
20
92.7464357
11
4.872323
21
92.7464357
0
LINE
8
DEFAULT_255_1_234
10
4.2819902
20
92.5914232
11
4.2819902
21
92.4781757
0
ARC
8
DEFAULT_255_1_234
10
4.4792742
20
92.3836846
40
0.5513052
50
340.1774281
51
353.7814284
0
ARC
8
DEFAULT_255_1_234
10
4.6364095
20
92.3251582
40
0.3836379
50
311.4558989
51
340.4421614
0
ARC
8
DEFAULT_255_1_234
10
4.6330763
20
92.3362528
40
0.3941894
50
282.4333181
51
310.7513653
0
ARC
8
DEFAULT_255_1_234
10
4.5891502
20
92.5177679
40
0.5809175
50
269.9358511
51
282.809604
0
ARC
8
DEFAULT_255_1_234
10
4.5839568
20
92.6635212
40
0.7266847
50
270.0021091
51
270.3581957
0
ARC
8
DEFAULT_255_1_234
10
4.5786985
20
92.4034585
40
0.4666519
50
250.7884749
51
270.6489167
0
ARC
8
DEFAULT_255_1_234
10
4.561882
20
92.3397319
40
0.4009729
50
219.3627325
51
250.0611886
0
ARC
8
DEFAULT_255_1_234
10
4.6448031
20
92.4102042
40
0.5097822
50
193.5479632
51
219.5756669
0
ARC
8
DEFAULT_255_1_234
10
4.8819652
20
92.4717919
40
0.7547848
50
181.1218675
51
193.87563
0
ARC
8
DEFAULT_255_1_234
10
5.0889833
20
92.482858
40
0.9620055
50
179.9918545
51
181.5394234
0
ARC
8
DEFAULT_255_1_234
10
4.9038935
20
92.5991788
40
0.7769248
50
169.5837241
51
180.2757934
0
ARC
8
DEFAULT_255_1_234
10
4.7201873
20
92.6331229
40
0.590109
50
155.0365899
51
169.6003176
0
ARC
8
DEFAULT_255_1_234
10
4.6066337
20
92.6878677
40
0.4640625
50
136.783148
51
155.2472683
0
ARC
8
DEFAULT_255_1_234
10
4.5676814
20
92.7209562
40
0.4130255
50
121.7633186
51
136.428115
0
ARC
8
DEFAULT_255_1_234
10
4.5811776
20
92.6960227
40
0.4413323
50
95.6459699
51
121.5490577
0
ARC
8
DEFAULT_255_1_234
10
4.5969058
20
92.5851949
40
0.55319
50
89.924208
51
96.1377933
0
ARC
8
DEFAULT_255_1_234
10
4.6019491
20
92.5970542
40
0.5413475
50
76.6779277
51
90.4563316
0
ARC
8
DEFAULT_255_1_234
10
4.6413114
20
92.7561114
40
0.3775041
50
47.485847
51
76.9287264
0
ARC
8
DEFAULT_255_1_234
10
4.6266087
20
92.7461159
40
0.3948286
50
16.5424086
51
46.8933463
0
ARC
8
DEFAULT_255_1_234
10
4.4658244
20
92.6932861
40
0.564021
50
5.4072051
51
17.0365086
0
ARC
8
DEFAULT_255_1_234
10
4.3219261
20
92.6701679
40
0.5556559
50
7.8891745
51
15.9239216
0
ARC
8
DEFAULT_255_1_234
10
4.5206274
20
92.7278631
40
0.3487515
50
15.7653144
51
27.9410532
0
ARC
8
DEFAULT_255_1_234
10
4.6310492
20
92.786979
40
0.2235026
50
27.8166557
51
46.4008329
0
ARC
8
DEFAULT_255_1_234
10
4.6360135
20
92.7864082
40
0.2205286
50
47.4371857
51
75.0698205
0
ARC
8
DEFAULT_255_1_234
10
4.6051529
20
92.6789765
40
0.3322915
50
74.7008593
51
87.8124495
0
ARC
8
DEFAULT_255_1_234
10
4.5978217
20
92.5733844
40
0.4380987
50
87.3814673
51
90.0240855
0
ARC
8
DEFAULT_255_1_234
10
4.593976
20
92.6911291
40
0.3203749
50
89.3451631
51
108.5745436
0
ARC
8
DEFAULT_255_1_234
10
4.5802865
20
92.7424908
40
0.2673494
50
109.2998449
51
143.3037509
0
ARC
8
DEFAULT_255_1_234
10
4.6564938
20
92.6838881
40
0.3634757
50
143.0753173
51
163.1916937
0
ARC
8
DEFAULT_255_1_234
10
4.8516666
20
92.6222967
40
0.5681262
50
162.9373603
51
174.6208611
0
ARC
8
DEFAULT_255_1_234
10
5.1142708
20
92.593501
40
0.8322832
50
174.3419979
51
180.1430411
0
ARC
8
DEFAULT_255_1_234
10
5.0211864
20
92.4740698
40
0.7392076
50
179.6817502
51
189.150529
0
ARC
8
DEFAULT_255_1_234
10
4.7711112
20
92.432419
40
0.4856932
50
188.9910863
51
203.5773039
0
ARC
8
DEFAULT_255_1_234
10
4.6631445
20
92.3876211
40
0.3688271
50
203.9077269
51
215.1312379
0
ARC
8
DEFAULT_255_1_234
10
4.5708539
20
92.3160941
40
0.2522457
50
213.9071664
51
263.8849284
0
ARC
8
DEFAULT_255_1_234
10
4.5833868
20
92.3945518
40
0.3316174
50
263.1758525
51
270.1031083
0
ARC
8
DEFAULT_255_1_234
10
4.586596
20
92.5192365
40
0.4563091
50
269.6719807
51
279.0609165
0
ARC
8
DEFAULT_255_1_234
10
4.6132728
20
92.3579907
40
0.2928759
50
278.8750225
51
293.6346586
0
ARC
8
DEFAULT_255_1_234
10
4.6452936
20
92.28279
40
0.2111472
50
293.8553404
51
310.0518804
0
ARC
8
DEFAULT_255_1_234
10
4.645779
20
92.2765516
40
0.2060917
50
311.0646779
51
332.0108348
0
ARC
8
DEFAULT_255_1_234
10
4.5265517
20
92.3422978
40
0.3422352
50
331.6588543
51
343.2878891
0
ARC
8
DEFAULT_255_1_234
10
4.3203032
20
92.4056798
40
0.5580003
50
343.1446044
51
351.010618
0
ARC
8
DEFAULT_255_1_234
10
4.1661678
20
92.4337871
40
0.7146438
50
350.7157277
51
351.1602153
0
LINE
8
DEFAULT_255_1_234
10
6.0224679
20
93.1223211
11
6.0224679
21
92.9954196
0
LINE
8
DEFAULT_255_1_234
10
6.0224679
20
92.9954196
11
5.6465826
21
92.9954196
0
LINE
8
DEFAULT_255_1_234
10
5.6465826
20
92.9954196
11
5.6465826
21
91.9529
0
LINE
8
DEFAULT_255_1_234
10
5.6465826
20
91.9529
11
5.4931764
21
91.9529
0
LINE
8
DEFAULT_255_1_234
10
5.4931764
20
91.9529
11
5.4931764
21
92.9954196
0
LINE
8
DEFAULT_255_1_234
10
5.4931764
20
92.9954196
11
5.1180942
21
92.9954196
0
LINE
8
DEFAULT_255_1_234
10
5.1180942
20
92.9954196
11
5.1180942
21
93.1223211
0
LINE
8
DEFAULT_255_1_234
10
5.1180942
20
93.1223211
11
6.0224679
21
93.1223211
0
LINE
8
DEFAULT_255_1_234
10
6.3734549
20
92.4886169
11
6.3734549
21
92.6098962
0
LINE
8
DEFAULT_255_1_234
10
6.3734549
20
92.6098962
11
6.485096
21
92.6098962
0
LINE
8
DEFAULT_255_1_234
10
6.2947438
20
92.8155087
11
6.1461567
21
92.8155087
0
LINE
8
DEFAULT_255_1_234
10
6.1357154
20
92.2613188
11
6.2851058
21
92.2613188
0
LINE
8
DEFAULT_255_1_234
10
6.485096
20
92.4886169
11
6.3734549
21
92.4886169
0
ARC
8
DEFAULT_255_1_234
10
6.4821827
20
92.9491713
40
0.3392876
50
270.4919872
51
281.8951556
0
ARC
8
DEFAULT_255_1_234
10
6.5063088
20
92.8389702
40
0.2264817
50
281.6691735
51
301.2943132
0
ARC
8
DEFAULT_255_1_234
10
6.5233299
20
92.8078304
40
0.1910381
50
301.7833094
51
311.7545298
0
ARC
8
DEFAULT_255_1_234
10
6.5324874
20
92.7976748
40
0.1773635
50
311.7323931
51
354.2802411
0
ARC
8
DEFAULT_255_1_234
10
6.45985
20
92.8101722
40
0.2509385
50
353.0937916
51
0.1181479
0
ARC
8
DEFAULT_255_1_234
10
6.4137285
20
92.8149386
40
0.2970898
50
359.1805295
51
15.0453146
0
ARC
8
DEFAULT_255_1_234
10
6.5483122
20
92.8541992
40
0.1569564
50
13.9577229
51
77.6713066
0
ARC
8
DEFAULT_255_1_234
10
6.5096651
20
92.7156949
40
0.3006298
50
76.1116566
51
90.7026153
0
ARC
8
DEFAULT_255_1_234
10
6.5037489
20
92.7430545
40
0.2732568
50
89.5324876
51
103.531937
0
ARC
8
DEFAULT_255_1_234
10
6.4836933
20
92.8229884
40
0.1908508
50
103.2931773
51
133.5619022
0
ARC
8
DEFAULT_255_1_234
10
6.4792422
20
92.8289375
40
0.1834746
50
133.8349307
51
173.5344437
0
ARC
8
DEFAULT_255_1_234
10
6.5515465
20
92.8161213
40
0.2568033
50
172.5096846
51
180.1366907
0
ARC
8
DEFAULT_255_1_234
10
6.4564358
20
92.8195622
40
0.3103056
50
155.3484492
51
180.7484736
0
ARC
8
DEFAULT_255_1_234
10
6.4515448
20
92.8166846
40
0.3070957
50
131.5744599
51
154.4798489
0
ARC
8
DEFAULT_255_1_234
10
6.4828595
20
92.785031
40
0.3515643
50
96.9875458
51
131.9690667
0
ARC
8
DEFAULT_255_1_234
10
6.5048075
20
92.6604636
40
0.4779224
50
89.8596053
51
97.7825159
0
ARC
8
DEFAULT_255_1_234
10
6.5096138
20
92.6342616
40
0.5041361
50
78.3655447
51
90.4131539
0
ARC
8
DEFAULT_255_1_234
10
6.5454056
20
92.8001887
40
0.3344039
50
56.6229102
51
78.638727
0
ARC
8
DEFAULT_255_1_234
10
6.5668999
20
92.8377805
40
0.2912001
50
47.0253525
51
56.0854072
0
ARC
8
DEFAULT_255_1_234
10
6.568878
20
92.8417223
40
0.2869704
50
10.9208013
51
46.7778124
0
ARC
8
DEFAULT_255_1_234
10
6.4324846
20
92.8101857
40
0.426899
50
359.6364486
51
11.6087304
0
ARC
8
DEFAULT_255_1_234
10
6.615969
20
92.8086752
40
0.243409
50
332.3549906
51
359.7179418
0
ARC
8
DEFAULT_255_1_234
10
6.5509292
20
92.8395142
40
0.3153459
50
325.2333722
51
332.8745602
0
ARC
8
DEFAULT_255_1_234
10
6.5661915
20
92.8288828
40
0.2967456
50
292.9802137
51
325.2392345
0
ARC
8
DEFAULT_255_1_234
10
6.5387289
20
92.8822863
40
0.3566604
50
292.5402179
51
293.6924929
0
ARC
8
DEFAULT_255_1_234
10
6.5779885
20
92.2368091
40
0.3307468
50
57.6435486
51
72.8625112
0
ARC
8
DEFAULT_255_1_234
10
6.6134385
20
92.2942549
40
0.2632492
50
36.7248896
51
57.4697979
0
ARC
8
DEFAULT_255_1_234
10
6.6123017
20
92.295522
40
0.2634081
50
8.0545065
51
36.356114
0
ARC
8
DEFAULT_255_1_234
10
6.5260203
20
92.2800174
40
0.3510261
50
359.8320645
51
8.5869982
0
ARC
8
DEFAULT_255_1_234
10
6.4884979
20
92.2752101
40
0.3885653
50
343.9829931
51
0.5571613
0
ARC
8
DEFAULT_255_1_234
10
6.5771176
20
92.2509438
40
0.2966924
50
311.6359546
51
343.7651759
0
ARC
8
DEFAULT_255_1_234
10
6.5392745
20
92.2936102
40
0.3537231
50
279.7829875
51
311.6255694
0
ARC
8
DEFAULT_255_1_234
10
6.5091521
20
92.437328
40
0.5004971
50
269.7286406
51
280.3856417
0
ARC
8
DEFAULT_255_1_234
10
6.5029594
20
92.4331996
40
0.4963778
50
256.6828919
51
270.4412052
0
ARC
8
DEFAULT_255_1_234
10
6.469089
20
92.2947394
40
0.3538406
50
229.4223008
51
256.8556159
0
ARC
8
DEFAULT_255_1_234
10
6.4276283
20
92.2480736
40
0.2914296
50
181.818294
51
229.6455059
0
ARC
8
DEFAULT_255_1_234
10
6.5316239
20
92.2611496
40
0.3959084
50
179.9755256
51
183.2323064
0
ARC
8
DEFAULT_255_1_234
10
6.5143985
20
92.2591037
40
0.2293034
50
179.4465117
51
196.2869258
0
ARC
8
DEFAULT_255_1_234
10
6.4656393
20
92.2457651
40
0.1787621
50
196.5661473
51
227.705904
0
ARC
8
DEFAULT_255_1_234
10
6.4820488
20
92.2641155
40
0.2033784
50
227.7652068
51
257.8762805
0
ARC
8
DEFAULT_255_1_234
10
6.5045458
20
92.3584156
40
0.3003081
50
257.4584385
51
270.426602
0
ARC
8
DEFAULT_255_1_234
10
6.5091024
20
92.3873996
40
0.329292
50
269.5962073
51
280.8789248
0
ARC
8
DEFAULT_255_1_234
10
6.5320553
20
92.2727685
40
0.2123908
50
280.6346389
51
299.8595945
0
ARC
8
DEFAULT_255_1_234
10
6.5511459
20
92.2365212
40
0.171457
50
300.3576302
51
314.5517981
0
ARC
8
DEFAULT_255_1_234
10
6.5428519
20
92.2425919
40
0.1816095
50
315.0728369
51
345.0431014
0
ARC
8
DEFAULT_255_1_234
10
6.4505334
20
92.2694841
40
0.2777492
50
344.5986631
51
357.9269593
0
ARC
8
DEFAULT_255_1_234
10
6.360966
20
92.2756276
40
0.3674917
50
357.4748886
51
0.0231117
0
ARC
8
DEFAULT_255_1_234
10
6.4632769
20
92.2780679
40
0.2651907
50
359.5047933
51
13.4239635
0
ARC
8
DEFAULT_255_1_234
10
6.5499413
20
92.3002478
40
0.1757509
50
12.9498199
51
48.7551375
0
ARC
8
DEFAULT_255_1_234
10
6.5317147
20
92.27534
40
0.2065134
50
49.5088623
51
72.1836453
0
ARC
8
DEFAULT_255_1_234
10
6.49593
20
92.1691291
40
0.3185836
50
71.9010081
51
84.3554254
0
ARC
8
DEFAULT_255_1_234
10
6.4797932
20
92.0330326
40
0.4556151
50
84.0193428
51
89.333121
0
LINE
8
DEFAULT_255_1_234
10
4.872323
20
100.2614663
11
5.0273355
21
100.2614663
0
LINE
8
DEFAULT_255_1_234
10
4.1269777
20
100.4204947
11
4.1269777
21
100.5329391
0
LINE
8
DEFAULT_255_1_234
10
5.0273355
20
100.6839357
11
4.872323
21
100.6839357
0
LINE
8
DEFAULT_255_1_234
10
4.2819902
20
100.5289232
11
4.2819902
21
100.4156757
0
ARC
8
DEFAULT_255_1_234
10
4.4792742
20
100.3211846
40
0.5513052
50
340.1774281
51
353.7814284
0
ARC
8
DEFAULT_255_1_234
10
4.6364095
20
100.2626582
40
0.3836379
50
311.4558989
51
340.4421614
0
ARC
8
DEFAULT_255_1_234
10
4.6330763
20
100.2737528
40
0.3941894
50
282.4333181
51
310.7513653
0
ARC
8
DEFAULT_255_1_234
10
4.5891502
20
100.4552679
40
0.5809175
50
269.9358511
51
282.809604
0
ARC
8
DEFAULT_255_1_234
10
4.5839568
20
100.6010212
40
0.7266847
50
270.0021091
51
270.3581957
0
ARC
8
DEFAULT_255_1_234
10
4.5786985
20
100.3409585
40
0.4666519
50
250.7884749
51
270.6489167
0
ARC
8
DEFAULT_255_1_234
10
4.561882
20
100.2772319
40
0.4009729
50
219.3627325
51
250.0611886
0
ARC
8
DEFAULT_255_1_234
10
4.6448031
20
100.3477042
40
0.5097822
50
193.5479632
51
219.5756669
0
ARC
8
DEFAULT_255_1_234
10
4.8819652
20
100.4092919
40
0.7547848
50
181.1218675
51
193.87563
0
ARC
8
DEFAULT_255_1_234
10
5.0889833
20
100.420358
40
0.9620055
50
179.9918545
51
181.5394234
0
ARC
8
DEFAULT_255_1_234
10
4.9038935
20
100.5366788
40
0.7769248
50
169.5837241
51
180.2757934
0
ARC
8
DEFAULT_255_1_234
10
4.7201873
20
100.5706229
40
0.590109
50
155.0365899
51
169.6003176
0
ARC
8
DEFAULT_255_1_234
10
4.6066337
20
100.6253677
40
0.4640625
50
136.783148
51
155.2472683
0
ARC
8
DEFAULT_255_1_234
10
4.5676814
20
100.6584562
40
0.4130255
50
121.7633186
51
136.428115
0
ARC
8
DEFAULT_255_1_234
10
4.5811776
20
100.6335227
40
0.4413323
50
95.6459699
51
121.5490577
0
ARC
8
DEFAULT_255_1_234
10
4.5969058
20
100.5226949
40
0.55319
50
89.924208
51
96.1377933
0
ARC
8
DEFAULT_255_1_234
10
4.6019491
20
100.5345542
40
0.5413475
50
76.6779277
51
90.4563316
0
ARC
8
DEFAULT_255_1_234
10
4.6413114
20
100.6936114
40
0.3775041
50
47.485847
51
76.9287264
0
ARC
8
DEFAULT_255_1_234
10
4.6266087
20
100.6836159
40
0.3948286
50
16.5424086
51
46.8933463
0
ARC
8
DEFAULT_255_1_234
10
4.4658244
20
100.6307861
40
0.564021
50
5.4072051
51
17.0365086
0
ARC
8
DEFAULT_255_1_234
10
4.3219261
20
100.6076679
40
0.5556559
50
7.8891745
51
15.9239216
0
ARC
8
DEFAULT_255_1_234
10
4.5206274
20
100.6653631
40
0.3487515
50
15.7653144
51
27.9410532
0
ARC
8
DEFAULT_255_1_234
10
4.6310492
20
100.724479
40
0.2235026
50
27.8166557
51
46.4008329
0
ARC
8
DEFAULT_255_1_234
10
4.6360135
20
100.7239082
40
0.2205286
50
47.4371857
51
75.0698205
0
ARC
8
DEFAULT_255_1_234
10
4.6051529
20
100.6164765
40
0.3322915
50
74.7008593
51
87.8124495
0
ARC
8
DEFAULT_255_1_234
10
4.5978217
20
100.5108844
40
0.4380987
50
87.3814673
51
90.0240855
0
ARC
8
DEFAULT_255_1_234
10
4.593976
20
100.6286291
40
0.3203749
50
89.3451631
51
108.5745436
0
ARC
8
DEFAULT_255_1_234
10
4.5802865
20
100.6799908
40
0.2673494
50
109.2998449
51
143.3037509
0
ARC
8
DEFAULT_255_1_234
10
4.6564938
20
100.6213881
40
0.3634757
50
143.0753173
51
163.1916937
0
ARC
8
DEFAULT_255_1_234
10
4.8516666
20
100.5597967
40
0.5681262
50
162.9373603
51
174.6208611
0
ARC
8
DEFAULT_255_1_234
10
5.1142708
20
100.531001
40
0.8322832
50
174.3419979
51
180.1430411
0
ARC
8
DEFAULT_255_1_234
10
5.0211864
20
100.4115698
40
0.7392076
50
179.6817502
51
189.150529
0
ARC
8
DEFAULT_255_1_234
10
4.7711112
20
100.369919
40
0.4856932
50
188.9910863
51
203.5773039
0
ARC
8
DEFAULT_255_1_234
10
4.6631445
20
100.3251211
40
0.3688271
50
203.9077269
51
215.1312379
0
ARC
8
DEFAULT_255_1_234
10
4.5708539
20
100.2535941
40
0.2522457
50
213.9071664
51
263.8849284
0
ARC
8
DEFAULT_255_1_234
10
4.5833868
20
100.3320518
40
0.3316174
50
263.1758525
51
270.1031083
0
ARC
8
DEFAULT_255_1_234
10
4.586596
20
100.4567365
40
0.4563091
50
269.6719807
51
279.0609165
0
ARC
8
DEFAULT_255_1_234
10
4.6132728
20
100.2954907
40
0.2928759
50
278.8750225
51
293.6346586
0
ARC
8
DEFAULT_255_1_234
10
4.6452936
20
100.22029
40
0.2111472
50
293.8553404
51
310.0518804
0
ARC
8
DEFAULT_255_1_234
10
4.645779
20
100.2140516
40
0.2060917
50
311.0646779
51
332.0108348
0
ARC
8
DEFAULT_255_1_234
10
4.5265517
20
100.2797978
40
0.3422352
50
331.6588543
51
343.2878891
0
ARC
8
DEFAULT_255_1_234
10
4.3203032
20
100.3431798
40
0.5580003
50
343.1446044
51
351.010618
0
ARC
8
DEFAULT_255_1_234
10
4.1661678
20
100.3712871
40
0.7146438
50
350.7157277
51
351.1602153
0
LINE
8
DEFAULT_255_1_234
10
6.0224679
20
101.0598211
11
6.0224679
21
100.9329196
0
LINE
8
DEFAULT_255_1_234
10
6.0224679
20
100.9329196
11
5.6465826
21
100.9329196
0
LINE
8
DEFAULT_255_1_234
10
5.6465826
20
100.9329196
11
5.6465826
21
99.8904
0
LINE
8
DEFAULT_255_1_234
10
5.6465826
20
99.8904
11
5.4931764
21
99.8904
0
LINE
8
DEFAULT_255_1_234
10
5.4931764
20
99.8904
11
5.4931764
21
100.9329196
0
LINE
8
DEFAULT_255_1_234
10
5.4931764
20
100.9329196
11
5.1180942
21
100.9329196
0
LINE
8
DEFAULT_255_1_234
10
5.1180942
20
100.9329196
11
5.1180942
21
101.0598211
0
LINE
8
DEFAULT_255_1_234
10
5.1180942
20
101.0598211
11
6.0224679
21
101.0598211
0
LINE
8
DEFAULT_255_1_234
10
6.923629
20
100.0116792
11
6.923629
21
99.8904
0
LINE
8
DEFAULT_255_1_234
10
6.923629
20
99.8904
11
6.1574011
21
99.8904
0
LINE
8
DEFAULT_255_1_234
10
6.1574011
20
99.8904
11
6.1574011
21
99.9972221
0
LINE
8
DEFAULT_255_1_234
10
6.1574011
20
99.9972221
11
6.5622007
21
100.4469995
0
LINE
8
DEFAULT_255_1_234
10
6.2834994
20
100.7152595
11
6.1349123
21
100.7152595
0
LINE
8
DEFAULT_255_1_234
10
6.6497467
20
100.3514218
11
6.3365089
21
100.0116792
0
LINE
8
DEFAULT_255_1_234
10
6.3365089
20
100.0116792
11
6.923629
21
100.0116792
0
ARC
8
DEFAULT_255_1_234
10
5.2131841
20
101.6399527
40
1.8008286
50
318.5132453
51
320.7828378
0
ARC
8
DEFAULT_255_1_234
10
5.7418815
20
101.2096426
40
1.1191493
50
320.7372736
51
323.9737074
0
ARC
8
DEFAULT_255_1_234
10
6.1338671
20
100.9256361
40
0.6350923
50
323.8961724
51
328.6421089
0
ARC
8
DEFAULT_255_1_234
10
6.3385267
20
100.7994031
40
0.3946393
50
328.8299013
51
331.789948
0
ARC
8
DEFAULT_255_1_234
10
6.4382445
20
100.7479509
40
0.2824501
50
331.4255242
51
352.9364833
0
ARC
8
DEFAULT_255_1_234
10
6.4518946
20
100.7448976
40
0.2685315
50
353.2248685
51
0.0169286
0
ARC
8
DEFAULT_255_1_234
10
6.4728823
20
100.747195
40
0.2475536
50
359.4866256
51
15.9339782
0
ARC
8
DEFAULT_255_1_234
10
6.5235808
20
100.7608286
40
0.1950618
50
16.1714718
51
43.5284424
0
ARC
8
DEFAULT_255_1_234
10
6.5313117
20
100.7685573
40
0.184134
50
43.4415429
51
83.1661404
0
ARC
8
DEFAULT_255_1_234
10
6.5179035
20
100.6948771
40
0.258926
50
82.160215
51
90.1505798
0
ARC
8
DEFAULT_255_1_234
10
6.5147462
20
100.6411865
40
0.3126255
50
89.5460705
51
102.5418777
0
ARC
8
DEFAULT_255_1_234
10
6.4904548
20
100.7442665
40
0.2067346
50
102.1739365
51
129.2061916
0
ARC
8
DEFAULT_255_1_234
10
6.482562
20
100.7567094
40
0.1921118
50
129.7279328
51
135.7542026
0
ARC
8
DEFAULT_255_1_234
10
6.4947148
20
100.7470045
40
0.2075944
50
136.175737
51
166.3674722
0
ARC
8
DEFAULT_255_1_234
10
6.5954067
20
100.7200182
40
0.3118201
50
165.9092917
51
178.8683903
0
ARC
8
DEFAULT_255_1_234
10
6.6818928
20
100.7153179
40
0.3983935
50
178.438168
51
180.0083905
0
ARC
8
DEFAULT_255_1_234
10
6.541753
20
100.7192231
40
0.4068601
50
163.2878735
51
180.5581814
0
ARC
8
DEFAULT_255_1_234
10
6.4615792
20
100.741284
40
0.3237344
50
133.454115
51
162.9470031
0
ARC
8
DEFAULT_255_1_234
10
6.4794333
20
100.7223
40
0.349795
50
100.7869394
51
133.4384016
0
ARC
8
DEFAULT_255_1_234
10
6.5142104
20
100.5674319
40
0.5084616
50
89.6605301
51
101.3704185
0
ARC
8
DEFAULT_255_1_234
10
6.5208443
20
100.5735496
40
0.502348
50
78.2171172
51
90.4130393
0
ARC
8
DEFAULT_255_1_234
10
6.5563522
20
100.7359637
40
0.3361092
50
55.9268222
51
78.4888551
0
ARC
8
DEFAULT_255_1_234
10
6.5759962
20
100.7698324
40
0.2970617
50
47.9292255
51
55.4054003
0
ARC
8
DEFAULT_255_1_234
10
6.5861522
20
100.7801502
40
0.2825983
50
4.3347696
51
48.0560701
0
ARC
8
DEFAULT_255_1_234
10
6.4765916
20
100.7631601
40
0.393225
50
359.925209
51
5.5967654
0
ARC
8
DEFAULT_255_1_234
10
6.5194808
20
100.7687816
40
0.3503892
50
337.8914096
51
358.9967724
0
ARC
8
DEFAULT_255_1_234
10
6.248122
20
100.8734706
40
0.6412172
50
326.9135351
51
338.3505194
0
ARC
8
DEFAULT_255_1_234
10
5.8495524
20
101.1289284
40
1.1146189
50
319.6472867
51
327.095818
0
ARC
8
DEFAULT_255_1_234
10
5.4662527
20
101.4451
40
1.6114559
50
317.2586784
51
319.9046139
0
LINE
8
DEFAULT_255_1_234
10
4.872323
20
108.1989663
11
5.0273355
21
108.1989663
0
LINE
8
DEFAULT_255_1_234
10
4.1269777
20
108.3579947
11
4.1269777
21
108.4704391
0
LINE
8
DEFAULT_255_1_234
10
5.0273355
20
108.6214357
11
4.872323
21
108.6214357
0
LINE
8
DEFAULT_255_1_234
10
4.2819902
20
108.4664232
11
4.2819902
21
108.3531757
0
ARC
8
DEFAULT_255_1_234
10
4.4792742
20
108.2586846
40
0.5513052
50
340.1774281
51
353.7814284
0
ARC
8
DEFAULT_255_1_234
10
4.6364095
20
108.2001582
40
0.3836379
50
311.4558989
51
340.4421614
0
ARC
8
DEFAULT_255_1_234
10
4.6330763
20
108.2112528
40
0.3941894
50
282.4333181
51
310.7513653
0
ARC
8
DEFAULT_255_1_234
10
4.5891502
20
108.3927679
40
0.5809175
50
269.9358511
51
282.809604
0
ARC
8
DEFAULT_255_1_234
10
4.5839568
20
108.5385212
40
0.7266847
50
270.0021091
51
270.3581957
0
ARC
8
DEFAULT_255_1_234
10
4.5786985
20
108.2784585
40
0.4666519
50
250.7884749
51
270.6489167
0
ARC
8
DEFAULT_255_1_234
10
4.561882
20
108.2147319
40
0.4009729
50
219.3627325
51
250.0611886
0
ARC
8
DEFAULT_255_1_234
10
4.6448031
20
108.2852042
40
0.5097822
50
193.5479632
51
219.5756669
0
ARC
8
DEFAULT_255_1_234
10
4.8819652
20
108.3467919
40
0.7547848
50
181.1218675
51
193.87563
0
ARC
8
DEFAULT_255_1_234
10
5.0889833
20
108.357858
40
0.9620055
50
179.9918545
51
181.5394234
0
ARC
8
DEFAULT_255_1_234
10
4.9038935
20
108.4741788
40
0.7769248
50
169.5837241
51
180.2757934
0
ARC
8
DEFAULT_255_1_234
10
4.7201873
20
108.5081229
40
0.590109
50
155.0365899
51
169.6003176
0
ARC
8
DEFAULT_255_1_234
10
4.6066337
20
108.5628677
40
0.4640625
50
136.783148
51
155.2472683
0
ARC
8
DEFAULT_255_1_234
10
4.5676814
20
108.5959562
40
0.4130255
50
121.7633186
51
136.428115
0
ARC
8
DEFAULT_255_1_234
10
4.5811776
20
108.5710227
40
0.4413323
50
95.6459699
51
121.5490577
0
ARC
8
DEFAULT_255_1_234
10
4.5969058
20
108.4601949
40
0.55319
50
89.924208
51
96.1377933
0
ARC
8
DEFAULT_255_1_234
10
4.6019491
20
108.4720542
40
0.5413475
50
76.6779277
51
90.4563316
0
ARC
8
DEFAULT_255_1_234
10
4.6413114
20
108.6311114
40
0.3775041
50
47.485847
51
76.9287264
0
ARC
8
DEFAULT_255_1_234
10
4.6266087
20
108.6211159
40
0.3948286
50
16.5424086
51
46.8933463
0
ARC
8
DEFAULT_255_1_234
10
4.4658244
20
108.5682861
40
0.564021
50
5.4072051
51
17.0365086
0
ARC
8
DEFAULT_255_1_234
10
4.3219261
20
108.5451679
40
0.5556559
50
7.8891745
51
15.9239216
0
ARC
8
DEFAULT_255_1_234
10
4.5206274
20
108.6028631
40
0.3487515
50
15.7653144
51
27.9410532
0
ARC
8
DEFAULT_255_1_234
10
4.6310492
20
108.661979
40
0.2235026
50
27.8166557
51
46.4008329
0
ARC
8
DEFAULT_255_1_234
10
4.6360135
20
108.6614082
40
0.2205286
50
47.4371857
51
75.0698205
0
ARC
8
DEFAULT_255_1_234
10
4.6051529
20
108.5539765
40
0.3322915
50
74.7008593
51
87.8124495
0
ARC
8
DEFAULT_255_1_234
10
4.5978217
20
108.4483844
40
0.4380987
50
87.3814673
51
90.0240855
0
ARC
8
DEFAULT_255_1_234
10
4.593976
20
108.5661291
40
0.3203749
50
89.3451631
51
108.5745436
0
ARC
8
DEFAULT_255_1_234
10
4.5802865
20
108.6174908
40
0.2673494
50
109.2998449
51
143.3037509
0
ARC
8
DEFAULT_255_1_234
10
4.6564938
20
108.5588881
40
0.3634757
50
143.0753173
51
163.1916937
0
ARC
8
DEFAULT_255_1_234
10
4.8516666
20
108.4972967
40
0.5681262
50
162.9373603
51
174.6208611
0
ARC
8
DEFAULT_255_1_234
10
5.1142708
20
108.468501
40
0.8322832
50
174.3419979
51
180.1430411
0
ARC
8
DEFAULT_255_1_234
10
5.0211864
20
108.3490698
40
0.7392076
50
179.6817502
51
189.150529
0
ARC
8
DEFAULT_255_1_234
10
4.7711112
20
108.307419
40
0.4856932
50
188.9910863
51
203.5773039
0
ARC
8
DEFAULT_255_1_234
10
4.6631445
20
108.2626211
40
0.3688271
50
203.9077269
51
215.1312379
0
ARC
8
DEFAULT_255_1_234
10
4.5708539
20
108.1910941
40
0.2522457
50
213.9071664
51
263.8849284
0
ARC
8
DEFAULT_255_1_234
10
4.5833868
20
108.2695518
40
0.3316174
50
263.1758525
51
270.1031083
0
ARC
8
DEFAULT_255_1_234
10
4.586596
20
108.3942365
40
0.4563091
50
269.6719807
51
279.0609165
0
ARC
8
DEFAULT_255_1_234
10
4.6132728
20
108.2329907
40
0.2928759
50
278.8750225
51
293.6346586
0
ARC
8
DEFAULT_255_1_234
10
4.6452936
20
108.15779
40
0.2111472
50
293.8553404
51
310.0518804
0
ARC
8
DEFAULT_255_1_234
10
4.645779
20
108.1515516
40
0.2060917
50
311.0646779
51
332.0108348
0
ARC
8
DEFAULT_255_1_234
10
4.5265517
20
108.2172978
40
0.3422352
50
331.6588543
51
343.2878891
0
ARC
8
DEFAULT_255_1_234
10
4.3203032
20
108.2806798
40
0.5580003
50
343.1446044
51
351.010618
0
ARC
8
DEFAULT_255_1_234
10
4.1661678
20
108.3087871
40
0.7146438
50
350.7157277
51
351.1602153
0
LINE
8
DEFAULT_255_1_234
10
6.0224679
20
108.9973211
11
6.0224679
21
108.8704196
0
LINE
8
DEFAULT_255_1_234
10
6.0224679
20
108.8704196
11
5.6465826
21
108.8704196
0
LINE
8
DEFAULT_255_1_234
10
5.6465826
20
108.8704196
11
5.6465826
21
107.8279
0
LINE
8
DEFAULT_255_1_234
10
5.6465826
20
107.8279
11
5.4931764
21
107.8279
0
LINE
8
DEFAULT_255_1_234
10
5.4931764
20
107.8279
11
5.4931764
21
108.8704196
0
LINE
8
DEFAULT_255_1_234
10
5.4931764
20
108.8704196
11
5.1180942
21
108.8704196
0
LINE
8
DEFAULT_255_1_234
10
5.1180942
20
108.8704196
11
5.1180942
21
108.9973211
0
LINE
8
DEFAULT_255_1_234
10
5.1180942
20
108.9973211
11
6.0224679
21
108.9973211
0
LINE
8
DEFAULT_255_1_234
10
6.923629
20
107.9491792
11
6.923629
21
107.8279
0
LINE
8
DEFAULT_255_1_234
10
6.923629
20
107.8279
11
6.1574011
21
107.8279
0
LINE
8
DEFAULT_255_1_234
10
6.1574011
20
107.8279
11
6.1574011
21
107.9347221
0
LINE
8
DEFAULT_255_1_234
10
6.1574011
20
107.9347221
11
6.5622007
21
108.3844995
0
LINE
8
DEFAULT_255_1_234
10
6.2834994
20
108.6527595
11
6.1349123
21
108.6527595
0
LINE
8
DEFAULT_255_1_234
10
6.6497467
20
108.2889218
11
6.3365089
21
107.9491792
0
LINE
8
DEFAULT_255_1_234
10
6.3365089
20
107.9491792
11
6.923629
21
107.9491792
0
ARC
8
DEFAULT_255_1_234
10
5.2131841
20
109.5774527
40
1.8008286
50
318.5132453
51
320.7828378
0
ARC
8
DEFAULT_255_1_234
10
5.7418815
20
109.1471426
40
1.1191493
50
320.7372736
51
323.9737074
0
ARC
8
DEFAULT_255_1_234
10
6.1338671
20
108.8631361
40
0.6350923
50
323.8961724
51
328.6421089
0
ARC
8
DEFAULT_255_1_234
10
6.3385267
20
108.7369031
40
0.3946393
50
328.8299013
51
331.789948
0
ARC
8
DEFAULT_255_1_234
10
6.4382445
20
108.6854509
40
0.2824501
50
331.4255242
51
352.9364833
0
ARC
8
DEFAULT_255_1_234
10
6.4518946
20
108.6823976
40
0.2685315
50
353.2248685
51
0.0169286
0
ARC
8
DEFAULT_255_1_234
10
6.4728823
20
108.684695
40
0.2475536
50
359.4866256
51
15.9339782
0
ARC
8
DEFAULT_255_1_234
10
6.5235808
20
108.6983286
40
0.1950618
50
16.1714718
51
43.5284424
0
ARC
8
DEFAULT_255_1_234
10
6.5313117
20
108.7060573
40
0.184134
50
43.4415429
51
83.1661404
0
ARC
8
DEFAULT_255_1_234
10
6.5179035
20
108.6323771
40
0.258926
50
82.160215
51
90.1505798
0
ARC
8
DEFAULT_255_1_234
10
6.5147462
20
108.5786865
40
0.3126255
50
89.5460705
51
102.5418777
0
ARC
8
DEFAULT_255_1_234
10
6.4904548
20
108.6817665
40
0.2067346
50
102.1739365
51
129.2061916
0
ARC
8
DEFAULT_255_1_234
10
6.482562
20
108.6942094
40
0.1921118
50
129.7279328
51
135.7542026
0
ARC
8
DEFAULT_255_1_234
10
6.4947148
20
108.6845045
40
0.2075944
50
136.175737
51
166.3674722
0
ARC
8
DEFAULT_255_1_234
10
6.5954067
20
108.6575182
40
0.3118201
50
165.9092917
51
178.8683903
0
ARC
8
DEFAULT_255_1_234
10
6.6818928
20
108.6528179
40
0.3983935
50
178.438168
51
180.0083905
0
ARC
8
DEFAULT_255_1_234
10
6.541753
20
108.6567231
40
0.4068601
50
163.2878735
51
180.5581814
0
ARC
8
DEFAULT_255_1_234
10
6.4615792
20
108.678784
40
0.3237344
50
133.454115
51
162.9470031
0
ARC
8
DEFAULT_255_1_234
10
6.4794333
20
108.6598
40
0.349795
50
100.7869394
51
133.4384016
0
ARC
8
DEFAULT_255_1_234
10
6.5142104
20
108.5049319
40
0.5084616
50
89.6605301
51
101.3704185
0
ARC
8
DEFAULT_255_1_234
10
6.5208443
20
108.5110496
40
0.502348
50
78.2171172
51
90.4130393
0
ARC
8
DEFAULT_255_1_234
10
6.5563522
20
108.6734637
40
0.3361092
50
55.9268222
51
78.4888551
0
ARC
8
DEFAULT_255_1_234
10
6.5759962
20
108.7073324
40
0.2970617
50
47.9292255
51
55.4054003
0
ARC
8
DEFAULT_255_1_234
10
6.5861522
20
108.7176502
40
0.2825983
50
4.3347696
51
48.0560701
0
ARC
8
DEFAULT_255_1_234
10
6.4765916
20
108.7006601
40
0.393225
50
359.925209
51
5.5967654
0
ARC
8
DEFAULT_255_1_234
10
6.5194808
20
108.7062816
40
0.3503892
50
337.8914096
51
358.9967724
0
ARC
8
DEFAULT_255_1_234
10
6.248122
20
108.8109706
40
0.6412172
50
326.9135351
51
338.3505194
0
ARC
8
DEFAULT_255_1_234
10
5.8495524
20
109.0664284
40
1.1146189
50
319.6472867
51
327.095818
0
ARC
8
DEFAULT_255_1_234
10
5.4662527
20
109.3826
40
1.6114559
50
317.2586784
51
319.9046139
0
LINE
8
DEFAULT_255_1_234
10
4.864523
20
116.1364663
11
5.0195355
21
116.1364663
0
LINE
8
DEFAULT_255_1_234
10
4.1191777
20
116.2954947
11
4.1191777
21
116.4079391
0
LINE
8
DEFAULT_255_1_234
10
5.0195355
20
116.5589357
11
4.864523
21
116.5589357
0
LINE
8
DEFAULT_255_1_234
10
4.2741902
20
116.4039232
11
4.2741902
21
116.2906757
0
ARC
8
DEFAULT_255_1_234
10
4.4714742
20
116.1961846
40
0.5513052
50
340.1774281
51
353.7814284
0
ARC
8
DEFAULT_255_1_234
10
4.6286095
20
116.1376582
40
0.3836379
50
311.4558989
51
340.4421614
0
ARC
8
DEFAULT_255_1_234
10
4.6252763
20
116.1487528
40
0.3941894
50
282.4333181
51
310.7513653
0
ARC
8
DEFAULT_255_1_234
10
4.5813502
20
116.3302679
40
0.5809175
50
269.9358511
51
282.809604
0
ARC
8
DEFAULT_255_1_234
10
4.5761568
20
116.4760212
40
0.7266847
50
270.0021091
51
270.3581957
0
ARC
8
DEFAULT_255_1_234
10
4.5708985
20
116.2159585
40
0.4666519
50
250.7884749
51
270.6489167
0
ARC
8
DEFAULT_255_1_234
10
4.554082
20
116.1522319
40
0.4009729
50
219.3627325
51
250.0611886
0
ARC
8
DEFAULT_255_1_234
10
4.6370031
20
116.2227042
40
0.5097822
50
193.5479632
51
219.5756669
0
ARC
8
DEFAULT_255_1_234
10
4.8741652
20
116.2842919
40
0.7547848
50
181.1218675
51
193.87563
0
ARC
8
DEFAULT_255_1_234
10
5.0811833
20
116.295358
40
0.9620055
50
179.9918545
51
181.5394234
0
ARC
8
DEFAULT_255_1_234
10
4.8960935
20
116.4116788
40
0.7769248
50
169.5837241
51
180.2757934
0
ARC
8
DEFAULT_255_1_234
10
4.7123873
20
116.4456229
40
0.590109
50
155.0365899
51
169.6003176
0
ARC
8
DEFAULT_255_1_234
10
4.5988337
20
116.5003677
40
0.4640625
50
136.783148
51
155.2472683
0
ARC
8
DEFAULT_255_1_234
10
4.5598814
20
116.5334562
40
0.4130255
50
121.7633186
51
136.428115
0
ARC
8
DEFAULT_255_1_234
10
4.5733776
20
116.5085227
40
0.4413323
50
95.6459699
51
121.5490577
0
ARC
8
DEFAULT_255_1_234
10
4.5891058
20
116.3976949
40
0.55319
50
89.924208
51
96.1377933
0
ARC
8
DEFAULT_255_1_234
10
4.5941491
20
116.4095542
40
0.5413475
50
76.6779277
51
90.4563316
0
ARC
8
DEFAULT_255_1_234
10
4.6335114
20
116.5686114
40
0.3775041
50
47.485847
51
76.9287264
0
ARC
8
DEFAULT_255_1_234
10
4.6188087
20
116.5586159
40
0.3948286
50
16.5424086
51
46.8933463
0
ARC
8
DEFAULT_255_1_234
10
4.4580244
20
116.5057861
40
0.564021
50
5.4072051
51
17.0365086
0
ARC
8
DEFAULT_255_1_234
10
4.3141261
20
116.4826679
40
0.5556559
50
7.8891745
51
15.9239216
0
ARC
8
DEFAULT_255_1_234
10
4.5128274
20
116.5403631
40
0.3487515
50
15.7653144
51
27.9410532
0
ARC
8
DEFAULT_255_1_234
10
4.6232492
20
116.599479
40
0.2235026
50
27.8166557
51
46.4008329
0
ARC
8
DEFAULT_255_1_234
10
4.6282135
20
116.5989082
40
0.2205286
50
47.4371857
51
75.0698205
0
ARC
8
DEFAULT_255_1_234
10
4.5973529
20
116.4914765
40
0.3322915
50
74.7008593
51
87.8124495
0
ARC
8
DEFAULT_255_1_234
10
4.5900217
20
116.3858844
40
0.4380987
50
87.3814673
51
90.0240855
0
ARC
8
DEFAULT_255_1_234
10
4.586176
20
116.5036291
40
0.3203749
50
89.3451631
51
108.5745436
0
ARC
8
DEFAULT_255_1_234
10
4.5724865
20
116.5549908
40
0.2673494
50
109.2998449
51
143.3037509
0
ARC
8
DEFAULT_255_1_234
10
4.6486938
20
116.4963881
40
0.3634757
50
143.0753173
51
163.1916937
0
ARC
8
DEFAULT_255_1_234
10
4.8438666
20
116.4347967
40
0.5681262
50
162.9373603
51
174.6208611
0
ARC
8
DEFAULT_255_1_234
10
5.1064708
20
116.406001
40
0.8322832
50
174.3419979
51
180.1430411
0
ARC
8
DEFAULT_255_1_234
10
5.0133864
20
116.2865698
40
0.7392076
50
179.6817502
51
189.150529
0
ARC
8
DEFAULT_255_1_234
10
4.7633112
20
116.244919
40
0.4856932
50
188.9910863
51
203.5773039
0
ARC
8
DEFAULT_255_1_234
10
4.6553445
20
116.2001211
40
0.3688271
50
203.9077269
51
215.1312379
0
ARC
8
DEFAULT_255_1_234
10
4.5630539
20
116.1285941
40
0.2522457
50
213.9071664
51
263.8849284
0
ARC
8
DEFAULT_255_1_234
10
4.5755868
20
116.2070518
40
0.3316174
50
263.1758525
51
270.1031083
0
ARC
8
DEFAULT_255_1_234
10
4.578796
20
116.3317365
40
0.4563091
50
269.6719807
51
279.0609165
0
ARC
8
DEFAULT_255_1_234
10
4.6054728
20
116.1704907
40
0.2928759
50
278.8750225
51
293.6346586
0
ARC
8
DEFAULT_255_1_234
10
4.6374936
20
116.09529
40
0.2111472
50
293.8553404
51
310.0518804
0
ARC
8
DEFAULT_255_1_234
10
4.637979
20
116.0890516
40
0.2060917
50
311.0646779
51
332.0108348
0
ARC
8
DEFAULT_255_1_234
10
4.5187517
20
116.1547978
40
0.3422352
50
331.6588543
51
343.2878891
0
ARC
8
DEFAULT_255_1_234
10
4.3125032
20
116.2181798
40
0.5580003
50
343.1446044
51
351.010618
0
ARC
8
DEFAULT_255_1_234
10
4.1583678
20
116.2462871
40
0.7146438
50
350.7157277
51
351.1602153
0
LINE
8
DEFAULT_255_1_234
10
6.0146679
20
116.9348211
11
6.0146679
21
116.8079196
0
LINE
8
DEFAULT_255_1_234
10
6.0146679
20
116.8079196
11
5.6387826
21
116.8079196
0
LINE
8
DEFAULT_255_1_234
10
5.6387826
20
116.8079196
11
5.6387826
21
115.7654
0
LINE
8
DEFAULT_255_1_234
10
5.6387826
20
115.7654
11
5.4853764
21
115.7654
0
LINE
8
DEFAULT_255_1_234
10
5.4853764
20
115.7654
11
5.4853764
21
116.8079196
0
LINE
8
DEFAULT_255_1_234
10
5.4853764
20
116.8079196
11
5.1102942
21
116.8079196
0
LINE
8
DEFAULT_255_1_234
10
5.1102942
20
116.8079196
11
5.1102942
21
116.9348211
0
LINE
8
DEFAULT_255_1_234
10
5.1102942
20
116.9348211
11
6.0146679
21
116.9348211
0
LINE
8
DEFAULT_255_1_234
10
6.6379308
20
116.9404433
11
6.6379308
21
115.7654
0
LINE
8
DEFAULT_255_1_234
10
6.6379308
20
115.7654
11
6.4885405
21
115.7654
0
LINE
8
DEFAULT_255_1_234
10
6.4885405
20
115.7654
11
6.4885405
21
116.7557133
0
LINE
8
DEFAULT_255_1_234
10
6.4885405
20
116.7557133
11
6.1889566
21
116.6456785
0
LINE
8
DEFAULT_255_1_234
10
6.1889566
20
116.6456785
11
6.1889566
21
116.7806117
0
LINE
8
DEFAULT_255_1_234
10
6.1889566
20
116.7806117
11
6.6146388
21
116.9404433
0
LINE
8
DEFAULT_255_1_234
10
6.6146388
20
116.9404433
11
6.6379308
21
116.9404433
0
LINE
8
DEFAULT_255_1_234
10
4.864523
20
124.0739663
11
5.0195355
21
124.0739663
0
LINE
8
DEFAULT_255_1_234
10
4.1191777
20
124.2329947
11
4.1191777
21
124.3454391
0
LINE
8
DEFAULT_255_1_234
10
5.0195355
20
124.4964357
11
4.864523
21
124.4964357
0
LINE
8
DEFAULT_255_1_234
10
4.2741902
20
124.3414232
11
4.2741902
21
124.2281757
0
ARC
8
DEFAULT_255_1_234
10
4.4714742
20
124.1336846
40
0.5513052
50
340.1774281
51
353.7814284
0
ARC
8
DEFAULT_255_1_234
10
4.6286095
20
124.0751582
40
0.3836379
50
311.4558989
51
340.4421614
0
ARC
8
DEFAULT_255_1_234
10
4.6252763
20
124.0862528
40
0.3941894
50
282.4333181
51
310.7513653
0
ARC
8
DEFAULT_255_1_234
10
4.5813502
20
124.2677679
40
0.5809175
50
269.9358511
51
282.809604
0
ARC
8
DEFAULT_255_1_234
10
4.5761568
20
124.4135212
40
0.7266847
50
270.0021091
51
270.3581957
0
ARC
8
DEFAULT_255_1_234
10
4.5708985
20
124.1534585
40
0.4666519
50
250.7884749
51
270.6489167
0
ARC
8
DEFAULT_255_1_234
10
4.554082
20
124.0897319
40
0.4009729
50
219.3627325
51
250.0611886
0
ARC
8
DEFAULT_255_1_234
10
4.6370031
20
124.1602042
40
0.5097822
50
193.5479632
51
219.5756669
0
ARC
8
DEFAULT_255_1_234
10
4.8741652
20
124.2217919
40
0.7547848
50
181.1218675
51
193.87563
0
ARC
8
DEFAULT_255_1_234
10
5.0811833
20
124.232858
40
0.9620055
50
179.9918545
51
181.5394234
0
ARC
8
DEFAULT_255_1_234
10
4.8960935
20
124.3491788
40
0.7769248
50
169.5837241
51
180.2757934
0
ARC
8
DEFAULT_255_1_234
10
4.7123873
20
124.3831229
40
0.590109
50
155.0365899
51
169.6003176
0
ARC
8
DEFAULT_255_1_234
10
4.5988337
20
124.4378677
40
0.4640625
50
136.783148
51
155.2472683
0
ARC
8
DEFAULT_255_1_234
10
4.5598814
20
124.4709562
40
0.4130255
50
121.7633186
51
136.428115
0
ARC
8
DEFAULT_255_1_234
10
4.5733776
20
124.4460227
40
0.4413323
50
95.6459699
51
121.5490577
0
ARC
8
DEFAULT_255_1_234
10
4.5891058
20
124.3351949
40
0.55319
50
89.924208
51
96.1377933
0
ARC
8
DEFAULT_255_1_234
10
4.5941491
20
124.3470542
40
0.5413475
50
76.6779277
51
90.4563316
0
ARC
8
DEFAULT_255_1_234
10
4.6335114
20
124.5061114
40
0.3775041
50
47.485847
51
76.9287264
0
ARC
8
DEFAULT_255_1_234
10
4.6188087
20
124.4961159
40
0.3948286
50
16.5424086
51
46.8933463
0
ARC
8
DEFAULT_255_1_234
10
4.4580244
20
124.4432861
40
0.564021
50
5.4072051
51
17.0365086
0
ARC
8
DEFAULT_255_1_234
10
4.3141261
20
124.4201679
40
0.5556559
50
7.8891745
51
15.9239216
0
ARC
8
DEFAULT_255_1_234
10
4.5128274
20
124.4778631
40
0.3487515
50
15.7653144
51
27.9410532
0
ARC
8
DEFAULT_255_1_234
10
4.6232492
20
124.536979
40
0.2235026
50
27.8166557
51
46.4008329
0
ARC
8
DEFAULT_255_1_234
10
4.6282135
20
124.5364082
40
0.2205286
50
47.4371857
51
75.0698205
0
ARC
8
DEFAULT_255_1_234
10
4.5973529
20
124.4289765
40
0.3322915
50
74.7008593
51
87.8124495
0
ARC
8
DEFAULT_255_1_234
10
4.5900217
20
124.3233844
40
0.4380987
50
87.3814673
51
90.0240855
0
ARC
8
DEFAULT_255_1_234
10
4.586176
20
124.4411291
40
0.3203749
50
89.3451631
51
108.5745436
0
ARC
8
DEFAULT_255_1_234
10
4.5724865
20
124.4924908
40
0.2673494
50
109.2998449
51
143.3037509
0
ARC
8
DEFAULT_255_1_234
10
4.6486938
20
124.4338881
40
0.3634757
50
143.0753173
51
163.1916937
0
ARC
8
DEFAULT_255_1_234
10
4.8438666
20
124.3722967
40
0.5681262
50
162.9373603
51
174.6208611
0
ARC
8
DEFAULT_255_1_234
10
5.1064708
20
124.343501
40
0.8322832
50
174.3419979
51
180.1430411
0
ARC
8
DEFAULT_255_1_234
10
5.0133864
20
124.2240698
40
0.7392076
50
179.6817502
51
189.150529
0
ARC
8
DEFAULT_255_1_234
10
4.7633112
20
124.182419
40
0.4856932
50
188.9910863
51
203.5773039
0
ARC
8
DEFAULT_255_1_234
10
4.6553445
20
124.1376211
40
0.3688271
50
203.9077269
51
215.1312379
0
ARC
8
DEFAULT_255_1_234
10
4.5630539
20
124.0660941
40
0.2522457
50
213.9071664
51
263.8849284
0
ARC
8
DEFAULT_255_1_234
10
4.5755868
20
124.1445518
40
0.3316174
50
263.1758525
51
270.1031083
0
ARC
8
DEFAULT_255_1_234
10
4.578796
20
124.2692365
40
0.4563091
50
269.6719807
51
279.0609165
0
ARC
8
DEFAULT_255_1_234
10
4.6054728
20
124.1079907
40
0.2928759
50
278.8750225
51
293.6346586
0
ARC
8
DEFAULT_255_1_234
10
4.6374936
20
124.03279
40
0.2111472
50
293.8553404
51
310.0518804
0
ARC
8
DEFAULT_255_1_234
10
4.637979
20
124.0265516
40
0.2060917
50
311.0646779
51
332.0108348
0
ARC
8
DEFAULT_255_1_234
10
4.5187517
20
124.0922978
40
0.3422352
50
331.6588543
51
343.2878891
0
ARC
8
DEFAULT_255_1_234
10
4.3125032
20
124.1556798
40
0.5580003
50
343.1446044
51
351.010618
0
ARC
8
DEFAULT_255_1_234
10
4.1583678
20
124.1837871
40
0.7146438
50
350.7157277
51
351.1602153
0
LINE
8
DEFAULT_255_1_234
10
6.0146679
20
124.8723211
11
6.0146679
21
124.7454196
0
LINE
8
DEFAULT_255_1_234
10
6.0146679
20
124.7454196
11
5.6387826
21
124.7454196
0
LINE
8
DEFAULT_255_1_234
10
5.6387826
20
124.7454196
11
5.6387826
21
123.7029
0
LINE
8
DEFAULT_255_1_234
10
5.6387826
20
123.7029
11
5.4853764
21
123.7029
0
LINE
8
DEFAULT_255_1_234
10
5.4853764
20
123.7029
11
5.4853764
21
124.7454196
0
LINE
8
DEFAULT_255_1_234
10
5.4853764
20
124.7454196
11
5.1102942
21
124.7454196
0
LINE
8
DEFAULT_255_1_234
10
5.1102942
20
124.7454196
11
5.1102942
21
124.8723211
0
LINE
8
DEFAULT_255_1_234
10
5.1102942
20
124.8723211
11
6.0146679
21
124.8723211
0
LINE
8
DEFAULT_255_1_234
10
6.6379308
20
124.8779433
11
6.6379308
21
123.7029
0
LINE
8
DEFAULT_255_1_234
10
6.6379308
20
123.7029
11
6.4885405
21
123.7029
0
LINE
8
DEFAULT_255_1_234
10
6.4885405
20
123.7029
11
6.4885405
21
124.6932133
0
LINE
8
DEFAULT_255_1_234
10
6.4885405
20
124.6932133
11
6.1889566
21
124.5831785
0
LINE
8
DEFAULT_255_1_234
10
6.1889566
20
124.5831785
11
6.1889566
21
124.7181117
0
LINE
8
DEFAULT_255_1_234
10
6.1889566
20
124.7181117
11
6.6146388
21
124.8779433
0
LINE
8
DEFAULT_255_1_234
10
6.6146388
20
124.8779433
11
6.6379308
21
124.8779433
0
LINE
8
DEFAULT_255_1_234
10
4.9167516
20
132.0781297
11
4.9167516
21
132.065279
0
LINE
8
DEFAULT_255_1_234
10
4.3248125
20
131.7407967
11
4.3175839
21
131.6404
0
LINE
8
DEFAULT_255_1_234
10
4.3175839
20
131.6404
11
4.1810443
21
131.6404
0
LINE
8
DEFAULT_255_1_234
10
4.1810443
20
131.6404
11
4.1810443
21
132.874075
0
LINE
8
DEFAULT_255_1_234
10
4.1810443
20
132.874075
11
4.3296315
21
132.874075
0
LINE
8
DEFAULT_255_1_234
10
4.3296315
20
132.874075
11
4.3296315
21
132.4138564
0
LINE
8
DEFAULT_255_1_234
10
4.3296315
20
132.2628597
11
4.3296315
21
131.8869744
0
ARC
8
DEFAULT_255_1_234
10
4.2120791
20
132.0608573
40
0.7046863
50
349.4825105
51
0.3595108
0
ARC
8
DEFAULT_255_1_234
10
4.4398032
20
132.0170022
40
0.4727857
50
331.8602128
51
349.6704139
0
ARC
8
DEFAULT_255_1_234
10
4.51308
20
131.9813125
40
0.3913503
50
322.8939783
51
331.4081204
0
ARC
8
DEFAULT_255_1_234
10
4.5826198
20
131.9233707
40
0.300965
50
296.7249167
51
323.7044215
0
ARC
8
DEFAULT_255_1_234
10
4.5856095
20
131.9303043
40
0.3058683
50
270.6342811
51
295.6405548
0
ARC
8
DEFAULT_255_1_234
10
4.5794404
20
132.0105995
40
0.3862632
50
269.9967524
51
271.4174733
0
ARC
8
DEFAULT_255_1_234
10
4.5756069
20
131.9970686
40
0.3727515
50
253.657532
51
270.5859025
0
ARC
8
DEFAULT_255_1_234
10
4.5525175
20
131.9127235
40
0.2853216
50
217.0543181
51
253.3409865
0
ARC
8
DEFAULT_255_1_234
10
4.5591843
20
132.2311052
40
0.2934152
50
93.1931545
51
141.4760602
0
ARC
8
DEFAULT_255_1_234
10
4.5774059
20
132.1078453
40
0.4176524
50
89.9442578
51
94.747309
0
ARC
8
DEFAULT_255_1_234
10
4.5817806
20
132.190141
40
0.3353801
50
70.6103515
51
90.6779749
0
ARC
8
DEFAULT_255_1_234
10
4.5932108
20
132.235689
40
0.2886533
50
36.1152635
51
69.7489296
0
ARC
8
DEFAULT_255_1_234
10
4.4945512
20
132.1603708
40
0.4127561
50
15.4648517
51
36.4891396
0
ARC
8
DEFAULT_255_1_234
10
4.2887198
20
132.1004524
40
0.6271187
50
3.9220813
51
15.7265815
0
ARC
8
DEFAULT_255_1_234
10
4.0528042
20
132.0792325
40
0.863948
50
359.9268643
51
4.2559037
0
ARC
8
DEFAULT_255_1_234
10
4.1342423
20
132.0852103
40
0.6339295
50
359.7230081
51
7.7115859
0
ARC
8
DEFAULT_255_1_234
10
4.3603988
20
132.1168172
40
0.4055784
50
7.5740023
51
19.4151451
0
ARC
8
DEFAULT_255_1_234
10
4.4871627
20
132.1614519
40
0.2711858
50
19.4238354
51
34.9161182
0
ARC
8
DEFAULT_255_1_234
10
4.5542365
20
132.2101172
40
0.1883373
50
34.4556322
51
84.4656458
0
ARC
8
DEFAULT_255_1_234
10
4.5413813
20
132.1346057
40
0.2647939
50
83.2727306
51
90.1114621
0
ARC
8
DEFAULT_255_1_234
10
4.537167
20
132.1544509
40
0.2449763
50
89.1347934
51
111.4089923
0
ARC
8
DEFAULT_255_1_234
10
4.5292221
20
132.1872473
40
0.2115923
50
112.6478598
51
148.9260864
0
ARC
8
DEFAULT_255_1_234
10
4.6070019
20
132.1330985
40
0.3062228
50
147.7597608
51
154.928557
0
ARC
8
DEFAULT_255_1_234
10
4.581008
20
132.0086379
40
0.2792708
50
205.8264786
51
224.5301003
0
ARC
8
DEFAULT_255_1_234
10
4.5332384
20
131.9659914
40
0.2153317
50
225.354483
51
269.2437579
0
ARC
8
DEFAULT_255_1_234
10
4.5424019
20
132.0466292
40
0.2961942
50
267.6770046
51
270.0136612
0
ARC
8
DEFAULT_255_1_234
10
4.545137
20
131.9707938
40
0.2203751
50
269.3072485
51
289.499141
0
ARC
8
DEFAULT_255_1_234
10
4.5523434
20
131.9411394
40
0.1900415
50
290.4353973
51
325.3766314
0
ARC
8
DEFAULT_255_1_234
10
4.4894657
20
131.9865643
40
0.2675986
50
325.0223901
51
342.692398
0
ARC
8
DEFAULT_255_1_234
10
4.3197545
20
132.0417812
40
0.446058
50
342.4062876
51
352.8669243
0
ARC
8
DEFAULT_255_1_234
10
4.047702
20
132.0774975
40
0.7204419
50
352.7350668
51
359.8556985
0
ARC
8
DEFAULT_255_1_234
10
3.8566716
20
132.0821018
40
0.9114927
50
359.5965197
51
0.0027543
0
LINE
8
DEFAULT_255_1_234
10
5.7159095
20
132.8098211
11
5.7159095
21
132.033152
0
LINE
8
DEFAULT_255_1_234
10
5.7159095
20
132.033152
11
5.8781506
21
132.033152
0
LINE
8
DEFAULT_255_1_234
10
5.8781506
20
132.033152
11
5.8781506
21
131.9118728
0
LINE
8
DEFAULT_255_1_234
10
5.8781506
20
131.9118728
11
5.7159095
21
131.9118728
0
LINE
8
DEFAULT_255_1_234
10
5.7159095
20
131.9118728
11
5.7159095
21
131.6404
0
LINE
8
DEFAULT_255_1_234
10
5.7159095
20
131.6404
11
5.5665192
21
131.6404
0
LINE
8
DEFAULT_255_1_234
10
5.5665192
20
131.6404
11
5.5665192
21
131.9118728
0
LINE
8
DEFAULT_255_1_234
10
5.5665192
20
131.9118728
11
5.0340149
21
131.9118728
0
LINE
8
DEFAULT_255_1_234
10
5.0340149
20
131.9118728
11
5.0340149
21
131.9994187
0
LINE
8
DEFAULT_255_1_234
10
5.0340149
20
131.9994187
11
5.5576843
21
132.8098211
0
LINE
8
DEFAULT_255_1_234
10
5.5576843
20
132.8098211
11
5.7159095
21
132.8098211
0
LINE
8
DEFAULT_255_1_234
10
5.5488494
20
132.5744912
11
5.2026814
21
132.033152
0
LINE
8
DEFAULT_255_1_234
10
5.2026814
20
132.033152
11
5.5665192
21
132.033152
0
LINE
8
DEFAULT_255_1_234
10
5.5665192
20
132.033152
11
5.5665192
21
132.6066181
0
LINE
8
DEFAULT_255_1_234
10
5.5665192
20
132.6066181
11
5.5488494
21
132.5744912
0
LINE
8
DEFAULT_255_1_234
10
4.8108516
20
140.0156297
11
4.8108516
21
140.002779
0
LINE
8
DEFAULT_255_1_234
10
4.2189125
20
139.6782967
11
4.2116839
21
139.5779
0
LINE
8
DEFAULT_255_1_234
10
4.2116839
20
139.5779
11
4.0751443
21
139.5779
0
LINE
8
DEFAULT_255_1_234
10
4.0751443
20
139.5779
11
4.0751443
21
140.811575
0
LINE
8
DEFAULT_255_1_234
10
4.0751443
20
140.811575
11
4.2237315
21
140.811575
0
LINE
8
DEFAULT_255_1_234
10
4.2237315
20
140.811575
11
4.2237315
21
140.3513564
0
LINE
8
DEFAULT_255_1_234
10
4.2237315
20
140.2003597
11
4.2237315
21
139.8244744
0
ARC
8
DEFAULT_255_1_234
10
4.1061791
20
139.9983573
40
0.7046863
50
349.4825105
51
0.3595108
0
ARC
8
DEFAULT_255_1_234
10
4.3339032
20
139.9545022
40
0.4727857
50
331.8602128
51
349.6704139
0
ARC
8
DEFAULT_255_1_234
10
4.40718
20
139.9188125
40
0.3913503
50
322.8939783
51
331.4081204
0
ARC
8
DEFAULT_255_1_234
10
4.4767198
20
139.8608707
40
0.300965
50
296.7249167
51
323.7044215
0
ARC
8
DEFAULT_255_1_234
10
4.4797095
20
139.8678043
40
0.3058683
50
270.6342811
51
295.6405548
0
ARC
8
DEFAULT_255_1_234
10
4.4735404
20
139.9480995
40
0.3862632
50
269.9967524
51
271.4174733
0
ARC
8
DEFAULT_255_1_234
10
4.4697069
20
139.9345686
40
0.3727515
50
253.657532
51
270.5859025
0
ARC
8
DEFAULT_255_1_234
10
4.4466175
20
139.8502235
40
0.2853216
50
217.0543181
51
253.3409865
0
ARC
8
DEFAULT_255_1_234
10
4.4532843
20
140.1686052
40
0.2934152
50
93.1931545
51
141.4760602
0
ARC
8
DEFAULT_255_1_234
10
4.4715059
20
140.0453453
40
0.4176524
50
89.9442578
51
94.747309
0
ARC
8
DEFAULT_255_1_234
10
4.4758806
20
140.127641
40
0.3353801
50
70.6103515
51
90.6779749
0
ARC
8
DEFAULT_255_1_234
10
4.4873108
20
140.173189
40
0.2886533
50
36.1152635
51
69.7489296
0
ARC
8
DEFAULT_255_1_234
10
4.3886512
20
140.0978708
40
0.4127561
50
15.4648517
51
36.4891396
0
ARC
8
DEFAULT_255_1_234
10
4.1828198
20
140.0379524
40
0.6271187
50
3.9220813
51
15.7265815
0
ARC
8
DEFAULT_255_1_234
10
3.9469042
20
140.0167325
40
0.863948
50
359.9268643
51
4.2559037
0
ARC
8
DEFAULT_255_1_234
10
4.0283423
20
140.0227103
40
0.6339295
50
359.7230081
51
7.7115859
0
ARC
8
DEFAULT_255_1_234
10
4.2544988
20
140.0543172
40
0.4055784
50
7.5740023
51
19.4151451
0
ARC
8
DEFAULT_255_1_234
10
4.3812627
20
140.0989519
40
0.2711858
50
19.4238354
51
34.9161182
0
ARC
8
DEFAULT_255_1_234
10
4.4483365
20
140.1476172
40
0.1883373
50
34.4556322
51
84.4656458
0
ARC
8
DEFAULT_255_1_234
10
4.4354813
20
140.0721057
40
0.2647939
50
83.2727306
51
90.1114621
0
ARC
8
DEFAULT_255_1_234
10
4.431267
20
140.0919509
40
0.2449763
50
89.1347934
51
111.4089923
0
ARC
8
DEFAULT_255_1_234
10
4.4233221
20
140.1247473
40
0.2115923
50
112.6478598
51
148.9260864
0
ARC
8
DEFAULT_255_1_234
10
4.5011019
20
140.0705985
40
0.3062228
50
147.7597608
51
154.928557
0
ARC
8
DEFAULT_255_1_234
10
4.475108
20
139.9461379
40
0.2792708
50
205.8264786
51
224.5301003
0
ARC
8
DEFAULT_255_1_234
10
4.4273384
20
139.9034914
40
0.2153317
50
225.354483
51
269.2437579
0
ARC
8
DEFAULT_255_1_234
10
4.4365019
20
139.9841292
40
0.2961942
50
267.6770046
51
270.0136612
0
ARC
8
DEFAULT_255_1_234
10
4.439237
20
139.9082938
40
0.2203751
50
269.3072485
51
289.499141
0
ARC
8
DEFAULT_255_1_234
10
4.4464434
20
139.8786394
40
0.1900415
50
290.4353973
51
325.3766314
0
ARC
8
DEFAULT_255_1_234
10
4.3835657
20
139.9240643
40
0.2675986
50
325.0223901
51
342.692398
0
ARC
8
DEFAULT_255_1_234
10
4.2138545
20
139.9792812
40
0.446058
50
342.4062876
51
352.8669243
0
ARC
8
DEFAULT_255_1_234
10
3.941802
20
140.0149975
40
0.7204419
50
352.7350668
51
359.8556985
0
ARC
8
DEFAULT_255_1_234
10
3.7507716
20
140.0196018
40
0.9114927
50
359.5965197
51
0.0027543
0
LINE
8
DEFAULT_255_1_234
10
5.1987845
20
140.1136169
11
5.1987845
21
140.2348962
0
LINE
8
DEFAULT_255_1_234
10
5.1987845
20
140.2348962
11
5.3104257
21
140.2348962
0
LINE
8
DEFAULT_255_1_234
10
5.1200735
20
140.4405087
11
4.9714863
21
140.4405087
0
LINE
8
DEFAULT_255_1_234
10
4.9610451
20
139.8863188
11
5.1104354
21
139.8863188
0
LINE
8
DEFAULT_255_1_234
10
5.3104257
20
140.1136169
11
5.1987845
21
140.1136169
0
ARC
8
DEFAULT_255_1_234
10
5.3075123
20
140.5741713
40
0.3392876
50
270.4919872
51
281.8951556
0
ARC
8
DEFAULT_255_1_234
10
5.3316385
20
140.4639702
40
0.2264817
50
281.6691735
51
301.2943132
0
ARC
8
DEFAULT_255_1_234
10
5.3486595
20
140.4328304
40
0.1910381
50
301.7833094
51
311.7545298
0
ARC
8
DEFAULT_255_1_234
10
5.3578171
20
140.4226748
40
0.1773635
50
311.7323931
51
354.2802411
0
ARC
8
DEFAULT_255_1_234
10
5.2851796
20
140.4351722
40
0.2509385
50
353.0937916
51
0.1181479
0
ARC
8
DEFAULT_255_1_234
10
5.2390581
20
140.4399386
40
0.2970898
50
359.1805295
51
15.0453146
0
ARC
8
DEFAULT_255_1_234
10
5.3736418
20
140.4791992
40
0.1569564
50
13.9577229
51
77.6713066
0
ARC
8
DEFAULT_255_1_234
10
5.3349947
20
140.3406949
40
0.3006298
50
76.1116566
51
90.7026153
0
ARC
8
DEFAULT_255_1_234
10
5.3290786
20
140.3680545
40
0.2732568
50
89.5324876
51
103.531937
0
ARC
8
DEFAULT_255_1_234
10
5.309023
20
140.4479884
40
0.1908508
50
103.2931773
51
133.5619022
0
ARC
8
DEFAULT_255_1_234
10
5.3045718
20
140.4539375
40
0.1834746
50
133.8349307
51
173.5344437
0
ARC
8
DEFAULT_255_1_234
10
5.3768761
20
140.4411213
40
0.2568033
50
172.5096846
51
180.1366907
0
ARC
8
DEFAULT_255_1_234
10
5.2817655
20
140.4445622
40
0.3103056
50
155.3484492
51
180.7484736
0
ARC
8
DEFAULT_255_1_234
10
5.2768744
20
140.4416846
40
0.3070957
50
131.5744599
51
154.4798489
0
ARC
8
DEFAULT_255_1_234
10
5.3081891
20
140.410031
40
0.3515643
50
96.9875458
51
131.9690667
0
ARC
8
DEFAULT_255_1_234
10
5.3301371
20
140.2854636
40
0.4779224
50
89.8596053
51
97.7825159
0
ARC
8
DEFAULT_255_1_234
10
5.3349434
20
140.2592616
40
0.5041361
50
78.3655447
51
90.4131539
0
ARC
8
DEFAULT_255_1_234
10
5.3707352
20
140.4251887
40
0.3344039
50
56.6229102
51
78.638727
0
ARC
8
DEFAULT_255_1_234
10
5.3922296
20
140.4627805
40
0.2912001
50
47.0253525
51
56.0854072
0
ARC
8
DEFAULT_255_1_234
10
5.3942076
20
140.4667223
40
0.2869704
50
10.9208013
51
46.7778124
0
ARC
8
DEFAULT_255_1_234
10
5.2578143
20
140.4351857
40
0.426899
50
359.6364486
51
11.6087304
0
ARC
8
DEFAULT_255_1_234
10
5.4412987
20
140.4336752
40
0.243409
50
332.3549906
51
359.7179418
0
ARC
8
DEFAULT_255_1_234
10
5.3762588
20
140.4645142
40
0.3153459
50
325.2333722
51
332.8745602
0
ARC
8
DEFAULT_255_1_234
10
5.3915212
20
140.4538828
40
0.2967456
50
292.9802137
51
325.2392345
0
ARC
8
DEFAULT_255_1_234
10
5.3640586
20
140.5072863
40
0.3566604
50
292.5402179
51
293.6924929
0
ARC
8
DEFAULT_255_1_234
10
5.4033182
20
139.8618091
40
0.3307468
50
57.6435486
51
72.8625112
0
ARC
8
DEFAULT_255_1_234
10
5.4387681
20
139.9192549
40
0.2632492
50
36.7248896
51
57.4697979
0
ARC
8
DEFAULT_255_1_234
10
5.4376314
20
139.920522
40
0.2634081
50
8.0545065
51
36.356114
0
ARC
8
DEFAULT_255_1_234
10
5.3513499
20
139.9050174
40
0.3510261
50
359.8320645
51
8.5869982
0
ARC
8
DEFAULT_255_1_234
10
5.3138275
20
139.9002101
40
0.3885653
50
343.9829931
51
0.5571613
0
ARC
8
DEFAULT_255_1_234
10
5.4024473
20
139.8759438
40
0.2966924
50
311.6359546
51
343.7651759
0
ARC
8
DEFAULT_255_1_234
10
5.3646042
20
139.9186102
40
0.3537231
50
279.7829875
51
311.6255694
0
ARC
8
DEFAULT_255_1_234
10
5.3344818
20
140.062328
40
0.5004971
50
269.7286406
51
280.3856417
0
ARC
8
DEFAULT_255_1_234
10
5.3282891
20
140.0581996
40
0.4963778
50
256.6828919
51
270.4412052
0
ARC
8
DEFAULT_255_1_234
10
5.2944186
20
139.9197394
40
0.3538406
50
229.4223008
51
256.8556159
0
ARC
8
DEFAULT_255_1_234
10
5.2529579
20
139.8730736
40
0.2914296
50
181.818294
51
229.6455059
0
ARC
8
DEFAULT_255_1_234
10
5.3569536
20
139.8861496
40
0.3959084
50
179.9755256
51
183.2323064
0
ARC
8
DEFAULT_255_1_234
10
5.3397281
20
139.8841037
40
0.2293034
50
179.4465117
51
196.2869258
0
ARC
8
DEFAULT_255_1_234
10
5.2909689
20
139.8707651
40
0.1787621
50
196.5661473
51
227.705904
0
ARC
8
DEFAULT_255_1_234
10
5.3073784
20
139.8891155
40
0.2033784
50
227.7652068
51
257.8762805
0
ARC
8
DEFAULT_255_1_234
10
5.3298754
20
139.9834156
40
0.3003081
50
257.4584385
51
270.426602
0
ARC
8
DEFAULT_255_1_234
10
5.334432
20
140.0123996
40
0.329292
50
269.5962073
51
280.8789248
0
ARC
8
DEFAULT_255_1_234
10
5.3573849
20
139.8977685
40
0.2123908
50
280.6346389
51
299.8595945
0
ARC
8
DEFAULT_255_1_234
10
5.3764756
20
139.8615212
40
0.171457
50
300.3576302
51
314.5517981
0
ARC
8
DEFAULT_255_1_234
10
5.3681816
20
139.8675919
40
0.1816095
50
315.0728369
51
345.0431014
0
ARC
8
DEFAULT_255_1_234
10
5.275863
20
139.8944841
40
0.2777492
50
344.5986631
51
357.9269593
0
ARC
8
DEFAULT_255_1_234
10
5.1862957
20
139.9006276
40
0.3674917
50
357.4748886
51
0.0231117
0
ARC
8
DEFAULT_255_1_234
10
5.2886066
20
139.9030679
40
0.2651907
50
359.5047933
51
13.4239635
0
ARC
8
DEFAULT_255_1_234
10
5.375271
20
139.9252478
40
0.1757509
50
12.9498199
51
48.7551375
0
ARC
8
DEFAULT_255_1_234
10
5.3570444
20
139.90034
40
0.2065134
50
49.5088623
51
72.1836453
0
ARC
8
DEFAULT_255_1_234
10
5.3212596
20
139.7941291
40
0.3185836
50
71.9010081
51
84.3554254
0
ARC
8
DEFAULT_255_1_234
10
5.3051228
20
139.6580326
40
0.4556151
50
84.0193428
51
89.333121
0
LINE
8
DEFAULT_255_1_234
10
4.6172392
20
147.5154
11
4.2116364
21
147.5154
0
LINE
8
DEFAULT_255_1_234
10
4.2116364
20
147.5154
11
4.2116364
21
148.6848211
0
LINE
8
DEFAULT_255_1_234
10
4.2116364
20
148.6848211
11
4.5939471
21
148.6848211
0
LINE
8
DEFAULT_255_1_234
10
4.6228614
20
148.0623614
11
4.3658458
21
148.0623614
0
LINE
8
DEFAULT_255_1_234
10
4.3658458
20
148.0623614
11
4.3658458
21
147.6414983
0
LINE
8
DEFAULT_255_1_234
10
4.3658458
20
147.6414983
11
4.6204519
21
147.6414983
0
LINE
8
DEFAULT_255_1_234
10
4.3658458
20
148.5579196
11
4.3658458
21
148.1860501
0
LINE
8
DEFAULT_255_1_234
10
4.3658458
20
148.1860501
11
4.5987662
21
148.1860501
0
LINE
8
DEFAULT_255_1_234
10
4.5939471
20
148.5579196
11
4.3658458
21
148.5579196
0
ARC
8
DEFAULT_255_1_234
10
4.597718
20
147.9480901
40
0.7367406
50
82.1257326
51
90.2932599
0
ARC
8
DEFAULT_255_1_234
10
4.6366135
20
148.2199013
40
0.4621653
50
69.9044149
51
82.2857423
0
ARC
8
DEFAULT_255_1_234
10
4.6936813
20
148.3741637
40
0.2976871
50
51.1838526
51
70.0181538
0
ARC
8
DEFAULT_255_1_234
10
4.7191779
20
148.411224
40
0.2528517
50
12.1017251
51
50.4214761
0
ARC
8
DEFAULT_255_1_234
10
4.5807653
20
148.3764676
40
0.3955061
50
359.5251267
51
12.8211707
0
ARC
8
DEFAULT_255_1_234
10
4.7387579
20
148.3695344
40
0.2375281
50
323.4908128
51
0.8817314
0
ARC
8
DEFAULT_255_1_234
10
4.6969266
20
148.401855
40
0.2903817
50
298.6825083
51
323.2756573
0
ARC
8
DEFAULT_255_1_234
10
4.6607629
20
148.4619649
40
0.3604842
50
293.1999386
51
299.1396394
0
ARC
8
DEFAULT_255_1_234
10
4.7280602
20
147.8534126
40
0.2871098
50
54.0011765
51
74.9167975
0
ARC
8
DEFAULT_255_1_234
10
4.7396961
20
147.8731332
40
0.2643248
50
36.3580696
51
53.5291921
0
ARC
8
DEFAULT_255_1_234
10
4.7270203
20
147.8640998
40
0.2798884
50
4.8189881
51
36.3089977
0
ARC
8
DEFAULT_255_1_234
10
4.6491038
20
147.853127
40
0.358478
50
359.9370252
51
5.5204067
0
ARC
8
DEFAULT_255_1_234
10
4.616656
20
147.8490667
40
0.3909429
50
344.7478609
51
0.5373281
0
ARC
8
DEFAULT_255_1_234
10
4.7157531
20
147.8223544
40
0.2883093
50
311.1786488
51
344.6886812
0
ARC
8
DEFAULT_255_1_234
10
4.6865578
20
147.8586987
40
0.3348923
50
286.0418249
51
310.8441291
0
ARC
8
DEFAULT_255_1_234
10
4.635841
20
148.0233807
40
0.5071869
50
274.1042341
51
286.4071509
0
ARC
8
DEFAULT_255_1_234
10
4.6181666
20
148.2117229
40
0.6963234
50
269.9236873
51
274.445647
0
ARC
8
DEFAULT_255_1_234
10
4.6227667
20
147.9777537
40
0.3362634
50
269.6055768
51
281.3740047
0
ARC
8
DEFAULT_255_1_234
10
4.6458305
20
147.8684353
40
0.224546
50
281.1055983
51
302.5132223
0
ARC
8
DEFAULT_255_1_234
10
4.6605204
20
147.8420823
40
0.1944357
50
303.0368945
51
311.8811219
0
ARC
8
DEFAULT_255_1_234
10
4.6676611
20
147.833589
40
0.1833454
50
311.9916004
51
351.7143462
0
ARC
8
DEFAULT_255_1_234
10
4.5859841
20
147.850093
40
0.2665871
50
350.7339597
51
0.2221581
0
ARC
8
DEFAULT_255_1_234
10
4.5752287
20
147.8557467
40
0.2773789
50
359.0456241
51
17.2296242
0
ARC
8
DEFAULT_255_1_234
10
4.6791404
20
147.8866163
40
0.1689915
50
17.6685481
51
78.9940892
0
ARC
8
DEFAULT_255_1_234
10
4.6274568
20
147.7011224
40
0.3612658
50
76.5635957
51
90.6980921
0
LINE
8
DEFAULT_255_1_234
10
4.6230552
20
148.0623613
11
4.6228614
21
148.0623614
0
ARC
8
DEFAULT_255_1_234
10
4.6010228
20
148.5146036
40
0.3285612
50
269.6064736
51
281.4533503
0
ARC
8
DEFAULT_255_1_234
10
4.6233048
20
148.4094688
40
0.2210975
50
281.2041486
51
302.5148063
0
ARC
8
DEFAULT_255_1_234
10
4.6369898
20
148.3848241
40
0.1929674
50
303.021671
51
309.8369575
0
ARC
8
DEFAULT_255_1_234
10
4.6553359
20
148.3642488
40
0.1654181
50
309.5228395
51
356.9509836
0
ARC
8
DEFAULT_255_1_234
10
4.5889942
20
148.3737932
40
0.2322512
50
355.4701227
51
0.0492546
0
ARC
8
DEFAULT_255_1_234
10
4.5611033
20
148.3760094
40
0.2601498
50
359.5558597
51
11.2096359
0
ARC
8
DEFAULT_255_1_234
10
4.6568323
20
148.395823
40
0.1623975
50
10.9182341
51
31.3230275
0
ARC
8
DEFAULT_255_1_234
10
4.6854056
20
148.4117214
40
0.1297302
50
31.8852677
51
52.1412565
0
ARC
8
DEFAULT_255_1_234
10
4.6579789
20
148.372975
40
0.1771663
50
52.8285564
51
71.9850297
0
ARC
8
DEFAULT_255_1_234
10
4.6203965
20
148.2623664
40
0.2939794
50
71.6863486
51
82.8455995
0
ARC
8
DEFAULT_255_1_234
10
4.5964501
20
148.0814149
40
0.476506
50
82.6984714
51
90.1729175
0
ARC
8
DEFAULT_255_1_234
10
4.5942136
20
148.2037623
40
0.3541573
50
89.8708275
51
90.0431131
0
LINE
8
DEFAULT_255_1_234
10
5.8244094
20
148.6848211
11
5.8244094
21
147.908152
0
LINE
8
DEFAULT_255_1_234
10
5.8244094
20
147.908152
11
5.9866505
21
147.908152
0
LINE
8
DEFAULT_255_1_234
10
5.9866505
20
147.908152
11
5.9866505
21
147.7868728
0
LINE
8
DEFAULT_255_1_234
10
5.9866505
20
147.7868728
11
5.8244094
21
147.7868728
0
LINE
8
DEFAULT_255_1_234
10
5.8244094
20
147.7868728
11
5.8244094
21
147.5154
0
LINE
8
DEFAULT_255_1_234
10
5.8244094
20
147.5154
11
5.6750191
21
147.5154
0
LINE
8
DEFAULT_255_1_234
10
5.6750191
20
147.5154
11
5.6750191
21
147.7868728
0
LINE
8
DEFAULT_255_1_234
10
5.6750191
20
147.7868728
11
5.1425148
21
147.7868728
0
LINE
8
DEFAULT_255_1_234
10
5.1425148
20
147.7868728
11
5.1425148
21
147.8744187
0
LINE
8
DEFAULT_255_1_234
10
5.1425148
20
147.8744187
11
5.6661842
21
148.6848211
0
LINE
8
DEFAULT_255_1_234
10
5.6661842
20
148.6848211
11
5.8244094
21
148.6848211
0
LINE
8
DEFAULT_255_1_234
10
5.6573493
20
148.4494912
11
5.3111813
21
147.908152
0
LINE
8
DEFAULT_255_1_234
10
5.3111813
20
147.908152
11
5.6750191
21
147.908152
0
LINE
8
DEFAULT_255_1_234
10
5.6750191
20
147.908152
11
5.6750191
21
148.4816181
0
LINE
8
DEFAULT_255_1_234
10
5.6750191
20
148.4816181
11
5.6573493
21
148.4494912
0
LINE
8
DEFAULT_255_1_234
10
4.5114392
20
155.4529
11
4.1058364
21
155.4529
0
LINE
8
DEFAULT_255_1_234
10
4.1058364
20
155.4529
11
4.1058364
21
156.6223211
0
LINE
8
DEFAULT_255_1_234
10
4.1058364
20
156.6223211
11
4.4881471
21
156.6223211
0
LINE
8
DEFAULT_255_1_234
10
4.5170614
20
155.9998614
11
4.2600458
21
155.9998614
0
LINE
8
DEFAULT_255_1_234
10
4.2600458
20
155.9998614
11
4.2600458
21
155.5789983
0
LINE
8
DEFAULT_255_1_234
10
4.2600458
20
155.5789983
11
4.5146519
21
155.5789983
0
LINE
8
DEFAULT_255_1_234
10
4.2600458
20
156.4954196
11
4.2600458
21
156.1235501
0
LINE
8
DEFAULT_255_1_234
10
4.2600458
20
156.1235501
11
4.4929662
21
156.1235501
0
LINE
8
DEFAULT_255_1_234
10
4.4881471
20
156.4954196
11
4.2600458
21
156.4954196
0
ARC
8
DEFAULT_255_1_234
10
4.491918
20
155.8855901
40
0.7367406
50
82.1257326
51
90.2932599
0
ARC
8
DEFAULT_255_1_234
10
4.5308135
20
156.1574013
40
0.4621653
50
69.9044149
51
82.2857423
0
ARC
8
DEFAULT_255_1_234
10
4.5878813
20
156.3116637
40
0.2976871
50
51.1838526
51
70.0181538
0
ARC
8
DEFAULT_255_1_234
10
4.6133779
20
156.348724
40
0.2528517
50
12.1017251
51
50.4214761
0
ARC
8
DEFAULT_255_1_234
10
4.4749653
20
156.3139676
40
0.3955061
50
359.5251267
51
12.8211707
0
ARC
8
DEFAULT_255_1_234
10
4.6329579
20
156.3070344
40
0.2375281
50
323.4908128
51
0.8817314
0
ARC
8
DEFAULT_255_1_234
10
4.5911266
20
156.339355
40
0.2903817
50
298.6825083
51
323.2756573
0
ARC
8
DEFAULT_255_1_234
10
4.5549629
20
156.3994649
40
0.3604842
50
293.1999386
51
299.1396394
0
ARC
8
DEFAULT_255_1_234
10
4.6222602
20
155.7909126
40
0.2871098
50
54.0011765
51
74.9167975
0
ARC
8
DEFAULT_255_1_234
10
4.6338961
20
155.8106332
40
0.2643248
50
36.3580696
51
53.5291921
0
ARC
8
DEFAULT_255_1_234
10
4.6212203
20
155.8015998
40
0.2798884
50
4.8189881
51
36.3089977
0
ARC
8
DEFAULT_255_1_234
10
4.5433038
20
155.790627
40
0.358478
50
359.9370252
51
5.5204067
0
ARC
8
DEFAULT_255_1_234
10
4.510856
20
155.7865667
40
0.3909429
50
344.7478609
51
0.5373281
0
ARC
8
DEFAULT_255_1_234
10
4.6099531
20
155.7598544
40
0.2883093
50
311.1786488
51
344.6886812
0
ARC
8
DEFAULT_255_1_234
10
4.5807578
20
155.7961987
40
0.3348923
50
286.0418249
51
310.8441291
0
ARC
8
DEFAULT_255_1_234
10
4.530041
20
155.9608807
40
0.5071869
50
274.1042341
51
286.4071509
0
ARC
8
DEFAULT_255_1_234
10
4.5123666
20
156.1492229
40
0.6963234
50
269.9236873
51
274.445647
0
ARC
8
DEFAULT_255_1_234
10
4.5169667
20
155.9152537
40
0.3362634
50
269.6055768
51
281.3740047
0
ARC
8
DEFAULT_255_1_234
10
4.5400305
20
155.8059353
40
0.224546
50
281.1055983
51
302.5132223
0
ARC
8
DEFAULT_255_1_234
10
4.5547204
20
155.7795823
40
0.1944357
50
303.0368945
51
311.8811219
0
ARC
8
DEFAULT_255_1_234
10
4.5618611
20
155.771089
40
0.1833454
50
311.9916004
51
351.7143462
0
ARC
8
DEFAULT_255_1_234
10
4.4801841
20
155.787593
40
0.2665871
50
350.7339597
51
0.2221581
0
ARC
8
DEFAULT_255_1_234
10
4.4694287
20
155.7932467
40
0.2773789
50
359.0456241
51
17.2296242
0
ARC
8
DEFAULT_255_1_234
10
4.5733404
20
155.8241163
40
0.1689915
50
17.6685481
51
78.9940892
0
ARC
8
DEFAULT_255_1_234
10
4.5216568
20
155.6386224
40
0.3612658
50
76.5635957
51
90.6980921
0
LINE
8
DEFAULT_255_1_234
10
4.5172552
20
155.9998613
11
4.5170614
21
155.9998614
0
ARC
8
DEFAULT_255_1_234
10
4.4952228
20
156.4521036
40
0.3285612
50
269.6064736
51
281.4533503
0
ARC
8
DEFAULT_255_1_234
10
4.5175048
20
156.3469688
40
0.2210975
50
281.2041486
51
302.5148063
0
ARC
8
DEFAULT_255_1_234
10
4.5311898
20
156.3223241
40
0.1929674
50
303.021671
51
309.8369575
0
ARC
8
DEFAULT_255_1_234
10
4.5495359
20
156.3017488
40
0.1654181
50
309.5228395
51
356.9509836
0
ARC
8
DEFAULT_255_1_234
10
4.4831942
20
156.3112932
40
0.2322512
50
355.4701227
51
0.0492546
0
ARC
8
DEFAULT_255_1_234
10
4.4553033
20
156.3135094
40
0.2601498
50
359.5558597
51
11.2096359
0
ARC
8
DEFAULT_255_1_234
10
4.5510323
20
156.333323
40
0.1623975
50
10.9182341
51
31.3230275
0
ARC
8
DEFAULT_255_1_234
10
4.5796056
20
156.3492214
40
0.1297302
50
31.8852677
51
52.1412565
0
ARC
8
DEFAULT_255_1_234
10
4.5521789
20
156.310475
40
0.1771663
50
52.8285564
51
71.9850297
0
ARC
8
DEFAULT_255_1_234
10
4.5145965
20
156.1998664
40
0.2939794
50
71.6863486
51
82.8455995
0
ARC
8
DEFAULT_255_1_234
10
4.4906501
20
156.0189149
40
0.476506
50
82.6984714
51
90.1729175
0
ARC
8
DEFAULT_255_1_234
10
4.4884136
20
156.1412623
40
0.3541573
50
89.8708275
51
90.0431131
0
LINE
8
DEFAULT_255_1_234
10
5.3073844
20
155.9886169
11
5.3073844
21
156.1098962
0
LINE
8
DEFAULT_255_1_234
10
5.3073844
20
156.1098962
11
5.4190256
21
156.1098962
0
LINE
8
DEFAULT_255_1_234
10
5.2286734
20
156.3155087
11
5.0800862
21
156.3155087
0
LINE
8
DEFAULT_255_1_234
10
5.069645
20
155.7613188
11
5.2190353
21
155.7613188
0
LINE
8
DEFAULT_255_1_234
10
5.4190256
20
155.9886169
11
5.3073844
21
155.9886169
0
ARC
8
DEFAULT_255_1_234
10
5.4161122
20
156.4491713
40
0.3392876
50
270.4919872
51
281.8951556
0
ARC
8
DEFAULT_255_1_234
10
5.4402384
20
156.3389702
40
0.2264817
50
281.6691735
51
301.2943132
0
ARC
8
DEFAULT_255_1_234
10
5.4572594
20
156.3078304
40
0.1910381
50
301.7833094
51
311.7545298
0
ARC
8
DEFAULT_255_1_234
10
5.466417
20
156.2976748
40
0.1773635
50
311.7323931
51
354.2802411
0
ARC
8
DEFAULT_255_1_234
10
5.3937795
20
156.3101722
40
0.2509385
50
353.0937916
51
0.1181479
0
ARC
8
DEFAULT_255_1_234
10
5.347658
20
156.3149386
40
0.2970898
50
359.1805295
51
15.0453146
0
ARC
8
DEFAULT_255_1_234
10
5.4822417
20
156.3541992
40
0.1569564
50
13.9577229
51
77.6713066
0
ARC
8
DEFAULT_255_1_234
10
5.4435946
20
156.2156949
40
0.3006298
50
76.1116566
51
90.7026153
0
ARC
8
DEFAULT_255_1_234
10
5.4376785
20
156.2430545
40
0.2732568
50
89.5324876
51
103.531937
0
ARC
8
DEFAULT_255_1_234
10
5.4176229
20
156.3229884
40
0.1908508
50
103.2931773
51
133.5619022
0
ARC
8
DEFAULT_255_1_234
10
5.4131717
20
156.3289375
40
0.1834746
50
133.8349307
51
173.5344437
0
ARC
8
DEFAULT_255_1_234
10
5.485476
20
156.3161213
40
0.2568033
50
172.5096846
51
180.1366907
0
ARC
8
DEFAULT_255_1_234
10
5.3903654
20
156.3195622
40
0.3103056
50
155.3484492
51
180.7484736
0
ARC
8
DEFAULT_255_1_234
10
5.3854743
20
156.3166846
40
0.3070957
50
131.5744599
51
154.4798489
0
ARC
8
DEFAULT_255_1_234
10
5.416789
20
156.285031
40
0.3515643
50
96.9875458
51
131.9690667
0
ARC
8
DEFAULT_255_1_234
10
5.438737
20
156.1604636
40
0.4779224
50
89.8596053
51
97.7825159
0
ARC
8
DEFAULT_255_1_234
10
5.4435433
20
156.1342616
40
0.5041361
50
78.3655447
51
90.4131539
0
ARC
8
DEFAULT_255_1_234
10
5.4793351
20
156.3001887
40
0.3344039
50
56.6229102
51
78.638727
0
ARC
8
DEFAULT_255_1_234
10
5.5008295
20
156.3377805
40
0.2912001
50
47.0253525
51
56.0854072
0
ARC
8
DEFAULT_255_1_234
10
5.5028075
20
156.3417223
40
0.2869704
50
10.9208013
51
46.7778124
0
ARC
8
DEFAULT_255_1_234
10
5.3664142
20
156.3101857
40
0.426899
50
359.6364486
51
11.6087304
0
ARC
8
DEFAULT_255_1_234
10
5.5498986
20
156.3086752
40
0.243409
50
332.3549906
51
359.7179418
0
ARC
8
DEFAULT_255_1_234
10
5.4848587
20
156.3395142
40
0.3153459
50
325.2333722
51
332.8745602
0
ARC
8
DEFAULT_255_1_234
10
5.5001211
20
156.3288828
40
0.2967456
50
292.9802137
51
325.2392345
0
ARC
8
DEFAULT_255_1_234
10
5.4726585
20
156.3822863
40
0.3566604
50
292.5402179
51
293.6924929
0
ARC
8
DEFAULT_255_1_234
10
5.5119181
20
155.7368091
40
0.3307468
50
57.6435486
51
72.8625112
0
ARC
8
DEFAULT_255_1_234
10
5.547368
20
155.7942549
40
0.2632492
50
36.7248896
51
57.4697979
0
ARC
8
DEFAULT_255_1_234
10
5.5462313
20
155.795522
40
0.2634081
50
8.0545065
51
36.356114
0
ARC
8
DEFAULT_255_1_234
10
5.4599498
20
155.7800174
40
0.3510261
50
359.8320645
51
8.5869982
0
ARC
8
DEFAULT_255_1_234
10
5.4224274
20
155.7752101
40
0.3885653
50
343.9829931
51
0.5571613
0
ARC
8
DEFAULT_255_1_234
10
5.5110472
20
155.7509438
40
0.2966924
50
311.6359546
51
343.7651759
0
ARC
8
DEFAULT_255_1_234
10
5.4732041
20
155.7936102
40
0.3537231
50
279.7829875
51
311.6255694
0
ARC
8
DEFAULT_255_1_234
10
5.4430817
20
155.937328
40
0.5004971
50
269.7286406
51
280.3856417
0
ARC
8
DEFAULT_255_1_234
10
5.436889
20
155.9331996
40
0.4963778
50
256.6828919
51
270.4412052
0
ARC
8
DEFAULT_255_1_234
10
5.4030185
20
155.7947394
40
0.3538406
50
229.4223008
51
256.8556159
0
ARC
8
DEFAULT_255_1_234
10
5.3615578
20
155.7480736
40
0.2914296
50
181.818294
51
229.6455059
0
ARC
8
DEFAULT_255_1_234
10
5.4655535
20
155.7611496
40
0.3959084
50
179.9755256
51
183.2323064
0
ARC
8
DEFAULT_255_1_234
10
5.448328
20
155.7591037
40
0.2293034
50
179.4465117
51
196.2869258
0
ARC
8
DEFAULT_255_1_234
10
5.3995688
20
155.7457651
40
0.1787621
50
196.5661473
51
227.705904
0
ARC
8
DEFAULT_255_1_234
10
5.4159783
20
155.7641155
40
0.2033784
50
227.7652068
51
257.8762805
0
ARC
8
DEFAULT_255_1_234
10
5.4384753
20
155.8584156
40
0.3003081
50
257.4584385
51
270.426602
0
ARC
8
DEFAULT_255_1_234
10
5.4430319
20
155.8873996
40
0.329292
50
269.5962073
51
280.8789248
0
ARC
8
DEFAULT_255_1_234
10
5.4659848
20
155.7727685
40
0.2123908
50
280.6346389
51
299.8595945
0
ARC
8
DEFAULT_255_1_234
10
5.4850755
20
155.7365212
40
0.171457
50
300.3576302
51
314.5517981
0
ARC
8
DEFAULT_255_1_234
10
5.4767815
20
155.7425919
40
0.1816095
50
315.0728369
51
345.0431014
0
ARC
8
DEFAULT_255_1_234
10
5.3844629
20
155.7694841
40
0.2777492
50
344.5986631
51
357.9269593
0
ARC
8
DEFAULT_255_1_234
10
5.2948956
20
155.7756276
40
0.3674917
50
357.4748886
51
0.0231117
0
ARC
8
DEFAULT_255_1_234
10
5.3972065
20
155.7780679
40
0.2651907
50
359.5047933
51
13.4239635
0
ARC
8
DEFAULT_255_1_234
10
5.4838709
20
155.8002478
40
0.1757509
50
12.9498199
51
48.7551375
0
ARC
8
DEFAULT_255_1_234
10
5.4656443
20
155.77534
40
0.2065134
50
49.5088623
51
72.1836453
0
ARC
8
DEFAULT_255_1_234
10
5.4298595
20
155.6691291
40
0.3185836
50
71.9010081
51
84.3554254
0
ARC
8
DEFAULT_255_1_234
10
5.4137227
20
155.5330326
40
0.4556151
50
84.0193428
51
89.333121
0
LINE
8
DEFAULT_255_1_234
10
5.0776293
20
163.3904
11
4.9659881
21
163.6956061
0
LINE
8
DEFAULT_255_1_234
10
4.9659881
20
163.6956061
11
4.4760521
21
163.6956061
0
LINE
8
DEFAULT_255_1_234
10
4.4760521
20
163.6956061
11
4.3660173
21
163.3904
0
LINE
8
DEFAULT_255_1_234
10
4.3660173
20
163.3904
11
4.2069889
21
163.3904
0
LINE
8
DEFAULT_255_1_234
10
4.2069889
20
163.3904
11
4.6535535
21
164.5598211
0
LINE
8
DEFAULT_255_1_234
10
4.6535535
20
164.5598211
11
4.7884867
21
164.5598211
0
LINE
8
DEFAULT_255_1_234
10
4.7884867
20
164.5598211
11
5.2358545
21
163.3904
0
LINE
8
DEFAULT_255_1_234
10
5.2358545
20
163.3904
11
5.0776293
21
163.3904
0
LINE
8
DEFAULT_255_1_234
10
4.7210201
20
164.3694689
11
4.5226362
21
163.8225075
0
LINE
8
DEFAULT_255_1_234
10
4.5226362
20
163.8225075
11
4.9202072
21
163.8225075
0
LINE
8
DEFAULT_255_1_234
10
4.9202072
20
163.8225075
11
4.7210201
21
164.3694689
0
LINE
8
DEFAULT_255_1_234
10
5.982003
20
164.5598211
11
5.982003
21
163.783152
0
LINE
8
DEFAULT_255_1_234
10
5.982003
20
163.783152
11
6.1442441
21
163.783152
0
LINE
8
DEFAULT_255_1_234
10
6.1442441
20
163.783152
11
6.1442441
21
163.6618728
0
LINE
8
DEFAULT_255_1_234
10
6.1442441
20
163.6618728
11
5.982003
21
163.6618728
0
LINE
8
DEFAULT_255_1_234
10
5.982003
20
163.6618728
11
5.982003
21
163.3904
0
LINE
8
DEFAULT_255_1_234
10
5.982003
20
163.3904
11
5.8326127
21
163.3904
0
LINE
8
DEFAULT_255_1_234
10
5.8326127
20
163.3904
11
5.8326127
21
163.6618728
0
LINE
8
DEFAULT_255_1_234
10
5.8326127
20
163.6618728
11
5.3001084
21
163.6618728
0
LINE
8
DEFAULT_255_1_234
10
5.3001084
20
163.6618728
11
5.3001084
21
163.7494187
0
LINE
8
DEFAULT_255_1_234
10
5.3001084
20
163.7494187
11
5.8237778
21
164.5598211
0
LINE
8
DEFAULT_255_1_234
10
5.8237778
20
164.5598211
11
5.982003
21
164.5598211
0
LINE
8
DEFAULT_255_1_234
10
5.8149429
20
164.3244912
11
5.468775
21
163.783152
0
LINE
8
DEFAULT_255_1_234
10
5.468775
20
163.783152
11
5.8326127
21
163.783152
0
LINE
8
DEFAULT_255_1_234
10
5.8326127
20
163.783152
11
5.8326127
21
164.3566181
0
LINE
8
DEFAULT_255_1_234
10
5.8326127
20
164.3566181
11
5.8149429
21
164.3244912
0
LINE
8
DEFAULT_255_1_234
10
4.9718293
20
171.3279
11
4.8601881
21
171.6331061
0
LINE
8
DEFAULT_255_1_234
10
4.8601881
20
171.6331061
11
4.3702521
21
171.6331061
0
LINE
8
DEFAULT_255_1_234
10
4.3702521
20
171.6331061
11
4.2602173
21
171.3279
0
LINE
8
DEFAULT_255_1_234
10
4.2602173
20
171.3279
11
4.1011889
21
171.3279
0
LINE
8
DEFAULT_255_1_234
10
4.1011889
20
171.3279
11
4.5477535
21
172.4973211
0
LINE
8
DEFAULT_255_1_234
10
4.5477535
20
172.4973211
11
4.6826867
21
172.4973211
0
LINE
8
DEFAULT_255_1_234
10
4.6826867
20
172.4973211
11
5.1300545
21
171.3279
0
LINE
8
DEFAULT_255_1_234
10
5.1300545
20
171.3279
11
4.9718293
21
171.3279
0
LINE
8
DEFAULT_255_1_234
10
4.6152201
20
172.3069689
11
4.4168362
21
171.7600075
0
LINE
8
DEFAULT_255_1_234
10
4.4168362
20
171.7600075
11
4.8144072
21
171.7600075
0
LINE
8
DEFAULT_255_1_234
10
4.8144072
20
171.7600075
11
4.6152201
21
172.3069689
0
LINE
8
DEFAULT_255_1_234
10
5.464978
20
171.8636169
11
5.464978
21
171.9848962
0
LINE
8
DEFAULT_255_1_234
10
5.464978
20
171.9848962
11
5.5766192
21
171.9848962
0
LINE
8
DEFAULT_255_1_234
10
5.386267
20
172.1905087
11
5.2376798
21
172.1905087
0
LINE
8
DEFAULT_255_1_234
10
5.2272386
20
171.6363188
11
5.3766289
21
171.6363188
0
LINE
8
DEFAULT_255_1_234
10
5.5766192
20
171.8636169
11
5.464978
21
171.8636169
0
ARC
8
DEFAULT_255_1_234
10
5.5737058
20
172.3241713
40
0.3392876
50
270.4919872
51
281.8951556
0
ARC
8
DEFAULT_255_1_234
10
5.597832
20
172.2139702
40
0.2264817
50
281.6691735
51
301.2943132
0
ARC
8
DEFAULT_255_1_234
10
5.614853
20
172.1828304
40
0.1910381
50
301.7833094
51
311.7545298
0
ARC
8
DEFAULT_255_1_234
10
5.6240106
20
172.1726748
40
0.1773635
50
311.7323931
51
354.2802411
0
ARC
8
DEFAULT_255_1_234
10
5.5513731
20
172.1851722
40
0.2509385
50
353.0937916
51
0.1181479
0
ARC
8
DEFAULT_255_1_234
10
5.5052516
20
172.1899386
40
0.2970898
50
359.1805295
51
15.0453146
0
ARC
8
DEFAULT_255_1_234
10
5.6398353
20
172.2291992
40
0.1569564
50
13.9577229
51
77.6713066
0
ARC
8
DEFAULT_255_1_234
10
5.6011882
20
172.0906949
40
0.3006298
50
76.1116566
51
90.7026153
0
ARC
8
DEFAULT_255_1_234
10
5.5952721
20
172.1180545
40
0.2732568
50
89.5324876
51
103.531937
0
ARC
8
DEFAULT_255_1_234
10
5.5752165
20
172.1979884
40
0.1908508
50
103.2931773
51
133.5619022
0
ARC
8
DEFAULT_255_1_234
10
5.5707653
20
172.2039375
40
0.1834746
50
133.8349307
51
173.5344437
0
ARC
8
DEFAULT_255_1_234
10
5.6430696
20
172.1911213
40
0.2568033
50
172.5096846
51
180.1366907
0
ARC
8
DEFAULT_255_1_234
10
5.547959
20
172.1945622
40
0.3103056
50
155.3484492
51
180.7484736
0
ARC
8
DEFAULT_255_1_234
10
5.5430679
20
172.1916846
40
0.3070957
50
131.5744599
51
154.4798489
0
ARC
8
DEFAULT_255_1_234
10
5.5743827
20
172.160031
40
0.3515643
50
96.9875458
51
131.9690667
0
ARC
8
DEFAULT_255_1_234
10
5.5963306
20
172.0354636
40
0.4779224
50
89.8596053
51
97.7825159
0
ARC
8
DEFAULT_255_1_234
10
5.601137
20
172.0092616
40
0.5041361
50
78.3655447
51
90.4131539
0
ARC
8
DEFAULT_255_1_234
10
5.6369287
20
172.1751887
40
0.3344039
50
56.6229102
51
78.638727
0
ARC
8
DEFAULT_255_1_234
10
5.6584231
20
172.2127805
40
0.2912001
50
47.0253525
51
56.0854072
0
ARC
8
DEFAULT_255_1_234
10
5.6604011
20
172.2167223
40
0.2869704
50
10.9208013
51
46.7778124
0
ARC
8
DEFAULT_255_1_234
10
5.5240078
20
172.1851857
40
0.426899
50
359.6364486
51
11.6087304
0
ARC
8
DEFAULT_255_1_234
10
5.7074922
20
172.1836752
40
0.243409
50
332.3549906
51
359.7179418
0
ARC
8
DEFAULT_255_1_234
10
5.6424523
20
172.2145142
40
0.3153459
50
325.2333722
51
332.8745602
0
ARC
8
DEFAULT_255_1_234
10
5.6577147
20
172.2038828
40
0.2967456
50
292.9802137
51
325.2392345
0
ARC
8
DEFAULT_255_1_234
10
5.6302521
20
172.2572863
40
0.3566604
50
292.5402179
51
293.6924929
0
ARC
8
DEFAULT_255_1_234
10
5.6695117
20
171.6118091
40
0.3307468
50
57.6435486
51
72.8625112
0
ARC
8
DEFAULT_255_1_234
10
5.7049616
20
171.6692549
40
0.2632492
50
36.7248896
51
57.4697979
0
ARC
8
DEFAULT_255_1_234
10
5.7038249
20
171.670522
40
0.2634081
50
8.0545065
51
36.356114
0
ARC
8
DEFAULT_255_1_234
10
5.6175434
20
171.6550174
40
0.3510261
50
359.8320645
51
8.5869982
0
ARC
8
DEFAULT_255_1_234
10
5.5800211
20
171.6502101
40
0.3885653
50
343.9829931
51
0.5571613
0
ARC
8
DEFAULT_255_1_234
10
5.6686408
20
171.6259438
40
0.2966924
50
311.6359546
51
343.7651759
0
ARC
8
DEFAULT_255_1_234
10
5.6307977
20
171.6686102
40
0.3537231
50
279.7829875
51
311.6255694
0
ARC
8
DEFAULT_255_1_234
10
5.6006753
20
171.812328
40
0.5004971
50
269.7286406
51
280.3856417
0
ARC
8
DEFAULT_255_1_234
10
5.5944826
20
171.8081996
40
0.4963778
50
256.6828919
51
270.4412052
0
ARC
8
DEFAULT_255_1_234
10
5.5606122
20
171.6697394
40
0.3538406
50
229.4223008
51
256.8556159
0
ARC
8
DEFAULT_255_1_234
10
5.5191514
20
171.6230736
40
0.2914296
50
181.818294
51
229.6455059
0
ARC
8
DEFAULT_255_1_234
10
5.6231471
20
171.6361496
40
0.3959084
50
179.9755256
51
183.2323064
0
ARC
8
DEFAULT_255_1_234
10
5.6059216
20
171.6341037
40
0.2293034
50
179.4465117
51
196.2869258
0
ARC
8
DEFAULT_255_1_234
10
5.5571624
20
171.6207651
40
0.1787621
50
196.5661473
51
227.705904
0
ARC
8
DEFAULT_255_1_234
10
5.5735719
20
171.6391155
40
0.2033784
50
227.7652068
51
257.8762805
0
ARC
8
DEFAULT_255_1_234
10
5.5960689
20
171.7334156
40
0.3003081
50
257.4584385
51
270.426602
0
ARC
8
DEFAULT_255_1_234
10
5.6006256
20
171.7623996
40
0.329292
50
269.5962073
51
280.8789248
0
ARC
8
DEFAULT_255_1_234
10
5.6235784
20
171.6477685
40
0.2123908
50
280.6346389
51
299.8595945
0
ARC
8
DEFAULT_255_1_234
10
5.6426691
20
171.6115212
40
0.171457
50
300.3576302
51
314.5517981
0
ARC
8
DEFAULT_255_1_234
10
5.6343751
20
171.6175919
40
0.1816095
50
315.0728369
51
345.0431014
0
ARC
8
DEFAULT_255_1_234
10
5.5420566
20
171.6444841
40
0.2777492
50
344.5986631
51
357.9269593
0
ARC
8
DEFAULT_255_1_234
10
5.4524892
20
171.6506276
40
0.3674917
50
357.4748886
51
0.0231117
0
ARC
8
DEFAULT_255_1_234
10
5.5548001
20
171.6530679
40
0.2651907
50
359.5047933
51
13.4239635
0
ARC
8
DEFAULT_255_1_234
10
5.6414645
20
171.6752478
40
0.1757509
50
12.9498199
51
48.7551375
0
ARC
8
DEFAULT_255_1_234
10
5.6232379
20
171.65034
40
0.2065134
50
49.5088623
51
72.1836453
0
ARC
8
DEFAULT_255_1_234
10
5.5874531
20
171.5441291
40
0.3185836
50
71.9010081
51
84.3554254
0
ARC
8
DEFAULT_255_1_234
10
5.5713163
20
171.4080326
40
0.4556151
50
84.0193428
51
89.333121
0
LINE
8
DEFAULT_255_1_234
10
4.8108516
20
179.7031297
11
4.8108516
21
179.690279
0
LINE
8
DEFAULT_255_1_234
10
4.2189125
20
179.3657967
11
4.2116839
21
179.2654
0
LINE
8
DEFAULT_255_1_234
10
4.2116839
20
179.2654
11
4.0751443
21
179.2654
0
LINE
8
DEFAULT_255_1_234
10
4.0751443
20
179.2654
11
4.0751443
21
180.499075
0
LINE
8
DEFAULT_255_1_234
10
4.0751443
20
180.499075
11
4.2237315
21
180.499075
0
LINE
8
DEFAULT_255_1_234
10
4.2237315
20
180.499075
11
4.2237315
21
180.0388564
0
LINE
8
DEFAULT_255_1_234
10
4.2237315
20
179.8878597
11
4.2237315
21
179.5119744
0
ARC
8
DEFAULT_255_1_234
10
4.1061791
20
179.6858573
40
0.7046863
50
349.4825105
51
0.3595108
0
ARC
8
DEFAULT_255_1_234
10
4.3339032
20
179.6420022
40
0.4727857
50
331.8602128
51
349.6704139
0
ARC
8
DEFAULT_255_1_234
10
4.40718
20
179.6063125
40
0.3913503
50
322.8939783
51
331.4081204
0
ARC
8
DEFAULT_255_1_234
10
4.4767198
20
179.5483707
40
0.300965
50
296.7249167
51
323.7044215
0
ARC
8
DEFAULT_255_1_234
10
4.4797095
20
179.5553043
40
0.3058683
50
270.6342811
51
295.6405548
0
ARC
8
DEFAULT_255_1_234
10
4.4735404
20
179.6355995
40
0.3862632
50
269.9967524
51
271.4174733
0
ARC
8
DEFAULT_255_1_234
10
4.4697069
20
179.6220686
40
0.3727515
50
253.657532
51
270.5859025
0
ARC
8
DEFAULT_255_1_234
10
4.4466175
20
179.5377235
40
0.2853216
50
217.0543181
51
253.3409865
0
ARC
8
DEFAULT_255_1_234
10
4.4532843
20
179.8561052
40
0.2934152
50
93.1931545
51
141.4760602
0
ARC
8
DEFAULT_255_1_234
10
4.4715059
20
179.7328453
40
0.4176524
50
89.9442578
51
94.747309
0
ARC
8
DEFAULT_255_1_234
10
4.4758806
20
179.815141
40
0.3353801
50
70.6103515
51
90.6779749
0
ARC
8
DEFAULT_255_1_234
10
4.4873108
20
179.860689
40
0.2886533
50
36.1152635
51
69.7489296
0
ARC
8
DEFAULT_255_1_234
10
4.3886512
20
179.7853708
40
0.4127561
50
15.4648517
51
36.4891396
0
ARC
8
DEFAULT_255_1_234
10
4.1828198
20
179.7254524
40
0.6271187
50
3.9220813
51
15.7265815
0
ARC
8
DEFAULT_255_1_234
10
3.9469042
20
179.7042325
40
0.863948
50
359.9268643
51
4.2559037
0
ARC
8
DEFAULT_255_1_234
10
4.0283423
20
179.7102103
40
0.6339295
50
359.7230081
51
7.7115859
0
ARC
8
DEFAULT_255_1_234
10
4.2544988
20
179.7418172
40
0.4055784
50
7.5740023
51
19.4151451
0
ARC
8
DEFAULT_255_1_234
10
4.3812627
20
179.7864519
40
0.2711858
50
19.4238354
51
34.9161182
0
ARC
8
DEFAULT_255_1_234
10
4.4483365
20
179.8351172
40
0.1883373
50
34.4556322
51
84.4656458
0
ARC
8
DEFAULT_255_1_234
10
4.4354813
20
179.7596057
40
0.2647939
50
83.2727306
51
90.1114621
0
ARC
8
DEFAULT_255_1_234
10
4.431267
20
179.7794509
40
0.2449763
50
89.1347934
51
111.4089923
0
ARC
8
DEFAULT_255_1_234
10
4.4233221
20
179.8122473
40
0.2115923
50
112.6478598
51
148.9260864
0
ARC
8
DEFAULT_255_1_234
10
4.5011019
20
179.7580985
40
0.3062228
50
147.7597608
51
154.928557
0
ARC
8
DEFAULT_255_1_234
10
4.475108
20
179.6336379
40
0.2792708
50
205.8264786
51
224.5301003
0
ARC
8
DEFAULT_255_1_234
10
4.4273384
20
179.5909914
40
0.2153317
50
225.354483
51
269.2437579
0
ARC
8
DEFAULT_255_1_234
10
4.4365019
20
179.6716292
40
0.2961942
50
267.6770046
51
270.0136612
0
ARC
8
DEFAULT_255_1_234
10
4.439237
20
179.5957938
40
0.2203751
50
269.3072485
51
289.499141
0
ARC
8
DEFAULT_255_1_234
10
4.4464434
20
179.5661394
40
0.1900415
50
290.4353973
51
325.3766314
0
ARC
8
DEFAULT_255_1_234
10
4.3835657
20
179.6115643
40
0.2675986
50
325.0223901
51
342.692398
0
ARC
8
DEFAULT_255_1_234
10
4.2138545
20
179.6667812
40
0.446058
50
342.4062876
51
352.8669243
0
ARC
8
DEFAULT_255_1_234
10
3.941802
20
179.7024975
40
0.7204419
50
352.7350668
51
359.8556985
0
ARC
8
DEFAULT_255_1_234
10
3.7507716
20
179.7071018
40
0.9114927
50
359.5965197
51
0.0027543
0
LINE
8
DEFAULT_255_1_234
10
5.7489586
20
179.3866792
11
5.7489586
21
179.2654
0
LINE
8
DEFAULT_255_1_234
10
5.7489586
20
179.2654
11
4.9827308
21
179.2654
0
LINE
8
DEFAULT_255_1_234
10
4.9827308
20
179.2654
11
4.9827308
21
179.3722221
0
LINE
8
DEFAULT_255_1_234
10
4.9827308
20
179.3722221
11
5.3875304
21
179.8219995
0
LINE
8
DEFAULT_255_1_234
10
5.1088291
20
180.0902595
11
4.9602419
21
180.0902595
0
LINE
8
DEFAULT_255_1_234
10
5.4750763
20
179.7264218
11
5.1618385
21
179.3866792
0
LINE
8
DEFAULT_255_1_234
10
5.1618385
20
179.3866792
11
5.7489586
21
179.3866792
0
ARC
8
DEFAULT_255_1_234
10
4.0385137
20
181.0149527
40
1.8008286
50
318.5132453
51
320.7828378
0
ARC
8
DEFAULT_255_1_234
10
4.5672111
20
180.5846426
40
1.1191493
50
320.7372736
51
323.9737074
0
ARC
8
DEFAULT_255_1_234
10
4.9591968
20
180.3006361
40
0.6350923
50
323.8961724
51
328.6421089
0
ARC
8
DEFAULT_255_1_234
10
5.1638563
20
180.1744031
40
0.3946393
50
328.8299013
51
331.789948
0
ARC
8
DEFAULT_255_1_234
10
5.2635742
20
180.1229509
40
0.2824501
50
331.4255242
51
352.9364833
0
ARC
8
DEFAULT_255_1_234
10
5.2772242
20
180.1198976
40
0.2685315
50
353.2248685
51
0.0169286
0
ARC
8
DEFAULT_255_1_234
10
5.2982119
20
180.122195
40
0.2475536
50
359.4866256
51
15.9339782
0
ARC
8
DEFAULT_255_1_234
10
5.3489105
20
180.1358286
40
0.1950618
50
16.1714718
51
43.5284424
0
ARC
8
DEFAULT_255_1_234
10
5.3566413
20
180.1435573
40
0.184134
50
43.4415429
51
83.1661404
0
ARC
8
DEFAULT_255_1_234
10
5.3432331
20
180.0698771
40
0.258926
50
82.160215
51
90.1505798
0
ARC
8
DEFAULT_255_1_234
10
5.3400759
20
180.0161865
40
0.3126255
50
89.5460705
51
102.5418777
0
ARC
8
DEFAULT_255_1_234
10
5.3157845
20
180.1192665
40
0.2067346
50
102.1739365
51
129.2061916
0
ARC
8
DEFAULT_255_1_234
10
5.3078917
20
180.1317094
40
0.1921118
50
129.7279328
51
135.7542026
0
ARC
8
DEFAULT_255_1_234
10
5.3200444
20
180.1220045
40
0.2075944
50
136.175737
51
166.3674722
0
ARC
8
DEFAULT_255_1_234
10
5.4207363
20
180.0950182
40
0.3118201
50
165.9092917
51
178.8683903
0
ARC
8
DEFAULT_255_1_234
10
5.5072225
20
180.0903179
40
0.3983935
50
178.438168
51
180.0083905
0
ARC
8
DEFAULT_255_1_234
10
5.3670827
20
180.0942231
40
0.4068601
50
163.2878735
51
180.5581814
0
ARC
8
DEFAULT_255_1_234
10
5.2869088
20
180.116284
40
0.3237344
50
133.454115
51
162.9470031
0
ARC
8
DEFAULT_255_1_234
10
5.304763
20
180.0973
40
0.349795
50
100.7869394
51
133.4384016
0
ARC
8
DEFAULT_255_1_234
10
5.3395401
20
179.9424319
40
0.5084616
50
89.6605301
51
101.3704185
0
ARC
8
DEFAULT_255_1_234
10
5.346174
20
179.9485496
40
0.502348
50
78.2171172
51
90.4130393
0
ARC
8
DEFAULT_255_1_234
10
5.3816818
20
180.1109637
40
0.3361092
50
55.9268222
51
78.4888551
0
ARC
8
DEFAULT_255_1_234
10
5.4013258
20
180.1448324
40
0.2970617
50
47.9292255
51
55.4054003
0
ARC
8
DEFAULT_255_1_234
10
5.4114819
20
180.1551502
40
0.2825983
50
4.3347696
51
48.0560701
0
ARC
8
DEFAULT_255_1_234
10
5.3019213
20
180.1381601
40
0.393225
50
359.925209
51
5.5967654
0
ARC
8
DEFAULT_255_1_234
10
5.3448104
20
180.1437816
40
0.3503892
50
337.8914096
51
358.9967724
0
ARC
8
DEFAULT_255_1_234
10
5.0734516
20
180.2484706
40
0.6412172
50
326.9135351
51
338.3505194
0
ARC
8
DEFAULT_255_1_234
10
4.674882
20
180.5039284
40
1.1146189
50
319.6472867
51
327.095818
0
ARC
8
DEFAULT_255_1_234
10
4.2915823
20
180.8201
40
1.6114559
50
317.2586784
51
319.9046139
0
LINE
8
DEFAULT_255_1_234
10
4.8023516
20
187.6406297
11
4.8023516
21
187.627779
0
LINE
8
DEFAULT_255_1_234
10
4.2104125
20
187.3032967
11
4.2031839
21
187.2029
0
LINE
8
DEFAULT_255_1_234
10
4.2031839
20
187.2029
11
4.0666443
21
187.2029
0
LINE
8
DEFAULT_255_1_234
10
4.0666443
20
187.2029
11
4.0666443
21
188.436575
0
LINE
8
DEFAULT_255_1_234
10
4.0666443
20
188.436575
11
4.2152315
21
188.436575
0
LINE
8
DEFAULT_255_1_234
10
4.2152315
20
188.436575
11
4.2152315
21
187.9763564
0
LINE
8
DEFAULT_255_1_234
10
4.2152315
20
187.8253597
11
4.2152315
21
187.4494744
0
ARC
8
DEFAULT_255_1_234
10
4.0976791
20
187.6233573
40
0.7046863
50
349.4825105
51
0.3595108
0
ARC
8
DEFAULT_255_1_234
10
4.3254032
20
187.5795022
40
0.4727857
50
331.8602128
51
349.6704139
0
ARC
8
DEFAULT_255_1_234
10
4.39868
20
187.5438125
40
0.3913503
50
322.8939783
51
331.4081204
0
ARC
8
DEFAULT_255_1_234
10
4.4682198
20
187.4858707
40
0.300965
50
296.7249167
51
323.7044215
0
ARC
8
DEFAULT_255_1_234
10
4.4712095
20
187.4928043
40
0.3058683
50
270.6342811
51
295.6405548
0
ARC
8
DEFAULT_255_1_234
10
4.4650404
20
187.5730995
40
0.3862632
50
269.9967524
51
271.4174733
0
ARC
8
DEFAULT_255_1_234
10
4.4612069
20
187.5595686
40
0.3727515
50
253.657532
51
270.5859025
0
ARC
8
DEFAULT_255_1_234
10
4.4381175
20
187.4752235
40
0.2853216
50
217.0543181
51
253.3409865
0
ARC
8
DEFAULT_255_1_234
10
4.4447843
20
187.7936052
40
0.2934152
50
93.1931545
51
141.4760602
0
ARC
8
DEFAULT_255_1_234
10
4.4630059
20
187.6703453
40
0.4176524
50
89.9442578
51
94.747309
0
ARC
8
DEFAULT_255_1_234
10
4.4673806
20
187.752641
40
0.3353801
50
70.6103515
51
90.6779749
0
ARC
8
DEFAULT_255_1_234
10
4.4788108
20
187.798189
40
0.2886533
50
36.1152635
51
69.7489296
0
ARC
8
DEFAULT_255_1_234
10
4.3801512
20
187.7228708
40
0.4127561
50
15.4648517
51
36.4891396
0
ARC
8
DEFAULT_255_1_234
10
4.1743198
20
187.6629524
40
0.6271187
50
3.9220813
51
15.7265815
0
ARC
8
DEFAULT_255_1_234
10
3.9384042
20
187.6417325
40
0.863948
50
359.9268643
51
4.2559037
0
ARC
8
DEFAULT_255_1_234
10
4.0198423
20
187.6477103
40
0.6339295
50
359.7230081
51
7.7115859
0
ARC
8
DEFAULT_255_1_234
10
4.2459988
20
187.6793172
40
0.4055784
50
7.5740023
51
19.4151451
0
ARC
8
DEFAULT_255_1_234
10
4.3727627
20
187.7239519
40
0.2711858
50
19.4238354
51
34.9161182
0
ARC
8
DEFAULT_255_1_234
10
4.4398365
20
187.7726172
40
0.1883373
50
34.4556322
51
84.4656458
0
ARC
8
DEFAULT_255_1_234
10
4.4269813
20
187.6971057
40
0.2647939
50
83.2727306
51
90.1114621
0
ARC
8
DEFAULT_255_1_234
10
4.422767
20
187.7169509
40
0.2449763
50
89.1347934
51
111.4089923
0
ARC
8
DEFAULT_255_1_234
10
4.4148221
20
187.7497473
40
0.2115923
50
112.6478598
51
148.9260864
0
ARC
8
DEFAULT_255_1_234
10
4.4926019
20
187.6955985
40
0.3062228
50
147.7597608
51
154.928557
0
ARC
8
DEFAULT_255_1_234
10
4.466608
20
187.5711379
40
0.2792708
50
205.8264786
51
224.5301003
0
ARC
8
DEFAULT_255_1_234
10
4.4188384
20
187.5284914
40
0.2153317
50
225.354483
51
269.2437579
0
ARC
8
DEFAULT_255_1_234
10
4.4280019
20
187.6091292
40
0.2961942
50
267.6770046
51
270.0136612
0
ARC
8
DEFAULT_255_1_234
10
4.430737
20
187.5332938
40
0.2203751
50
269.3072485
51
289.499141
0
ARC
8
DEFAULT_255_1_234
10
4.4379434
20
187.5036394
40
0.1900415
50
290.4353973
51
325.3766314
0
ARC
8
DEFAULT_255_1_234
10
4.3750657
20
187.5490643
40
0.2675986
50
325.0223901
51
342.692398
0
ARC
8
DEFAULT_255_1_234
10
4.2053545
20
187.6042812
40
0.446058
50
342.4062876
51
352.8669243
0
ARC
8
DEFAULT_255_1_234
10
3.933302
20
187.6399975
40
0.7204419
50
352.7350668
51
359.8556985
0
ARC
8
DEFAULT_255_1_234
10
3.7422716
20
187.6446018
40
0.9114927
50
359.5965197
51
0.0027543
0
LINE
8
DEFAULT_255_1_234
10
5.4625604
20
188.3779433
11
5.4625604
21
187.2029
0
LINE
8
DEFAULT_255_1_234
10
5.4625604
20
187.2029
11
5.3131701
21
187.2029
0
LINE
8
DEFAULT_255_1_234
10
5.3131701
20
187.2029
11
5.3131701
21
188.1932133
0
LINE
8
DEFAULT_255_1_234
10
5.3131701
20
188.1932133
11
5.0135863
21
188.0831785
0
LINE
8
DEFAULT_255_1_234
10
5.0135863
20
188.0831785
11
5.0135863
21
188.2181117
0
LINE
8
DEFAULT_255_1_234
10
5.0135863
20
188.2181117
11
5.4392684
21
188.3779433
0
LINE
8
DEFAULT_255_1_234
10
5.4392684
20
188.3779433
11
5.4625604
21
188.3779433
0
LINE
8
DEFAULT_255_1_234
10
4.5114392
20
195.1404
11
4.1058364
21
195.1404
0
LINE
8
DEFAULT_255_1_234
10
4.1058364
20
195.1404
11
4.1058364
21
196.3098211
0
LINE
8
DEFAULT_255_1_234
10
4.1058364
20
196.3098211
11
4.4881471
21
196.3098211
0
LINE
8
DEFAULT_255_1_234
10
4.5170614
20
195.6873614
11
4.2600458
21
195.6873614
0
LINE
8
DEFAULT_255_1_234
10
4.2600458
20
195.6873614
11
4.2600458
21
195.2664983
0
LINE
8
DEFAULT_255_1_234
10
4.2600458
20
195.2664983
11
4.5146519
21
195.2664983
0
LINE
8
DEFAULT_255_1_234
10
4.2600458
20
196.1829196
11
4.2600458
21
195.8110501
0
LINE
8
DEFAULT_255_1_234
10
4.2600458
20
195.8110501
11
4.4929662
21
195.8110501
0
LINE
8
DEFAULT_255_1_234
10
4.4881471
20
196.1829196
11
4.2600458
21
196.1829196
0
ARC
8
DEFAULT_255_1_234
10
4.491918
20
195.5730901
40
0.7367406
50
82.1257326
51
90.2932599
0
ARC
8
DEFAULT_255_1_234
10
4.5308135
20
195.8449013
40
0.4621653
50
69.9044149
51
82.2857423
0
ARC
8
DEFAULT_255_1_234
10
4.5878813
20
195.9991637
40
0.2976871
50
51.1838526
51
70.0181538
0
ARC
8
DEFAULT_255_1_234
10
4.6133779
20
196.036224
40
0.2528517
50
12.1017251
51
50.4214761
0
ARC
8
DEFAULT_255_1_234
10
4.4749653
20
196.0014676
40
0.3955061
50
359.5251267
51
12.8211707
0
ARC
8
DEFAULT_255_1_234
10
4.6329579
20
195.9945344
40
0.2375281
50
323.4908128
51
0.8817314
0
ARC
8
DEFAULT_255_1_234
10
4.5911266
20
196.026855
40
0.2903817
50
298.6825083
51
323.2756573
0
ARC
8
DEFAULT_255_1_234
10
4.5549629
20
196.0869649
40
0.3604842
50
293.1999386
51
299.1396394
0
ARC
8
DEFAULT_255_1_234
10
4.6222602
20
195.4784126
40
0.2871098
50
54.0011765
51
74.9167975
0
ARC
8
DEFAULT_255_1_234
10
4.6338961
20
195.4981332
40
0.2643248
50
36.3580696
51
53.5291921
0
ARC
8
DEFAULT_255_1_234
10
4.6212203
20
195.4890998
40
0.2798884
50
4.8189881
51
36.3089977
0
ARC
8
DEFAULT_255_1_234
10
4.5433038
20
195.478127
40
0.358478
50
359.9370252
51
5.5204067
0
ARC
8
DEFAULT_255_1_234
10
4.510856
20
195.4740667
40
0.3909429
50
344.7478609
51
0.5373281
0
ARC
8
DEFAULT_255_1_234
10
4.6099531
20
195.4473544
40
0.2883093
50
311.1786488
51
344.6886812
0
ARC
8
DEFAULT_255_1_234
10
4.5807578
20
195.4836987
40
0.3348923
50
286.0418249
51
310.8441291
0
ARC
8
DEFAULT_255_1_234
10
4.530041
20
195.6483807
40
0.5071869
50
274.1042341
51
286.4071509
0
ARC
8
DEFAULT_255_1_234
10
4.5123666
20
195.8367229
40
0.6963234
50
269.9236873
51
274.445647
0
ARC
8
DEFAULT_255_1_234
10
4.5169667
20
195.6027537
40
0.3362634
50
269.6055768
51
281.3740047
0
ARC
8
DEFAULT_255_1_234
10
4.5400305
20
195.4934353
40
0.224546
50
281.1055983
51
302.5132223
0
ARC
8
DEFAULT_255_1_234
10
4.5547204
20
195.4670823
40
0.1944357
50
303.0368945
51
311.8811219
0
ARC
8
DEFAULT_255_1_234
10
4.5618611
20
195.458589
40
0.1833454
50
311.9916004
51
351.7143462
0
ARC
8
DEFAULT_255_1_234
10
4.4801841
20
195.475093
40
0.2665871
50
350.7339597
51
0.2221581
0
ARC
8
DEFAULT_255_1_234
10
4.4694287
20
195.4807467
40
0.2773789
50
359.0456241
51
17.2296242
0
ARC
8
DEFAULT_255_1_234
10
4.5733404
20
195.5116163
40
0.1689915
50
17.6685481
51
78.9940892
0
ARC
8
DEFAULT_255_1_234
10
4.5216568
20
195.3261224
40
0.3612658
50
76.5635957
51
90.6980921
0
LINE
8
DEFAULT_255_1_234
10
4.5172552
20
195.6873613
11
4.5170614
21
195.6873614
0
ARC
8
DEFAULT_255_1_234
10
4.4952228
20
196.1396036
40
0.3285612
50
269.6064736
51
281.4533503
0
ARC
8
DEFAULT_255_1_234
10
4.5175048
20
196.0344688
40
0.2210975
50
281.2041486
51
302.5148063
0
ARC
8
DEFAULT_255_1_234
10
4.5311898
20
196.0098241
40
0.1929674
50
303.021671
51
309.8369575
0
ARC
8
DEFAULT_255_1_234
10
4.5495359
20
195.9892488
40
0.1654181
50
309.5228395
51
356.9509836
0
ARC
8
DEFAULT_255_1_234
10
4.4831942
20
195.9987932
40
0.2322512
50
355.4701227
51
0.0492546
0
ARC
8
DEFAULT_255_1_234
10
4.4553033
20
196.0010094
40
0.2601498
50
359.5558597
51
11.2096359
0
ARC
8
DEFAULT_255_1_234
10
4.5510323
20
196.020823
40
0.1623975
50
10.9182341
51
31.3230275
0
ARC
8
DEFAULT_255_1_234
10
4.5796056
20
196.0367214
40
0.1297302
50
31.8852677
51
52.1412565
0
ARC
8
DEFAULT_255_1_234
10
4.5521789
20
195.997975
40
0.1771663
50
52.8285564
51
71.9850297
0
ARC
8
DEFAULT_255_1_234
10
4.5145965
20
195.8873664
40
0.2939794
50
71.6863486
51
82.8455995
0
ARC
8
DEFAULT_255_1_234
10
4.4906501
20
195.7064149
40
0.476506
50
82.6984714
51
90.1729175
0
ARC
8
DEFAULT_255_1_234
10
4.4884136
20
195.8287623
40
0.3541573
50
89.8708275
51
90.0431131
0
LINE
8
DEFAULT_255_1_234
10
5.8575585
20
195.2616792
11
5.8575585
21
195.1404
0
LINE
8
DEFAULT_255_1_234
10
5.8575585
20
195.1404
11
5.0913307
21
195.1404
0
LINE
8
DEFAULT_255_1_234
10
5.0913307
20
195.1404
11
5.0913307
21
195.2472221
0
LINE
8
DEFAULT_255_1_234
10
5.0913307
20
195.2472221
11
5.4961303
21
195.6969995
0
LINE
8
DEFAULT_255_1_234
10
5.217429
20
195.9652595
11
5.0688418
21
195.9652595
0
LINE
8
DEFAULT_255_1_234
10
5.5836762
20
195.6014218
11
5.2704384
21
195.2616792
0
LINE
8
DEFAULT_255_1_234
10
5.2704384
20
195.2616792
11
5.8575585
21
195.2616792
0
ARC
8
DEFAULT_255_1_234
10
4.1471136
20
196.8899527
40
1.8008286
50
318.5132453
51
320.7828378
0
ARC
8
DEFAULT_255_1_234
10
4.675811
20
196.4596426
40
1.1191493
50
320.7372736
51
323.9737074
0
ARC
8
DEFAULT_255_1_234
10
5.0677967
20
196.1756361
40
0.6350923
50
323.8961724
51
328.6421089
0
ARC
8
DEFAULT_255_1_234
10
5.2724562
20
196.0494031
40
0.3946393
50
328.8299013
51
331.789948
0
ARC
8
DEFAULT_255_1_234
10
5.3721741
20
195.9979509
40
0.2824501
50
331.4255242
51
352.9364833
0
ARC
8
DEFAULT_255_1_234
10
5.3858241
20
195.9948976
40
0.2685315
50
353.2248685
51
0.0169286
0
ARC
8
DEFAULT_255_1_234
10
5.4068118
20
195.997195
40
0.2475536
50
359.4866256
51
15.9339782
0
ARC
8
DEFAULT_255_1_234
10
5.4575104
20
196.0108286
40
0.1950618
50
16.1714718
51
43.5284424
0
ARC
8
DEFAULT_255_1_234
10
5.4652412
20
196.0185573
40
0.184134
50
43.4415429
51
83.1661404
0
ARC
8
DEFAULT_255_1_234
10
5.451833
20
195.9448771
40
0.258926
50
82.160215
51
90.1505798
0
ARC
8
DEFAULT_255_1_234
10
5.4486758
20
195.8911865
40
0.3126255
50
89.5460705
51
102.5418777
0
ARC
8
DEFAULT_255_1_234
10
5.4243844
20
195.9942665
40
0.2067346
50
102.1739365
51
129.2061916
0
ARC
8
DEFAULT_255_1_234
10
5.4164916
20
196.0067094
40
0.1921118
50
129.7279328
51
135.7542026
0
ARC
8
DEFAULT_255_1_234
10
5.4286443
20
195.9970045
40
0.2075944
50
136.175737
51
166.3674722
0
ARC
8
DEFAULT_255_1_234
10
5.5293362
20
195.9700182
40
0.3118201
50
165.9092917
51
178.8683903
0
ARC
8
DEFAULT_255_1_234
10
5.6158224
20
195.9653179
40
0.3983935
50
178.438168
51
180.0083905
0
ARC
8
DEFAULT_255_1_234
10
5.4756826
20
195.9692231
40
0.4068601
50
163.2878735
51
180.5581814
0
ARC
8
DEFAULT_255_1_234
10
5.3955087
20
195.991284
40
0.3237344
50
133.454115
51
162.9470031
0
ARC
8
DEFAULT_255_1_234
10
5.4133629
20
195.9723
40
0.349795
50
100.7869394
51
133.4384016
0
ARC
8
DEFAULT_255_1_234
10
5.44814
20
195.8174319
40
0.5084616
50
89.6605301
51
101.3704185
0
ARC
8
DEFAULT_255_1_234
10
5.4547739
20
195.8235496
40
0.502348
50
78.2171172
51
90.4130393
0
ARC
8
DEFAULT_255_1_234
10
5.4902817
20
195.9859637
40
0.3361092
50
55.9268222
51
78.4888551
0
ARC
8
DEFAULT_255_1_234
10
5.5099257
20
196.0198324
40
0.2970617
50
47.9292255
51
55.4054003
0
ARC
8
DEFAULT_255_1_234
10
5.5200818
20
196.0301502
40
0.2825983
50
4.3347696
51
48.0560701
0
ARC
8
DEFAULT_255_1_234
10
5.4105212
20
196.0131601
40
0.393225
50
359.925209
51
5.5967654
0
ARC
8
DEFAULT_255_1_234
10
5.4534103
20
196.0187816
40
0.3503892
50
337.8914096
51
358.9967724
0
ARC
8
DEFAULT_255_1_234
10
5.1820515
20
196.1234706
40
0.6412172
50
326.9135351
51
338.3505194
0
ARC
8
DEFAULT_255_1_234
10
4.7834819
20
196.3789284
40
1.1146189
50
319.6472867
51
327.095818
0
ARC
8
DEFAULT_255_1_234
10
4.4001822
20
196.6951
40
1.6114559
50
317.2586784
51
319.9046139
0
LINE
8
DEFAULT_255_1_234
10
4.5037392
20
203.0779
11
4.0981364
21
203.0779
0
LINE
8
DEFAULT_255_1_234
10
4.0981364
20
203.0779
11
4.0981364
21
204.2473211
0
LINE
8
DEFAULT_255_1_234
10
4.0981364
20
204.2473211
11
4.4804471
21
204.2473211
0
LINE
8
DEFAULT_255_1_234
10
4.5093614
20
203.6248614
11
4.2523458
21
203.6248614
0
LINE
8
DEFAULT_255_1_234
10
4.2523458
20
203.6248614
11
4.2523458
21
203.2039983
0
LINE
8
DEFAULT_255_1_234
10
4.2523458
20
203.2039983
11
4.5069519
21
203.2039983
0
LINE
8
DEFAULT_255_1_234
10
4.2523458
20
204.1204196
11
4.2523458
21
203.7485501
0
LINE
8
DEFAULT_255_1_234
10
4.2523458
20
203.7485501
11
4.4852662
21
203.7485501
0
LINE
8
DEFAULT_255_1_234
10
4.4804471
20
204.1204196
11
4.2523458
21
204.1204196
0
ARC
8
DEFAULT_255_1_234
10
4.484218
20
203.5105901
40
0.7367406
50
82.1257326
51
90.2932599
0
ARC
8
DEFAULT_255_1_234
10
4.5231135
20
203.7824013
40
0.4621653
50
69.9044149
51
82.2857423
0
ARC
8
DEFAULT_255_1_234
10
4.5801813
20
203.9366637
40
0.2976871
50
51.1838526
51
70.0181538
0
ARC
8
DEFAULT_255_1_234
10
4.6056779
20
203.973724
40
0.2528517
50
12.1017251
51
50.4214761
0
ARC
8
DEFAULT_255_1_234
10
4.4672653
20
203.9389676
40
0.3955061
50
359.5251267
51
12.8211707
0
ARC
8
DEFAULT_255_1_234
10
4.6252579
20
203.9320344
40
0.2375281
50
323.4908128
51
0.8817314
0
ARC
8
DEFAULT_255_1_234
10
4.5834266
20
203.964355
40
0.2903817
50
298.6825083
51
323.2756573
0
ARC
8
DEFAULT_255_1_234
10
4.5472629
20
204.0244649
40
0.3604842
50
293.1999386
51
299.1396394
0
ARC
8
DEFAULT_255_1_234
10
4.6145602
20
203.4159126
40
0.2871098
50
54.0011765
51
74.9167975
0
ARC
8
DEFAULT_255_1_234
10
4.6261961
20
203.4356332
40
0.2643248
50
36.3580696
51
53.5291921
0
ARC
8
DEFAULT_255_1_234
10
4.6135203
20
203.4265998
40
0.2798884
50
4.8189881
51
36.3089977
0
ARC
8
DEFAULT_255_1_234
10
4.5356038
20
203.415627
40
0.358478
50
359.9370252
51
5.5204067
0
ARC
8
DEFAULT_255_1_234
10
4.503156
20
203.4115667
40
0.3909429
50
344.7478609
51
0.5373281
0
ARC
8
DEFAULT_255_1_234
10
4.6022531
20
203.3848544
40
0.2883093
50
311.1786488
51
344.6886812
0
ARC
8
DEFAULT_255_1_234
10
4.5730578
20
203.4211987
40
0.3348923
50
286.0418249
51
310.8441291
0
ARC
8
DEFAULT_255_1_234
10
4.522341
20
203.5858807
40
0.5071869
50
274.1042341
51
286.4071509
0
ARC
8
DEFAULT_255_1_234
10
4.5046666
20
203.7742229
40
0.6963234
50
269.9236873
51
274.445647
0
ARC
8
DEFAULT_255_1_234
10
4.5092667
20
203.5402537
40
0.3362634
50
269.6055768
51
281.3740047
0
ARC
8
DEFAULT_255_1_234
10
4.5323305
20
203.4309353
40
0.224546
50
281.1055983
51
302.5132223
0
ARC
8
DEFAULT_255_1_234
10
4.5470204
20
203.4045823
40
0.1944357
50
303.0368945
51
311.8811219
0
ARC
8
DEFAULT_255_1_234
10
4.5541611
20
203.396089
40
0.1833454
50
311.9916004
51
351.7143462
0
ARC
8
DEFAULT_255_1_234
10
4.4724841
20
203.412593
40
0.2665871
50
350.7339597
51
0.2221581
0
ARC
8
DEFAULT_255_1_234
10
4.4617287
20
203.4182467
40
0.2773789
50
359.0456241
51
17.2296242
0
ARC
8
DEFAULT_255_1_234
10
4.5656404
20
203.4491163
40
0.1689915
50
17.6685481
51
78.9940892
0
ARC
8
DEFAULT_255_1_234
10
4.5139568
20
203.2636224
40
0.3612658
50
76.5635957
51
90.6980921
0
LINE
8
DEFAULT_255_1_234
10
4.5095552
20
203.6248613
11
4.5093614
21
203.6248614
0
ARC
8
DEFAULT_255_1_234
10
4.4875228
20
204.0771036
40
0.3285612
50
269.6064736
51
281.4533503
0
ARC
8
DEFAULT_255_1_234
10
4.5098048
20
203.9719688
40
0.2210975
50
281.2041486
51
302.5148063
0
ARC
8
DEFAULT_255_1_234
10
4.5234898
20
203.9473241
40
0.1929674
50
303.021671
51
309.8369575
0
ARC
8
DEFAULT_255_1_234
10
4.5418359
20
203.9267488
40
0.1654181
50
309.5228395
51
356.9509836
0
ARC
8
DEFAULT_255_1_234
10
4.4754942
20
203.9362932
40
0.2322512
50
355.4701227
51
0.0492546
0
ARC
8
DEFAULT_255_1_234
10
4.4476033
20
203.9385094
40
0.2601498
50
359.5558597
51
11.2096359
0
ARC
8
DEFAULT_255_1_234
10
4.5433323
20
203.958323
40
0.1623975
50
10.9182341
51
31.3230275
0
ARC
8
DEFAULT_255_1_234
10
4.5719056
20
203.9742214
40
0.1297302
50
31.8852677
51
52.1412565
0
ARC
8
DEFAULT_255_1_234
10
4.5444789
20
203.935475
40
0.1771663
50
52.8285564
51
71.9850297
0
ARC
8
DEFAULT_255_1_234
10
4.5068965
20
203.8248664
40
0.2939794
50
71.6863486
51
82.8455995
0
ARC
8
DEFAULT_255_1_234
10
4.4829501
20
203.6439149
40
0.476506
50
82.6984714
51
90.1729175
0
ARC
8
DEFAULT_255_1_234
10
4.4807136
20
203.7662623
40
0.3541573
50
89.8708275
51
90.0431131
0
LINE
8
DEFAULT_255_1_234
10
5.5719604
20
204.2529433
11
5.5719604
21
203.0779
0
LINE
8
DEFAULT_255_1_234
10
5.5719604
20
203.0779
11
5.42257
21
203.0779
0
LINE
8
DEFAULT_255_1_234
10
5.42257
20
203.0779
11
5.42257
21
204.0682133
0
LINE
8
DEFAULT_255_1_234
10
5.42257
20
204.0682133
11
5.1229862
21
203.9581785
0
LINE
8
DEFAULT_255_1_234
10
5.1229862
20
203.9581785
11
5.1229862
21
204.0931117
0
LINE
8
DEFAULT_255_1_234
10
5.1229862
20
204.0931117
11
5.5486683
21
204.2529433
0
LINE
8
DEFAULT_255_1_234
10
5.5486683
20
204.2529433
11
5.5719604
21
204.2529433
0
LINE
8
DEFAULT_255_1_234
10
4.9718293
20
211.0154
11
4.8601881
21
211.3206061
0
LINE
8
DEFAULT_255_1_234
10
4.8601881
20
211.3206061
11
4.3702521
21
211.3206061
0
LINE
8
DEFAULT_255_1_234
10
4.3702521
20
211.3206061
11
4.2602173
21
211.0154
0
LINE
8
DEFAULT_255_1_234
10
4.2602173
20
211.0154
11
4.1011889
21
211.0154
0
LINE
8
DEFAULT_255_1_234
10
4.1011889
20
211.0154
11
4.5477535
21
212.1848211
0
LINE
8
DEFAULT_255_1_234
10
4.5477535
20
212.1848211
11
4.6826867
21
212.1848211
0
LINE
8
DEFAULT_255_1_234
10
4.6826867
20
212.1848211
11
5.1300545
21
211.0154
0
LINE
8
DEFAULT_255_1_234
10
5.1300545
20
211.0154
11
4.9718293
21
211.0154
0
LINE
8
DEFAULT_255_1_234
10
4.6152201
20
211.9944689
11
4.4168362
21
211.4475075
0
LINE
8
DEFAULT_255_1_234
10
4.4168362
20
211.4475075
11
4.8144072
21
211.4475075
0
LINE
8
DEFAULT_255_1_234
10
4.8144072
20
211.4475075
11
4.6152201
21
211.9944689
0
LINE
8
DEFAULT_255_1_234
10
6.0151521
20
211.1366792
11
6.0151521
21
211.0154
0
LINE
8
DEFAULT_255_1_234
10
6.0151521
20
211.0154
11
5.2489243
21
211.0154
0
LINE
8
DEFAULT_255_1_234
10
5.2489243
20
211.0154
11
5.2489243
21
211.1222221
0
LINE
8
DEFAULT_255_1_234
10
5.2489243
20
211.1222221
11
5.6537239
21
211.5719995
0
LINE
8
DEFAULT_255_1_234
10
5.3750226
20
211.8402595
11
5.2264354
21
211.8402595
0
LINE
8
DEFAULT_255_1_234
10
5.7412698
20
211.4764218
11
5.428032
21
211.1366792
0
LINE
8
DEFAULT_255_1_234
10
5.428032
20
211.1366792
11
6.0151521
21
211.1366792
0
ARC
8
DEFAULT_255_1_234
10
4.3047072
20
212.7649527
40
1.8008286
50
318.5132453
51
320.7828378
0
ARC
8
DEFAULT_255_1_234
10
4.8334047
20
212.3346426
40
1.1191493
50
320.7372736
51
323.9737074
0
ARC
8
DEFAULT_255_1_234
10
5.2253903
20
212.0506361
40
0.6350923
50
323.8961724
51
328.6421089
0
ARC
8
DEFAULT_255_1_234
10
5.4300498
20
211.9244031
40
0.3946393
50
328.8299013
51
331.789948
0
ARC
8
DEFAULT_255_1_234
10
5.5297677
20
211.8729509
40
0.2824501
50
331.4255242
51
352.9364833
0
ARC
8
DEFAULT_255_1_234
10
5.5434177
20
211.8698976
40
0.2685315
50
353.2248685
51
0.0169286
0
ARC
8
DEFAULT_255_1_234
10
5.5644054
20
211.872195
40
0.2475536
50
359.4866256
51
15.9339782
0
ARC
8
DEFAULT_255_1_234
10
5.615104
20
211.8858286
40
0.1950618
50
16.1714718
51
43.5284424
0
ARC
8
DEFAULT_255_1_234
10
5.6228348
20
211.8935573
40
0.184134
50
43.4415429
51
83.1661404
0
ARC
8
DEFAULT_255_1_234
10
5.6094266
20
211.8198771
40
0.258926
50
82.160215
51
90.1505798
0
ARC
8
DEFAULT_255_1_234
10
5.6062694
20
211.7661865
40
0.3126255
50
89.5460705
51
102.5418777
0
ARC
8
DEFAULT_255_1_234
10
5.581978
20
211.8692665
40
0.2067346
50
102.1739365
51
129.2061916
0
ARC
8
DEFAULT_255_1_234
10
5.5740852
20
211.8817094
40
0.1921118
50
129.7279328
51
135.7542026
0
ARC
8
DEFAULT_255_1_234
10
5.5862379
20
211.8720045
40
0.2075944
50
136.175737
51
166.3674722
0
ARC
8
DEFAULT_255_1_234
10
5.6869298
20
211.8450182
40
0.3118201
50
165.9092917
51
178.8683903
0
ARC
8
DEFAULT_255_1_234
10
5.773416
20
211.8403179
40
0.3983935
50
178.438168
51
180.0083905
0
ARC
8
DEFAULT_255_1_234
10
5.6332762
20
211.8442231
40
0.4068601
50
163.2878735
51
180.5581814
0
ARC
8
DEFAULT_255_1_234
10
5.5531023
20
211.866284
40
0.3237344
50
133.454115
51
162.9470031
0
ARC
8
DEFAULT_255_1_234
10
5.5709565
20
211.8473
40
0.349795
50
100.7869394
51
133.4384016
0
ARC
8
DEFAULT_255_1_234
10
5.6057336
20
211.6924319
40
0.5084616
50
89.6605301
51
101.3704185
0
ARC
8
DEFAULT_255_1_234
10
5.6123675
20
211.6985496
40
0.502348
50
78.2171172
51
90.4130393
0
ARC
8
DEFAULT_255_1_234
10
5.6478753
20
211.8609637
40
0.3361092
50
55.9268222
51
78.4888551
0
ARC
8
DEFAULT_255_1_234
10
5.6675193
20
211.8948324
40
0.2970617
50
47.9292255
51
55.4054003
0
ARC
8
DEFAULT_255_1_234
10
5.6776754
20
211.9051502
40
0.2825983
50
4.3347696
51
48.0560701
0
ARC
8
DEFAULT_255_1_234
10
5.5681148
20
211.8881601
40
0.393225
50
359.925209
51
5.5967654
0
ARC
8
DEFAULT_255_1_234
10
5.6110039
20
211.8937816
40
0.3503892
50
337.8914096
51
358.9967724
0
ARC
8
DEFAULT_255_1_234
10
5.3396451
20
211.9984706
40
0.6412172
50
326.9135351
51
338.3505194
0
ARC
8
DEFAULT_255_1_234
10
4.9410755
20
212.2539284
40
1.1146189
50
319.6472867
51
327.095818
0
ARC
8
DEFAULT_255_1_234
10
4.5577758
20
212.5701
40
1.6114559
50
317.2586784
51
319.9046139
0
LINE
8
DEFAULT_255_1_234
10
4.9630293
20
218.9529
11
4.8513881
21
219.2581061
0
LINE
8
DEFAULT_255_1_234
10
4.8513881
20
219.2581061
11
4.3614521
21
219.2581061
0
LINE
8
DEFAULT_255_1_234
10
4.3614521
20
219.2581061
11
4.2514173
21
218.9529
0
LINE
8
DEFAULT_255_1_234
10
4.2514173
20
218.9529
11
4.0923889
21
218.9529
0
LINE
8
DEFAULT_255_1_234
10
4.0923889
20
218.9529
11
4.5389535
21
220.1223211
0
LINE
8
DEFAULT_255_1_234
10
4.5389535
20
220.1223211
11
4.6738867
21
220.1223211
0
LINE
8
DEFAULT_255_1_234
10
4.6738867
20
220.1223211
11
5.1212545
21
218.9529
0
LINE
8
DEFAULT_255_1_234
10
5.1212545
20
218.9529
11
4.9630293
21
218.9529
0
LINE
8
DEFAULT_255_1_234
10
4.6064201
20
219.9319689
11
4.4080362
21
219.3850075
0
LINE
8
DEFAULT_255_1_234
10
4.4080362
20
219.3850075
11
4.8056072
21
219.3850075
0
LINE
8
DEFAULT_255_1_234
10
4.8056072
20
219.3850075
11
4.6064201
21
219.9319689
0
LINE
8
DEFAULT_255_1_234
10
5.728454
20
220.1279433
11
5.728454
21
218.9529
0
LINE
8
DEFAULT_255_1_234
10
5.728454
20
218.9529
11
5.5790636
21
218.9529
0
LINE
8
DEFAULT_255_1_234
10
5.5790636
20
218.9529
11
5.5790636
21
219.9432133
0
LINE
8
DEFAULT_255_1_234
10
5.5790636
20
219.9432133
11
5.2794798
21
219.8331785
0
LINE
8
DEFAULT_255_1_234
10
5.2794798
20
219.8331785
11
5.2794798
21
219.9681117
0
LINE
8
DEFAULT_255_1_234
10
5.2794798
20
219.9681117
11
5.7051619
21
220.1279433
0
LINE
8
DEFAULT_255_1_234
10
5.7051619
20
220.1279433
11
5.728454
21
220.1279433
0
LINE
8
DEFAULT_255_1_234
10
22.1840119
20
227.0116792
11
22.1840119
21
226.8904
0
LINE
8
DEFAULT_255_1_234
10
22.1840119
20
226.8904
11
21.417784
21
226.8904
0
LINE
8
DEFAULT_255_1_234
10
21.417784
20
226.8904
11
21.417784
21
226.9972221
0
LINE
8
DEFAULT_255_1_234
10
21.417784
20
226.9972221
11
21.8225836
21
227.4469995
0
LINE
8
DEFAULT_255_1_234
10
21.5438823
20
227.7152595
11
21.3952952
21
227.7152595
0
LINE
8
DEFAULT_255_1_234
10
21.9101296
20
227.3514218
11
21.5968918
21
227.0116792
0
LINE
8
DEFAULT_255_1_234
10
21.5968918
20
227.0116792
11
22.1840119
21
227.0116792
0
ARC
8
DEFAULT_255_1_234
10
20.473567
20
228.6399527
40
1.8008286
50
318.5132453
51
320.7828378
0
ARC
8
DEFAULT_255_1_234
10
21.0022644
20
228.2096426
40
1.1191493
50
320.7372736
51
323.9737074
0
ARC
8
DEFAULT_255_1_234
10
21.3942501
20
227.9256361
40
0.6350923
50
323.8961724
51
328.6421089
0
ARC
8
DEFAULT_255_1_234
10
21.5989096
20
227.7994031
40
0.3946393
50
328.8299013
51
331.789948
0
ARC
8
DEFAULT_255_1_234
10
21.6986274
20
227.7479509
40
0.2824501
50
331.4255242
51
352.9364833
0
ARC
8
DEFAULT_255_1_234
10
21.7122775
20
227.7448976
40
0.2685315
50
353.2248685
51
0.0169286
0
ARC
8
DEFAULT_255_1_234
10
21.7332652
20
227.747195
40
0.2475536
50
359.4866256
51
15.9339782
0
ARC
8
DEFAULT_255_1_234
10
21.7839637
20
227.7608286
40
0.1950618
50
16.1714718
51
43.5284424
0
ARC
8
DEFAULT_255_1_234
10
21.7916946
20
227.7685573
40
0.184134
50
43.4415429
51
83.1661404
0
ARC
8
DEFAULT_255_1_234
10
21.7782864
20
227.6948771
40
0.258926
50
82.160215
51
90.1505798
0
ARC
8
DEFAULT_255_1_234
10
21.7751291
20
227.6411865
40
0.3126255
50
89.5460705
51
102.5418777
0
ARC
8
DEFAULT_255_1_234
10
21.7508377
20
227.7442665
40
0.2067346
50
102.1739365
51
129.2061916
0
ARC
8
DEFAULT_255_1_234
10
21.7429449
20
227.7567094
40
0.1921118
50
129.7279328
51
135.7542026
0
ARC
8
DEFAULT_255_1_234
10
21.7550977
20
227.7470045
40
0.2075944
50
136.175737
51
166.3674722
0
ARC
8
DEFAULT_255_1_234
10
21.8557896
20
227.7200182
40
0.3118201
50
165.9092917
51
178.8683903
0
ARC
8
DEFAULT_255_1_234
10
21.9422757
20
227.7153179
40
0.3983935
50
178.438168
51
180.0083905
0
ARC
8
DEFAULT_255_1_234
10
21.8021359
20
227.7192231
40
0.4068601
50
163.2878735
51
180.5581814
0
ARC
8
DEFAULT_255_1_234
10
21.7219621
20
227.741284
40
0.3237344
50
133.454115
51
162.9470031
0
ARC
8
DEFAULT_255_1_234
10
21.7398162
20
227.7223
40
0.349795
50
100.7869394
51
133.4384016
0
ARC
8
DEFAULT_255_1_234
10
21.7745934
20
227.5674319
40
0.5084616
50
89.6605301
51
101.3704185
0
ARC
8
DEFAULT_255_1_234
10
21.7812273
20
227.5735496
40
0.502348
50
78.2171172
51
90.4130393
0
ARC
8
DEFAULT_255_1_234
10
21.8167351
20
227.7359637
40
0.3361092
50
55.9268222
51
78.4888551
0
ARC
8
DEFAULT_255_1_234
10
21.8363791
20
227.7698324
40
0.2970617
50
47.9292255
51
55.4054003
0
ARC
8
DEFAULT_255_1_234
10
21.8465352
20
227.7801502
40
0.2825983
50
4.3347696
51
48.0560701
0
ARC
8
DEFAULT_255_1_234
10
21.7369745
20
227.7631601
40
0.393225
50
359.925209
51
5.5967654
0
ARC
8
DEFAULT_255_1_234
10
21.7798637
20
227.7687816
40
0.3503892
50
337.8914096
51
358.9967724
0
ARC
8
DEFAULT_255_1_234
10
21.5085049
20
227.8734706
40
0.6412172
50
326.9135351
51
338.3505194
0
ARC
8
DEFAULT_255_1_234
10
21.1099353
20
228.1289284
40
1.1146189
50
319.6472867
51
327.095818
0
ARC
8
DEFAULT_255_1_234
10
20.7266356
20
228.4451
40
1.6114559
50
317.2586784
51
319.9046139
0
LINE
8
DEFAULT_255_1_234
10
22.9687127
20
228.0598211
11
22.9687127
21
227.283152
0
LINE
8
DEFAULT_255_1_234
10
22.9687127
20
227.283152
11
23.1309538
21
227.283152
0
LINE
8
DEFAULT_255_1_234
10
23.1309538
20
227.283152
11
23.1309538
21
227.1618728
0
LINE
8
DEFAULT_255_1_234
10
23.1309538
20
227.1618728
11
22.9687127
21
227.1618728
0
LINE
8
DEFAULT_255_1_234
10
22.9687127
20
227.1618728
11
22.9687127
21
226.8904
0
LINE
8
DEFAULT_255_1_234
10
22.9687127
20
226.8904
11
22.8193224
21
226.8904
0
LINE
8
DEFAULT_255_1_234
10
22.8193224
20
226.8904
11
22.8193224
21
227.1618728
0
LINE
8
DEFAULT_255_1_234
10
22.8193224
20
227.1618728
11
22.2868181
21
227.1618728
0
LINE
8
DEFAULT_255_1_234
10
22.2868181
20
227.1618728
11
22.2868181
21
227.2494187
0
LINE
8
DEFAULT_255_1_234
10
22.2868181
20
227.2494187
11
22.8104875
21
228.0598211
0
LINE
8
DEFAULT_255_1_234
10
22.8104875
20
228.0598211
11
22.9687127
21
228.0598211
0
LINE
8
DEFAULT_255_1_234
10
22.8016525
20
227.8244912
11
22.4554846
21
227.283152
0
LINE
8
DEFAULT_255_1_234
10
22.4554846
20
227.283152
11
22.8193224
21
227.283152
0
LINE
8
DEFAULT_255_1_234
10
22.8193224
20
227.283152
11
22.8193224
21
227.8566181
0
LINE
8
DEFAULT_255_1_234
10
22.8193224
20
227.8566181
11
22.8016525
21
227.8244912
0
LINE
8
DEFAULT_255_1_234
10
24.167048
20
227.472701
11
24.167048
21
227.0438062
0
LINE
8
DEFAULT_255_1_234
10
23.265887
20
227.4188884
11
23.265887
21
227.5208915
0
LINE
8
DEFAULT_255_1_234
10
24.167048
20
227.7168659
11
24.0128387
21
227.7168659
0
LINE
8
DEFAULT_255_1_234
10
23.4208996
20
227.5249073
11
23.4208996
21
227.4293296
0
LINE
8
DEFAULT_255_1_234
10
24.0136418
20
227.0847681
11
24.0136418
21
227.3474059
0
LINE
8
DEFAULT_255_1_234
10
24.0136418
20
227.3474059
11
23.7429723
21
227.3474059
0
LINE
8
DEFAULT_255_1_234
10
23.7429723
20
227.3474059
11
23.7429723
21
227.472701
0
LINE
8
DEFAULT_255_1_234
10
23.7429723
20
227.472701
11
24.167048
21
227.472701
0
ARC
8
DEFAULT_255_1_234
10
23.8838987
20
227.2431396
40
0.3462765
50
295.8437914
51
324.8549609
0
ARC
8
DEFAULT_255_1_234
10
23.8422954
20
227.3184567
40
0.4322211
50
291.5695085
51
296.4549398
0
ARC
8
DEFAULT_255_1_234
10
23.7912205
20
227.4549275
40
0.5779178
50
278.6622409
51
291.3045483
0
ARC
8
DEFAULT_255_1_234
10
23.7572697
20
227.6697408
40
0.7953952
50
270.020006
51
278.7494541
0
ARC
8
DEFAULT_255_1_234
10
23.7534621
20
227.8014036
40
0.927067
50
269.9969998
51
270.2524872
0
ARC
8
DEFAULT_255_1_234
10
23.7496334
20
227.3930589
40
0.5187361
50
253.5786322
51
270.4175299
0
ARC
8
DEFAULT_255_1_234
10
23.732299
20
227.3259236
40
0.4494451
50
238.8203306
51
253.2788235
0
ARC
8
DEFAULT_255_1_234
10
23.7303363
20
227.3208231
40
0.4440665
50
206.7883783
51
238.6962764
0
ARC
8
DEFAULT_255_1_234
10
23.8077273
20
227.3672405
40
0.5341121
50
206.1129412
51
207.4916643
0
ARC
8
DEFAULT_255_1_234
10
23.8674188
20
227.3926488
40
0.5989041
50
188.6921119
51
205.7821245
0
ARC
8
DEFAULT_255_1_234
10
24.053055
20
227.424223
40
0.7871862
50
180.3882829
51
188.9219216
0
ARC
8
DEFAULT_255_1_234
10
24.1758364
20
227.5265464
40
0.909967
50
170.2024264
51
180.3560651
0
ARC
8
DEFAULT_255_1_234
10
23.8594882
20
227.5831237
40
0.5886083
50
154.2857445
51
170.3893044
0
ARC
8
DEFAULT_255_1_234
10
23.7313085
20
227.641795
40
0.4476743
50
139.8401567
51
153.9332699
0
ARC
8
DEFAULT_255_1_234
10
23.6953821
20
227.6705577
40
0.4016697
50
98.4190291
51
139.6707122
0
ARC
8
DEFAULT_255_1_234
10
23.7333339
20
227.4860328
40
0.5898566
50
89.7659205
51
99.4415478
0
ARC
8
DEFAULT_255_1_234
10
23.7398588
20
227.4925844
40
0.5833147
50
78.0551672
51
90.4042112
0
ARC
8
DEFAULT_255_1_234
10
23.7803098
20
227.6744644
40
0.3970055
50
54.6380464
51
78.3339173
0
ARC
8
DEFAULT_255_1_234
10
23.7993154
20
227.7064795
40
0.3599102
50
50.031736
51
54.1558201
0
ARC
8
DEFAULT_255_1_234
10
23.7885942
20
227.6968766
40
0.3741624
50
18.1092409
51
49.7180913
0
ARC
8
DEFAULT_255_1_234
10
23.6429142
20
227.6435089
40
0.5292424
50
7.9672797
51
18.6984571
0
ARC
8
DEFAULT_255_1_234
10
23.657962
20
227.6558504
40
0.3600838
50
9.7557294
51
27.3215714
0
ARC
8
DEFAULT_255_1_234
10
23.7707092
20
227.7121912
40
0.2340608
50
27.7361077
51
84.5257964
0
ARC
8
DEFAULT_255_1_234
10
23.7379479
20
227.547864
40
0.4011215
50
82.106034
51
90.2001166
0
ARC
8
DEFAULT_255_1_234
10
23.7329696
20
227.5986215
40
0.3503799
50
89.4150119
51
105.5823402
0
ARC
8
DEFAULT_255_1_234
10
23.7072694
20
227.6921867
40
0.2533503
50
105.6678618
51
144.2648758
0
ARC
8
DEFAULT_255_1_234
10
23.7965949
20
227.6286289
40
0.3629787
50
144.3561283
51
162.8564086
0
ARC
8
DEFAULT_255_1_234
10
24.0049858
20
227.5617017
40
0.5818441
50
162.6076014
51
173.6780284
0
ARC
8
DEFAULT_255_1_234
10
24.3111002
20
227.524489
40
0.8902007
50
173.4670142
51
179.9730753
0
ARC
8
DEFAULT_255_1_234
10
24.1202673
20
227.425126
40
0.6993804
50
179.6556203
51
190.0080463
0
ARC
8
DEFAULT_255_1_234
10
23.8886502
20
227.3826375
40
0.4639066
50
189.8116607
51
206.6796816
0
ARC
8
DEFAULT_255_1_234
10
23.8041654
20
227.3432503
40
0.3707421
50
207.1031645
51
217.7074368
0
ARC
8
DEFAULT_255_1_234
10
23.7407343
20
227.2880559
40
0.2868417
50
216.7345547
51
265.6812148
0
ARC
8
DEFAULT_255_1_234
10
23.7538134
20
227.3784855
40
0.3780509
50
264.7366618
51
270.0611241
0
ARC
8
DEFAULT_255_1_234
10
23.7561397
20
227.6625111
40
0.662079
50
269.8335834
51
276.0539546
0
ARC
8
DEFAULT_255_1_234
10
23.7768402
20
227.472356
40
0.4708016
50
275.9894168
51
284.4615085
0
ARC
8
DEFAULT_255_1_234
10
23.7966409
20
227.3890663
40
0.3852094
50
284.7034461
51
286.4953897
0
ARC
8
DEFAULT_255_1_234
10
23.8373422
20
227.2579965
40
0.2479842
50
286.0770838
51
304.2625829
0
ARC
8
DEFAULT_255_1_234
10
23.8506836
20
227.2361594
40
0.2224291
50
304.5891602
51
317.1073298
0
LINE
8
DEFAULT_255_1_234
10
21.0397911
20
195.7612534
11
21.0397911
21
195.6873614
0
LINE
8
DEFAULT_255_1_234
10
20.0992745
20
195.6769201
11
20.0992745
21
195.7612534
0
LINE
8
DEFAULT_255_1_234
10
20.8863849
20
195.6761169
11
20.8863849
21
195.7628597
0
LINE
8
DEFAULT_255_1_234
10
20.2526807
20
195.773301
11
20.2526807
21
195.6873614
0
ARC
8
DEFAULT_255_1_234
10
20.1755937
20
195.6834015
40
0.8642064
50
350.487711
51
0.2625388
0
ARC
8
DEFAULT_255_1_234
10
20.4049178
20
195.6439578
40
0.631518
50
336.0277639
51
350.5787438
0
ARC
8
DEFAULT_255_1_234
10
20.5394002
20
195.5831892
40
0.4839466
50
319.8877444
51
336.1328423
0
ARC
8
DEFAULT_255_1_234
10
20.5996643
20
195.534958
40
0.4067874
50
302.4806467
51
319.6143626
0
ARC
8
DEFAULT_255_1_234
10
20.5881653
20
195.5571202
40
0.4316636
50
275.8195682
51
302.1884709
0
ARC
8
DEFAULT_255_1_234
10
20.5715286
20
195.6713665
40
0.5470306
50
269.9171439
51
276.3397983
0
ARC
8
DEFAULT_255_1_234
10
20.5670496
20
195.6027681
40
0.4784458
50
252.5219675
51
270.4416499
0
ARC
8
DEFAULT_255_1_234
10
20.5526755
20
195.5488592
40
0.422716
50
237.5352116
51
252.1857531
0
ARC
8
DEFAULT_255_1_234
10
20.5615951
20
195.5602363
40
0.4371052
50
209.063312
51
237.3492538
0
ARC
8
DEFAULT_255_1_234
10
20.6485799
20
195.6148685
40
0.5397041
50
205.1183774
51
209.6470015
0
ARC
8
DEFAULT_255_1_234
10
20.7282836
20
195.648683
40
0.6262326
50
188.7215458
51
204.8240747
0
ARC
8
DEFAULT_255_1_234
10
20.9280364
20
195.6823067
40
0.8287794
50
180.3723947
51
188.9252049
0
ARC
8
DEFAULT_255_1_234
10
20.9253116
20
195.7652402
40
0.8260467
50
169.5253763
51
180.2765336
0
ARC
8
DEFAULT_255_1_234
10
20.7350564
20
195.8002309
40
0.6326007
50
155.8315255
51
169.5089989
0
ARC
8
DEFAULT_255_1_234
10
20.6070066
20
195.8596348
40
0.4914567
50
139.6258461
51
156.0379525
0
ARC
8
DEFAULT_255_1_234
10
20.5480399
20
195.9070799
40
0.4158054
50
122.6416387
51
139.3430715
0
ARC
8
DEFAULT_255_1_234
10
20.5581019
20
195.8887451
40
0.4366739
50
93.0223692
51
122.455762
0
ARC
8
DEFAULT_255_1_234
10
20.5689016
20
195.7922709
40
0.5336137
50
89.975342
51
93.6341897
0
ARC
8
DEFAULT_255_1_234
10
20.5727795
20
195.8321242
40
0.4937738
50
73.746375
51
90.4233405
0
ARC
8
DEFAULT_255_1_234
10
20.5903373
20
195.9001287
40
0.4235786
50
57.662753
51
73.4518111
0
ARC
8
DEFAULT_255_1_234
10
20.589538
20
195.9022832
40
0.4221899
50
29.1440151
51
57.414694
0
ARC
8
DEFAULT_255_1_234
10
20.4960574
20
195.8439005
40
0.5322966
50
24.0982783
51
29.7323517
0
ARC
8
DEFAULT_255_1_234
10
20.392685
20
195.8010399
40
0.6441673
50
8.6655297
51
23.8241346
0
ARC
8
DEFAULT_255_1_234
10
20.1692588
20
195.7645854
40
0.8705386
50
359.7806941
51
8.8218784
0
ARC
8
DEFAULT_255_1_234
10
20.0545586
20
195.7671345
40
0.8318373
50
359.7055579
51
8.036044
0
ARC
8
DEFAULT_255_1_234
10
20.3545592
20
195.8108239
40
0.5286768
50
7.8928306
51
20.2962107
0
ARC
8
DEFAULT_255_1_234
10
20.5173162
20
195.8708395
40
0.3552073
50
20.3231126
51
36.4992797
0
ARC
8
DEFAULT_255_1_234
10
20.5858708
20
195.9236402
40
0.2686974
50
36.1437156
51
85.6627023
0
ARC
8
DEFAULT_255_1_234
10
20.5696254
20
195.8196221
40
0.373739
50
84.3852322
51
90.0757696
0
ARC
8
DEFAULT_255_1_234
10
20.5653927
20
195.8856839
40
0.3076997
50
89.3038458
51
109.9045693
0
ARC
8
DEFAULT_255_1_234
10
20.5561318
20
195.9239062
40
0.2686424
50
110.8228367
51
143.9179474
0
ARC
8
DEFAULT_255_1_234
10
20.6494978
20
195.8526236
40
0.3860887
50
143.5289163
51
163.2980757
0
ARC
8
DEFAULT_255_1_234
10
20.8402799
20
195.7926433
40
0.5860659
50
163.0418846
51
174.3140048
0
ARC
8
DEFAULT_255_1_234
10
21.0806911
20
195.7648854
40
0.8280531
50
174.0509143
51
179.4176892
0
ARC
8
DEFAULT_255_1_234
10
21.030265
20
195.6831954
40
0.7775954
50
179.6930361
51
188.7906598
0
ARC
8
DEFAULT_255_1_234
10
20.7639129
20
195.6405935
40
0.5078633
50
188.6331305
51
202.5629587
0
ARC
8
DEFAULT_255_1_234
10
20.6384721
20
195.5901996
40
0.3726913
50
202.8081362
51
216.1193925
0
ARC
8
DEFAULT_255_1_234
10
20.5575291
20
195.5250676
40
0.2689577
50
215.0755913
51
264.6379694
0
ARC
8
DEFAULT_255_1_234
10
20.570224
20
195.6081513
40
0.3528978
50
263.846392
51
270.0833719
0
ARC
8
DEFAULT_255_1_234
10
20.5743631
20
195.5823374
40
0.3271036
50
269.3649385
51
287.5152008
0
ARC
8
DEFAULT_255_1_234
10
20.5921788
20
195.5176238
40
0.2600406
50
288.0630309
51
323.8113348
0
ARC
8
DEFAULT_255_1_234
10
20.505063
20
195.5826049
40
0.3687189
50
323.6547608
51
342.6590488
0
ARC
8
DEFAULT_255_1_234
10
20.3019245
20
195.6486952
40
0.5823286
50
342.4091907
51
353.6451149
0
ARC
8
DEFAULT_255_1_234
10
20.0187756
20
195.683919
40
0.8676442
50
353.4029884
51
359.4847795
0
LINE
8
DEFAULT_255_1_234
10
21.9393458
20
196.3098211
11
22.0943583
21
196.3098211
0
LINE
8
DEFAULT_255_1_234
10
22.0943583
20
196.3098211
11
22.0943583
21
195.514679
0
LINE
8
DEFAULT_255_1_234
10
21.7104412
20
195.1259429
11
21.6694793
21
195.1243365
0
LINE
8
DEFAULT_255_1_234
10
21.2478131
20
195.5130727
11
21.2478131
21
196.3098211
0
LINE
8
DEFAULT_255_1_234
10
21.2478131
20
196.3098211
11
21.4004161
21
196.3098211
0
LINE
8
DEFAULT_255_1_234
10
21.4004161
20
196.3098211
11
21.4004161
21
195.5178917
0
LINE
8
DEFAULT_255_1_234
10
21.9393458
20
195.5170885
11
21.9393458
21
196.3098211
0
ARC
8
DEFAULT_255_1_234
10
21.6590481
20
195.5126928
40
0.4353147
50
343.0898354
51
0.2614217
0
ARC
8
DEFAULT_255_1_234
10
21.7418883
20
195.4895837
40
0.3493402
50
315.3345598
51
342.7641223
0
ARC
8
DEFAULT_255_1_234
10
21.7195332
20
195.5127682
40
0.3815385
50
284.6606969
51
315.2182466
0
ARC
8
DEFAULT_255_1_234
10
21.6740044
20
195.6673755
40
0.5426573
50
273.8500273
51
285.1797701
0
ARC
8
DEFAULT_255_1_234
10
21.6652095
20
195.7015475
40
0.5772268
50
257.6317484
51
270.4238298
0
ARC
8
DEFAULT_255_1_234
10
21.6227293
20
195.5194198
40
0.3902347
50
230.6087562
51
257.9964012
0
ARC
8
DEFAULT_255_1_234
10
21.6095295
20
195.4987802
40
0.3659186
50
227.7440991
51
230.1551448
0
ARC
8
DEFAULT_255_1_234
10
21.5961127
20
195.4826471
40
0.3449568
50
189.2524587
51
227.5916061
0
ARC
8
DEFAULT_255_1_234
10
21.7482813
20
195.5154013
40
0.5004737
50
180.2665968
51
190.1525252
0
ARC
8
DEFAULT_255_1_234
10
21.7704833
20
195.5150918
40
0.3700778
50
179.5665184
51
191.9952995
0
ARC
8
DEFAULT_255_1_234
10
21.6476939
20
195.4877043
40
0.2442808
50
191.6974072
51
215.1404042
0
ARC
8
DEFAULT_255_1_234
10
21.6238854
20
195.4735108
40
0.2166522
50
215.6950207
51
224.8513522
0
ARC
8
DEFAULT_255_1_234
10
21.6294598
20
195.4814697
40
0.2262237
50
225.2846858
51
255.0111758
0
ARC
8
DEFAULT_255_1_234
10
21.6618558
20
195.5928455
40
0.3421979
50
254.5944985
51
267.9129803
0
ARC
8
DEFAULT_255_1_234
10
21.6693038
20
195.7012903
40
0.4508556
50
267.4689655
51
270.0223026
0
ARC
8
DEFAULT_255_1_234
10
21.6723184
20
195.6423849
40
0.3919604
50
269.5849941
51
281.1843768
0
ARC
8
DEFAULT_255_1_234
10
21.7001948
20
195.5071059
40
0.2538457
50
280.9344262
51
300.9743589
0
ARC
8
DEFAULT_255_1_234
10
21.7214554
20
195.4679688
40
0.2093566
50
301.4980046
51
315.1466847
0
ARC
8
DEFAULT_255_1_234
10
21.7070092
20
195.4798236
40
0.2279656
50
315.5952539
51
345.6678731
0
ARC
8
DEFAULT_255_1_234
10
21.5950609
20
195.5110009
40
0.3441564
50
345.2524969
51
358.6304371
0
ARC
8
DEFAULT_255_1_234
10
21.4932963
20
195.5169916
40
0.4460494
50
358.1735671
51
0.0124524
0
LINE
8
DEFAULT_255_1_234
10
23.1457128
20
196.3098211
11
23.1457128
21
196.1829196
0
LINE
8
DEFAULT_255_1_234
10
23.1457128
20
196.1829196
11
22.7698275
21
196.1829196
0
LINE
8
DEFAULT_255_1_234
10
22.7698275
20
196.1829196
11
22.7698275
21
195.1404
0
LINE
8
DEFAULT_255_1_234
10
22.7698275
20
195.1404
11
22.6164213
21
195.1404
0
LINE
8
DEFAULT_255_1_234
10
22.6164213
20
195.1404
11
22.6164213
21
196.1829196
0
LINE
8
DEFAULT_255_1_234
10
22.6164213
20
196.1829196
11
22.2413391
21
196.1829196
0
LINE
8
DEFAULT_255_1_234
10
22.2413391
20
196.1829196
11
22.2413391
21
196.3098211
0
LINE
8
DEFAULT_255_1_234
10
22.2413391
20
196.3098211
11
23.1457128
21
196.3098211
0
LINE
8
DEFAULT_255_1_234
10
23.9079248
20
196.3098211
11
23.9079248
21
195.533152
0
LINE
8
DEFAULT_255_1_234
10
23.9079248
20
195.533152
11
24.0701659
21
195.533152
0
LINE
8
DEFAULT_255_1_234
10
24.0701659
20
195.533152
11
24.0701659
21
195.4118728
0
LINE
8
DEFAULT_255_1_234
10
24.0701659
20
195.4118728
11
23.9079248
21
195.4118728
0
LINE
8
DEFAULT_255_1_234
10
23.9079248
20
195.4118728
11
23.9079248
21
195.1404
0
LINE
8
DEFAULT_255_1_234
10
23.9079248
20
195.1404
11
23.7585345
21
195.1404
0
LINE
8
DEFAULT_255_1_234
10
23.7585345
20
195.1404
11
23.7585345
21
195.4118728
0
LINE
8
DEFAULT_255_1_234
10
23.7585345
20
195.4118728
11
23.2260302
21
195.4118728
0
LINE
8
DEFAULT_255_1_234
10
23.2260302
20
195.4118728
11
23.2260302
21
195.4994187
0
LINE
8
DEFAULT_255_1_234
10
23.2260302
20
195.4994187
11
23.7496996
21
196.3098211
0
LINE
8
DEFAULT_255_1_234
10
23.7496996
20
196.3098211
11
23.9079248
21
196.3098211
0
LINE
8
DEFAULT_255_1_234
10
23.7408646
20
196.0744912
11
23.3946967
21
195.533152
0
LINE
8
DEFAULT_255_1_234
10
23.3946967
20
195.533152
11
23.7585345
21
195.533152
0
LINE
8
DEFAULT_255_1_234
10
23.7585345
20
195.533152
11
23.7585345
21
196.1066181
0
LINE
8
DEFAULT_255_1_234
10
23.7585345
20
196.1066181
11
23.7408646
21
196.0744912
0
LINE
8
DEFAULT_255_1_234
10
21.1455911
20
203.6987534
11
21.1455911
21
203.6248614
0
LINE
8
DEFAULT_255_1_234
10
20.2050745
20
203.6144201
11
20.2050745
21
203.6987534
0
LINE
8
DEFAULT_255_1_234
10
20.9921849
20
203.6136169
11
20.9921849
21
203.7003597
0
LINE
8
DEFAULT_255_1_234
10
20.3584807
20
203.710801
11
20.3584807
21
203.6248614
0
ARC
8
DEFAULT_255_1_234
10
20.2813937
20
203.6209015
40
0.8642064
50
350.487711
51
0.2625388
0
ARC
8
DEFAULT_255_1_234
10
20.5107178
20
203.5814578
40
0.631518
50
336.0277639
51
350.5787438
0
ARC
8
DEFAULT_255_1_234
10
20.6452002
20
203.5206892
40
0.4839466
50
319.8877444
51
336.1328423
0
ARC
8
DEFAULT_255_1_234
10
20.7054643
20
203.472458
40
0.4067874
50
302.4806467
51
319.6143626
0
ARC
8
DEFAULT_255_1_234
10
20.6939653
20
203.4946202
40
0.4316636
50
275.8195682
51
302.1884709
0
ARC
8
DEFAULT_255_1_234
10
20.6773286
20
203.6088665
40
0.5470306
50
269.9171439
51
276.3397983
0
ARC
8
DEFAULT_255_1_234
10
20.6728496
20
203.5402681
40
0.4784458
50
252.5219675
51
270.4416499
0
ARC
8
DEFAULT_255_1_234
10
20.6584755
20
203.4863592
40
0.422716
50
237.5352116
51
252.1857531
0
ARC
8
DEFAULT_255_1_234
10
20.6673951
20
203.4977363
40
0.4371052
50
209.063312
51
237.3492538
0
ARC
8
DEFAULT_255_1_234
10
20.7543799
20
203.5523685
40
0.5397041
50
205.1183774
51
209.6470015
0
ARC
8
DEFAULT_255_1_234
10
20.8340836
20
203.586183
40
0.6262326
50
188.7215458
51
204.8240747
0
ARC
8
DEFAULT_255_1_234
10
21.0338364
20
203.6198067
40
0.8287794
50
180.3723947
51
188.9252049
0
ARC
8
DEFAULT_255_1_234
10
21.0311116
20
203.7027402
40
0.8260467
50
169.5253763
51
180.2765336
0
ARC
8
DEFAULT_255_1_234
10
20.8408564
20
203.7377309
40
0.6326007
50
155.8315255
51
169.5089989
0
ARC
8
DEFAULT_255_1_234
10
20.7128066
20
203.7971348
40
0.4914567
50
139.6258461
51
156.0379525
0
ARC
8
DEFAULT_255_1_234
10
20.6538399
20
203.8445799
40
0.4158054
50
122.6416387
51
139.3430715
0
ARC
8
DEFAULT_255_1_234
10
20.6639019
20
203.8262451
40
0.4366739
50
93.0223692
51
122.455762
0
ARC
8
DEFAULT_255_1_234
10
20.6747016
20
203.7297709
40
0.5336137
50
89.975342
51
93.6341897
0
ARC
8
DEFAULT_255_1_234
10
20.6785795
20
203.7696242
40
0.4937738
50
73.746375
51
90.4233405
0
ARC
8
DEFAULT_255_1_234
10
20.6961373
20
203.8376287
40
0.4235786
50
57.662753
51
73.4518111
0
ARC
8
DEFAULT_255_1_234
10
20.695338
20
203.8397832
40
0.4221899
50
29.1440151
51
57.414694
0
ARC
8
DEFAULT_255_1_234
10
20.6018574
20
203.7814005
40
0.5322966
50
24.0982783
51
29.7323517
0
ARC
8
DEFAULT_255_1_234
10
20.498485
20
203.7385399
40
0.6441673
50
8.6655297
51
23.8241346
0
ARC
8
DEFAULT_255_1_234
10
20.2750588
20
203.7020854
40
0.8705386
50
359.7806941
51
8.8218784
0
ARC
8
DEFAULT_255_1_234
10
20.1603586
20
203.7046345
40
0.8318373
50
359.7055579
51
8.036044
0
ARC
8
DEFAULT_255_1_234
10
20.4603592
20
203.7483239
40
0.5286768
50
7.8928306
51
20.2962107
0
ARC
8
DEFAULT_255_1_234
10
20.6231162
20
203.8083395
40
0.3552073
50
20.3231126
51
36.4992797
0
ARC
8
DEFAULT_255_1_234
10
20.6916708
20
203.8611402
40
0.2686974
50
36.1437156
51
85.6627023
0
ARC
8
DEFAULT_255_1_234
10
20.6754254
20
203.7571221
40
0.373739
50
84.3852322
51
90.0757696
0
ARC
8
DEFAULT_255_1_234
10
20.6711927
20
203.8231839
40
0.3076997
50
89.3038458
51
109.9045693
0
ARC
8
DEFAULT_255_1_234
10
20.6619318
20
203.8614062
40
0.2686424
50
110.8228367
51
143.9179474
0
ARC
8
DEFAULT_255_1_234
10
20.7552978
20
203.7901236
40
0.3860887
50
143.5289163
51
163.2980757
0
ARC
8
DEFAULT_255_1_234
10
20.9460799
20
203.7301433
40
0.5860659
50
163.0418846
51
174.3140048
0
ARC
8
DEFAULT_255_1_234
10
21.1864911
20
203.7023854
40
0.8280531
50
174.0509143
51
179.4176892
0
ARC
8
DEFAULT_255_1_234
10
21.136065
20
203.6206954
40
0.7775954
50
179.6930361
51
188.7906598
0
ARC
8
DEFAULT_255_1_234
10
20.8697129
20
203.5780935
40
0.5078633
50
188.6331305
51
202.5629587
0
ARC
8
DEFAULT_255_1_234
10
20.7442721
20
203.5276996
40
0.3726913
50
202.8081362
51
216.1193925
0
ARC
8
DEFAULT_255_1_234
10
20.6633291
20
203.4625676
40
0.2689577
50
215.0755913
51
264.6379694
0
ARC
8
DEFAULT_255_1_234
10
20.676024
20
203.5456513
40
0.3528978
50
263.846392
51
270.0833719
0
ARC
8
DEFAULT_255_1_234
10
20.6801631
20
203.5198374
40
0.3271036
50
269.3649385
51
287.5152008
0
ARC
8
DEFAULT_255_1_234
10
20.6979788
20
203.4551238
40
0.2600406
50
288.0630309
51
323.8113348
0
ARC
8
DEFAULT_255_1_234
10
20.610863
20
203.5201049
40
0.3687189
50
323.6547608
51
342.6590488
0
ARC
8
DEFAULT_255_1_234
10
20.4077245
20
203.5861952
40
0.5823286
50
342.4091907
51
353.6451149
0
ARC
8
DEFAULT_255_1_234
10
20.1245756
20
203.621419
40
0.8676442
50
353.4029884
51
359.4847795
0
LINE
8
DEFAULT_255_1_234
10
22.0451458
20
204.2473211
11
22.2001583
21
204.2473211
0
LINE
8
DEFAULT_255_1_234
10
22.2001583
20
204.2473211
11
22.2001583
21
203.452179
0
LINE
8
DEFAULT_255_1_234
10
21.8162412
20
203.0634429
11
21.7752793
21
203.0618365
0
LINE
8
DEFAULT_255_1_234
10
21.3536131
20
203.4505727
11
21.3536131
21
204.2473211
0
LINE
8
DEFAULT_255_1_234
10
21.3536131
20
204.2473211
11
21.5062161
21
204.2473211
0
LINE
8
DEFAULT_255_1_234
10
21.5062161
20
204.2473211
11
21.5062161
21
203.4553917
0
LINE
8
DEFAULT_255_1_234
10
22.0451458
20
203.4545885
11
22.0451458
21
204.2473211
0
ARC
8
DEFAULT_255_1_234
10
21.7648481
20
203.4501928
40
0.4353147
50
343.0898354
51
0.2614217
0
ARC
8
DEFAULT_255_1_234
10
21.8476883
20
203.4270837
40
0.3493402
50
315.3345598
51
342.7641223
0
ARC
8
DEFAULT_255_1_234
10
21.8253332
20
203.4502682
40
0.3815385
50
284.6606969
51
315.2182466
0
ARC
8
DEFAULT_255_1_234
10
21.7798044
20
203.6048755
40
0.5426573
50
273.8500273
51
285.1797701
0
ARC
8
DEFAULT_255_1_234
10
21.7710095
20
203.6390475
40
0.5772268
50
257.6317484
51
270.4238298
0
ARC
8
DEFAULT_255_1_234
10
21.7285293
20
203.4569198
40
0.3902347
50
230.6087562
51
257.9964012
0
ARC
8
DEFAULT_255_1_234
10
21.7153295
20
203.4362802
40
0.3659186
50
227.7440991
51
230.1551448
0
ARC
8
DEFAULT_255_1_234
10
21.7019127
20
203.4201471
40
0.3449568
50
189.2524587
51
227.5916061
0
ARC
8
DEFAULT_255_1_234
10
21.8540813
20
203.4529013
40
0.5004737
50
180.2665968
51
190.1525252
0
ARC
8
DEFAULT_255_1_234
10
21.8762833
20
203.4525918
40
0.3700778
50
179.5665184
51
191.9952995
0
ARC
8
DEFAULT_255_1_234
10
21.7534939
20
203.4252043
40
0.2442808
50
191.6974072
51
215.1404042
0
ARC
8
DEFAULT_255_1_234
10
21.7296854
20
203.4110108
40
0.2166522
50
215.6950207
51
224.8513522
0
ARC
8
DEFAULT_255_1_234
10
21.7352598
20
203.4189697
40
0.2262237
50
225.2846858
51
255.0111758
0
ARC
8
DEFAULT_255_1_234
10
21.7676558
20
203.5303455
40
0.3421979
50
254.5944985
51
267.9129803
0
ARC
8
DEFAULT_255_1_234
10
21.7751038
20
203.6387903
40
0.4508556
50
267.4689655
51
270.0223026
0
ARC
8
DEFAULT_255_1_234
10
21.7781184
20
203.5798849
40
0.3919604
50
269.5849941
51
281.1843768
0
ARC
8
DEFAULT_255_1_234
10
21.8059948
20
203.4446059
40
0.2538457
50
280.9344262
51
300.9743589
0
ARC
8
DEFAULT_255_1_234
10
21.8272554
20
203.4054688
40
0.2093566
50
301.4980046
51
315.1466847
0
ARC
8
DEFAULT_255_1_234
10
21.8128092
20
203.4173236
40
0.2279656
50
315.5952539
51
345.6678731
0
ARC
8
DEFAULT_255_1_234
10
21.7008609
20
203.4485009
40
0.3441564
50
345.2524969
51
358.6304371
0
ARC
8
DEFAULT_255_1_234
10
21.5990963
20
203.4544916
40
0.4460494
50
358.1735671
51
0.0124524
0
LINE
8
DEFAULT_255_1_234
10
23.2515128
20
204.2473211
11
23.2515128
21
204.1204196
0
LINE
8
DEFAULT_255_1_234
10
23.2515128
20
204.1204196
11
22.8756275
21
204.1204196
0
LINE
8
DEFAULT_255_1_234
10
22.8756275
20
204.1204196
11
22.8756275
21
203.0779
0
LINE
8
DEFAULT_255_1_234
10
22.8756275
20
203.0779
11
22.7222213
21
203.0779
0
LINE
8
DEFAULT_255_1_234
10
22.7222213
20
203.0779
11
22.7222213
21
204.1204196
0
LINE
8
DEFAULT_255_1_234
10
22.7222213
20
204.1204196
11
22.3471391
21
204.1204196
0
LINE
8
DEFAULT_255_1_234
10
22.3471391
20
204.1204196
11
22.3471391
21
204.2473211
0
LINE
8
DEFAULT_255_1_234
10
22.3471391
20
204.2473211
11
23.2515128
21
204.2473211
0
LINE
8
DEFAULT_255_1_234
10
23.6024998
20
203.6136169
11
23.6024998
21
203.7348962
0
LINE
8
DEFAULT_255_1_234
10
23.6024998
20
203.7348962
11
23.714141
21
203.7348962
0
LINE
8
DEFAULT_255_1_234
10
23.5237888
20
203.9405087
11
23.3752016
21
203.9405087
0
LINE
8
DEFAULT_255_1_234
10
23.3647604
20
203.3863188
11
23.5141507
21
203.3863188
0
LINE
8
DEFAULT_255_1_234
10
23.714141
20
203.6136169
11
23.6024998
21
203.6136169
0
ARC
8
DEFAULT_255_1_234
10
23.7112276
20
204.0741713
40
0.3392876
50
270.4919872
51
281.8951556
0
ARC
8
DEFAULT_255_1_234
10
23.7353538
20
203.9639702
40
0.2264817
50
281.6691735
51
301.2943132
0
ARC
8
DEFAULT_255_1_234
10
23.7523748
20
203.9328304
40
0.1910381
50
301.7833094
51
311.7545298
0
ARC
8
DEFAULT_255_1_234
10
23.7615324
20
203.9226748
40
0.1773635
50
311.7323931
51
354.2802411
0
ARC
8
DEFAULT_255_1_234
10
23.6888949
20
203.9351722
40
0.2509385
50
353.0937916
51
0.1181479
0
ARC
8
DEFAULT_255_1_234
10
23.6427734
20
203.9399386
40
0.2970898
50
359.1805295
51
15.0453146
0
ARC
8
DEFAULT_255_1_234
10
23.7773571
20
203.9791992
40
0.1569564
50
13.9577229
51
77.6713066
0
ARC
8
DEFAULT_255_1_234
10
23.73871
20
203.8406949
40
0.3006298
50
76.1116566
51
90.7026153
0
ARC
8
DEFAULT_255_1_234
10
23.7327938
20
203.8680545
40
0.2732568
50
89.5324876
51
103.531937
0
ARC
8
DEFAULT_255_1_234
10
23.7127383
20
203.9479884
40
0.1908508
50
103.2931773
51
133.5619022
0
ARC
8
DEFAULT_255_1_234
10
23.7082871
20
203.9539375
40
0.1834746
50
133.8349307
51
173.5344437
0
ARC
8
DEFAULT_255_1_234
10
23.7805914
20
203.9411213
40
0.2568033
50
172.5096846
51
180.1366907
0
ARC
8
DEFAULT_255_1_234
10
23.6854808
20
203.9445622
40
0.3103056
50
155.3484492
51
180.7484736
0
ARC
8
DEFAULT_255_1_234
10
23.6805897
20
203.9416846
40
0.3070957
50
131.5744599
51
154.4798489
0
ARC
8
DEFAULT_255_1_234
10
23.7119044
20
203.910031
40
0.3515643
50
96.9875458
51
131.9690667
0
ARC
8
DEFAULT_255_1_234
10
23.7338524
20
203.7854636
40
0.4779224
50
89.8596053
51
97.7825159
0
ARC
8
DEFAULT_255_1_234
10
23.7386587
20
203.7592616
40
0.5041361
50
78.3655447
51
90.4131539
0
ARC
8
DEFAULT_255_1_234
10
23.7744505
20
203.9251887
40
0.3344039
50
56.6229102
51
78.638727
0
ARC
8
DEFAULT_255_1_234
10
23.7959449
20
203.9627805
40
0.2912001
50
47.0253525
51
56.0854072
0
ARC
8
DEFAULT_255_1_234
10
23.7979229
20
203.9667223
40
0.2869704
50
10.9208013
51
46.7778124
0
ARC
8
DEFAULT_255_1_234
10
23.6615295
20
203.9351857
40
0.426899
50
359.6364486
51
11.6087304
0
ARC
8
DEFAULT_255_1_234
10
23.845014
20
203.9336752
40
0.243409
50
332.3549906
51
359.7179418
0
ARC
8
DEFAULT_255_1_234
10
23.7799741
20
203.9645142
40
0.3153459
50
325.2333722
51
332.8745602
0
ARC
8
DEFAULT_255_1_234
10
23.7952365
20
203.9538828
40
0.2967456
50
292.9802137
51
325.2392345
0
ARC
8
DEFAULT_255_1_234
10
23.7677739
20
204.0072863
40
0.3566604
50
292.5402179
51
293.6924929
0
ARC
8
DEFAULT_255_1_234
10
23.8070334
20
203.3618091
40
0.3307468
50
57.6435486
51
72.8625112
0
ARC
8
DEFAULT_255_1_234
10
23.8424834
20
203.4192549
40
0.2632492
50
36.7248896
51
57.4697979
0
ARC
8
DEFAULT_255_1_234
10
23.8413467
20
203.420522
40
0.2634081
50
8.0545065
51
36.356114
0
ARC
8
DEFAULT_255_1_234
10
23.7550652
20
203.4050174
40
0.3510261
50
359.8320645
51
8.5869982
0
ARC
8
DEFAULT_255_1_234
10
23.7175428
20
203.4002101
40
0.3885653
50
343.9829931
51
0.5571613
0
ARC
8
DEFAULT_255_1_234
10
23.8061626
20
203.3759438
40
0.2966924
50
311.6359546
51
343.7651759
0
ARC
8
DEFAULT_255_1_234
10
23.7683195
20
203.4186102
40
0.3537231
50
279.7829875
51
311.6255694
0
ARC
8
DEFAULT_255_1_234
10
23.7381971
20
203.562328
40
0.5004971
50
269.7286406
51
280.3856417
0
ARC
8
DEFAULT_255_1_234
10
23.7320043
20
203.5581996
40
0.4963778
50
256.6828919
51
270.4412052
0
ARC
8
DEFAULT_255_1_234
10
23.6981339
20
203.4197394
40
0.3538406
50
229.4223008
51
256.8556159
0
ARC
8
DEFAULT_255_1_234
10
23.6566732
20
203.3730736
40
0.2914296
50
181.818294
51
229.6455059
0
ARC
8
DEFAULT_255_1_234
10
23.7606688
20
203.3861496
40
0.3959084
50
179.9755256
51
183.2323064
0
ARC
8
DEFAULT_255_1_234
10
23.7434434
20
203.3841037
40
0.2293034
50
179.4465117
51
196.2869258
0
ARC
8
DEFAULT_255_1_234
10
23.6946842
20
203.3707651
40
0.1787621
50
196.5661473
51
227.705904
0
ARC
8
DEFAULT_255_1_234
10
23.7110937
20
203.3891155
40
0.2033784
50
227.7652068
51
257.8762805
0
ARC
8
DEFAULT_255_1_234
10
23.7335907
20
203.4834156
40
0.3003081
50
257.4584385
51
270.426602
0
ARC
8
DEFAULT_255_1_234
10
23.7381473
20
203.5123996
40
0.329292
50
269.5962073
51
280.8789248
0
ARC
8
DEFAULT_255_1_234
10
23.7611002
20
203.3977685
40
0.2123908
50
280.6346389
51
299.8595945
0
ARC
8
DEFAULT_255_1_234
10
23.7801909
20
203.3615212
40
0.171457
50
300.3576302
51
314.5517981
0
ARC
8
DEFAULT_255_1_234
10
23.7718969
20
203.3675919
40
0.1816095
50
315.0728369
51
345.0431014
0
ARC
8
DEFAULT_255_1_234
10
23.6795783
20
203.3944841
40
0.2777492
50
344.5986631
51
357.9269593
0
ARC
8
DEFAULT_255_1_234
10
23.590011
20
203.4006276
40
0.3674917
50
357.4748886
51
0.0231117
0
ARC
8
DEFAULT_255_1_234
10
23.6923219
20
203.4030679
40
0.2651907
50
359.5047933
51
13.4239635
0
ARC
8
DEFAULT_255_1_234
10
23.7789863
20
203.4252478
40
0.1757509
50
12.9498199
51
48.7551375
0
ARC
8
DEFAULT_255_1_234
10
23.7607597
20
203.40034
40
0.2065134
50
49.5088623
51
72.1836453
0
ARC
8
DEFAULT_255_1_234
10
23.7249749
20
203.2941291
40
0.3185836
50
71.9010081
51
84.3554254
0
ARC
8
DEFAULT_255_1_234
10
23.7088381
20
203.1580326
40
0.4556151
50
84.0193428
51
89.333121
0
LINE
8
DEFAULT_255_1_234
10
21.1455911
20
211.6362534
11
21.1455911
21
211.5623614
0
LINE
8
DEFAULT_255_1_234
10
20.2050745
20
211.5519201
11
20.2050745
21
211.6362534
0
LINE
8
DEFAULT_255_1_234
10
20.9921849
20
211.5511169
11
20.9921849
21
211.6378597
0
LINE
8
DEFAULT_255_1_234
10
20.3584807
20
211.648301
11
20.3584807
21
211.5623614
0
ARC
8
DEFAULT_255_1_234
10
20.2813937
20
211.5584015
40
0.8642064
50
350.487711
51
0.2625388
0
ARC
8
DEFAULT_255_1_234
10
20.5107178
20
211.5189578
40
0.631518
50
336.0277639
51
350.5787438
0
ARC
8
DEFAULT_255_1_234
10
20.6452002
20
211.4581892
40
0.4839466
50
319.8877444
51
336.1328423
0
ARC
8
DEFAULT_255_1_234
10
20.7054643
20
211.409958
40
0.4067874
50
302.4806467
51
319.6143626
0
ARC
8
DEFAULT_255_1_234
10
20.6939653
20
211.4321202
40
0.4316636
50
275.8195682
51
302.1884709
0
ARC
8
DEFAULT_255_1_234
10
20.6773286
20
211.5463665
40
0.5470306
50
269.9171439
51
276.3397983
0
ARC
8
DEFAULT_255_1_234
10
20.6728496
20
211.4777681
40
0.4784458
50
252.5219675
51
270.4416499
0
ARC
8
DEFAULT_255_1_234
10
20.6584755
20
211.4238592
40
0.422716
50
237.5352116
51
252.1857531
0
ARC
8
DEFAULT_255_1_234
10
20.6673951
20
211.4352363
40
0.4371052
50
209.063312
51
237.3492538
0
ARC
8
DEFAULT_255_1_234
10
20.7543799
20
211.4898685
40
0.5397041
50
205.1183774
51
209.6470015
0
ARC
8
DEFAULT_255_1_234
10
20.8340836
20
211.523683
40
0.6262326
50
188.7215458
51
204.8240747
0
ARC
8
DEFAULT_255_1_234
10
21.0338364
20
211.5573067
40
0.8287794
50
180.3723947
51
188.9252049
0
ARC
8
DEFAULT_255_1_234
10
21.0311116
20
211.6402402
40
0.8260467
50
169.5253763
51
180.2765336
0
ARC
8
DEFAULT_255_1_234
10
20.8408564
20
211.6752309
40
0.6326007
50
155.8315255
51
169.5089989
0
ARC
8
DEFAULT_255_1_234
10
20.7128066
20
211.7346348
40
0.4914567
50
139.6258461
51
156.0379525
0
ARC
8
DEFAULT_255_1_234
10
20.6538399
20
211.7820799
40
0.4158054
50
122.6416387
51
139.3430715
0
ARC
8
DEFAULT_255_1_234
10
20.6639019
20
211.7637451
40
0.4366739
50
93.0223692
51
122.455762
0
ARC
8
DEFAULT_255_1_234
10
20.6747016
20
211.6672709
40
0.5336137
50
89.975342
51
93.6341897
0
ARC
8
DEFAULT_255_1_234
10
20.6785795
20
211.7071242
40
0.4937738
50
73.746375
51
90.4233405
0
ARC
8
DEFAULT_255_1_234
10
20.6961373
20
211.7751287
40
0.4235786
50
57.662753
51
73.4518111
0
ARC
8
DEFAULT_255_1_234
10
20.695338
20
211.7772832
40
0.4221899
50
29.1440151
51
57.414694
0
ARC
8
DEFAULT_255_1_234
10
20.6018574
20
211.7189005
40
0.5322966
50
24.0982783
51
29.7323517
0
ARC
8
DEFAULT_255_1_234
10
20.498485
20
211.6760399
40
0.6441673
50
8.6655297
51
23.8241346
0
ARC
8
DEFAULT_255_1_234
10
20.2750588
20
211.6395854
40
0.8705386
50
359.7806941
51
8.8218784
0
ARC
8
DEFAULT_255_1_234
10
20.1603586
20
211.6421345
40
0.8318373
50
359.7055579
51
8.036044
0
ARC
8
DEFAULT_255_1_234
10
20.4603592
20
211.6858239
40
0.5286768
50
7.8928306
51
20.2962107
0
ARC
8
DEFAULT_255_1_234
10
20.6231162
20
211.7458395
40
0.3552073
50
20.3231126
51
36.4992797
0
ARC
8
DEFAULT_255_1_234
10
20.6916708
20
211.7986402
40
0.2686974
50
36.1437156
51
85.6627023
0
ARC
8
DEFAULT_255_1_234
10
20.6754254
20
211.6946221
40
0.373739
50
84.3852322
51
90.0757696
0
ARC
8
DEFAULT_255_1_234
10
20.6711927
20
211.7606839
40
0.3076997
50
89.3038458
51
109.9045693
0
ARC
8
DEFAULT_255_1_234
10
20.6619318
20
211.7989062
40
0.2686424
50
110.8228367
51
143.9179474
0
ARC
8
DEFAULT_255_1_234
10
20.7552978
20
211.7276236
40
0.3860887
50
143.5289163
51
163.2980757
0
ARC
8
DEFAULT_255_1_234
10
20.9460799
20
211.6676433
40
0.5860659
50
163.0418846
51
174.3140048
0
ARC
8
DEFAULT_255_1_234
10
21.1864911
20
211.6398854
40
0.8280531
50
174.0509143
51
179.4176892
0
ARC
8
DEFAULT_255_1_234
10
21.136065
20
211.5581954
40
0.7775954
50
179.6930361
51
188.7906598
0
ARC
8
DEFAULT_255_1_234
10
20.8697129
20
211.5155935
40
0.5078633
50
188.6331305
51
202.5629587
0
ARC
8
DEFAULT_255_1_234
10
20.7442721
20
211.4651996
40
0.3726913
50
202.8081362
51
216.1193925
0
ARC
8
DEFAULT_255_1_234
10
20.6633291
20
211.4000676
40
0.2689577
50
215.0755913
51
264.6379694
0
ARC
8
DEFAULT_255_1_234
10
20.676024
20
211.4831513
40
0.3528978
50
263.846392
51
270.0833719
0
ARC
8
DEFAULT_255_1_234
10
20.6801631
20
211.4573374
40
0.3271036
50
269.3649385
51
287.5152008
0
ARC
8
DEFAULT_255_1_234
10
20.6979788
20
211.3926238
40
0.2600406
50
288.0630309
51
323.8113348
0
ARC
8
DEFAULT_255_1_234
10
20.610863
20
211.4576049
40
0.3687189
50
323.6547608
51
342.6590488
0
ARC
8
DEFAULT_255_1_234
10
20.4077245
20
211.5236952
40
0.5823286
50
342.4091907
51
353.6451149
0
ARC
8
DEFAULT_255_1_234
10
20.1245756
20
211.558919
40
0.8676442
50
353.4029884
51
359.4847795
0
LINE
8
DEFAULT_255_1_234
10
22.0451458
20
212.1848211
11
22.2001583
21
212.1848211
0
LINE
8
DEFAULT_255_1_234
10
22.2001583
20
212.1848211
11
22.2001583
21
211.389679
0
LINE
8
DEFAULT_255_1_234
10
21.8162412
20
211.0009429
11
21.7752793
21
210.9993365
0
LINE
8
DEFAULT_255_1_234
10
21.3536131
20
211.3880727
11
21.3536131
21
212.1848211
0
LINE
8
DEFAULT_255_1_234
10
21.3536131
20
212.1848211
11
21.5062161
21
212.1848211
0
LINE
8
DEFAULT_255_1_234
10
21.5062161
20
212.1848211
11
21.5062161
21
211.3928917
0
LINE
8
DEFAULT_255_1_234
10
22.0451458
20
211.3920885
11
22.0451458
21
212.1848211
0
ARC
8
DEFAULT_255_1_234
10
21.7648481
20
211.3876928
40
0.4353147
50
343.0898354
51
0.2614217
0
ARC
8
DEFAULT_255_1_234
10
21.8476883
20
211.3645837
40
0.3493402
50
315.3345598
51
342.7641223
0
ARC
8
DEFAULT_255_1_234
10
21.8253332
20
211.3877682
40
0.3815385
50
284.6606969
51
315.2182466
0
ARC
8
DEFAULT_255_1_234
10
21.7798044
20
211.5423755
40
0.5426573
50
273.8500273
51
285.1797701
0
ARC
8
DEFAULT_255_1_234
10
21.7710095
20
211.5765475
40
0.5772268
50
257.6317484
51
270.4238298
0
ARC
8
DEFAULT_255_1_234
10
21.7285293
20
211.3944198
40
0.3902347
50
230.6087562
51
257.9964012
0
ARC
8
DEFAULT_255_1_234
10
21.7153295
20
211.3737802
40
0.3659186
50
227.7440991
51
230.1551448
0
ARC
8
DEFAULT_255_1_234
10
21.7019127
20
211.3576471
40
0.3449568
50
189.2524587
51
227.5916061
0
ARC
8
DEFAULT_255_1_234
10
21.8540813
20
211.3904013
40
0.5004737
50
180.2665968
51
190.1525252
0
ARC
8
DEFAULT_255_1_234
10
21.8762833
20
211.3900918
40
0.3700778
50
179.5665184
51
191.9952995
0
ARC
8
DEFAULT_255_1_234
10
21.7534939
20
211.3627043
40
0.2442808
50
191.6974072
51
215.1404042
0
ARC
8
DEFAULT_255_1_234
10
21.7296854
20
211.3485108
40
0.2166522
50
215.6950207
51
224.8513522
0
ARC
8
DEFAULT_255_1_234
10
21.7352598
20
211.3564697
40
0.2262237
50
225.2846858
51
255.0111758
0
ARC
8
DEFAULT_255_1_234
10
21.7676558
20
211.4678455
40
0.3421979
50
254.5944985
51
267.9129803
0
ARC
8
DEFAULT_255_1_234
10
21.7751038
20
211.5762903
40
0.4508556
50
267.4689655
51
270.0223026
0
ARC
8
DEFAULT_255_1_234
10
21.7781184
20
211.5173849
40
0.3919604
50
269.5849941
51
281.1843768
0
ARC
8
DEFAULT_255_1_234
10
21.8059948
20
211.3821059
40
0.2538457
50
280.9344262
51
300.9743589
0
ARC
8
DEFAULT_255_1_234
10
21.8272554
20
211.3429688
40
0.2093566
50
301.4980046
51
315.1466847
0
ARC
8
DEFAULT_255_1_234
10
21.8128092
20
211.3548236
40
0.2279656
50
315.5952539
51
345.6678731
0
ARC
8
DEFAULT_255_1_234
10
21.7008609
20
211.3860009
40
0.3441564
50
345.2524969
51
358.6304371
0
ARC
8
DEFAULT_255_1_234
10
21.5990963
20
211.3919916
40
0.4460494
50
358.1735671
51
0.0124524
0
LINE
8
DEFAULT_255_1_234
10
23.2515128
20
212.1848211
11
23.2515128
21
212.0579196
0
LINE
8
DEFAULT_255_1_234
10
23.2515128
20
212.0579196
11
22.8756275
21
212.0579196
0
LINE
8
DEFAULT_255_1_234
10
22.8756275
20
212.0579196
11
22.8756275
21
211.0154
0
LINE
8
DEFAULT_255_1_234
10
22.8756275
20
211.0154
11
22.7222213
21
211.0154
0
LINE
8
DEFAULT_255_1_234
10
22.7222213
20
211.0154
11
22.7222213
21
212.0579196
0
LINE
8
DEFAULT_255_1_234
10
22.7222213
20
212.0579196
11
22.3471391
21
212.0579196
0
LINE
8
DEFAULT_255_1_234
10
22.3471391
20
212.0579196
11
22.3471391
21
212.1848211
0
LINE
8
DEFAULT_255_1_234
10
22.3471391
20
212.1848211
11
23.2515128
21
212.1848211
0
LINE
8
DEFAULT_255_1_234
10
24.1526739
20
211.1366792
11
24.1526739
21
211.0154
0
LINE
8
DEFAULT_255_1_234
10
24.1526739
20
211.0154
11
23.386446
21
211.0154
0
LINE
8
DEFAULT_255_1_234
10
23.386446
20
211.0154
11
23.386446
21
211.1222221
0
LINE
8
DEFAULT_255_1_234
10
23.386446
20
211.1222221
11
23.7912457
21
211.5719995
0
LINE
8
DEFAULT_255_1_234
10
23.5125443
20
211.8402595
11
23.3639572
21
211.8402595
0
LINE
8
DEFAULT_255_1_234
10
23.8787916
20
211.4764218
11
23.5655538
21
211.1366792
0
LINE
8
DEFAULT_255_1_234
10
23.5655538
20
211.1366792
11
24.1526739
21
211.1366792
0
ARC
8
DEFAULT_255_1_234
10
22.442229
20
212.7649527
40
1.8008286
50
318.5132453
51
320.7828378
0
ARC
8
DEFAULT_255_1_234
10
22.9709264
20
212.3346426
40
1.1191493
50
320.7372736
51
323.9737074
0
ARC
8
DEFAULT_255_1_234
10
23.3629121
20
212.0506361
40
0.6350923
50
323.8961724
51
328.6421089
0
ARC
8
DEFAULT_255_1_234
10
23.5675716
20
211.9244031
40
0.3946393
50
328.8299013
51
331.789948
0
ARC
8
DEFAULT_255_1_234
10
23.6672895
20
211.8729509
40
0.2824501
50
331.4255242
51
352.9364833
0
ARC
8
DEFAULT_255_1_234
10
23.6809395
20
211.8698976
40
0.2685315
50
353.2248685
51
0.0169286
0
ARC
8
DEFAULT_255_1_234
10
23.7019272
20
211.872195
40
0.2475536
50
359.4866256
51
15.9339782
0
ARC
8
DEFAULT_255_1_234
10
23.7526257
20
211.8858286
40
0.1950618
50
16.1714718
51
43.5284424
0
ARC
8
DEFAULT_255_1_234
10
23.7603566
20
211.8935573
40
0.184134
50
43.4415429
51
83.1661404
0
ARC
8
DEFAULT_255_1_234
10
23.7469484
20
211.8198771
40
0.258926
50
82.160215
51
90.1505798
0
ARC
8
DEFAULT_255_1_234
10
23.7437912
20
211.7661865
40
0.3126255
50
89.5460705
51
102.5418777
0
ARC
8
DEFAULT_255_1_234
10
23.7194998
20
211.8692665
40
0.2067346
50
102.1739365
51
129.2061916
0
ARC
8
DEFAULT_255_1_234
10
23.7116069
20
211.8817094
40
0.1921118
50
129.7279328
51
135.7542026
0
ARC
8
DEFAULT_255_1_234
10
23.7237597
20
211.8720045
40
0.2075944
50
136.175737
51
166.3674722
0
ARC
8
DEFAULT_255_1_234
10
23.8244516
20
211.8450182
40
0.3118201
50
165.9092917
51
178.8683903
0
ARC
8
DEFAULT_255_1_234
10
23.9109378
20
211.8403179
40
0.3983935
50
178.438168
51
180.0083905
0
ARC
8
DEFAULT_255_1_234
10
23.770798
20
211.8442231
40
0.4068601
50
163.2878735
51
180.5581814
0
ARC
8
DEFAULT_255_1_234
10
23.6906241
20
211.866284
40
0.3237344
50
133.454115
51
162.9470031
0
ARC
8
DEFAULT_255_1_234
10
23.7084782
20
211.8473
40
0.349795
50
100.7869394
51
133.4384016
0
ARC
8
DEFAULT_255_1_234
10
23.7432554
20
211.6924319
40
0.5084616
50
89.6605301
51
101.3704185
0
ARC
8
DEFAULT_255_1_234
10
23.7498893
20
211.6985496
40
0.502348
50
78.2171172
51
90.4130393
0
ARC
8
DEFAULT_255_1_234
10
23.7853971
20
211.8609637
40
0.3361092
50
55.9268222
51
78.4888551
0
ARC
8
DEFAULT_255_1_234
10
23.8050411
20
211.8948324
40
0.2970617
50
47.9292255
51
55.4054003
0
ARC
8
DEFAULT_255_1_234
10
23.8151972
20
211.9051502
40
0.2825983
50
4.3347696
51
48.0560701
0
ARC
8
DEFAULT_255_1_234
10
23.7056365
20
211.8881601
40
0.393225
50
359.925209
51
5.5967654
0
ARC
8
DEFAULT_255_1_234
10
23.7485257
20
211.8937816
40
0.3503892
50
337.8914096
51
358.9967724
0
ARC
8
DEFAULT_255_1_234
10
23.4771669
20
211.9984706
40
0.6412172
50
326.9135351
51
338.3505194
0
ARC
8
DEFAULT_255_1_234
10
23.0785973
20
212.2539284
40
1.1146189
50
319.6472867
51
327.095818
0
ARC
8
DEFAULT_255_1_234
10
22.6952976
20
212.5701
40
1.6114559
50
317.2586784
51
319.9046139
0
LINE
8
DEFAULT_255_1_234
10
21.1542911
20
219.5737534
11
21.1542911
21
219.4998614
0
LINE
8
DEFAULT_255_1_234
10
20.2137745
20
219.4894201
11
20.2137745
21
219.5737534
0
LINE
8
DEFAULT_255_1_234
10
21.0008849
20
219.4886169
11
21.0008849
21
219.5753597
0
LINE
8
DEFAULT_255_1_234
10
20.3671807
20
219.585801
11
20.3671807
21
219.4998614
0
ARC
8
DEFAULT_255_1_234
10
20.2900937
20
219.4959015
40
0.8642064
50
350.487711
51
0.2625388
0
ARC
8
DEFAULT_255_1_234
10
20.5194178
20
219.4564578
40
0.631518
50
336.0277639
51
350.5787438
0
ARC
8
DEFAULT_255_1_234
10
20.6539002
20
219.3956892
40
0.4839466
50
319.8877444
51
336.1328423
0
ARC
8
DEFAULT_255_1_234
10
20.7141643
20
219.347458
40
0.4067874
50
302.4806467
51
319.6143626
0
ARC
8
DEFAULT_255_1_234
10
20.7026653
20
219.3696202
40
0.4316636
50
275.8195682
51
302.1884709
0
ARC
8
DEFAULT_255_1_234
10
20.6860286
20
219.4838665
40
0.5470306
50
269.9171439
51
276.3397983
0
ARC
8
DEFAULT_255_1_234
10
20.6815496
20
219.4152681
40
0.4784458
50
252.5219675
51
270.4416499
0
ARC
8
DEFAULT_255_1_234
10
20.6671755
20
219.3613592
40
0.422716
50
237.5352116
51
252.1857531
0
ARC
8
DEFAULT_255_1_234
10
20.6760951
20
219.3727363
40
0.4371052
50
209.063312
51
237.3492538
0
ARC
8
DEFAULT_255_1_234
10
20.7630799
20
219.4273685
40
0.5397041
50
205.1183774
51
209.6470015
0
ARC
8
DEFAULT_255_1_234
10
20.8427836
20
219.461183
40
0.6262326
50
188.7215458
51
204.8240747
0
ARC
8
DEFAULT_255_1_234
10
21.0425364
20
219.4948067
40
0.8287794
50
180.3723947
51
188.9252049
0
ARC
8
DEFAULT_255_1_234
10
21.0398116
20
219.5777402
40
0.8260467
50
169.5253763
51
180.2765336
0
ARC
8
DEFAULT_255_1_234
10
20.8495564
20
219.6127309
40
0.6326007
50
155.8315255
51
169.5089989
0
ARC
8
DEFAULT_255_1_234
10
20.7215066
20
219.6721348
40
0.4914567
50
139.6258461
51
156.0379525
0
ARC
8
DEFAULT_255_1_234
10
20.6625399
20
219.7195799
40
0.4158054
50
122.6416387
51
139.3430715
0
ARC
8
DEFAULT_255_1_234
10
20.6726019
20
219.7012451
40
0.4366739
50
93.0223692
51
122.455762
0
ARC
8
DEFAULT_255_1_234
10
20.6834016
20
219.6047709
40
0.5336137
50
89.975342
51
93.6341897
0
ARC
8
DEFAULT_255_1_234
10
20.6872795
20
219.6446242
40
0.4937738
50
73.746375
51
90.4233405
0
ARC
8
DEFAULT_255_1_234
10
20.7048373
20
219.7126287
40
0.4235786
50
57.662753
51
73.4518111
0
ARC
8
DEFAULT_255_1_234
10
20.704038
20
219.7147832
40
0.4221899
50
29.1440151
51
57.414694
0
ARC
8
DEFAULT_255_1_234
10
20.6105574
20
219.6564005
40
0.5322966
50
24.0982783
51
29.7323517
0
ARC
8
DEFAULT_255_1_234
10
20.507185
20
219.6135399
40
0.6441673
50
8.6655297
51
23.8241346
0
ARC
8
DEFAULT_255_1_234
10
20.2837588
20
219.5770854
40
0.8705386
50
359.7806941
51
8.8218784
0
ARC
8
DEFAULT_255_1_234
10
20.1690586
20
219.5796345
40
0.8318373
50
359.7055579
51
8.036044
0
ARC
8
DEFAULT_255_1_234
10
20.4690592
20
219.6233239
40
0.5286768
50
7.8928306
51
20.2962107
0
ARC
8
DEFAULT_255_1_234
10
20.6318162
20
219.6833395
40
0.3552073
50
20.3231126
51
36.4992797
0
ARC
8
DEFAULT_255_1_234
10
20.7003708
20
219.7361402
40
0.2686974
50
36.1437156
51
85.6627023
0
ARC
8
DEFAULT_255_1_234
10
20.6841254
20
219.6321221
40
0.373739
50
84.3852322
51
90.0757696
0
ARC
8
DEFAULT_255_1_234
10
20.6798927
20
219.6981839
40
0.3076997
50
89.3038458
51
109.9045693
0
ARC
8
DEFAULT_255_1_234
10
20.6706318
20
219.7364062
40
0.2686424
50
110.8228367
51
143.9179474
0
ARC
8
DEFAULT_255_1_234
10
20.7639978
20
219.6651236
40
0.3860887
50
143.5289163
51
163.2980757
0
ARC
8
DEFAULT_255_1_234
10
20.9547799
20
219.6051433
40
0.5860659
50
163.0418846
51
174.3140048
0
ARC
8
DEFAULT_255_1_234
10
21.1951911
20
219.5773854
40
0.8280531
50
174.0509143
51
179.4176892
0
ARC
8
DEFAULT_255_1_234
10
21.144765
20
219.4956954
40
0.7775954
50
179.6930361
51
188.7906598
0
ARC
8
DEFAULT_255_1_234
10
20.8784129
20
219.4530935
40
0.5078633
50
188.6331305
51
202.5629587
0
ARC
8
DEFAULT_255_1_234
10
20.7529721
20
219.4026996
40
0.3726913
50
202.8081362
51
216.1193925
0
ARC
8
DEFAULT_255_1_234
10
20.6720291
20
219.3375676
40
0.2689577
50
215.0755913
51
264.6379694
0
ARC
8
DEFAULT_255_1_234
10
20.684724
20
219.4206513
40
0.3528978
50
263.846392
51
270.0833719
0
ARC
8
DEFAULT_255_1_234
10
20.6888631
20
219.3948374
40
0.3271036
50
269.3649385
51
287.5152008
0
ARC
8
DEFAULT_255_1_234
10
20.7066788
20
219.3301238
40
0.2600406
50
288.0630309
51
323.8113348
0
ARC
8
DEFAULT_255_1_234
10
20.619563
20
219.3951049
40
0.3687189
50
323.6547608
51
342.6590488
0
ARC
8
DEFAULT_255_1_234
10
20.4164245
20
219.4611952
40
0.5823286
50
342.4091907
51
353.6451149
0
ARC
8
DEFAULT_255_1_234
10
20.1332756
20
219.496419
40
0.8676442
50
353.4029884
51
359.4847795
0
LINE
8
DEFAULT_255_1_234
10
22.0538458
20
220.1223211
11
22.2088583
21
220.1223211
0
LINE
8
DEFAULT_255_1_234
10
22.2088583
20
220.1223211
11
22.2088583
21
219.327179
0
LINE
8
DEFAULT_255_1_234
10
21.8249412
20
218.9384429
11
21.7839793
21
218.9368365
0
LINE
8
DEFAULT_255_1_234
10
21.3623131
20
219.3255727
11
21.3623131
21
220.1223211
0
LINE
8
DEFAULT_255_1_234
10
21.3623131
20
220.1223211
11
21.5149161
21
220.1223211
0
LINE
8
DEFAULT_255_1_234
10
21.5149161
20
220.1223211
11
21.5149161
21
219.3303917
0
LINE
8
DEFAULT_255_1_234
10
22.0538458
20
219.3295885
11
22.0538458
21
220.1223211
0
ARC
8
DEFAULT_255_1_234
10
21.7735481
20
219.3251928
40
0.4353147
50
343.0898354
51
0.2614217
0
ARC
8
DEFAULT_255_1_234
10
21.8563883
20
219.3020837
40
0.3493402
50
315.3345598
51
342.7641223
0
ARC
8
DEFAULT_255_1_234
10
21.8340332
20
219.3252682
40
0.3815385
50
284.6606969
51
315.2182466
0
ARC
8
DEFAULT_255_1_234
10
21.7885044
20
219.4798755
40
0.5426573
50
273.8500273
51
285.1797701
0
ARC
8
DEFAULT_255_1_234
10
21.7797095
20
219.5140475
40
0.5772268
50
257.6317484
51
270.4238298
0
ARC
8
DEFAULT_255_1_234
10
21.7372293
20
219.3319198
40
0.3902347
50
230.6087562
51
257.9964012
0
ARC
8
DEFAULT_255_1_234
10
21.7240295
20
219.3112802
40
0.3659186
50
227.7440991
51
230.1551448
0
ARC
8
DEFAULT_255_1_234
10
21.7106127
20
219.2951471
40
0.3449568
50
189.2524587
51
227.5916061
0
ARC
8
DEFAULT_255_1_234
10
21.8627813
20
219.3279013
40
0.5004737
50
180.2665968
51
190.1525252
0
ARC
8
DEFAULT_255_1_234
10
21.8849833
20
219.3275918
40
0.3700778
50
179.5665184
51
191.9952995
0
ARC
8
DEFAULT_255_1_234
10
21.7621939
20
219.3002043
40
0.2442808
50
191.6974072
51
215.1404042
0
ARC
8
DEFAULT_255_1_234
10
21.7383854
20
219.2860108
40
0.2166522
50
215.6950207
51
224.8513522
0
ARC
8
DEFAULT_255_1_234
10
21.7439598
20
219.2939697
40
0.2262237
50
225.2846858
51
255.0111758
0
ARC
8
DEFAULT_255_1_234
10
21.7763558
20
219.4053455
40
0.3421979
50
254.5944985
51
267.9129803
0
ARC
8
DEFAULT_255_1_234
10
21.7838038
20
219.5137903
40
0.4508556
50
267.4689655
51
270.0223026
0
ARC
8
DEFAULT_255_1_234
10
21.7868184
20
219.4548849
40
0.3919604
50
269.5849941
51
281.1843768
0
ARC
8
DEFAULT_255_1_234
10
21.8146948
20
219.3196059
40
0.2538457
50
280.9344262
51
300.9743589
0
ARC
8
DEFAULT_255_1_234
10
21.8359554
20
219.2804688
40
0.2093566
50
301.4980046
51
315.1466847
0
ARC
8
DEFAULT_255_1_234
10
21.8215092
20
219.2923236
40
0.2279656
50
315.5952539
51
345.6678731
0
ARC
8
DEFAULT_255_1_234
10
21.7095609
20
219.3235009
40
0.3441564
50
345.2524969
51
358.6304371
0
ARC
8
DEFAULT_255_1_234
10
21.6077963
20
219.3294916
40
0.4460494
50
358.1735671
51
0.0124524
0
LINE
8
DEFAULT_255_1_234
10
23.2602128
20
220.1223211
11
23.2602128
21
219.9954196
0
LINE
8
DEFAULT_255_1_234
10
23.2602128
20
219.9954196
11
22.8843275
21
219.9954196
0
LINE
8
DEFAULT_255_1_234
10
22.8843275
20
219.9954196
11
22.8843275
21
218.9529
0
LINE
8
DEFAULT_255_1_234
10
22.8843275
20
218.9529
11
22.7309213
21
218.9529
0
LINE
8
DEFAULT_255_1_234
10
22.7309213
20
218.9529
11
22.7309213
21
219.9954196
0
LINE
8
DEFAULT_255_1_234
10
22.7309213
20
219.9954196
11
22.3558391
21
219.9954196
0
LINE
8
DEFAULT_255_1_234
10
22.3558391
20
219.9954196
11
22.3558391
21
220.1223211
0
LINE
8
DEFAULT_255_1_234
10
22.3558391
20
220.1223211
11
23.2602128
21
220.1223211
0
LINE
8
DEFAULT_255_1_234
10
23.8834757
20
220.1279433
11
23.8834757
21
218.9529
0
LINE
8
DEFAULT_255_1_234
10
23.8834757
20
218.9529
11
23.7340854
21
218.9529
0
LINE
8
DEFAULT_255_1_234
10
23.7340854
20
218.9529
11
23.7340854
21
219.9432133
0
LINE
8
DEFAULT_255_1_234
10
23.7340854
20
219.9432133
11
23.4345016
21
219.8331785
0
LINE
8
DEFAULT_255_1_234
10
23.4345016
20
219.8331785
11
23.4345016
21
219.9681117
0
LINE
8
DEFAULT_255_1_234
10
23.4345016
20
219.9681117
11
23.8601837
21
220.1279433
0
LINE
8
DEFAULT_255_1_234
10
23.8601837
20
220.1279433
11
23.8834757
21
220.1279433
0
ENDSEC
0
EOF