0
SECTION
2
HEADER
9
$MEASUREMENT
70
1
0
ENDSEC
0
SECTION
2
TABLES
0
TABLE
2
LTYPE
0
LTYPE
72
65
70
64
2
CONTINUOUS
3
______
73
0
40
0
0
ENDTAB
0
TABLE
2
LAYER
0
LAYER
2
DEFAULT_255_2_778
70
0
62
255
6
CONTINUOUS
0
LAYER
2
DEFAULT_255_1_234
70
0
62
255
6
CONTINUOUS
0
LAYER
2
DEFAULT_255_2_778_1
70
0
62
255
6
CONTINUOUS
0
ENDTAB
0
ENDSEC
0
SECTION
2
ENTITIES
0
ARC
8
DEFAULT_255_2_778
10
3.5700693
20
67.8676531
40
0.7914215
50
129.1312896
51
180.1450914
0
ARC
8
DEFAULT_255_2_778
10
3.5703345
20
67.8681402
40
0.7912112
50
89.854026
51
129.1684493
0
ARC
8
DEFAULT_255_2_778
10
25.7993937
20
67.8678268
40
0.7915249
50
39.4792447
51
90.147911
0
ARC
8
DEFAULT_255_2_778
10
25.7999935
20
67.8676734
40
0.7911595
50
359.8533901
51
39.5154338
0
ARC
8
DEFAULT_255_2_778
10
25.7996693
20
-1.9863991
40
0.7914836
50
309.4761667
51
0.1482649
0
ARC
8
DEFAULT_255_2_778
10
25.799398
20
-1.9868302
40
0.7913235
50
269.8517415
51
309.511178
0
ARC
8
DEFAULT_255_2_778
10
3.570342
20
-1.986772
40
0.7913815
50
219.1282118
51
270.1454017
0
ARC
8
DEFAULT_255_2_778
10
3.5700247
20
-1.9863896
40
0.7913769
50
179.8524075
51
219.1641908
0
LINE
8
DEFAULT_255_2_778
10
3.5723503
20
68.659349
11
25.7973503
21
68.659349
0
LINE
8
DEFAULT_255_2_778
10
26.5911503
20
67.865649
11
26.5911503
21
-1.984351
0
LINE
8
DEFAULT_255_2_778
10
25.7973503
20
-2.778151
11
3.5723503
21
-2.778151
0
LINE
8
DEFAULT_255_2_778
10
2.7786503
20
-1.984351
11
2.7786503
21
67.865649
0
LINE
8
DEFAULT_255_1_234
10
10.7087657
20
-0.0296435
11
10.7087657
21
-0.1043386
0
LINE
8
DEFAULT_255_1_234
10
10.5039563
20
-0.5878493
11
10.7127815
21
-0.7516967
0
LINE
8
DEFAULT_255_1_234
10
10.7127815
20
-0.7516967
11
10.6075658
21
-0.8488808
0
LINE
8
DEFAULT_255_1_234
10
10.6075658
20
-0.8488808
11
10.3609914
21
-0.6529063
0
LINE
8
DEFAULT_255_1_234
10
9.7674459
20
-0.1147799
11
9.7674459
21
-0.0304466
0
LINE
8
DEFAULT_255_1_234
10
10.5545563
20
-0.1155831
11
10.5545563
21
-0.0288403
0
LINE
8
DEFAULT_255_1_234
10
9.9216553
20
-0.018399
11
9.9216553
21
-0.1043386
0
ARC
8
DEFAULT_255_1_234
10
9.8133909
20
-0.1082293
40
0.8953833
50
351.453011
51
0.2489685
0
ARC
8
DEFAULT_255_1_234
10
10.0718709
20
-0.1482067
40
0.6338333
50
338.6861641
51
351.5540711
0
ARC
8
DEFAULT_255_1_234
10
10.1652593
20
-0.1812172
40
0.5348431
50
336.2887631
51
338.3442418
0
ARC
8
DEFAULT_255_1_234
10
10.1992215
20
-0.1998302
40
0.4962747
50
321.1170344
51
336.6795229
0
ARC
8
DEFAULT_255_1_234
10
10.2624044
20
-0.2484794
40
0.4165565
50
305.4419708
51
320.8705636
0
ARC
8
DEFAULT_255_1_234
10
10.2427514
20
-0.1737293
40
0.4935497
50
271.6373023
51
283.8611969
0
ARC
8
DEFAULT_255_1_234
10
10.2389767
20
-0.1081428
40
0.5592206
50
269.9930596
51
271.8318864
0
ARC
8
DEFAULT_255_1_234
10
10.235221
20
-0.1889319
40
0.4784458
50
252.5219675
51
270.4416499
0
ARC
8
DEFAULT_255_1_234
10
10.2208469
20
-0.2428408
40
0.422716
50
237.5352116
51
252.1857531
0
ARC
8
DEFAULT_255_1_234
10
10.2297665
20
-0.2314637
40
0.4371052
50
209.063312
51
237.3492538
0
ARC
8
DEFAULT_255_1_234
10
10.3167513
20
-0.1768315
40
0.5397041
50
205.1183774
51
209.6470015
0
ARC
8
DEFAULT_255_1_234
10
10.396455
20
-0.143017
40
0.6262326
50
188.7215458
51
204.8240747
0
ARC
8
DEFAULT_255_1_234
10
10.5962078
20
-0.1093933
40
0.8287794
50
180.3723947
51
188.9252049
0
ARC
8
DEFAULT_255_1_234
10
10.593483
20
-0.0264598
40
0.8260467
50
169.5253763
51
180.2765336
0
ARC
8
DEFAULT_255_1_234
10
10.4032279
20
0.0085309
40
0.6326007
50
155.8315255
51
169.5089989
0
ARC
8
DEFAULT_255_1_234
10
10.275178
20
0.0679348
40
0.4914567
50
139.6258461
51
156.0379525
0
ARC
8
DEFAULT_255_1_234
10
10.2162113
20
0.1153799
40
0.4158054
50
122.6416387
51
139.3430715
0
ARC
8
DEFAULT_255_1_234
10
10.2262733
20
0.0970451
40
0.4366739
50
93.0223692
51
122.455762
0
ARC
8
DEFAULT_255_1_234
10
10.237073
20
0.0005709
40
0.5336137
50
89.975342
51
93.6341897
0
ARC
8
DEFAULT_255_1_234
10
10.2409616
20
0.0385375
40
0.4956606
50
73.9665422
51
90.4229648
0
ARC
8
DEFAULT_255_1_234
10
10.2593263
20
0.1100451
40
0.4218674
50
57.5178019
51
73.6813337
0
ARC
8
DEFAULT_255_1_234
10
10.2549046
20
0.1064462
40
0.4272816
50
28.7261108
51
57.2767933
0
ARC
8
DEFAULT_255_1_234
10
10.1638378
20
0.0501688
40
0.534218
50
24.2448911
51
29.3248482
0
ARC
8
DEFAULT_255_1_234
10
10.0712479
20
0.0118819
40
0.6343711
50
9.064382
51
23.9639114
0
ARC
8
DEFAULT_255_1_234
10
9.8456807
20
-0.0260075
40
0.8630926
50
359.7586264
51
9.1891435
0
ARC
8
DEFAULT_255_1_234
10
9.7202287
20
-0.0246657
40
0.834338
50
359.7133237
51
7.96545
0
ARC
8
DEFAULT_255_1_234
10
10.0164504
20
0.0180681
40
0.5350538
50
7.8291991
51
20.0421623
0
ARC
8
DEFAULT_255_1_234
10
10.1789067
20
0.0771606
40
0.3621841
50
20.0677553
51
35.9161685
0
ARC
8
DEFAULT_255_1_234
10
10.2564105
20
0.134767
40
0.2656263
50
35.6594382
51
85.1578074
0
ARC
8
DEFAULT_255_1_234
10
10.2379361
20
0.0232378
40
0.3784238
50
83.7959068
51
90.095906
0
ARC
8
DEFAULT_255_1_234
10
10.2336295
20
0.0965601
40
0.3051229
50
89.3102392
51
109.9889877
0
ARC
8
DEFAULT_255_1_234
10
10.2253778
20
0.1321433
40
0.2688988
50
110.9285147
51
143.9411762
0
ARC
8
DEFAULT_255_1_234
10
10.3184724
20
0.0609236
40
0.3860887
50
143.5289163
51
163.2980757
0
ARC
8
DEFAULT_255_1_234
10
10.5092545
20
0.0009433
40
0.5860659
50
163.0418846
51
174.3140048
0
ARC
8
DEFAULT_255_1_234
10
10.7496657
20
-0.0268146
40
0.8280531
50
174.0509143
51
179.4176892
0
ARC
8
DEFAULT_255_1_234
10
10.6982992
20
-0.1086366
40
0.7766558
50
179.6829237
51
188.9631324
0
ARC
8
DEFAULT_255_1_234
10
10.4312553
20
-0.1521248
40
0.5060992
50
188.8100743
51
202.9300012
0
ARC
8
DEFAULT_255_1_234
10
10.3096182
20
-0.2016145
40
0.3747967
50
203.2069261
51
215.7876482
0
ARC
8
DEFAULT_255_1_234
10
10.2247579
20
-0.2687329
40
0.2667526
50
214.7521006
51
264.2834488
0
ARC
8
DEFAULT_255_1_234
10
10.2383234
20
-0.183222
40
0.3532247
50
263.4755397
51
270.0949833
0
ARC
8
DEFAULT_255_1_234
10
10.2425345
20
-0.2093626
40
0.3271036
50
269.3649385
51
287.5152008
0
ARC
8
DEFAULT_255_1_234
10
10.2603503
20
-0.2740762
40
0.2600406
50
288.0630309
51
323.8113348
0
ARC
8
DEFAULT_255_1_234
10
10.1732345
20
-0.2090951
40
0.3687189
50
323.6547608
51
342.6590488
0
ARC
8
DEFAULT_255_1_234
10
9.970096
20
-0.1430048
40
0.5823286
50
342.4091907
51
353.6451149
0
ARC
8
DEFAULT_255_1_234
10
9.6869471
20
-0.107781
40
0.8676442
50
353.4029884
51
359.4847795
0
LINE
8
DEFAULT_255_1_234
10
11.4645522
20
0.5189243
11
11.491057
21
0.5189243
0
LINE
8
DEFAULT_255_1_234
10
11.491057
20
0.5189243
11
11.491057
21
0.392826
0
LINE
8
DEFAULT_255_1_234
10
11.491057
20
0.392826
11
11.4637491
21
0.392826
0
LINE
8
DEFAULT_255_1_234
10
10.9167877
20
-0.2063417
11
10.9167877
21
-0.1493164
0
LINE
8
DEFAULT_255_1_234
10
11.066178
20
-0.1685925
11
11.066178
21
-0.2232083
0
ARC
8
DEFAULT_255_1_234
10
11.4689839
20
-0.1069545
40
0.4998079
50
90.6001036
51
104.514704
0
ARC
8
DEFAULT_255_1_234
10
11.4301354
20
0.0375131
40
0.3502176
50
104.2855254
51
133.862935
0
ARC
8
DEFAULT_255_1_234
10
11.4465112
20
0.026683
40
0.3693984
50
134.5302688
51
161.6210873
0
ARC
8
DEFAULT_255_1_234
10
11.61183
20
-0.0316105
40
0.5446739
50
161.2849839
51
174.2076652
0
ARC
8
DEFAULT_255_1_234
10
11.7525237
20
-0.0510213
40
0.6866274
50
173.7810589
51
174.9254635
0
ARC
8
DEFAULT_255_1_234
10
11.2975069
20
-0.1893161
40
0.3033419
50
95.8330959
51
138.9954921
0
ARC
8
DEFAULT_255_1_234
10
11.3198425
20
-0.3171625
40
0.4328947
50
89.8753725
51
97.0544009
0
ARC
8
DEFAULT_255_1_234
10
11.3245891
20
-0.2336252
40
0.3493769
50
71.6407809
51
90.6240094
0
ARC
8
DEFAULT_255_1_234
10
11.3396465
20
-0.1781918
40
0.2920396
50
39.6367836
51
71.019018
0
ARC
8
DEFAULT_255_1_234
10
11.2759938
20
-0.2332002
40
0.3761538
50
10.658731
51
39.9043955
0
ARC
8
DEFAULT_255_1_234
10
11.1212021
20
-0.2668314
40
0.5345136
50
359.682601
51
11.132623
0
ARC
8
DEFAULT_255_1_234
10
11.1172151
20
-0.273899
40
0.5385081
50
347.2486944
51
0.4369317
0
ARC
8
DEFAULT_255_1_234
10
11.2839628
20
-0.3140193
40
0.3670249
50
318.1409698
51
347.6118597
0
ARC
8
DEFAULT_255_1_234
10
11.3164621
20
-0.3407298
40
0.3250007
50
275.6342139
51
317.8248465
0
ARC
8
DEFAULT_255_1_234
10
11.2943733
20
-0.2107781
40
0.4565864
50
269.8874292
51
276.7917694
0
ARC
8
DEFAULT_255_1_234
10
11.2888803
20
-0.3133257
40
0.3540676
50
246.9140195
51
270.7437342
0
ARC
8
DEFAULT_255_1_234
10
11.2895194
20
-0.3275616
40
0.3412781
50
218.1665114
51
245.878116
0
ARC
8
DEFAULT_255_1_234
10
11.3774654
20
-0.2539721
40
0.455911
50
191.4115814
51
218.6077802
0
ARC
8
DEFAULT_255_1_234
10
11.5712744
20
-0.2105167
40
0.6545001
50
179.6345085
51
191.7836486
0
ARC
8
DEFAULT_255_1_234
10
12.129508
20
-0.1426303
40
1.2127388
50
171.4525249
51
180.3158839
0
ARC
8
DEFAULT_255_1_234
10
11.6899956
20
-0.0742392
40
0.7679464
50
157.9802646
51
171.6246686
0
ARC
8
DEFAULT_255_1_234
10
11.4685977
20
0.0140421
40
0.5296008
50
141.4298019
51
157.854097
0
ARC
8
DEFAULT_255_1_234
10
11.4044298
20
0.0594381
40
0.4511509
50
102.8715806
51
140.8564722
0
ARC
8
DEFAULT_255_1_234
10
11.4691913
20
-0.1845448
40
0.7034845
50
90.3778349
51
103.5869322
0
ARC
8
DEFAULT_255_1_234
10
11.295369
20
-0.245027
40
0.2370698
50
89.8751008
51
126.2071704
0
ARC
8
DEFAULT_255_1_234
10
11.2999479
20
-0.2604697
40
0.2522934
50
124.9745049
51
144.895901
0
ARC
8
DEFAULT_255_1_234
10
11.282367
20
-0.246144
40
0.2296779
50
145.2974905
51
160.2660252
0
ARC
8
DEFAULT_255_1_234
10
11.5896209
20
-0.2263929
40
0.5234525
50
179.6514266
51
190.2855912
0
ARC
8
DEFAULT_255_1_234
10
11.4202346
20
-0.2583214
40
0.3510893
50
190.0945431
51
207.5098196
0
ARC
8
DEFAULT_255_1_234
10
11.3636616
20
-0.2852377
40
0.288489
50
207.9583163
51
216.3251085
0
ARC
8
DEFAULT_255_1_234
10
11.3296723
20
-0.3131895
40
0.2445587
50
215.7661442
51
232.5456785
0
ARC
8
DEFAULT_255_1_234
10
11.2913706
20
-0.3618518
40
0.1826382
50
232.8005391
51
270.6605633
0
ARC
8
DEFAULT_255_1_234
10
11.2959407
20
-0.3254388
40
0.2190529
50
269.35537
51
288.4744281
0
ARC
8
DEFAULT_255_1_234
10
11.3052304
20
-0.3603882
40
0.1829749
50
289.1833337
51
322.9683818
0
ARC
8
DEFAULT_255_1_234
10
11.2440827
20
-0.3121609
40
0.2608399
50
322.6007884
51
346.5182367
0
ARC
8
DEFAULT_255_1_234
10
11.1283423
20
-0.2826384
40
0.3802777
50
346.2582162
51
358.7741648
0
ARC
8
DEFAULT_255_1_234
10
11.0265091
20
-0.2771035
40
0.4822176
50
358.3755224
51
0.0098023
0
ARC
8
DEFAULT_255_1_234
10
11.1021279
20
-0.2743343
40
0.4066078
50
359.6214041
51
11.2839074
0
ARC
8
DEFAULT_255_1_234
10
11.2298426
20
-0.2476934
40
0.2761514
50
11.0482309
51
31.8146458
0
ARC
8
DEFAULT_255_1_234
10
11.2607468
20
-0.2309416
40
0.2410679
50
32.3035391
51
38.082671
0
ARC
8
DEFAULT_255_1_234
10
11.3028128
20
-0.1928338
40
0.1844966
50
36.825067
51
85.7415724
0
ARC
8
DEFAULT_255_1_234
10
11.2960962
20
-0.2428699
40
0.2349122
50
85.0140713
51
90.0513278
0
LINE
8
DEFAULT_255_1_234
10
12.5978305
20
-0.5300208
11
12.5978305
21
-0.6513
0
LINE
8
DEFAULT_255_1_234
10
12.5978305
20
-0.6513
11
11.8316027
21
-0.6513
0
LINE
8
DEFAULT_255_1_234
10
11.8316027
20
-0.6513
11
11.8316027
21
-0.5444779
0
LINE
8
DEFAULT_255_1_234
10
11.8316027
20
-0.5444779
11
12.2364023
21
-0.0947005
0
LINE
8
DEFAULT_255_1_234
10
11.957701
20
0.1735595
11
11.8091138
21
0.1735595
0
LINE
8
DEFAULT_255_1_234
10
12.3239482
20
-0.1902782
11
12.0107104
21
-0.5300208
0
LINE
8
DEFAULT_255_1_234
10
12.0107104
20
-0.5300208
11
12.5978305
21
-0.5300208
0
ARC
8
DEFAULT_255_1_234
10
10.8873856
20
1.0982527
40
1.8008286
50
318.5132453
51
320.7828378
0
ARC
8
DEFAULT_255_1_234
10
11.4160831
20
0.6679426
40
1.1191493
50
320.7372736
51
323.9737074
0
ARC
8
DEFAULT_255_1_234
10
11.8080687
20
0.3839361
40
0.6350923
50
323.8961724
51
328.6421089
0
ARC
8
DEFAULT_255_1_234
10
12.0127283
20
0.2577031
40
0.3946393
50
328.8299013
51
331.789948
0
ARC
8
DEFAULT_255_1_234
10
12.1124461
20
0.2062509
40
0.2824501
50
331.4255242
51
352.9364833
0
ARC
8
DEFAULT_255_1_234
10
12.1260962
20
0.2031976
40
0.2685315
50
353.2248685
51
0.0169286
0
ARC
8
DEFAULT_255_1_234
10
12.1470838
20
0.205495
40
0.2475536
50
359.4866256
51
15.9339782
0
ARC
8
DEFAULT_255_1_234
10
12.1977824
20
0.2191286
40
0.1950618
50
16.1714718
51
43.5284424
0
ARC
8
DEFAULT_255_1_234
10
12.2055132
20
0.2268573
40
0.184134
50
43.4415429
51
83.1661404
0
ARC
8
DEFAULT_255_1_234
10
12.192105
20
0.1531771
40
0.258926
50
82.160215
51
90.1505798
0
ARC
8
DEFAULT_255_1_234
10
12.1889478
20
0.0994865
40
0.3126255
50
89.5460705
51
102.5418777
0
ARC
8
DEFAULT_255_1_234
10
12.1646564
20
0.2025665
40
0.2067346
50
102.1739365
51
129.2061916
0
ARC
8
DEFAULT_255_1_234
10
12.1567636
20
0.2150094
40
0.1921118
50
129.7279328
51
135.7542026
0
ARC
8
DEFAULT_255_1_234
10
12.1689163
20
0.2053045
40
0.2075944
50
136.175737
51
166.3674722
0
ARC
8
DEFAULT_255_1_234
10
12.2696083
20
0.1783182
40
0.3118201
50
165.9092917
51
178.8683903
0
ARC
8
DEFAULT_255_1_234
10
12.3560944
20
0.1736179
40
0.3983935
50
178.438168
51
180.0083905
0
ARC
8
DEFAULT_255_1_234
10
12.2159546
20
0.1775231
40
0.4068601
50
163.2878735
51
180.5581814
0
ARC
8
DEFAULT_255_1_234
10
12.1357807
20
0.199584
40
0.3237344
50
133.454115
51
162.9470031
0
ARC
8
DEFAULT_255_1_234
10
12.1536349
20
0.1806
40
0.349795
50
100.7869394
51
133.4384016
0
ARC
8
DEFAULT_255_1_234
10
12.188412
20
0.0257319
40
0.5084616
50
89.6605301
51
101.3704185
0
ARC
8
DEFAULT_255_1_234
10
12.1950459
20
0.0318496
40
0.502348
50
78.2171172
51
90.4130393
0
ARC
8
DEFAULT_255_1_234
10
12.2305537
20
0.1942637
40
0.3361092
50
55.9268222
51
78.4888551
0
ARC
8
DEFAULT_255_1_234
10
12.2501978
20
0.2281324
40
0.2970617
50
47.9292255
51
55.4054003
0
ARC
8
DEFAULT_255_1_234
10
12.2603538
20
0.2384502
40
0.2825983
50
4.3347696
51
48.0560701
0
ARC
8
DEFAULT_255_1_234
10
12.1507932
20
0.2214601
40
0.393225
50
359.925209
51
5.5967654
0
ARC
8
DEFAULT_255_1_234
10
12.1936824
20
0.2270816
40
0.3503892
50
337.8914096
51
358.9967724
0
ARC
8
DEFAULT_255_1_234
10
11.9223236
20
0.3317706
40
0.6412172
50
326.9135351
51
338.3505194
0
ARC
8
DEFAULT_255_1_234
10
11.5237539
20
0.5872284
40
1.1146189
50
319.6472867
51
327.095818
0
ARC
8
DEFAULT_255_1_234
10
11.1404543
20
0.9034
40
1.6114559
50
317.2586784
51
319.9046139
0
LINE
8
DEFAULT_255_1_234
10
13.5511979
20
-0.6513
11
13.4395567
21
-0.3460939
0
LINE
8
DEFAULT_255_1_234
10
13.4395567
20
-0.3460939
11
12.9496207
21
-0.3460939
0
LINE
8
DEFAULT_255_1_234
10
12.9496207
20
-0.3460939
11
12.8395858
21
-0.6513
0
LINE
8
DEFAULT_255_1_234
10
12.8395858
20
-0.6513
11
12.6805574
21
-0.6513
0
LINE
8
DEFAULT_255_1_234
10
12.6805574
20
-0.6513
11
13.1271221
21
0.5181211
0
LINE
8
DEFAULT_255_1_234
10
13.1271221
20
0.5181211
11
13.2620553
21
0.5181211
0
LINE
8
DEFAULT_255_1_234
10
13.2620553
20
0.5181211
11
13.7094231
21
-0.6513
0
LINE
8
DEFAULT_255_1_234
10
13.7094231
20
-0.6513
11
13.5511979
21
-0.6513
0
LINE
8
DEFAULT_255_1_234
10
13.1945887
20
0.3277689
11
12.9962047
21
-0.2191925
0
LINE
8
DEFAULT_255_1_234
10
12.9962047
20
-0.2191925
11
13.3937758
21
-0.2191925
0
LINE
8
DEFAULT_255_1_234
10
13.3937758
20
-0.2191925
11
13.1945887
21
0.3277689
0
LINE
8
DEFAULT_255_1_234
10
14.1905242
20
-0.6513
11
13.8668452
21
-0.6513
0
LINE
8
DEFAULT_255_1_234
10
13.8668452
20
-0.6513
11
13.8668452
21
0.5181211
0
LINE
8
DEFAULT_255_1_234
10
13.8668452
20
0.5181211
11
14.1969496
21
0.5181211
0
LINE
8
DEFAULT_255_1_234
10
14.7125872
20
-0.0272339
11
14.7125872
21
-0.1019291
0
LINE
8
DEFAULT_255_1_234
10
14.2009655
20
0.3912196
11
14.0210545
21
0.3912196
0
LINE
8
DEFAULT_255_1_234
10
14.0210545
20
0.3912196
11
14.0210545
21
-0.5252017
0
LINE
8
DEFAULT_255_1_234
10
14.0210545
20
-0.5252017
11
14.1832957
21
-0.5252017
0
LINE
8
DEFAULT_255_1_234
10
14.5599842
20
-0.0987164
11
14.5599842
21
-0.0304466
0
ARC
8
DEFAULT_255_1_234
10
14.2008439
20
-0.0684106
40
0.5865446
50
75.4101064
51
90.3804066
0
ARC
8
DEFAULT_255_1_234
10
14.2237952
20
0.0272492
40
0.4881916
50
60.145586
51
75.1888407
0
ARC
8
DEFAULT_255_1_234
10
14.2396728
20
0.0549199
40
0.4562893
50
26.5253612
51
60.1450928
0
ARC
8
DEFAULT_255_1_234
10
14.1276477
20
-0.0044842
40
0.5830602
50
7.4030428
51
26.8320788
0
ARC
8
DEFAULT_255_1_234
10
13.9682234
20
-0.0293196
40
0.7443669
50
0.1605367
51
7.7176192
0
ARC
8
DEFAULT_255_1_234
10
13.9846138
20
-0.1057566
40
0.7279835
50
348.7289388
51
0.3012466
0
ARC
8
DEFAULT_255_1_234
10
14.1502568
20
-0.1386614
40
0.559104
50
333.0706509
51
348.7181832
0
ARC
8
DEFAULT_255_1_234
10
14.2469326
20
-0.1911681
40
0.4491417
50
299.2531685
51
333.4571258
0
ARC
8
DEFAULT_255_1_234
10
14.2108466
20
-0.1226172
40
0.5265881
50
278.107187
51
299.0339503
0
ARC
8
DEFAULT_255_1_234
10
14.1852545
20
0.0281216
40
0.679442
50
270.4443897
51
278.4511052
0
ARC
8
DEFAULT_255_1_234
10
14.1873375
20
-0.0647787
40
0.4604407
50
269.4970433
51
284.0205042
0
ARC
8
DEFAULT_255_1_234
10
14.2228676
20
-0.2013022
40
0.3193797
50
283.7700273
51
318.1555492
0
ARC
8
DEFAULT_255_1_234
10
14.1891434
20
-0.1760633
40
0.3613588
50
318.7415601
51
343.6873628
0
ARC
8
DEFAULT_255_1_234
10
14.0087457
20
-0.1197168
40
0.5503313
50
343.3325091
51
355.8548958
0
ARC
8
DEFAULT_255_1_234
10
13.7989141
20
-0.0997681
40
0.7610708
50
355.4988528
51
0.0791727
0
ARC
8
DEFAULT_255_1_234
10
13.8771764
20
-0.026222
40
0.6828208
50
359.6455037
51
9.8607896
0
ARC
8
DEFAULT_255_1_234
10
14.1132462
20
0.0164099
40
0.4429406
50
9.6571907
51
26.1932807
0
ARC
8
DEFAULT_255_1_234
10
14.2060451
20
0.0595118
40
0.3406537
50
26.5777228
51
40.1532208
0
ARC
8
DEFAULT_255_1_234
10
14.2316177
20
0.0794619
40
0.308246
50
40.3840491
51
80.1431104
0
ARC
8
DEFAULT_255_1_234
10
14.1989295
20
-0.0654667
40
0.4566909
50
79.2152159
51
89.7445637
0
LINE
8
DEFAULT_255_1_234
10
15.2314375
20
-0.0938974
11
15.2314375
21
-0.2151766
0
LINE
8
DEFAULT_255_1_234
10
15.2314375
20
-0.2151766
11
14.8394887
21
-0.2151766
0
LINE
8
DEFAULT_255_1_234
10
14.8394887
20
-0.2151766
11
14.8394887
21
-0.0938974
0
LINE
8
DEFAULT_255_1_234
10
14.8394887
20
-0.0938974
11
15.2314375
21
-0.0938974
0
LINE
8
DEFAULT_255_1_234
10
15.7229799
20
-0.6513
11
15.3993008
21
-0.6513
0
LINE
8
DEFAULT_255_1_234
10
15.3993008
20
-0.6513
11
15.3993008
21
0.5181211
0
LINE
8
DEFAULT_255_1_234
10
15.3993008
20
0.5181211
11
15.7294053
21
0.5181211
0
LINE
8
DEFAULT_255_1_234
10
16.2450429
20
-0.0272339
11
16.2450429
21
-0.1019291
0
LINE
8
DEFAULT_255_1_234
10
15.7334211
20
0.3912196
11
15.5535102
21
0.3912196
0
LINE
8
DEFAULT_255_1_234
10
15.5535102
20
0.3912196
11
15.5535102
21
-0.5252017
0
LINE
8
DEFAULT_255_1_234
10
15.5535102
20
-0.5252017
11
15.7157513
21
-0.5252017
0
LINE
8
DEFAULT_255_1_234
10
16.0924398
20
-0.0987164
11
16.0924398
21
-0.0304466
0
ARC
8
DEFAULT_255_1_234
10
15.7332995
20
-0.0684106
40
0.5865446
50
75.4101064
51
90.3804066
0
ARC
8
DEFAULT_255_1_234
10
15.7562509
20
0.0272492
40
0.4881916
50
60.145586
51
75.1888407
0
ARC
8
DEFAULT_255_1_234
10
15.7721284
20
0.0549199
40
0.4562893
50
26.5253612
51
60.1450928
0
ARC
8
DEFAULT_255_1_234
10
15.6601034
20
-0.0044842
40
0.5830602
50
7.4030428
51
26.8320788
0
ARC
8
DEFAULT_255_1_234
10
15.500679
20
-0.0293196
40
0.7443669
50
0.1605367
51
7.7176192
0
ARC
8
DEFAULT_255_1_234
10
15.5170695
20
-0.1057566
40
0.7279835
50
348.7289388
51
0.3012466
0
ARC
8
DEFAULT_255_1_234
10
15.6827125
20
-0.1386614
40
0.559104
50
333.0706509
51
348.7181832
0
ARC
8
DEFAULT_255_1_234
10
15.7793883
20
-0.1911681
40
0.4491417
50
299.2531685
51
333.4571258
0
ARC
8
DEFAULT_255_1_234
10
15.7433022
20
-0.1226172
40
0.5265881
50
278.107187
51
299.0339503
0
ARC
8
DEFAULT_255_1_234
10
15.7177101
20
0.0281216
40
0.679442
50
270.4443897
51
278.4511052
0
ARC
8
DEFAULT_255_1_234
10
15.7197931
20
-0.0647787
40
0.4604407
50
269.4970433
51
284.0205042
0
ARC
8
DEFAULT_255_1_234
10
15.7553232
20
-0.2013022
40
0.3193797
50
283.7700273
51
318.1555492
0
ARC
8
DEFAULT_255_1_234
10
15.721599
20
-0.1760633
40
0.3613588
50
318.7415601
51
343.6873628
0
ARC
8
DEFAULT_255_1_234
10
15.5412014
20
-0.1197168
40
0.5503313
50
343.3325091
51
355.8548958
0
ARC
8
DEFAULT_255_1_234
10
15.3313698
20
-0.0997681
40
0.7610708
50
355.4988528
51
0.0791727
0
ARC
8
DEFAULT_255_1_234
10
15.4096321
20
-0.026222
40
0.6828208
50
359.6455037
51
9.8607896
0
ARC
8
DEFAULT_255_1_234
10
15.6457019
20
0.0164099
40
0.4429406
50
9.6571907
51
26.1932807
0
ARC
8
DEFAULT_255_1_234
10
15.7385007
20
0.0595118
40
0.3406537
50
26.5777228
51
40.1532208
0
ARC
8
DEFAULT_255_1_234
10
15.7640734
20
0.0794619
40
0.308246
50
40.3840491
51
80.1431104
0
ARC
8
DEFAULT_255_1_234
10
15.7313851
20
-0.0654667
40
0.4566909
50
79.2152159
51
89.7445637
0
LINE
8
DEFAULT_255_1_234
10
17.3413751
20
-0.068999
11
17.3413751
21
-0.4978938
0
LINE
8
DEFAULT_255_1_234
10
16.4402141
20
-0.1228116
11
16.4402141
21
-0.0208085
0
LINE
8
DEFAULT_255_1_234
10
17.3413751
20
0.1751659
11
17.1871658
21
0.1751659
0
LINE
8
DEFAULT_255_1_234
10
16.5952267
20
-0.0167927
11
16.5952267
21
-0.1123704
0
LINE
8
DEFAULT_255_1_234
10
17.1879689
20
-0.4569319
11
17.1879689
21
-0.1942941
0
LINE
8
DEFAULT_255_1_234
10
17.1879689
20
-0.1942941
11
16.9172994
21
-0.1942941
0
LINE
8
DEFAULT_255_1_234
10
16.9172994
20
-0.1942941
11
16.9172994
21
-0.068999
0
LINE
8
DEFAULT_255_1_234
10
16.9172994
20
-0.068999
11
17.3413751
21
-0.068999
0
ARC
8
DEFAULT_255_1_234
10
17.0582258
20
-0.2985604
40
0.3462765
50
295.8437914
51
324.8549609
0
ARC
8
DEFAULT_255_1_234
10
17.0166225
20
-0.2232433
40
0.4322211
50
291.5695085
51
296.4549398
0
ARC
8
DEFAULT_255_1_234
10
16.9655476
20
-0.0867725
40
0.5779178
50
278.6622409
51
291.3045483
0
ARC
8
DEFAULT_255_1_234
10
16.9315968
20
0.1280408
40
0.7953952
50
270.020006
51
278.7494541
0
ARC
8
DEFAULT_255_1_234
10
16.9277892
20
0.2597036
40
0.927067
50
269.9969998
51
270.2524872
0
ARC
8
DEFAULT_255_1_234
10
16.9239605
20
-0.1486411
40
0.5187361
50
253.5786322
51
270.4175299
0
ARC
8
DEFAULT_255_1_234
10
16.9066261
20
-0.2157764
40
0.4494451
50
238.8203306
51
253.2788235
0
ARC
8
DEFAULT_255_1_234
10
16.9046634
20
-0.2208769
40
0.4440665
50
206.7883783
51
238.6962764
0
ARC
8
DEFAULT_255_1_234
10
16.9820544
20
-0.1744595
40
0.5341121
50
206.1129412
51
207.4916643
0
ARC
8
DEFAULT_255_1_234
10
17.0417459
20
-0.1490512
40
0.5989041
50
188.6921119
51
205.7821245
0
ARC
8
DEFAULT_255_1_234
10
17.2273821
20
-0.117477
40
0.7871862
50
180.3882829
51
188.9219216
0
ARC
8
DEFAULT_255_1_234
10
17.3501635
20
-0.0151536
40
0.909967
50
170.2024264
51
180.3560651
0
ARC
8
DEFAULT_255_1_234
10
17.0338153
20
0.0414237
40
0.5886083
50
154.2857445
51
170.3893044
0
ARC
8
DEFAULT_255_1_234
10
16.9056356
20
0.100095
40
0.4476743
50
139.8401567
51
153.9332699
0
ARC
8
DEFAULT_255_1_234
10
16.8697092
20
0.1288577
40
0.4016697
50
98.4190291
51
139.6707122
0
ARC
8
DEFAULT_255_1_234
10
16.907661
20
-0.0556672
40
0.5898566
50
89.7659205
51
99.4415478
0
ARC
8
DEFAULT_255_1_234
10
16.9141859
20
-0.0491156
40
0.5833147
50
78.0551672
51
90.4042112
0
ARC
8
DEFAULT_255_1_234
10
16.9546369
20
0.1327644
40
0.3970055
50
54.6380464
51
78.3339173
0
ARC
8
DEFAULT_255_1_234
10
16.9736425
20
0.1647795
40
0.3599102
50
50.031736
51
54.1558201
0
ARC
8
DEFAULT_255_1_234
10
16.9629213
20
0.1551766
40
0.3741624
50
18.1092409
51
49.7180913
0
ARC
8
DEFAULT_255_1_234
10
16.8172413
20
0.1018089
40
0.5292424
50
7.9672797
51
18.6984571
0
ARC
8
DEFAULT_255_1_234
10
16.8322891
20
0.1141504
40
0.3600838
50
9.7557294
51
27.3215714
0
ARC
8
DEFAULT_255_1_234
10
16.9450363
20
0.1704912
40
0.2340608
50
27.7361077
51
84.5257964
0
ARC
8
DEFAULT_255_1_234
10
16.912275
20
0.006164
40
0.4011215
50
82.106034
51
90.2001166
0
ARC
8
DEFAULT_255_1_234
10
16.9072967
20
0.0569215
40
0.3503799
50
89.4150119
51
105.5823402
0
ARC
8
DEFAULT_255_1_234
10
16.8815965
20
0.1504867
40
0.2533503
50
105.6678618
51
144.2648758
0
ARC
8
DEFAULT_255_1_234
10
16.970922
20
0.0869289
40
0.3629787
50
144.3561283
51
162.8564086
0
ARC
8
DEFAULT_255_1_234
10
17.1793129
20
0.0200017
40
0.5818441
50
162.6076014
51
173.6780284
0
ARC
8
DEFAULT_255_1_234
10
17.4854273
20
-0.017211
40
0.8902007
50
173.4670142
51
179.9730753
0
ARC
8
DEFAULT_255_1_234
10
17.2945944
20
-0.116574
40
0.6993804
50
179.6556203
51
190.0080463
0
ARC
8
DEFAULT_255_1_234
10
17.0629773
20
-0.1590625
40
0.4639066
50
189.8116607
51
206.6796816
0
ARC
8
DEFAULT_255_1_234
10
16.9784925
20
-0.1984497
40
0.3707421
50
207.1031645
51
217.7074368
0
ARC
8
DEFAULT_255_1_234
10
16.9150614
20
-0.2536441
40
0.2868417
50
216.7345547
51
265.6812148
0
ARC
8
DEFAULT_255_1_234
10
16.9281405
20
-0.1632145
40
0.3780509
50
264.7366618
51
270.0611241
0
ARC
8
DEFAULT_255_1_234
10
16.9304668
20
0.1208111
40
0.662079
50
269.8335834
51
276.0539546
0
ARC
8
DEFAULT_255_1_234
10
16.9511673
20
-0.069344
40
0.4708016
50
275.9894168
51
284.4615085
0
ARC
8
DEFAULT_255_1_234
10
16.970968
20
-0.1526337
40
0.3852094
50
284.7034461
51
286.4953897
0
ARC
8
DEFAULT_255_1_234
10
17.0116693
20
-0.2837035
40
0.2479842
50
286.0770838
51
304.2625829
0
ARC
8
DEFAULT_255_1_234
10
17.0250107
20
-0.3055406
40
0.2224291
50
304.5891602
51
317.1073298
0
LINE
8
DEFAULT_255_1_234
10
18.4971423
20
0.5181211
11
18.4971423
21
-0.6513
0
LINE
8
DEFAULT_255_1_234
10
18.4971423
20
-0.6513
11
18.3421297
21
-0.6513
0
LINE
8
DEFAULT_255_1_234
10
18.3421297
20
-0.6513
11
18.3421297
21
-0.110764
0
LINE
8
DEFAULT_255_1_234
10
18.3421297
20
-0.110764
11
17.7526001
21
-0.110764
0
LINE
8
DEFAULT_255_1_234
10
17.7526001
20
-0.110764
11
17.7526001
21
-0.6513
0
LINE
8
DEFAULT_255_1_234
10
17.7526001
20
-0.6513
11
17.5983908
21
-0.6513
0
LINE
8
DEFAULT_255_1_234
10
17.5983908
20
-0.6513
11
17.5983908
21
0.5181211
0
LINE
8
DEFAULT_255_1_234
10
17.5983908
20
0.5181211
11
17.7526001
21
0.5181211
0
LINE
8
DEFAULT_255_1_234
10
17.7526001
20
0.5181211
11
17.7526001
21
0.0153343
0
LINE
8
DEFAULT_255_1_234
10
17.7526001
20
0.0153343
11
18.3421297
21
0.0153343
0
LINE
8
DEFAULT_255_1_234
10
18.3421297
20
0.0153343
11
18.3421297
21
0.5181211
0
LINE
8
DEFAULT_255_1_234
10
18.3421297
20
0.5181211
11
18.4971423
21
0.5181211
0
LINE
8
DEFAULT_255_1_234
10
11.7257657
20
62.8123565
11
11.7257657
21
62.7376614
0
LINE
8
DEFAULT_255_1_234
10
11.5209563
20
62.2541507
11
11.7297815
21
62.0903033
0
LINE
8
DEFAULT_255_1_234
10
11.7297815
20
62.0903033
11
11.6245658
21
61.9931192
0
LINE
8
DEFAULT_255_1_234
10
11.6245658
20
61.9931192
11
11.3779914
21
62.1890937
0
LINE
8
DEFAULT_255_1_234
10
10.7844459
20
62.7272201
11
10.7844459
21
62.8115534
0
LINE
8
DEFAULT_255_1_234
10
11.5715563
20
62.7264169
11
11.5715563
21
62.8131597
0
LINE
8
DEFAULT_255_1_234
10
10.9386553
20
62.823601
11
10.9386553
21
62.7376614
0
ARC
8
DEFAULT_255_1_234
10
10.8303909
20
62.7337707
40
0.8953833
50
351.453011
51
0.2489685
0
ARC
8
DEFAULT_255_1_234
10
11.0888709
20
62.6937933
40
0.6338333
50
338.6861641
51
351.5540711
0
ARC
8
DEFAULT_255_1_234
10
11.1822593
20
62.6607828
40
0.5348431
50
336.2887631
51
338.3442418
0
ARC
8
DEFAULT_255_1_234
10
11.2162215
20
62.6421698
40
0.4962747
50
321.1170344
51
336.6795229
0
ARC
8
DEFAULT_255_1_234
10
11.2794044
20
62.5935206
40
0.4165565
50
305.4419708
51
320.8705636
0
ARC
8
DEFAULT_255_1_234
10
11.2597514
20
62.6682707
40
0.4935497
50
271.6373023
51
283.8611969
0
ARC
8
DEFAULT_255_1_234
10
11.2559767
20
62.7338572
40
0.5592206
50
269.9930596
51
271.8318864
0
ARC
8
DEFAULT_255_1_234
10
11.252221
20
62.6530681
40
0.4784458
50
252.5219675
51
270.4416499
0
ARC
8
DEFAULT_255_1_234
10
11.2378469
20
62.5991592
40
0.422716
50
237.5352116
51
252.1857531
0
ARC
8
DEFAULT_255_1_234
10
11.2467665
20
62.6105363
40
0.4371052
50
209.063312
51
237.3492538
0
ARC
8
DEFAULT_255_1_234
10
11.3337513
20
62.6651685
40
0.5397041
50
205.1183774
51
209.6470015
0
ARC
8
DEFAULT_255_1_234
10
11.413455
20
62.698983
40
0.6262326
50
188.7215458
51
204.8240747
0
ARC
8
DEFAULT_255_1_234
10
11.6132078
20
62.7326067
40
0.8287794
50
180.3723947
51
188.9252049
0
ARC
8
DEFAULT_255_1_234
10
11.610483
20
62.8155402
40
0.8260467
50
169.5253763
51
180.2765336
0
ARC
8
DEFAULT_255_1_234
10
11.4202279
20
62.8505309
40
0.6326007
50
155.8315255
51
169.5089989
0
ARC
8
DEFAULT_255_1_234
10
11.292178
20
62.9099348
40
0.4914567
50
139.6258461
51
156.0379525
0
ARC
8
DEFAULT_255_1_234
10
11.2332113
20
62.9573799
40
0.4158054
50
122.6416387
51
139.3430715
0
ARC
8
DEFAULT_255_1_234
10
11.2432733
20
62.9390451
40
0.4366739
50
93.0223692
51
122.455762
0
ARC
8
DEFAULT_255_1_234
10
11.254073
20
62.8425709
40
0.5336137
50
89.975342
51
93.6341897
0
ARC
8
DEFAULT_255_1_234
10
11.2579616
20
62.8805375
40
0.4956606
50
73.9665422
51
90.4229648
0
ARC
8
DEFAULT_255_1_234
10
11.2763263
20
62.9520451
40
0.4218674
50
57.5178019
51
73.6813337
0
ARC
8
DEFAULT_255_1_234
10
11.2719046
20
62.9484462
40
0.4272816
50
28.7261108
51
57.2767933
0
ARC
8
DEFAULT_255_1_234
10
11.1808378
20
62.8921688
40
0.534218
50
24.2448911
51
29.3248482
0
ARC
8
DEFAULT_255_1_234
10
11.0882479
20
62.8538819
40
0.6343711
50
9.064382
51
23.9639114
0
ARC
8
DEFAULT_255_1_234
10
10.8626807
20
62.8159925
40
0.8630926
50
359.7586264
51
9.1891435
0
ARC
8
DEFAULT_255_1_234
10
10.7372287
20
62.8173343
40
0.834338
50
359.7133237
51
7.96545
0
ARC
8
DEFAULT_255_1_234
10
11.0334504
20
62.8600681
40
0.5350538
50
7.8291991
51
20.0421623
0
ARC
8
DEFAULT_255_1_234
10
11.1959067
20
62.9191606
40
0.3621841
50
20.0677553
51
35.9161685
0
ARC
8
DEFAULT_255_1_234
10
11.2734105
20
62.976767
40
0.2656263
50
35.6594382
51
85.1578074
0
ARC
8
DEFAULT_255_1_234
10
11.2549361
20
62.8652378
40
0.3784238
50
83.7959068
51
90.095906
0
ARC
8
DEFAULT_255_1_234
10
11.2506295
20
62.9385601
40
0.3051229
50
89.3102392
51
109.9889877
0
ARC
8
DEFAULT_255_1_234
10
11.2423778
20
62.9741433
40
0.2688988
50
110.9285147
51
143.9411762
0
ARC
8
DEFAULT_255_1_234
10
11.3354724
20
62.9029236
40
0.3860887
50
143.5289163
51
163.2980757
0
ARC
8
DEFAULT_255_1_234
10
11.5262545
20
62.8429433
40
0.5860659
50
163.0418846
51
174.3140048
0
ARC
8
DEFAULT_255_1_234
10
11.7666657
20
62.8151854
40
0.8280531
50
174.0509143
51
179.4176892
0
ARC
8
DEFAULT_255_1_234
10
11.7152992
20
62.7333634
40
0.7766558
50
179.6829237
51
188.9631324
0
ARC
8
DEFAULT_255_1_234
10
11.4482553
20
62.6898752
40
0.5060992
50
188.8100743
51
202.9300012
0
ARC
8
DEFAULT_255_1_234
10
11.3266182
20
62.6403855
40
0.3747967
50
203.2069261
51
215.7876482
0
ARC
8
DEFAULT_255_1_234
10
11.2417579
20
62.5732671
40
0.2667526
50
214.7521006
51
264.2834488
0
ARC
8
DEFAULT_255_1_234
10
11.2553234
20
62.658778
40
0.3532247
50
263.4755397
51
270.0949833
0
ARC
8
DEFAULT_255_1_234
10
11.2595345
20
62.6326374
40
0.3271036
50
269.3649385
51
287.5152008
0
ARC
8
DEFAULT_255_1_234
10
11.2773503
20
62.5679238
40
0.2600406
50
288.0630309
51
323.8113348
0
ARC
8
DEFAULT_255_1_234
10
11.1902345
20
62.6329049
40
0.3687189
50
323.6547608
51
342.6590488
0
ARC
8
DEFAULT_255_1_234
10
10.987096
20
62.6989952
40
0.5823286
50
342.4091907
51
353.6451149
0
ARC
8
DEFAULT_255_1_234
10
10.7039471
20
62.734219
40
0.8676442
50
353.4029884
51
359.4847795
0
LINE
8
DEFAULT_255_1_234
10
12.6566441
20
62.7481026
11
12.6566441
21
62.6268234
0
LINE
8
DEFAULT_255_1_234
10
12.6566441
20
62.6268234
11
12.2646953
21
62.6268234
0
LINE
8
DEFAULT_255_1_234
10
12.2646953
20
62.6268234
11
12.2646953
21
62.7481026
0
LINE
8
DEFAULT_255_1_234
10
12.2646953
20
62.7481026
11
12.6566441
21
62.7481026
0
LINE
8
DEFAULT_255_1_234
10
14.0075825
20
63.0219849
11
13.85257
21
63.0219849
0
LINE
8
DEFAULT_255_1_234
10
13.1602341
20
62.5296394
11
13.3152467
21
62.5296394
0
ARC
8
DEFAULT_255_1_234
10
13.9184513
20
63.9166768
40
1.252368
50
248.9199003
51
254.1439814
0
ARC
8
DEFAULT_255_1_234
10
13.7504007
20
63.4840234
40
0.788226
50
241.633709
51
249.0064503
0
ARC
8
DEFAULT_255_1_234
10
13.5975402
20
63.2039317
40
0.4691427
50
230.498225
51
241.8087113
0
ARC
8
DEFAULT_255_1_234
10
13.5190976
20
63.1039906
40
0.3421437
50
227.4064532
51
229.9881192
0
ARC
8
DEFAULT_255_1_234
10
13.4703497
20
63.0564088
40
0.2741476
50
200.6781896
51
228.1763934
0
ARC
8
DEFAULT_255_1_234
10
13.4775807
20
63.0549077
40
0.2804109
50
179.5061581
51
199.8694617
0
ARC
8
DEFAULT_255_1_234
10
13.4766559
20
63.062321
40
0.2795204
50
132.4834203
51
181.0242172
0
ARC
8
DEFAULT_255_1_234
10
13.5362141
20
63.0060704
40
0.3612768
50
129.2532479
51
133.4242687
0
ARC
8
DEFAULT_255_1_234
10
13.5508591
20
62.9840965
40
0.3875675
50
101.98776
51
128.8742646
0
ARC
8
DEFAULT_255_1_234
10
13.5907202
20
62.8119741
40
0.5642249
50
89.5906553
51
102.3169264
0
ARC
8
DEFAULT_255_1_234
10
13.5977694
20
62.8438148
40
0.5323783
50
77.2360837
51
90.3248275
0
ARC
8
DEFAULT_255_1_234
10
13.6184773
20
62.94054
40
0.4334697
50
63.837784
51
77.0809408
0
ARC
8
DEFAULT_255_1_234
10
13.6462535
20
62.9922911
40
0.3747796
50
45.9864267
51
64.1607727
0
ARC
8
DEFAULT_255_1_234
10
13.6723416
20
63.0220866
40
0.3352302
50
32.2747395
51
45.6547121
0
ARC
8
DEFAULT_255_1_234
10
13.6789857
20
63.023988
40
0.328603
50
359.6507365
51
32.6130309
0
ARC
8
DEFAULT_255_1_234
10
13.5846952
20
63.024466
40
0.2678863
50
359.469343
51
14.9832209
0
ARC
8
DEFAULT_255_1_234
10
13.6552014
20
63.0433539
40
0.1948938
50
14.9781179
51
48.2004265
0
ARC
8
DEFAULT_255_1_234
10
13.6387658
20
63.0226983
40
0.2212521
50
48.5927837
51
74.1241538
0
ARC
8
DEFAULT_255_1_234
10
13.6054148
20
62.9126248
40
0.3362561
50
73.7888341
51
86.6652678
0
ARC
8
DEFAULT_255_1_234
10
13.5951714
20
62.7918881
40
0.4573953
50
86.2640471
51
90.0526343
0
ARC
8
DEFAULT_255_1_234
10
13.5923426
20
62.8314192
40
0.4178709
50
89.6697524
51
99.2309573
0
ARC
8
DEFAULT_255_1_234
10
13.5680877
20
62.9758964
40
0.2713749
50
99.069534
51
113.7658566
0
ARC
8
DEFAULT_255_1_234
10
13.5407068
20
63.0404677
40
0.2012469
50
114.0401004
51
127.9850673
0
ARC
8
DEFAULT_255_1_234
10
13.5166632
20
63.070073
40
0.1631167
50
127.7287463
51
176.7105154
0
ARC
8
DEFAULT_255_1_234
10
13.5845349
20
63.0599693
40
0.2315392
50
175.1779447
51
180.0581938
0
ARC
8
DEFAULT_255_1_234
10
13.5002196
20
63.0587428
40
0.1472271
50
179.6142195
51
228.1246017
0
ARC
8
DEFAULT_255_1_234
10
13.5443865
20
63.0996308
40
0.2072299
50
226.5779593
51
230.8800004
0
ARC
8
DEFAULT_255_1_234
10
13.5914944
20
63.1621636
40
0.2854818
50
231.4635071
51
241.9260842
0
ARC
8
DEFAULT_255_1_234
10
13.7112122
20
63.38248
40
0.53622
50
241.7178533
51
248.3259551
0
ARC
8
DEFAULT_255_1_234
10
13.8497493
20
63.7257064
40
0.9063478
50
248.2007737
51
252.4528373
0
ARC
8
DEFAULT_255_1_234
10
13.9701218
20
64.0978441
40
1.2974635
50
252.3391078
51
254.3469452
0
ARC
8
DEFAULT_255_1_234
10
13.2158921
20
61.4001148
40
1.5037162
50
71.0197183
51
74.4087047
0
ARC
8
DEFAULT_255_1_234
10
13.3853606
20
61.8893111
40
0.9859993
50
66.1847285
51
71.086374
0
ARC
8
DEFAULT_255_1_234
10
13.5409918
20
62.23972
40
0.6025855
50
59.3536294
51
66.2691831
0
ARC
8
DEFAULT_255_1_234
10
13.6298571
20
62.3900609
40
0.4279449
50
49.1020879
51
59.3293958
0
ARC
8
DEFAULT_255_1_234
10
13.7117311
20
62.4833834
40
0.3038015
50
32.7919921
51
49.2505539
0
ARC
8
DEFAULT_255_1_234
10
13.7438401
20
62.5062191
40
0.264448
50
31.1181161
51
32.4005348
0
ARC
8
DEFAULT_255_1_234
10
13.7349938
20
62.5026779
40
0.2738556
50
8.1116974
51
30.7958831
0
ARC
8
DEFAULT_255_1_234
10
13.6539607
20
62.4888753
40
0.3560327
50
359.8389159
51
8.4706516
0
ARC
8
DEFAULT_255_1_234
10
13.7165398
20
62.4840137
40
0.2934776
50
337.4731098
51
0.7537279
0
ARC
8
DEFAULT_255_1_234
10
13.7344093
20
62.4820387
40
0.2762607
50
307.5917067
51
336.4315538
0
ARC
8
DEFAULT_255_1_234
10
13.6883921
20
62.5333102
40
0.3449979
50
307.6551545
51
308.4529766
0
ARC
8
DEFAULT_255_1_234
10
13.665364
20
62.568825
40
0.3871988
50
284.3734338
51
307.1424381
0
ARC
8
DEFAULT_255_1_234
10
13.615847
20
62.7509932
40
0.5759636
50
272.4382747
51
284.646547
0
ARC
8
DEFAULT_255_1_234
10
13.6031679
20
62.9309893
40
0.7563528
50
269.9708387
51
272.8178037
0
ARC
8
DEFAULT_255_1_234
10
13.5988718
20
62.7271716
40
0.5525489
50
248.2707594
51
270.4055579
0
ARC
8
DEFAULT_255_1_234
10
13.5934459
20
62.7081192
40
0.5328452
50
246.1383403
51
248.0542782
0
ARC
8
DEFAULT_255_1_234
10
13.5515838
20
62.6201843
40
0.4355005
50
233.1670131
51
246.4950969
0
ARC
8
DEFAULT_255_1_234
10
13.4961743
20
62.5453812
40
0.3424126
50
215.3403242
51
233.0843104
0
ARC
8
DEFAULT_255_1_234
10
13.4689175
20
62.5255549
40
0.3087104
50
179.2419209
51
215.2648451
0
ARC
8
DEFAULT_255_1_234
10
13.5456768
20
62.5269666
40
0.2304457
50
179.335461
51
199.1045811
0
ARC
8
DEFAULT_255_1_234
10
13.5124445
20
62.5182766
40
0.1962176
50
199.8828939
51
232.7063202
0
ARC
8
DEFAULT_255_1_234
10
13.5596713
20
62.5776788
40
0.2720938
50
232.3738199
51
255.5136649
0
ARC
8
DEFAULT_255_1_234
10
13.593758
20
62.7020835
40
0.4010747
50
255.2446292
51
267.5320849
0
ARC
8
DEFAULT_255_1_234
10
13.6025203
20
62.8253702
40
0.5246356
50
267.1557994
51
270.0286766
0
ARC
8
DEFAULT_255_1_234
10
13.6052976
20
62.780995
40
0.4802668
50
269.7000017
51
278.1660162
0
ARC
8
DEFAULT_255_1_234
10
13.630898
20
62.6079515
40
0.3053425
50
278.0231263
51
290.625471
0
ARC
8
DEFAULT_255_1_234
10
13.6656667
20
62.5152025
40
0.206291
50
290.6619762
51
307.0370976
0
ARC
8
DEFAULT_255_1_234
10
13.6957057
20
62.4783504
40
0.1587906
50
306.3943566
51
355.3030547
0
ARC
8
DEFAULT_255_1_234
10
13.6444988
20
62.4860113
40
0.2104809
50
354.3660432
51
0.0698737
0
ARC
8
DEFAULT_255_1_234
10
13.6587333
20
62.4882617
40
0.1962563
50
359.417946
51
16.1971788
0
ARC
8
DEFAULT_255_1_234
10
13.7042644
20
62.5007418
40
0.149053
50
16.4723299
51
52.6262157
0
ARC
8
DEFAULT_255_1_234
10
13.6221698
20
62.3923433
40
0.2850296
50
52.7386432
51
62.4979148
0
ARC
8
DEFAULT_255_1_234
10
13.4836774
20
62.1317283
40
0.5801521
50
62.2515216
51
68.1220564
0
ARC
8
DEFAULT_255_1_234
10
13.3116685
20
61.7089872
40
1.0365451
50
68.0062803
51
71.8053402
0
ARC
8
DEFAULT_255_1_234
10
13.1321057
20
61.1704758
40
1.6042013
50
71.7183119
51
73.9258742
0
LINE
8
DEFAULT_255_1_234
10
14.1465316
20
62.6011218
11
14.1465316
21
62.6284297
0
LINE
8
DEFAULT_255_1_234
10
14.8838452
20
62.6444932
11
14.8838452
21
62.5826488
0
LINE
8
DEFAULT_255_1_234
10
14.8838452
20
62.5826488
11
14.2951188
21
62.5826488
0
LINE
8
DEFAULT_255_1_234
10
14.7818421
20
62.4131792
11
14.8726007
21
62.3424999
0
LINE
8
DEFAULT_255_1_234
10
14.2999378
20
62.7047313
11
14.735258
21
62.7047313
0
LINE
8
DEFAULT_255_1_234
10
14.735258
20
62.7047313
11
14.735258
21
62.7159757
0
ARC
8
DEFAULT_255_1_234
10
14.5404681
20
62.6122332
40
0.4376191
50
252.3266134
51
270.5810217
0
ARC
8
DEFAULT_255_1_234
10
14.519977
20
62.5381644
40
0.3608374
50
223.3000567
51
251.8561855
0
ARC
8
DEFAULT_255_1_234
10
14.5411131
20
62.5586937
40
0.3902993
50
190.9374509
51
223.3654032
0
ARC
8
DEFAULT_255_1_234
10
14.7136103
20
62.5976885
40
0.5670891
50
179.6531105
51
191.4989439
0
ARC
8
DEFAULT_255_1_234
10
14.7258115
20
62.6316417
40
0.5792888
50
167.4007466
51
180.3176909
0
ARC
8
DEFAULT_255_1_234
10
14.6206177
20
62.6538885
40
0.471777
50
154.1835823
51
167.250763
0
ARC
8
DEFAULT_255_1_234
10
14.5574644
20
62.6871417
40
0.4004528
50
134.3149965
51
154.5315275
0
ARC
8
DEFAULT_255_1_234
10
14.5357139
20
62.7062228
40
0.371612
50
122.8616532
51
133.9707695
0
ARC
8
DEFAULT_255_1_234
10
14.5253714
20
62.7284703
40
0.3473289
50
89.8249009
51
123.4199222
0
ARC
8
DEFAULT_255_1_234
10
14.5303755
20
62.6637967
40
0.4120197
50
74.7876118
51
90.5482747
0
ARC
8
DEFAULT_255_1_234
10
14.5597498
20
62.772303
40
0.2996077
50
39.8178249
51
74.7633718
0
ARC
8
DEFAULT_255_1_234
10
14.5084818
20
62.7323351
40
0.3645855
50
16.8990863
51
39.4829761
0
ARC
8
DEFAULT_255_1_234
10
14.3190114
20
62.6716526
40
0.5635218
50
4.9636328
51
17.2026414
0
ARC
8
DEFAULT_255_1_234
10
14.0772185
20
62.646134
40
0.8066286
50
359.8834553
51
5.2834307
0
ARC
8
DEFAULT_255_1_234
10
14.6809709
20
62.5892803
40
0.3859091
50
180.9846213
51
194.9401313
0
ARC
8
DEFAULT_255_1_234
10
14.5759987
20
62.5605849
40
0.2770883
50
194.80314
51
222.0412631
0
ARC
8
DEFAULT_255_1_234
10
14.5455869
20
62.5304116
40
0.2343055
50
221.5417084
51
268.8614402
0
ARC
8
DEFAULT_255_1_234
10
14.5528863
20
62.5980686
40
0.3021528
50
267.732405
51
270.0097136
0
ARC
8
DEFAULT_255_1_234
10
14.5546673
20
62.6182105
40
0.3222994
50
269.6924892
51
280.4117579
0
ARC
8
DEFAULT_255_1_234
10
14.572308
20
62.5263193
40
0.2287344
50
280.2255091
51
298.6338936
0
ARC
8
DEFAULT_255_1_234
10
14.5839872
20
62.5019223
40
0.2017294
50
299.0430333
51
300.4643464
0
ARC
8
DEFAULT_255_1_234
10
14.5159878
20
62.6153038
40
0.3339357
50
300.6577328
51
322.0378878
0
ARC
8
DEFAULT_255_1_234
10
14.4809417
20
62.6457021
40
0.3802736
50
321.6750233
51
322.3046845
0
ARC
8
DEFAULT_255_1_234
10
14.5740378
20
62.529037
40
0.3520454
50
276.9728461
51
328.0035423
0
ARC
8
DEFAULT_255_1_234
10
14.5463431
20
62.6770841
40
0.5024498
50
269.8361028
51
278.0581756
0
ARC
8
DEFAULT_255_1_234
10
14.5236168
20
62.7515757
40
0.202159
50
89.2018686
51
117.2851756
0
ARC
8
DEFAULT_255_1_234
10
14.5289337
20
62.7473752
40
0.2083484
50
118.0551165
51
137.4540413
0
ARC
8
DEFAULT_255_1_234
10
14.5664077
20
62.7133304
40
0.2589774
50
137.5109581
51
158.8516286
0
ARC
8
DEFAULT_255_1_234
10
14.6801913
20
62.6674074
40
0.38167
50
158.5845963
51
170.1721436
0
ARC
8
DEFAULT_255_1_234
10
14.7971302
20
62.6441823
40
0.5008657
50
169.8376422
51
173.0566086
0
ARC
8
DEFAULT_255_1_234
10
14.3274376
20
62.6952509
40
0.4083467
50
2.9091802
51
12.8847116
0
ARC
8
DEFAULT_255_1_234
10
14.4645053
20
62.7275101
40
0.2675383
50
12.6957781
51
28.6404489
0
ARC
8
DEFAULT_255_1_234
10
14.5186723
20
62.7555458
40
0.2065654
50
29.0169854
51
41.1487595
0
ARC
8
DEFAULT_255_1_234
10
14.5389509
20
62.7732003
40
0.1796786
50
41.1646065
51
85.0013516
0
ARC
8
DEFAULT_255_1_234
10
14.5268605
20
62.6997431
40
0.2539726
50
83.7280015
51
90.0964893
0
LINE
8
DEFAULT_255_1_234
10
15.4757843
20
63.0645531
11
15.4757843
21
62.9264072
0
LINE
8
DEFAULT_255_1_234
10
15.2043115
20
62.8075375
11
15.2043115
21
62.1907
0
LINE
8
DEFAULT_255_1_234
10
15.2043115
20
62.1907
11
15.0557244
21
62.1907
0
LINE
8
DEFAULT_255_1_234
10
15.0557244
20
62.1907
11
15.0557244
21
63.0597341
0
LINE
8
DEFAULT_255_1_234
10
15.0557244
20
63.0597341
11
15.2002957
21
63.0597341
0
LINE
8
DEFAULT_255_1_234
10
15.2002957
20
63.0597341
11
15.2027052
21
62.9593374
0
ARC
8
DEFAULT_255_1_234
10
15.4091248
20
62.5204342
40
0.4114092
50
80.6754243
51
86.8932892
0
ARC
8
DEFAULT_255_1_234
10
15.4030783
20
62.42367
40
0.5083596
50
86.8038578
51
90.0431435
0
ARC
8
DEFAULT_255_1_234
10
15.3993763
20
62.6693866
40
0.2626638
50
89.2759698
51
106.6213787
0
ARC
8
DEFAULT_255_1_234
10
15.3789327
20
62.743683
40
0.1856317
50
107.1346045
51
157.6458115
0
ARC
8
DEFAULT_255_1_234
10
15.4480929
20
62.7053311
40
0.2643398
50
155.6586782
51
157.2539184
0
ARC
8
DEFAULT_255_1_234
10
15.4276131
20
62.8222157
40
0.2634121
50
127.8165941
51
148.6302098
0
ARC
8
DEFAULT_255_1_234
10
15.40226
20
62.8482218
40
0.2273596
50
91.3329982
51
126.7875809
0
ARC
8
DEFAULT_255_1_234
10
15.409854
20
62.7767195
40
0.299078
50
89.986594
51
92.4688449
0
ARC
8
DEFAULT_255_1_234
10
15.4106935
20
62.8042078
40
0.2715908
50
85.3589899
51
90.1623399
0
ARC
8
DEFAULT_255_1_234
10
15.4191451
20
62.9046164
40
0.1708278
50
78.401942
51
85.4594656
0
ARC
8
DEFAULT_255_1_234
10
15.4336335
20
62.9737236
40
0.1002194
50
67.7858312
51
78.5728455
0
ARC
8
DEFAULT_255_1_234
10
15.4444188
20
63.0016887
40
0.0702548
50
63.4835954
51
67.3062642
0
LINE
8
DEFAULT_255_1_234
10
15.7737618
20
63.0597341
11
15.7737618
21
62.1907
0
LINE
8
DEFAULT_255_1_234
10
15.7737618
20
62.1907
11
15.6251746
21
62.1907
0
LINE
8
DEFAULT_255_1_234
10
15.6251746
20
62.1907
11
15.6251746
21
63.0597341
0
LINE
8
DEFAULT_255_1_234
10
15.6251746
20
63.0597341
11
15.7737618
21
63.0597341
0
ARC
8
DEFAULT_255_1_234
10
15.7109895
20
63.2911889
40
0.097867
50
161.415052
51
180.5526306
0
ARC
8
DEFAULT_255_1_234
10
15.6985673
20
63.2946077
40
0.0850062
50
138.1827368
51
160.9307106
0
ARC
8
DEFAULT_255_1_234
10
15.6875619
20
63.3041588
40
0.0704362
50
104.6368899
51
138.0039868
0
ARC
8
DEFAULT_255_1_234
10
15.6982773
20
63.2674963
40
0.1086221
50
92.0600725
51
105.2189128
0
ARC
8
DEFAULT_255_1_234
10
15.7006122
20
63.2332117
40
0.1429728
50
89.9756393
51
92.5012496
0
ARC
8
DEFAULT_255_1_234
10
15.7016141
20
63.2557731
40
0.1204151
50
78.0235316
51
90.4478182
0
ARC
8
DEFAULT_255_1_234
10
15.7108233
20
63.2971295
40
0.0780493
50
55.051506
51
78.3369085
0
ARC
8
DEFAULT_255_1_234
10
15.7158507
20
63.3055711
40
0.0682538
50
42.0501187
51
54.4513741
0
ARC
8
DEFAULT_255_1_234
10
15.7023374
20
63.2931798
40
0.0865878
50
1.7497075
51
42.1496013
0
ARC
8
DEFAULT_255_1_234
10
15.6768707
20
63.2902738
40
0.1121515
50
359.9852656
51
2.8364544
0
ARC
8
DEFAULT_255_1_234
10
15.6934699
20
63.2893229
40
0.0955566
50
342.1070653
51
0.552888
0
ARC
8
DEFAULT_255_1_234
10
15.7077397
20
63.2853904
40
0.0807713
50
316.7107116
51
341.6516965
0
ARC
8
DEFAULT_255_1_234
10
15.7144434
20
63.2793823
40
0.0717724
50
285.4397031
51
316.5324284
0
ARC
8
DEFAULT_255_1_234
10
15.7034351
20
63.3159554
40
0.1099597
50
272.3547054
51
285.8953117
0
ARC
8
DEFAULT_255_1_234
10
15.7007509
20
63.3525048
40
0.1465932
50
269.9695369
51
272.8160237
0
ARC
8
DEFAULT_255_1_234
10
15.699769
20
63.3305863
40
0.1246779
50
258.8431134
51
270.4153935
0
ARC
8
DEFAULT_255_1_234
10
15.6907733
20
63.2870414
40
0.0802162
50
238.5431189
51
259.1288175
0
ARC
8
DEFAULT_255_1_234
10
15.6839618
20
63.2746856
40
0.0661247
50
222.5062634
51
237.9906969
0
ARC
8
DEFAULT_255_1_234
10
15.6967205
20
63.2862889
40
0.0833707
50
184.1069131
51
222.460413
0
ARC
8
DEFAULT_255_1_234
10
15.7236446
20
63.2901349
40
0.1105176
50
179.9429482
51
185.0960898
0
LINE
8
DEFAULT_255_1_234
10
15.9737521
20
62.6011218
11
15.9737521
21
62.6284297
0
LINE
8
DEFAULT_255_1_234
10
16.7110656
20
62.6444932
11
16.7110656
21
62.5826488
0
LINE
8
DEFAULT_255_1_234
10
16.7110656
20
62.5826488
11
16.1223392
21
62.5826488
0
LINE
8
DEFAULT_255_1_234
10
16.6090625
20
62.4131792
11
16.6998212
21
62.3424999
0
LINE
8
DEFAULT_255_1_234
10
16.1271583
20
62.7047313
11
16.5624785
21
62.7047313
0
LINE
8
DEFAULT_255_1_234
10
16.5624785
20
62.7047313
11
16.5624785
21
62.7159757
0
ARC
8
DEFAULT_255_1_234
10
16.3676886
20
62.6122332
40
0.4376191
50
252.3266134
51
270.5810217
0
ARC
8
DEFAULT_255_1_234
10
16.3471975
20
62.5381644
40
0.3608374
50
223.3000567
51
251.8561855
0
ARC
8
DEFAULT_255_1_234
10
16.3683335
20
62.5586937
40
0.3902993
50
190.9374509
51
223.3654032
0
ARC
8
DEFAULT_255_1_234
10
16.5408308
20
62.5976885
40
0.5670891
50
179.6531105
51
191.4989439
0
ARC
8
DEFAULT_255_1_234
10
16.553032
20
62.6316417
40
0.5792888
50
167.4007466
51
180.3176909
0
ARC
8
DEFAULT_255_1_234
10
16.4478381
20
62.6538885
40
0.471777
50
154.1835823
51
167.250763
0
ARC
8
DEFAULT_255_1_234
10
16.3846849
20
62.6871417
40
0.4004528
50
134.3149965
51
154.5315275
0
ARC
8
DEFAULT_255_1_234
10
16.3629344
20
62.7062228
40
0.371612
50
122.8616532
51
133.9707695
0
ARC
8
DEFAULT_255_1_234
10
16.3525918
20
62.7284703
40
0.3473289
50
89.8249009
51
123.4199222
0
ARC
8
DEFAULT_255_1_234
10
16.3575959
20
62.6637967
40
0.4120197
50
74.7876118
51
90.5482747
0
ARC
8
DEFAULT_255_1_234
10
16.3869702
20
62.772303
40
0.2996077
50
39.8178249
51
74.7633718
0
ARC
8
DEFAULT_255_1_234
10
16.3357023
20
62.7323351
40
0.3645855
50
16.8990863
51
39.4829761
0
ARC
8
DEFAULT_255_1_234
10
16.1462319
20
62.6716526
40
0.5635218
50
4.9636328
51
17.2026414
0
ARC
8
DEFAULT_255_1_234
10
15.9044389
20
62.646134
40
0.8066286
50
359.8834553
51
5.2834307
0
ARC
8
DEFAULT_255_1_234
10
16.5081914
20
62.5892803
40
0.3859091
50
180.9846213
51
194.9401313
0
ARC
8
DEFAULT_255_1_234
10
16.4032191
20
62.5605849
40
0.2770883
50
194.80314
51
222.0412631
0
ARC
8
DEFAULT_255_1_234
10
16.3728073
20
62.5304116
40
0.2343055
50
221.5417084
51
268.8614402
0
ARC
8
DEFAULT_255_1_234
10
16.3801068
20
62.5980686
40
0.3021528
50
267.732405
51
270.0097136
0
ARC
8
DEFAULT_255_1_234
10
16.3818878
20
62.6182105
40
0.3222994
50
269.6924892
51
280.4117579
0
ARC
8
DEFAULT_255_1_234
10
16.3995285
20
62.5263193
40
0.2287344
50
280.2255091
51
298.6338936
0
ARC
8
DEFAULT_255_1_234
10
16.4112077
20
62.5019223
40
0.2017294
50
299.0430333
51
300.4643464
0
ARC
8
DEFAULT_255_1_234
10
16.3432082
20
62.6153038
40
0.3339357
50
300.6577328
51
322.0378878
0
ARC
8
DEFAULT_255_1_234
10
16.3081621
20
62.6457021
40
0.3802736
50
321.6750233
51
322.3046845
0
ARC
8
DEFAULT_255_1_234
10
16.4012583
20
62.529037
40
0.3520454
50
276.9728461
51
328.0035423
0
ARC
8
DEFAULT_255_1_234
10
16.3735635
20
62.6770841
40
0.5024498
50
269.8361028
51
278.0581756
0
ARC
8
DEFAULT_255_1_234
10
16.3508373
20
62.7515757
40
0.202159
50
89.2018686
51
117.2851756
0
ARC
8
DEFAULT_255_1_234
10
16.3561542
20
62.7473752
40
0.2083484
50
118.0551165
51
137.4540413
0
ARC
8
DEFAULT_255_1_234
10
16.3936282
20
62.7133304
40
0.2589774
50
137.5109581
51
158.8516286
0
ARC
8
DEFAULT_255_1_234
10
16.5074117
20
62.6674074
40
0.38167
50
158.5845963
51
170.1721436
0
ARC
8
DEFAULT_255_1_234
10
16.6243507
20
62.6441823
40
0.5008657
50
169.8376422
51
173.0566086
0
ARC
8
DEFAULT_255_1_234
10
16.1546581
20
62.6952509
40
0.4083467
50
2.9091802
51
12.8847116
0
ARC
8
DEFAULT_255_1_234
10
16.2917257
20
62.7275101
40
0.2675383
50
12.6957781
51
28.6404489
0
ARC
8
DEFAULT_255_1_234
10
16.3458928
20
62.7555458
40
0.2065654
50
29.0169854
51
41.1487595
0
ARC
8
DEFAULT_255_1_234
10
16.3661713
20
62.7732003
40
0.1796786
50
41.1646065
51
85.0013516
0
ARC
8
DEFAULT_255_1_234
10
16.354081
20
62.6997431
40
0.2539726
50
83.7280015
51
90.0964893
0
LINE
8
DEFAULT_255_1_234
10
17.5294998
20
62.8043248
11
17.3801094
21
62.8043248
0
LINE
8
DEFAULT_255_1_234
10
16.846802
20
62.4581569
11
16.9953892
21
62.4581569
0
ARC
8
DEFAULT_255_1_234
10
17.2612913
20
62.4226959
40
0.1276617
50
359.3334982
51
18.5871358
0
ARC
8
DEFAULT_255_1_234
10
17.282155
20
62.4282133
40
0.1061371
50
19.3540742
51
54.6485071
0
ARC
8
DEFAULT_255_1_234
10
17.2317452
20
62.3586919
40
0.1920087
50
54.3827097
51
65.0622807
0
ARC
8
DEFAULT_255_1_234
10
17.1548848
20
62.19699
40
0.3710447
50
64.8282493
51
71.4200025
0
ARC
8
DEFAULT_255_1_234
10
17.0646724
20
61.9323107
40
0.6506741
50
71.3164301
51
75.8006402
0
ARC
8
DEFAULT_255_1_234
10
16.9805544
20
61.6082561
40
0.9854641
50
75.6809531
51
78.0061883
0
ARC
8
DEFAULT_255_1_234
10
17.4254077
20
63.706177
40
1.1591028
50
254.6901892
51
258.0466452
0
ARC
8
DEFAULT_255_1_234
10
17.3215985
20
63.3302781
40
0.7691345
50
249.9010773
51
254.755261
0
ARC
8
DEFAULT_255_1_234
10
17.2212327
20
63.0576982
40
0.478665
50
243.3097214
51
249.9709442
0
ARC
8
DEFAULT_255_1_234
10
17.1583349
20
62.9322778
40
0.3383568
50
234.4047477
51
243.2862168
0
ARC
8
DEFAULT_255_1_234
10
17.0960872
20
62.8463232
40
0.2322322
50
220.8667099
51
234.5493881
0
ARC
8
DEFAULT_255_1_234
10
17.0618813
20
62.8151817
40
0.1859923
50
214.3062465
51
220.5065136
0
ARC
8
DEFAULT_255_1_234
10
17.0592892
20
62.812088
40
0.1821108
50
186.912965
51
213.9618616
0
ARC
8
DEFAULT_255_1_234
10
17.1124987
20
62.8207009
40
0.2359799
50
179.8808832
51
187.4339886
0
ARC
8
DEFAULT_255_1_234
10
17.097012
20
62.8227088
40
0.2204978
50
132.005434
51
180.3942919
0
ARC
8
DEFAULT_255_1_234
10
17.1626734
20
62.7621083
40
0.3095791
50
129.2319861
51
133.5302299
0
ARC
8
DEFAULT_255_1_234
10
17.1680242
20
62.7526928
40
0.3202615
50
100.4410011
51
128.9081242
0
ARC
8
DEFAULT_255_1_234
10
17.1954126
20
62.6241455
40
0.4516583
50
89.6985377
51
100.9026564
0
ARC
8
DEFAULT_255_1_234
10
17.2011168
20
62.6081166
40
0.4676928
50
77.6965325
51
90.4076836
0
ARC
8
DEFAULT_255_1_234
10
17.2342152
20
62.7508413
40
0.3211988
50
50.7276602
51
78.0399361
0
ARC
8
DEFAULT_255_1_234
10
17.278661
20
62.8026296
40
0.2529778
50
25.7545084
51
51.0957453
0
ARC
8
DEFAULT_255_1_234
10
17.2787835
20
62.8076206
40
0.250738
50
359.2468627
51
24.7394243
0
ARC
8
DEFAULT_255_1_234
10
17.2503287
20
62.8047664
40
0.1297815
50
359.8050318
51
45.1544908
0
ARC
8
DEFAULT_255_1_234
10
17.2096429
20
62.7699794
40
0.1831883
50
43.8047702
51
49.6271585
0
ARC
8
DEFAULT_255_1_234
10
17.210433
20
62.7700678
40
0.18261
50
49.7980766
51
82.1218353
0
ARC
8
DEFAULT_255_1_234
10
17.1985302
20
62.7053998
40
0.2483163
50
81.4465357
51
90.1710293
0
ARC
8
DEFAULT_255_1_234
10
17.1960905
20
62.652788
40
0.300932
50
89.6766211
51
99.1264602
0
ARC
8
DEFAULT_255_1_234
10
17.1789367
20
62.7561537
40
0.1961547
50
98.968313
51
113.4570237
0
ARC
8
DEFAULT_255_1_234
10
17.1593452
20
62.8029965
40
0.1453859
50
113.722589
51
127.4763106
0
ARC
8
DEFAULT_255_1_234
10
17.1425098
20
62.8230124
40
0.1192639
50
126.9083309
51
150.3165862
0
ARC
8
DEFAULT_255_1_234
10
17.1377431
20
62.8280981
40
0.112623
50
151.3635175
51
180.0701457
0
ARC
8
DEFAULT_255_1_234
10
17.1686215
20
62.825999
40
0.1435149
50
179.2169974
51
179.9954013
0
ARC
8
DEFAULT_255_1_234
10
17.1325273
20
62.8247056
40
0.1074286
50
179.3040112
51
198.4225446
0
ARC
8
DEFAULT_255_1_234
10
17.1133406
20
62.8197127
40
0.0876573
50
199.2895851
51
238.6034594
0
ARC
8
DEFAULT_255_1_234
10
17.1736253
20
62.914345
40
0.1998512
50
237.9846301
51
246.8744712
0
ARC
8
DEFAULT_255_1_234
10
17.2594198
20
63.1106205
40
0.4140547
50
246.6234531
51
251.8168941
0
ARC
8
DEFAULT_255_1_234
10
17.3624741
20
63.4200905
40
0.7402308
50
251.713434
51
255.0778414
0
ARC
8
DEFAULT_255_1_234
10
17.4824004
20
63.8667563
40
1.2027155
50
255.0367487
51
257.4705983
0
ARC
8
DEFAULT_255_1_234
10
16.9716014
20
61.5653863
40
1.1546601
50
73.6837552
51
77.5016755
0
ARC
8
DEFAULT_255_1_234
10
17.0804789
20
61.9353581
40
0.7690009
50
68.7044154
51
73.7249639
0
ARC
8
DEFAULT_255_1_234
10
17.1707809
20
62.1680654
40
0.5193873
50
63.590599
51
68.6626804
0
ARC
8
DEFAULT_255_1_234
10
17.2478828
20
62.3218123
40
0.3473927
50
54.7106439
51
63.7013633
0
ARC
8
DEFAULT_255_1_234
10
17.3103283
20
62.40904
40
0.2401192
50
41.0622434
51
54.8487496
0
ARC
8
DEFAULT_255_1_234
10
17.3444669
20
62.4403592
40
0.1938094
50
34.4950568
51
40.7105546
0
ARC
8
DEFAULT_255_1_234
10
17.3491477
20
62.4452078
40
0.1872106
50
9.3763373
51
34.0833615
0
ARC
8
DEFAULT_255_1_234
10
17.2838347
20
62.4326728
40
0.2536988
50
359.7694872
51
9.7663171
0
ARC
8
DEFAULT_255_1_234
10
17.3035848
20
62.4283764
40
0.2339696
50
335.8654732
51
0.8022045
0
ARC
8
DEFAULT_255_1_234
10
17.3110892
20
62.4297197
40
0.2277108
50
307.7357725
51
334.7849066
0
ARC
8
DEFAULT_255_1_234
10
17.2710068
20
62.4747645
40
0.2878951
50
307.0241536
51
308.5578354
0
ARC
8
DEFAULT_255_1_234
10
17.2452399
20
62.5133801
40
0.3342515
50
282.9362969
51
306.5646424
0
ARC
8
DEFAULT_255_1_234
10
17.2090697
20
62.6601108
40
0.4853615
50
271.1026298
51
283.2200835
0
ARC
8
DEFAULT_255_1_234
10
17.2026941
20
62.7842418
40
0.6096052
50
269.9919117
51
271.4772449
0
ARC
8
DEFAULT_255_1_234
10
17.2000696
20
62.6764436
40
0.5018135
50
259.0723564
51
270.289833
0
ARC
8
DEFAULT_255_1_234
10
17.1788428
20
62.5647271
40
0.388099
50
245.4963068
51
259.0227342
0
ARC
8
DEFAULT_255_1_234
10
17.1510384
20
62.5065615
40
0.3236422
50
228.9684658
51
245.7044727
0
ARC
8
DEFAULT_255_1_234
10
17.1244828
20
62.4738575
40
0.2815426
50
214.4011705
51
228.6759915
0
ARC
8
DEFAULT_255_1_234
10
17.0955569
20
62.458029
40
0.2487548
50
179.9705531
51
215.1572795
0
ARC
8
DEFAULT_255_1_234
10
17.1656168
20
62.4653806
40
0.1703809
50
182.4299387
51
203.0329699
0
ARC
8
DEFAULT_255_1_234
10
17.1471826
20
62.4597396
40
0.1512226
50
203.798802
51
232.548466
0
ARC
8
DEFAULT_255_1_234
10
17.1748347
20
62.4948826
40
0.1959374
50
232.3782728
51
256.3934612
0
ARC
8
DEFAULT_255_1_234
10
17.1978709
20
62.5838842
40
0.2878639
50
256.104506
51
268.4626716
0
ARC
8
DEFAULT_255_1_234
10
17.2025193
20
62.6635487
40
0.3676329
50
268.0715632
51
270.0138206
0
ARC
8
DEFAULT_255_1_234
10
17.2043718
20
62.6363083
40
0.3403971
50
269.7031147
51
278.8341955
0
ARC
8
DEFAULT_255_1_234
10
17.2225811
20
62.5232876
40
0.2259217
50
278.6728789
51
292.8232582
0
ARC
8
DEFAULT_255_1_234
10
17.2426349
20
62.4731449
40
0.171929
50
293.1452328
51
303.6655899
0
ARC
8
DEFAULT_255_1_234
10
17.2691228
20
62.4355204
40
0.1259367
50
303.1248165
51
321.742847
0
ARC
8
DEFAULT_255_1_234
10
17.2877109
20
62.4192156
40
0.1012531
50
322.4748573
51
1.1291126
0
LINE
8
DEFAULT_255_2_778
10
10.5738396
20
64.7150073
11
9.3932396
21
64.7150073
0
LINE
8
DEFAULT_255_2_778
10
9.3932396
20
64.7150073
11
9.9837396
21
65.7376073
0
LINE
8
DEFAULT_255_2_778
10
9.9837396
20
65.7376073
11
11.1643396
21
65.7376073
0
LINE
8
DEFAULT_255_2_778
10
11.1643396
20
65.7376073
11
10.5738396
21
64.7150073
0
LINE
8
DEFAULT_255_2_778
10
10.5738396
20
64.7150073
11
10.5738396
21
64.7150073
0
LINE
8
DEFAULT_255_2_778
10
11.7546396
20
64.7150073
11
12.9354396
21
64.7150073
0
LINE
8
DEFAULT_255_2_778
10
12.9354396
20
64.7150073
11
12.3451396
21
65.7376073
0
LINE
8
DEFAULT_255_2_778
10
12.3451396
20
65.7376073
11
11.1643396
21
65.7376073
0
LINE
8
DEFAULT_255_2_778
10
11.1643396
20
65.7376073
11
11.7546396
21
64.7150073
0
LINE
8
DEFAULT_255_2_778
10
11.7546396
20
64.7150073
11
11.7546396
21
64.7150073
0
LINE
8
DEFAULT_255_2_778
10
11.7545823
20
66.7602146
11
11.1642823
21
67.7828146
0
LINE
8
DEFAULT_255_2_778
10
11.1642823
20
67.7828146
11
10.5737823
21
66.7602146
0
LINE
8
DEFAULT_255_2_778
10
10.5737823
20
66.7602146
11
11.1642823
21
65.7376146
0
LINE
8
DEFAULT_255_2_778
10
11.1642823
20
65.7376146
11
11.7545823
21
66.7602146
0
LINE
8
DEFAULT_255_2_778
10
11.7545823
20
66.7602146
11
11.7545823
21
66.7602146
0
ARC
8
DEFAULT_255_2_778
10
16.5183731
20
66.4064426
40
0.5650491
50
268.7543645
51
289.1417717
0
ARC
8
DEFAULT_255_2_778
10
16.606208
20
66.1512531
40
0.2951681
50
289.2776255
51
3.7648372
0
ARC
8
DEFAULT_255_2_778
10
16.3901618
20
66.1778085
40
0.5106278
50
359.1949826
51
0.0020862
0
ARC
8
DEFAULT_255_2_778
10
16.547449
20
66.1637832
40
0.1541914
50
280.2616216
51
358.5297855
0
ARC
8
DEFAULT_255_2_778
10
16.5080075
20
66.276355
40
0.2726346
50
269.5969454
51
284.2065679
0
ARC
8
DEFAULT_255_2_778
10
16.4981967
20
66.2607316
40
0.2571258
50
246.5290903
51
271.7590909
0
ARC
8
DEFAULT_255_2_778
10
16.4527148
20
66.1527009
40
0.1399248
50
188.1071678
51
245.9934684
0
ARC
8
DEFAULT_255_2_778
10
16.4829007
20
66.1596617
40
0.1708111
50
179.9445314
51
188.990814
0
ARC
8
DEFAULT_255_2_778
10
16.4924507
20
66.1664849
40
0.3763411
50
178.2272621
51
205.8283807
0
ARC
8
DEFAULT_255_2_778
10
16.4132476
20
66.1487833
40
0.2979176
50
209.4028057
51
263.0375728
0
ARC
8
DEFAULT_255_2_778
10
16.5005111
20
66.5234629
40
0.6816586
50
259.5722942
51
270.4689037
0
ARC
8
DEFAULT_255_2_778
10
17.411252
20
66.5796767
40
0.1217154
50
2.0482843
51
87.015299
0
ARC
8
DEFAULT_255_2_778
10
17.4060617
20
66.5840852
40
0.126828
50
353.0600847
51
359.9737428
0
ARC
8
DEFAULT_255_2_778
10
17.4110442
20
66.5809555
40
0.1215295
50
270.5739762
51
354.2410513
0
ARC
8
DEFAULT_255_2_778
10
17.4065059
20
66.6171297
40
0.1578027
50
269.9941256
51
272.0902921
0
ARC
8
DEFAULT_255_2_778
10
17.414084
20
66.1662295
40
0.1400686
50
358.2807293
51
95.6106825
0
ARC
8
DEFAULT_255_2_778
10
17.4103233
20
66.1623963
40
0.1437669
50
266.9962473
51
359.8528392
0
ARC
8
DEFAULT_255_2_778
10
17.4725249
20
66.2026988
40
0.3335288
50
268.2414507
51
302.0223478
0
ARC
8
DEFAULT_255_2_778
10
17.5091261
20
66.127383
40
0.2504234
50
304.0600275
51
2.0468005
0
ARC
8
DEFAULT_255_2_778
10
17.4832788
20
66.1340521
40
0.2761203
50
0.4720601
51
65.8403529
0
ARC
8
DEFAULT_255_2_778
10
17.5191655
20
66.1988061
40
0.2024466
50
67.606893
51
75.8693222
0
ARC
8
DEFAULT_255_2_778
10
17.5042026
20
66.606422
40
0.2208874
50
286.9473417
51
358.0074963
0
ARC
8
DEFAULT_255_2_778
10
17.4710866
20
66.6152045
40
0.2544031
50
356.2897886
51
0.0050857
0
ARC
8
DEFAULT_255_2_778
10
17.497262
20
66.6202946
40
0.2282839
50
358.7280137
51
81.8073164
0
ARC
8
DEFAULT_255_2_778
10
17.4216369
20
66.3688283
40
0.4895182
50
77.2355086
51
90.5088275
0
ARC
8
DEFAULT_255_2_778
10
17.5842742
20
65.4043263
40
0.130243
50
89.9974494
51
92.6776592
0
ARC
8
DEFAULT_255_2_778
10
17.5843316
20
65.4048872
40
0.129682
50
45.0880141
51
90.022782
0
ARC
8
DEFAULT_255_2_778
10
17.5844118
20
65.404919
40
0.1296029
50
0.001866
51
45.1031959
0
ARC
8
DEFAULT_255_2_778
10
17.5845123
20
65.4049202
40
0.1295026
50
357.4803735
51
0.0013544
0
ARC
8
DEFAULT_255_2_778
10
17.5901979
20
65.4010512
40
0.1237052
50
339.8672523
51
359.1550732
0
ARC
8
DEFAULT_255_2_778
10
17.5794513
20
65.3982079
40
0.1329691
50
272.0853006
51
342.6124646
0
ARC
8
DEFAULT_255_2_778
10
17.6596145
20
65.4364661
40
0.2575135
50
286.787355
51
290.6121696
0
ARC
8
DEFAULT_255_2_778
10
17.6689461
20
65.4221533
40
0.24086
50
289.7330405
51
342.3216972
0
ARC
8
DEFAULT_255_2_778
10
17.641261
20
65.4269954
40
0.268735
50
343.130572
51
0.3905272
0
ARC
8
DEFAULT_255_2_778
10
17.6578783
20
65.4443767
40
0.2525904
50
356.4706028
51
80.1788963
0
ARC
8
DEFAULT_255_2_778
10
17.5921649
20
65.2174163
40
0.4881286
50
77.1212301
51
90.4900821
0
ARC
8
DEFAULT_255_2_778
10
17.5166337
20
64.919736
40
0.1865405
50
50.1507009
51
92.9634648
0
ARC
8
DEFAULT_255_2_778
10
17.5301354
20
64.9480678
40
0.1563319
50
12.621233
51
47.2950617
0
ARC
8
DEFAULT_255_2_778
10
16.8485884
20
64.8151726
40
0.8506657
50
2.8173892
51
11.3253986
0
ARC
8
DEFAULT_255_2_778
10
-29.2295733
20
61.3188175
40
47.060992
50
4.3048394
51
4.3117143
0
ARC
8
DEFAULT_255_2_778
10
18.5500859
20
64.891284
40
0.8523717
50
182.6850102
51
191.2954256
0
ARC
8
DEFAULT_255_2_778
10
17.9656837
20
64.7849399
40
0.2586603
50
193.5512904
51
195.3825538
0
ARC
8
DEFAULT_255_2_778
10
19.3415679
20
65.0425916
40
1.4608773
50
182.5958701
51
192.9049706
0
ARC
8
DEFAULT_255_2_778
10
17.6207606
20
64.9709215
40
0.261487
50
1.2064311
51
30.4123358
0
ARC
8
DEFAULT_255_2_778
10
17.6663626
20
64.985976
40
0.2147766
50
33.1081154
51
71.7312197
0
LINE
8
DEFAULT_255_2_778
10
13.4657897
20
65.1505271
11
13.9385897
21
65.1505271
0
LINE
8
DEFAULT_255_2_778
10
13.9385897
20
65.1505271
11
13.9385897
21
65.3219271
0
LINE
8
DEFAULT_255_2_778
10
13.9385897
20
65.3219271
11
13.4657897
21
65.3219271
0
LINE
8
DEFAULT_255_2_778
10
13.4657897
20
65.3219271
11
13.4657897
21
65.5328271
0
LINE
8
DEFAULT_255_2_778
10
13.4657897
20
65.5328271
11
13.9977897
21
65.5328271
0
LINE
8
DEFAULT_255_2_778
10
13.9977897
20
65.5328271
11
13.9977897
21
65.7042271
0
LINE
8
DEFAULT_255_2_778
10
13.9977897
20
65.7042271
11
13.4657897
21
65.7042271
0
LINE
8
DEFAULT_255_2_778
10
13.4657897
20
65.7042271
11
13.2651897
21
65.7042271
0
LINE
8
DEFAULT_255_2_778
10
13.2651897
20
65.7042271
11
13.2651897
21
65.5328271
0
LINE
8
DEFAULT_255_2_778
10
13.2651897
20
65.5328271
11
13.2651897
21
64.8864271
0
LINE
8
DEFAULT_255_2_778
10
13.2651897
20
64.8864271
11
13.2651897
21
64.7149271
0
LINE
8
DEFAULT_255_2_778
10
13.2651897
20
64.7149271
11
13.4657897
21
64.7149271
0
LINE
8
DEFAULT_255_2_778
10
13.4657897
20
64.7149271
11
14.0118897
21
64.7149271
0
LINE
8
DEFAULT_255_2_778
10
14.0118897
20
64.7149271
11
14.0118897
21
64.8864271
0
LINE
8
DEFAULT_255_2_778
10
14.0118897
20
64.8864271
11
13.4657897
21
64.8864271
0
LINE
8
DEFAULT_255_2_778
10
13.4657897
20
64.8864271
11
13.4657897
21
65.1502271
0
LINE
8
DEFAULT_255_2_778
10
13.4657897
20
65.1502271
11
13.4657897
21
65.1505271
0
LINE
8
DEFAULT_255_2_778
10
13.4519897
20
66.6046271
11
13.6620897
21
65.8693271
0
LINE
8
DEFAULT_255_2_778
10
13.6620897
20
65.8693271
11
13.6704897
21
65.8693271
0
LINE
8
DEFAULT_255_2_778
10
13.6704897
20
65.8693271
11
13.8464897
21
65.8693271
0
LINE
8
DEFAULT_255_2_778
10
13.8464897
20
65.8693271
11
13.8546897
21
65.8693271
0
LINE
8
DEFAULT_255_2_778
10
13.8546897
20
65.8693271
11
14.0647897
21
66.6046271
0
LINE
8
DEFAULT_255_2_778
10
14.0647897
20
66.6046271
11
14.0647897
21
65.8693271
0
LINE
8
DEFAULT_255_2_778
10
14.0647897
20
65.8693271
11
14.2515897
21
65.8693271
0
LINE
8
DEFAULT_255_2_778
10
14.2515897
20
65.8693271
11
14.2515897
21
66.8586271
0
LINE
8
DEFAULT_255_2_778
10
14.2515897
20
66.8586271
11
14.1496897
21
66.8586271
0
LINE
8
DEFAULT_255_2_778
10
14.1496897
20
66.8586271
11
14.0615897
21
66.8586271
0
LINE
8
DEFAULT_255_2_778
10
14.0615897
20
66.8586271
11
13.9655897
21
66.8586271
0
LINE
8
DEFAULT_255_2_778
10
13.9655897
20
66.8586271
11
13.7583897
21
66.1643271
0
LINE
8
DEFAULT_255_2_778
10
13.7583897
20
66.1643271
11
13.5511897
21
66.8586271
0
LINE
8
DEFAULT_255_2_778
10
13.5511897
20
66.8586271
11
13.4551897
21
66.8586271
0
LINE
8
DEFAULT_255_2_778
10
13.4551897
20
66.8586271
11
13.3669897
21
66.8586271
0
LINE
8
DEFAULT_255_2_778
10
13.3669897
20
66.8586271
11
13.2651897
21
66.8586271
0
LINE
8
DEFAULT_255_2_778
10
13.2651897
20
66.8586271
11
13.2651897
21
65.8693271
0
LINE
8
DEFAULT_255_2_778
10
13.2651897
20
65.8693271
11
13.4519897
21
65.8693271
0
LINE
8
DEFAULT_255_2_778
10
13.4519897
20
65.8693271
11
13.4519897
21
66.6046271
0
LINE
8
DEFAULT_255_2_778
10
13.4519897
20
66.6046271
11
13.4519897
21
66.6046271
0
LINE
8
DEFAULT_255_2_778
10
18.0056897
20
66.8586271
11
17.8064897
21
66.8586271
0
LINE
8
DEFAULT_255_2_778
10
17.8064897
20
66.8586271
11
17.8064897
21
65.8693271
0
LINE
8
DEFAULT_255_2_778
10
17.8064897
20
65.8693271
11
18.0056897
21
65.8693271
0
LINE
8
DEFAULT_255_2_778
10
18.0056897
20
65.8693271
11
18.0056897
21
66.8586271
0
LINE
8
DEFAULT_255_2_778
10
18.0056897
20
66.8586271
11
18.0056897
21
66.8586271
0
LINE
8
DEFAULT_255_2_778
10
18.1681897
20
65.7045271
11
17.9689897
21
65.7045271
0
LINE
8
DEFAULT_255_2_778
10
17.9689897
20
65.7045271
11
17.9689897
21
64.7152271
0
LINE
8
DEFAULT_255_2_778
10
17.9689897
20
64.7152271
11
18.1681897
21
64.7152271
0
LINE
8
DEFAULT_255_2_778
10
18.1681897
20
64.7152271
11
18.1681897
21
65.7045271
0
LINE
8
DEFAULT_255_2_778
10
18.1681897
20
65.7045271
11
18.1681897
21
65.7045271
0
LINE
8
DEFAULT_255_2_778
10
19.9765897
20
66.8586271
11
19.7773897
21
66.8586271
0
LINE
8
DEFAULT_255_2_778
10
19.7773897
20
66.8586271
11
19.7773897
21
65.8693271
0
LINE
8
DEFAULT_255_2_778
10
19.7773897
20
65.8693271
11
19.9765897
21
65.8693271
0
LINE
8
DEFAULT_255_2_778
10
19.9765897
20
65.8693271
11
19.9765897
21
66.8586271
0
LINE
8
DEFAULT_255_2_778
10
19.9765897
20
66.8586271
11
19.9765897
21
66.8586271
0
LINE
8
DEFAULT_255_2_778
10
14.5298897
20
66.8586271
11
14.3306897
21
66.8586271
0
LINE
8
DEFAULT_255_2_778
10
14.3306897
20
66.8586271
11
14.3306897
21
65.8693271
0
LINE
8
DEFAULT_255_2_778
10
14.3306897
20
65.8693271
11
14.5298897
21
65.8693271
0
LINE
8
DEFAULT_255_2_778
10
14.5298897
20
65.8693271
11
14.5298897
21
66.8586271
0
LINE
8
DEFAULT_255_2_778
10
14.5298897
20
66.8586271
11
14.5298897
21
66.8586271
0
LINE
8
DEFAULT_255_2_778
10
19.4989897
20
66.4726271
11
19.1029897
21
66.4726271
0
LINE
8
DEFAULT_255_2_778
10
19.1029897
20
66.4726271
11
19.1029897
21
66.8583271
0
LINE
8
DEFAULT_255_2_778
10
19.1029897
20
66.8583271
11
18.9068897
21
66.8583271
0
LINE
8
DEFAULT_255_2_778
10
18.9068897
20
66.8583271
11
18.9068897
21
65.8693271
0
LINE
8
DEFAULT_255_2_778
10
18.9068897
20
65.8693271
11
19.1029897
21
65.8693271
0
LINE
8
DEFAULT_255_2_778
10
19.1029897
20
65.8693271
11
19.1029897
21
66.3011271
0
LINE
8
DEFAULT_255_2_778
10
19.1029897
20
66.3011271
11
19.4989897
21
66.3011271
0
LINE
8
DEFAULT_255_2_778
10
19.4989897
20
66.3011271
11
19.4989897
21
65.8693271
0
LINE
8
DEFAULT_255_2_778
10
19.4989897
20
65.8693271
11
19.6950897
21
65.8693271
0
LINE
8
DEFAULT_255_2_778
10
19.6950897
20
65.8693271
11
19.6950897
21
66.8583271
0
LINE
8
DEFAULT_255_2_778
10
19.6950897
20
66.8583271
11
19.4989897
21
66.8583271
0
LINE
8
DEFAULT_255_2_778
10
19.4989897
20
66.8583271
11
19.4989897
21
66.4726271
0
LINE
8
DEFAULT_255_2_778
10
19.4989897
20
66.4726271
11
19.4989897
21
66.4726271
0
LINE
8
DEFAULT_255_2_778
10
14.8246897
20
65.8693271
11
15.0280897
21
65.8693271
0
LINE
8
DEFAULT_255_2_778
10
15.0280897
20
65.8693271
11
15.0280897
21
66.6872271
0
LINE
8
DEFAULT_255_2_778
10
15.0280897
20
66.6872271
11
15.2696897
21
66.6872271
0
LINE
8
DEFAULT_255_2_778
10
15.2696897
20
66.6872271
11
15.2696897
21
66.8586271
0
LINE
8
DEFAULT_255_2_778
10
15.2696897
20
66.8586271
11
15.0280897
21
66.8586271
0
LINE
8
DEFAULT_255_2_778
10
15.0280897
20
66.8586271
11
14.8246897
21
66.8586271
0
LINE
8
DEFAULT_255_2_778
10
14.8246897
20
66.8586271
11
14.5830897
21
66.8586271
0
LINE
8
DEFAULT_255_2_778
10
14.5830897
20
66.8586271
11
14.5830897
21
66.6872271
0
LINE
8
DEFAULT_255_2_778
10
14.5830897
20
66.6872271
11
14.8246897
21
66.6872271
0
LINE
8
DEFAULT_255_2_778
10
14.8246897
20
66.6872271
11
14.8246897
21
65.8693271
0
LINE
8
DEFAULT_255_2_778
10
14.8246897
20
65.8693271
11
14.8246897
21
65.8693271
0
LINE
8
DEFAULT_255_2_778
10
16.6422897
20
64.7152271
11
16.8454897
21
64.7152271
0
LINE
8
DEFAULT_255_2_778
10
16.8454897
20
64.7152271
11
16.8454897
21
65.5330271
0
LINE
8
DEFAULT_255_2_778
10
16.8454897
20
65.5330271
11
17.0873897
21
65.5330271
0
LINE
8
DEFAULT_255_2_778
10
17.0873897
20
65.5330271
11
17.0873897
21
65.7048271
0
LINE
8
DEFAULT_255_2_778
10
17.0873897
20
65.7048271
11
16.8454897
21
65.7048271
0
LINE
8
DEFAULT_255_2_778
10
16.8454897
20
65.7048271
11
16.6422897
21
65.7048271
0
LINE
8
DEFAULT_255_2_778
10
16.6422897
20
65.7048271
11
16.4004897
21
65.7048271
0
LINE
8
DEFAULT_255_2_778
10
16.4004897
20
65.7048271
11
16.4004897
21
65.5330271
0
LINE
8
DEFAULT_255_2_778
10
16.4004897
20
65.5330271
11
16.6422897
21
65.5330271
0
LINE
8
DEFAULT_255_2_778
10
16.6422897
20
65.5330271
11
16.6422897
21
64.7152271
0
LINE
8
DEFAULT_255_2_778
10
16.6422897
20
64.7152271
11
16.6422897
21
64.7152271
0
LINE
8
DEFAULT_255_2_778
10
16.9007897
20
66.1778271
11
16.9007897
21
66.8583271
0
LINE
8
DEFAULT_255_2_778
10
16.9007897
20
66.8583271
11
16.7015897
21
66.8583271
0
LINE
8
DEFAULT_255_2_778
10
16.7015897
20
66.8583271
11
16.7015897
21
66.1598271
0
LINE
8
DEFAULT_255_2_778
10
16.3120897
20
66.1598271
11
16.3120897
21
66.8583271
0
LINE
8
DEFAULT_255_2_778
10
16.3120897
20
66.8583271
11
16.1162897
21
66.8583271
0
LINE
8
DEFAULT_255_2_778
10
16.1162897
20
66.8583271
11
16.1162897
21
66.1781271
0
LINE
8
DEFAULT_255_2_778
10
15.0000897
20
65.1505271
11
15.4730897
21
65.1505271
0
LINE
8
DEFAULT_255_2_778
10
15.4730897
20
65.1505271
11
15.4730897
21
65.3219271
0
LINE
8
DEFAULT_255_2_778
10
15.4730897
20
65.3219271
11
15.0000897
21
65.3219271
0
LINE
8
DEFAULT_255_2_778
10
15.0000897
20
65.3219271
11
15.0000897
21
65.5328271
0
LINE
8
DEFAULT_255_2_778
10
15.0000897
20
65.5328271
11
15.5320897
21
65.5328271
0
LINE
8
DEFAULT_255_2_778
10
15.5320897
20
65.5328271
11
15.5320897
21
65.7042271
0
LINE
8
DEFAULT_255_2_778
10
15.5320897
20
65.7042271
11
15.0000897
21
65.7042271
0
LINE
8
DEFAULT_255_2_778
10
15.0000897
20
65.7042271
11
14.7997897
21
65.7042271
0
LINE
8
DEFAULT_255_2_778
10
14.7997897
20
65.7042271
11
14.7997897
21
65.5328271
0
LINE
8
DEFAULT_255_2_778
10
14.7997897
20
65.5328271
11
14.7997897
21
64.8864271
0
LINE
8
DEFAULT_255_2_778
10
14.7997897
20
64.8864271
11
14.7997897
21
64.7149271
0
LINE
8
DEFAULT_255_2_778
10
14.7997897
20
64.7149271
11
15.0000897
21
64.7149271
0
LINE
8
DEFAULT_255_2_778
10
15.0000897
20
64.7149271
11
15.5461897
21
64.7149271
0
LINE
8
DEFAULT_255_2_778
10
15.5461897
20
64.7149271
11
15.5461897
21
64.8864271
0
LINE
8
DEFAULT_255_2_778
10
15.5461897
20
64.8864271
11
15.0000897
21
64.8864271
0
LINE
8
DEFAULT_255_2_778
10
15.0000897
20
64.8864271
11
15.0000897
21
65.1502271
0
LINE
8
DEFAULT_255_2_778
10
15.0000897
20
65.1502271
11
15.0000897
21
65.1505271
0
LINE
8
DEFAULT_255_2_778
10
17.4064897
20
66.4593271
11
17.1690897
21
66.4593271
0
LINE
8
DEFAULT_255_2_778
10
17.1690897
20
66.4593271
11
17.1690897
21
66.7009271
0
LINE
8
DEFAULT_255_2_778
10
17.1690897
20
66.7009271
11
17.4175897
21
66.7009271
0
LINE
8
DEFAULT_255_2_778
10
17.4175897
20
66.7009271
11
17.4175897
21
66.7012271
0
LINE
8
DEFAULT_255_2_778
10
17.4027897
20
66.0185271
11
17.1690897
21
66.0185271
0
LINE
8
DEFAULT_255_2_778
10
17.1690897
20
66.0185271
11
17.1690897
21
66.3056271
0
LINE
8
DEFAULT_255_2_778
10
17.1690897
20
66.3056271
11
17.4003897
21
66.3056271
0
LINE
8
DEFAULT_255_2_778
10
17.1767897
20
65.8693271
11
17.4622897
21
65.8693271
0
LINE
8
DEFAULT_255_2_778
10
17.4172897
20
66.8583271
11
17.1770897
21
66.8583271
0
LINE
8
DEFAULT_255_2_778
10
17.1770897
20
66.8583271
11
16.9722897
21
66.8583271
0
LINE
8
DEFAULT_255_2_778
10
16.9722897
20
66.8583271
11
16.9711897
21
66.8583271
0
LINE
8
DEFAULT_255_2_778
10
16.9711897
20
66.8583271
11
16.9711897
21
65.8693271
0
LINE
8
DEFAULT_255_2_778
10
16.9711897
20
65.8693271
11
16.9722897
21
65.8693271
0
LINE
8
DEFAULT_255_2_778
10
16.9722897
20
65.8693271
11
17.1770897
21
65.8693271
0
LINE
8
DEFAULT_255_2_778
10
17.1770897
20
65.8693271
11
17.1767897
21
65.8693271
0
LINE
8
DEFAULT_255_2_778
10
17.3368897
20
65.2650271
11
17.3368897
21
65.5344271
0
LINE
8
DEFAULT_255_2_778
10
17.3368897
20
65.5344271
11
17.5781897
21
65.5344271
0
LINE
8
DEFAULT_255_2_778
10
17.5842897
20
65.2653271
11
17.3370897
21
65.2653271
0
LINE
8
DEFAULT_255_2_778
10
17.3370897
20
65.2653271
11
17.3368897
21
65.2650271
0
LINE
8
DEFAULT_255_2_778
10
17.5879897
20
65.7055271
11
17.3368897
21
65.7055271
0
LINE
8
DEFAULT_255_2_778
10
17.3368897
20
65.7055271
11
17.1383897
21
65.7055271
0
LINE
8
DEFAULT_255_2_778
10
17.1383897
20
65.7055271
11
17.1362897
21
65.7055271
0
LINE
8
DEFAULT_255_2_778
10
17.1362897
20
65.7055271
11
17.1362897
21
64.7163271
0
LINE
8
DEFAULT_255_2_778
10
17.1362897
20
64.7163271
11
17.3368897
21
64.7163271
0
LINE
8
DEFAULT_255_2_778
10
17.3368897
20
64.7163271
11
17.3368897
21
65.1060271
0
LINE
8
DEFAULT_255_2_778
10
17.3368897
20
65.1060271
11
17.5069897
21
65.1060271
0
LINE
8
DEFAULT_255_2_778
10
17.7162897
20
64.7163271
11
17.9175897
21
64.7163271
0
LINE
8
DEFAULT_255_2_778
10
14.2763897
20
65.7045271
11
14.0760897
21
65.7045271
0
LINE
8
DEFAULT_255_2_778
10
14.0760897
20
65.7045271
11
14.0760897
21
64.8867271
0
LINE
8
DEFAULT_255_2_778
10
14.0760897
20
64.8867271
11
14.0760897
21
64.7152271
0
LINE
8
DEFAULT_255_2_778
10
14.0760897
20
64.7152271
11
14.2763897
21
64.7152271
0
LINE
8
DEFAULT_255_2_778
10
14.2763897
20
64.7152271
11
14.7428897
21
64.7152271
0
LINE
8
DEFAULT_255_2_778
10
14.7428897
20
64.7152271
11
14.7428897
21
64.8867271
0
LINE
8
DEFAULT_255_2_778
10
14.7428897
20
64.8867271
11
14.2763897
21
64.8867271
0
LINE
8
DEFAULT_255_2_778
10
14.2763897
20
64.8867271
11
14.2763897
21
65.7045271
0
LINE
8
DEFAULT_255_2_778
10
14.2763897
20
65.7045271
11
14.2763897
21
65.7045271
0
ARC
8
DEFAULT_255_2_778
10
15.4584271
20
65.3302969
40
0.9681224
50
72.4822103
51
81.3184214
0
ARC
8
DEFAULT_255_2_778
10
15.7160297
20
66.1069918
40
0.1503783
50
28.8883513
51
77.0092434
0
ARC
8
DEFAULT_255_2_778
10
15.7432379
20
66.1359196
40
0.113238
50
358.9917455
51
22.7117017
0
ARC
8
DEFAULT_255_2_778
10
15.7394861
20
66.1400918
40
0.1171346
50
289.2958104
51
356.9831562
0
ARC
8
DEFAULT_255_2_778
10
15.6668261
20
66.2975882
40
0.2902651
50
268.4665462
51
292.5613311
0
ARC
8
DEFAULT_255_2_778
10
15.6496856
20
66.2385179
40
0.2312808
50
236.4956947
51
272.3225735
0
ARC
8
DEFAULT_255_2_778
10
15.6106646
20
66.1702839
40
0.1529307
50
178.9722202
51
234.5742435
0
ARC
8
DEFAULT_255_2_778
10
15.5656113
20
66.1607079
40
0.3002058
50
177.6481608
51
245.5596397
0
ARC
8
DEFAULT_255_2_778
10
15.6409971
20
66.3329561
40
0.488217
50
245.8690375
51
267.169035
0
ARC
8
DEFAULT_255_2_778
10
15.6671503
20
66.5839916
40
0.7403648
50
266.1069867
51
270.0547972
0
ARC
8
DEFAULT_255_2_778
10
15.6772894
20
66.4152135
40
0.5716642
50
269.0547216
51
287.7147747
0
ARC
8
DEFAULT_255_2_778
10
15.7598889
20
66.1695091
40
0.3125017
50
286.995984
51
325.1221533
0
ARC
8
DEFAULT_255_2_778
10
15.7678294
20
66.152961
40
0.2966627
50
326.8673922
51
0.8625726
0
ARC
8
DEFAULT_255_2_778
10
15.7898286
20
66.1615409
40
0.2746606
50
359.1417932
51
76.9739731
0
ARC
8
DEFAULT_255_2_778
10
15.6705461
20
65.8806719
40
0.577616
50
71.7185727
51
79.1315439
0
ARC
8
DEFAULT_255_2_778
10
14.2492968
20
58.527067
40
8.0673056
50
79.0662148
51
79.6216572
0
ARC
8
DEFAULT_255_2_778
10
16.4356585
20
70.4047581
40
4.0099443
50
259.1227669
51
259.4665204
0
ARC
8
DEFAULT_255_2_778
10
15.7836732
20
67.1097142
40
0.6513291
50
249.9945768
51
260.7485895
0
ARC
8
DEFAULT_255_2_778
10
15.5880401
20
66.5986999
40
0.1046098
50
178.6705173
51
254.9333545
0
ARC
8
DEFAULT_255_2_778
10
15.6049957
20
66.5952688
40
0.1216785
50
93.288632
51
177.2403935
0
ARC
8
DEFAULT_255_2_778
10
15.6585677
20
66.4082752
40
0.3143588
50
89.6189463
51
101.1057977
0
ARC
8
DEFAULT_255_2_778
10
15.6722733
20
66.520116
40
0.2028439
50
53.5634072
51
93.2825843
0
ARC
8
DEFAULT_255_2_778
10
15.7018505
20
66.5783144
40
0.1388739
50
357.1985816
51
49.1152298
0
ARC
8
DEFAULT_255_2_778
10
15.7254907
20
66.5715274
40
0.3087677
50
359.9999335
51
2.3703878
0
ARC
8
DEFAULT_255_2_778
10
15.7353555
20
66.5730337
40
0.298851
50
2.1600756
51
60.1092229
0
ARC
8
DEFAULT_255_2_778
10
15.6766212
20
66.4664133
40
0.4205645
50
60.4106856
51
86.1444419
0
ARC
8
DEFAULT_255_2_778
10
15.6536151
20
66.2897228
40
0.5985046
50
85.0843314
51
90.0628677
0
ARC
8
DEFAULT_255_2_778
10
15.6529718
20
66.4131466
40
0.4750804
50
90.001616
51
92.2300394
0
ARC
8
DEFAULT_255_2_778
10
15.6281193
20
66.518287
40
0.3696351
50
89.0131319
51
149.6364996
0
ARC
8
DEFAULT_255_2_778
10
15.5505461
20
66.5905055
40
0.2671974
50
154.5962367
51
180.4885883
0
ARC
8
DEFAULT_255_2_778
10
15.5651524
20
66.588984
40
0.281795
50
180.1539064
51
255.1120325
0
ARC
8
DEFAULT_255_2_778
10
15.7094242
20
66.911832
40
0.6333958
50
249.9962237
51
260.4976723
0
ARC
8
DEFAULT_255_2_778
10
18.2470963
20
65.3314351
40
0.967002
50
72.4685023
51
81.3064395
0
ARC
8
DEFAULT_255_2_778
10
18.5045397
20
66.107027
40
0.1503535
50
28.8782248
51
76.9904304
0
ARC
8
DEFAULT_255_2_778
10
18.5317197
20
66.1359189
40
0.1132561
50
358.9922779
51
22.7082666
0
ARC
8
DEFAULT_255_2_778
10
18.5280402
20
66.1400088
40
0.1170763
50
289.2761556
51
357.0223042
0
ARC
8
DEFAULT_255_2_778
10
18.4553612
20
66.2978836
40
0.2905613
50
268.4611814
51
292.5289055
0
ARC
8
DEFAULT_255_2_778
10
18.4381801
20
66.2394175
40
0.2321799
50
236.6698634
51
272.3149402
0
ARC
8
DEFAULT_255_2_778
10
18.39878
20
66.1702762
40
0.1528464
50
178.9687581
51
234.7686008
0
ARC
8
DEFAULT_255_2_778
10
18.3540113
20
66.1607079
40
0.3002058
50
177.6481608
51
245.5596397
0
ARC
8
DEFAULT_255_2_778
10
18.4293971
20
66.3329561
40
0.488217
50
245.8690375
51
267.169035
0
ARC
8
DEFAULT_255_2_778
10
18.4555503
20
66.5839916
40
0.7403648
50
266.1069867
51
270.0547972
0
ARC
8
DEFAULT_255_2_778
10
18.4656836
20
66.4158451
40
0.5722957
50
269.0563423
51
287.7048702
0
ARC
8
DEFAULT_255_2_778
10
18.548344
20
66.1698682
40
0.312856
50
286.9832601
51
325.0871916
0
ARC
8
DEFAULT_255_2_778
10
18.5567708
20
66.1529856
40
0.2964208
50
326.8311942
51
0.8585267
0
ARC
8
DEFAULT_255_2_778
10
18.5785756
20
66.1616282
40
0.2746149
50
359.1234265
51
76.9343785
0
ARC
8
DEFAULT_255_2_778
10
18.4596421
20
65.8817965
40
0.5764934
50
71.6999697
51
79.1198353
0
ARC
8
DEFAULT_255_2_778
10
17.0173657
20
58.4050392
40
8.1910887
50
79.0843627
51
79.6321368
0
ARC
8
DEFAULT_255_2_778
10
19.2200266
20
70.3845177
40
3.9892176
50
259.1314419
51
259.4772924
0
ARC
8
DEFAULT_255_2_778
10
18.5723251
20
67.1091131
40
0.6507003
50
249.9919323
51
260.7592458
0
ARC
8
DEFAULT_255_2_778
10
18.376901
20
66.5986546
40
0.1045718
50
178.6452075
51
254.9151907
0
ARC
8
DEFAULT_255_2_778
10
18.3939581
20
66.5952016
40
0.121744
50
93.2745253
51
177.21023
0
ARC
8
DEFAULT_255_2_778
10
18.4475726
20
66.4081052
40
0.3145287
50
89.6200387
51
101.1027534
0
ARC
8
DEFAULT_255_2_778
10
18.4613489
20
66.5214453
40
0.2015212
50
53.1490002
51
93.3256649
0
ARC
8
DEFAULT_255_2_778
10
18.4902753
20
66.5782519
40
0.1391457
50
357.2298288
51
48.6469881
0
ARC
8
DEFAULT_255_2_778
10
18.5137232
20
66.5715226
40
0.3092351
50
0.0008291
51
2.3676985
0
ARC
8
DEFAULT_255_2_778
10
18.5240744
20
66.5730868
40
0.2988304
50
2.1500394
51
60.0956838
0
ARC
8
DEFAULT_255_2_778
10
18.4654399
20
66.4665909
40
0.4203859
50
60.40452
51
86.1455285
0
ARC
8
DEFAULT_255_2_778
10
18.4424157
20
66.2897686
40
0.5984588
50
85.0841409
51
90.0629301
0
ARC
8
DEFAULT_255_2_778
10
18.4417778
20
66.4127392
40
0.4754878
50
90.0023409
51
92.3231329
0
ARC
8
DEFAULT_255_2_778
10
18.4167555
20
66.5180604
40
0.3698206
50
89.1093915
51
149.6400816
0
ARC
8
DEFAULT_255_2_778
10
18.338761
20
66.5904917
40
0.2669122
50
154.6001925
51
180.486137
0
ARC
8
DEFAULT_255_2_778
10
18.3537607
20
66.5891152
40
0.2819037
50
180.1805176
51
255.132702
0
ARC
8
DEFAULT_255_2_778
10
18.4982264
20
66.9123784
40
0.6339516
50
250.0026216
51
260.4967164
0
ARC
8
DEFAULT_255_2_778
10
16.008917
20
65.1195283
40
0.2519711
50
190.2626864
51
267.3480013
0
ARC
8
DEFAULT_255_2_778
10
16.2443543
20
65.2108548
40
0.5022041
50
179.6723028
51
195.7380858
0
ARC
8
DEFAULT_255_2_778
10
16.1790511
20
65.2263671
40
0.4370755
50
148.7005643
51
181.6572045
0
ARC
8
DEFAULT_255_2_778
10
15.9957576
20
65.3364723
40
0.2232598
50
89.6148479
51
148.4074796
0
ARC
8
DEFAULT_255_2_778
10
16.0060936
20
65.358549
40
0.201372
50
41.9769772
51
92.5146611
0
ARC
8
DEFAULT_255_2_778
10
15.9522078
20
65.3208523
40
0.2667646
50
15.1848537
51
40.2549591
0
ARC
8
DEFAULT_255_2_778
10
16.028123
20
65.3311326
40
0.3935735
50
8.7091682
51
82.0550801
0
ARC
8
DEFAULT_255_2_778
10
15.9931241
20
65.1846871
40
0.543642
50
80.5350289
51
90.1544743
0
ARC
8
DEFAULT_255_2_778
10
15.9818804
20
65.2733192
40
0.4551129
50
88.7689246
51
119.6437418
0
ARC
8
DEFAULT_255_2_778
10
16.0077717
20
65.2770647
40
0.4653013
50
122.644121
51
173.3997839
0
ARC
8
DEFAULT_255_2_778
10
16.2711934
20
65.2127568
40
0.7351371
50
170.7798304
51
180.1348114
0
ARC
8
DEFAULT_255_2_778
10
16.1372822
20
65.19742
40
0.6013778
50
178.7034849
51
210.5604279
0
ARC
8
DEFAULT_255_2_778
10
15.9706312
20
65.1069377
40
0.4119265
50
211.5090145
51
265.8592607
0
ARC
8
DEFAULT_255_2_778
10
15.9911883
20
65.2310521
40
0.5373252
50
264.628472
51
270.0501277
0
ARC
8
DEFAULT_255_2_778
10
16.002337
20
65.1629685
40
0.4693629
50
268.6963312
51
300.2191972
0
ARC
8
DEFAULT_255_2_778
10
16.0350684
20
65.0850124
40
0.3856821
50
301.8465101
51
353.7503927
0
ARC
8
DEFAULT_255_2_778
10
16.0015787
20
65.0789387
40
0.2111558
50
268.8276188
51
350.2079995
0
ARC
8
DEFAULT_255_2_778
10
18.6896799
20
65.1194824
40
0.2519281
50
190.2538303
51
267.3332171
0
ARC
8
DEFAULT_255_2_778
10
18.9252249
20
65.2108581
40
0.5022746
50
179.672724
51
195.7362088
0
ARC
8
DEFAULT_255_2_778
10
18.8600432
20
65.2263917
40
0.4372682
50
148.7196987
51
181.6596982
0
ARC
8
DEFAULT_255_2_778
10
18.676443
20
65.3365906
40
0.2231415
50
89.6108896
51
148.4244661
0
ARC
8
DEFAULT_255_2_778
10
18.686876
20
65.358567
40
0.2013576
50
42.5913083
51
92.5383066
0
ARC
8
DEFAULT_255_2_778
10
18.6345542
20
65.3221973
40
0.2646316
50
15.0085433
51
40.7215892
0
ARC
8
DEFAULT_255_2_778
10
18.708623
20
65.3311326
40
0.3935735
50
8.7091682
51
82.0550801
0
ARC
8
DEFAULT_255_2_778
10
18.6736241
20
65.1846871
40
0.543642
50
80.5350289
51
90.1544743
0
ARC
8
DEFAULT_255_2_778
10
18.6623804
20
65.2733192
40
0.4551129
50
88.7689246
51
119.6437418
0
ARC
8
DEFAULT_255_2_778
10
18.6882717
20
65.2770647
40
0.4653013
50
122.644121
51
173.3997839
0
ARC
8
DEFAULT_255_2_778
10
18.9516934
20
65.2127568
40
0.7351371
50
170.7798304
51
180.1348114
0
ARC
8
DEFAULT_255_2_778
10
18.8177822
20
65.19742
40
0.6013778
50
178.7034849
51
210.5604279
0
ARC
8
DEFAULT_255_2_778
10
18.6511312
20
65.1069377
40
0.4119265
50
211.5090145
51
265.8592607
0
ARC
8
DEFAULT_255_2_778
10
18.6716883
20
65.2310521
40
0.5373252
50
264.628472
51
270.0501277
0
ARC
8
DEFAULT_255_2_778
10
18.682837
20
65.1629685
40
0.4693629
50
268.6963312
51
300.2191972
0
ARC
8
DEFAULT_255_2_778
10
18.7155684
20
65.0850124
40
0.3856821
50
301.8465101
51
353.7503927
0
ARC
8
DEFAULT_255_2_778
10
18.6820648
20
65.0789604
40
0.2111733
50
268.8857714
51
350.2028431
0
LINE
8
DEFAULT_255_2_778
10
15.4577584
20
66.1730271
11
15.2656584
21
66.1730271
0
LINE
8
DEFAULT_255_2_778
10
15.8405584
20
66.5715271
11
16.0342584
21
66.5715271
0
LINE
8
DEFAULT_255_2_778
10
18.2459584
20
66.1730271
11
18.0540584
21
66.1730271
0
LINE
8
DEFAULT_255_2_778
10
18.6292584
20
66.5715271
11
18.8229584
21
66.5715271
0
LINE
8
DEFAULT_255_2_778
10
16.2096584
20
65.3907271
11
16.4171584
21
65.3907271
0
LINE
8
DEFAULT_255_2_778
10
16.4184584
20
65.0430271
11
16.2096584
21
65.0430271
0
LINE
8
DEFAULT_255_2_778
10
18.8901584
20
65.3907271
11
19.0976584
21
65.3907271
0
LINE
8
DEFAULT_255_2_778
10
19.0989584
20
65.0430271
11
18.8901584
21
65.0430271
0
LINE
8
DEFAULT_255_2_778
10
9.3932417
20
52.784333
11
10.7161417
21
52.784333
0
LINE
8
DEFAULT_255_2_778
10
10.7161417
20
52.784333
11
10.7161417
21
31.617633
0
LINE
8
DEFAULT_255_2_778
10
9.3932834
20
31.6177333
11
12.0390834
21
31.6177333
0
LINE
8
DEFAULT_255_2_778
10
12.0390834
20
31.6177333
11
12.0390834
21
26.3260333
0
LINE
8
DEFAULT_255_2_778
10
12.0390834
20
26.3260333
11
9.3932834
21
26.3260333
0
LINE
8
DEFAULT_255_2_778
10
9.3932834
20
26.3260333
11
9.3932834
21
31.6177333
0
ARC
8
DEFAULT_255_2_778_1
10
13.1928591
20
26.428477
40
4.816461
50
120.9442904
51
122.351755
0
ARC
8
DEFAULT_255_2_778_1
10
12.7462523
20
27.1321039
40
3.9830657
50
122.3407904
51
124.1946752
0
ARC
8
DEFAULT_255_2_778_1
10
12.3063464
20
27.7786306
40
3.2010724
50
124.1855758
51
126.4338849
0
ARC
8
DEFAULT_255_2_778_1
10
11.9204129
20
28.3013611
40
2.5513094
50
126.4326926
51
128.8877368
0
ARC
8
DEFAULT_255_2_778_1
10
11.5855968
20
28.7157658
40
2.0185498
50
128.8749205
51
131.8726567
0
ARC
8
DEFAULT_255_2_778_1
10
11.2884677
20
29.0467854
40
1.5737356
50
131.8616166
51
135.4168838
0
ARC
8
DEFAULT_255_2_778_1
10
11.025668
20
29.3049765
40
1.2053256
50
135.3893975
51
139.9687014
0
ARC
8
DEFAULT_255_2_778_1
10
10.7927889
20
29.4998102
40
0.9016937
50
139.9301659
51
145.9260426
0
ARC
8
DEFAULT_255_2_778_1
10
10.596654
20
29.6318104
40
0.6652776
50
145.8787362
51
153.8146208
0
ARC
8
DEFAULT_255_2_778_1
10
10.4445553
20
29.7061797
40
0.4959714
50
153.770634
51
164.3484794
0
ARC
8
DEFAULT_255_2_778_1
10
10.3432387
20
29.7343786
40
0.3908039
50
164.3220276
51
179.8083066
0
ARC
8
DEFAULT_255_2_778_1
10
10.3642789
20
29.742515
40
0.4118985
50
180.9499449
51
213.8111542
0
ARC
8
DEFAULT_255_2_778_1
10
10.6401828
20
29.9120896
40
0.73561
50
212.8271214
51
224.258472
0
ARC
8
DEFAULT_255_2_778_1
10
11.0230335
20
30.2814236
40
1.267567
50
224.1376218
51
231.4508261
0
ARC
8
DEFAULT_255_2_778_1
10
11.6657195
20
31.0844168
40
2.2960809
50
231.3955893
51
236.1256478
0
ARC
8
DEFAULT_255_2_778_1
10
13.4980223
20
33.8309293
40
5.5976905
50
236.2233172
51
239.1314682
0
ARC
8
DEFAULT_255_2_778_1
10
25.447927
20
53.5586568
40
28.6623793
50
238.8606853
51
239.0711101
0
ARC
8
DEFAULT_255_2_778_1
10
6.2757281
20
21.4615653
40
8.7248518
50
57.2420924
51
59.4062964
0
ARC
8
DEFAULT_255_2_778_1
10
9.5034241
20
26.4925102
40
2.747542
50
52.8289294
51
57.079028
0
ARC
8
DEFAULT_255_2_778_1
10
10.2780783
20
27.5128488
40
1.466457
50
46.3041868
51
52.8596521
0
ARC
8
DEFAULT_255_2_778_1
10
10.7103073
20
27.9629842
40
0.8424061
50
36.2174211
51
46.4090895
0
ARC
8
DEFAULT_255_2_778_1
10
10.9948088
20
28.1678128
40
0.4918609
50
17.400375
51
36.5489745
0
ARC
8
DEFAULT_255_2_778_1
10
11.1088994
20
28.2076754
40
0.3710912
50
0.0676858
51
16.7951297
0
ARC
8
DEFAULT_255_2_778_1
10
11.0878613
20
28.2095428
40
0.3921317
50
343.8035191
51
359.7912046
0
ARC
8
DEFAULT_255_2_778_1
10
10.9815912
20
28.2400167
40
0.5026844
50
333.2506233
51
343.8465691
0
ARC
8
DEFAULT_255_2_778_1
10
10.8277757
20
28.3167313
40
0.6745679
50
325.6600948
51
333.3122657
0
ARC
8
DEFAULT_255_2_778_1
10
10.6323344
20
28.4495296
40
0.9108568
50
319.7560915
51
325.6976089
0
ARC
8
DEFAULT_255_2_778_1
10
10.404199
20
28.6413002
40
1.2088854
50
315.4577584
51
319.8037947
0
ARC
8
DEFAULT_255_2_778_1
10
10.1408127
20
28.9001507
40
1.5781764
50
311.7298824
51
315.4670864
0
ARC
8
DEFAULT_255_2_778_1
10
9.8317879
20
29.2457074
40
2.0417554
50
308.723055
51
311.7470879
0
ARC
8
DEFAULT_255_2_778_1
10
9.477589
20
29.6869492
40
2.6075745
50
306.1165163
51
308.7300151
0
ARC
8
DEFAULT_255_2_778_1
10
9.0746091
20
30.2382523
40
3.2904564
50
303.9559446
51
306.1266333
0
ARC
8
DEFAULT_255_2_778_1
10
8.6630432
20
30.847515
40
4.0257023
50
302.3733397
51
303.9712246
0
ARC
8
DEFAULT_255_2_778_1
10
8.2434347
20
31.5090058
40
4.8090549
50
300.9434827
51
302.3758078
0
LINE
8
DEFAULT_255_2_778
10
10.7161417
20
26.326033
11
10.7161417
21
5.159333
0
LINE
8
DEFAULT_255_2_778
10
10.7161417
20
5.159333
11
9.3932417
21
5.159333
0
LINE
8
DEFAULT_255_1_234
10
4.9274119
20
60.3241792
11
4.9274119
21
60.2029
0
LINE
8
DEFAULT_255_1_234
10
4.9274119
20
60.2029
11
4.161184
21
60.2029
0
LINE
8
DEFAULT_255_1_234
10
4.161184
20
60.2029
11
4.161184
21
60.3097221
0
LINE
8
DEFAULT_255_1_234
10
4.161184
20
60.3097221
11
4.5659836
21
60.7594995
0
LINE
8
DEFAULT_255_1_234
10
4.2872823
20
61.0277595
11
4.1386952
21
61.0277595
0
LINE
8
DEFAULT_255_1_234
10
4.6535296
20
60.6639218
11
4.3402918
21
60.3241792
0
LINE
8
DEFAULT_255_1_234
10
4.3402918
20
60.3241792
11
4.9274119
21
60.3241792
0
ARC
8
DEFAULT_255_1_234
10
3.216967
20
61.9524527
40
1.8008286
50
318.5132453
51
320.7828378
0
ARC
8
DEFAULT_255_1_234
10
3.7456644
20
61.5221426
40
1.1191493
50
320.7372736
51
323.9737074
0
ARC
8
DEFAULT_255_1_234
10
4.1376501
20
61.2381361
40
0.6350923
50
323.8961724
51
328.6421089
0
ARC
8
DEFAULT_255_1_234
10
4.3423096
20
61.1119031
40
0.3946393
50
328.8299013
51
331.789948
0
ARC
8
DEFAULT_255_1_234
10
4.4420274
20
61.0604509
40
0.2824501
50
331.4255242
51
352.9364833
0
ARC
8
DEFAULT_255_1_234
10
4.4556775
20
61.0573976
40
0.2685315
50
353.2248685
51
0.0169286
0
ARC
8
DEFAULT_255_1_234
10
4.4766652
20
61.059695
40
0.2475536
50
359.4866256
51
15.9339782
0
ARC
8
DEFAULT_255_1_234
10
4.5273637
20
61.0733286
40
0.1950618
50
16.1714718
51
43.5284424
0
ARC
8
DEFAULT_255_1_234
10
4.5350946
20
61.0810573
40
0.184134
50
43.4415429
51
83.1661404
0
ARC
8
DEFAULT_255_1_234
10
4.5216864
20
61.0073771
40
0.258926
50
82.160215
51
90.1505798
0
ARC
8
DEFAULT_255_1_234
10
4.5185291
20
60.9536865
40
0.3126255
50
89.5460705
51
102.5418777
0
ARC
8
DEFAULT_255_1_234
10
4.4942377
20
61.0567665
40
0.2067346
50
102.1739365
51
129.2061916
0
ARC
8
DEFAULT_255_1_234
10
4.4863449
20
61.0692094
40
0.1921118
50
129.7279328
51
135.7542026
0
ARC
8
DEFAULT_255_1_234
10
4.4984977
20
61.0595045
40
0.2075944
50
136.175737
51
166.3674722
0
ARC
8
DEFAULT_255_1_234
10
4.5991896
20
61.0325182
40
0.3118201
50
165.9092917
51
178.8683903
0
ARC
8
DEFAULT_255_1_234
10
4.6856757
20
61.0278179
40
0.3983935
50
178.438168
51
180.0083905
0
ARC
8
DEFAULT_255_1_234
10
4.5455359
20
61.0317231
40
0.4068601
50
163.2878735
51
180.5581814
0
ARC
8
DEFAULT_255_1_234
10
4.4653621
20
61.053784
40
0.3237344
50
133.454115
51
162.9470031
0
ARC
8
DEFAULT_255_1_234
10
4.4832162
20
61.0348
40
0.349795
50
100.7869394
51
133.4384016
0
ARC
8
DEFAULT_255_1_234
10
4.5179934
20
60.8799319
40
0.5084616
50
89.6605301
51
101.3704185
0
ARC
8
DEFAULT_255_1_234
10
4.5246273
20
60.8860496
40
0.502348
50
78.2171172
51
90.4130393
0
ARC
8
DEFAULT_255_1_234
10
4.5601351
20
61.0484637
40
0.3361092
50
55.9268222
51
78.4888551
0
ARC
8
DEFAULT_255_1_234
10
4.5797791
20
61.0823324
40
0.2970617
50
47.9292255
51
55.4054003
0
ARC
8
DEFAULT_255_1_234
10
4.5899352
20
61.0926502
40
0.2825983
50
4.3347696
51
48.0560701
0
ARC
8
DEFAULT_255_1_234
10
4.4803745
20
61.0756601
40
0.393225
50
359.925209
51
5.5967654
0
ARC
8
DEFAULT_255_1_234
10
4.5232637
20
61.0812816
40
0.3503892
50
337.8914096
51
358.9967724
0
ARC
8
DEFAULT_255_1_234
10
4.2519049
20
61.1859706
40
0.6412172
50
326.9135351
51
338.3505194
0
ARC
8
DEFAULT_255_1_234
10
3.8533353
20
61.4414284
40
1.1146189
50
319.6472867
51
327.095818
0
ARC
8
DEFAULT_255_1_234
10
3.4700356
20
61.7576
40
1.6114559
50
317.2586784
51
319.9046139
0
LINE
8
DEFAULT_255_1_234
10
5.7121127
20
61.3723211
11
5.7121127
21
60.595652
0
LINE
8
DEFAULT_255_1_234
10
5.7121127
20
60.595652
11
5.8743538
21
60.595652
0
LINE
8
DEFAULT_255_1_234
10
5.8743538
20
60.595652
11
5.8743538
21
60.4743728
0
LINE
8
DEFAULT_255_1_234
10
5.8743538
20
60.4743728
11
5.7121127
21
60.4743728
0
LINE
8
DEFAULT_255_1_234
10
5.7121127
20
60.4743728
11
5.7121127
21
60.2029
0
LINE
8
DEFAULT_255_1_234
10
5.7121127
20
60.2029
11
5.5627224
21
60.2029
0
LINE
8
DEFAULT_255_1_234
10
5.5627224
20
60.2029
11
5.5627224
21
60.4743728
0
LINE
8
DEFAULT_255_1_234
10
5.5627224
20
60.4743728
11
5.0302181
21
60.4743728
0
LINE
8
DEFAULT_255_1_234
10
5.0302181
20
60.4743728
11
5.0302181
21
60.5619187
0
LINE
8
DEFAULT_255_1_234
10
5.0302181
20
60.5619187
11
5.5538875
21
61.3723211
0
LINE
8
DEFAULT_255_1_234
10
5.5538875
20
61.3723211
11
5.7121127
21
61.3723211
0
LINE
8
DEFAULT_255_1_234
10
5.5450525
20
61.1369912
11
5.1988846
21
60.595652
0
LINE
8
DEFAULT_255_1_234
10
5.1988846
20
60.595652
11
5.5627224
21
60.595652
0
LINE
8
DEFAULT_255_1_234
10
5.5627224
20
60.595652
11
5.5627224
21
61.1691181
0
LINE
8
DEFAULT_255_1_234
10
5.5627224
20
61.1691181
11
5.5450525
21
61.1369912
0
LINE
8
DEFAULT_255_1_234
10
6.101652
20
61.3723211
11
6.434166
21
60.4077093
0
LINE
8
DEFAULT_255_1_234
10
6.434166
20
60.4077093
11
6.7682863
21
61.3723211
0
LINE
8
DEFAULT_255_1_234
10
6.7682863
20
61.3723211
11
6.9369528
21
61.3723211
0
LINE
8
DEFAULT_255_1_234
10
6.9369528
20
61.3723211
11
6.5032389
21
60.2029
0
LINE
8
DEFAULT_255_1_234
10
6.5032389
20
60.2029
11
6.3666994
21
60.2029
0
LINE
8
DEFAULT_255_1_234
10
6.3666994
20
60.2029
11
5.9337887
21
61.3723211
0
LINE
8
DEFAULT_255_1_234
10
5.9337887
20
61.3723211
11
6.101652
21
61.3723211
0
LINE
8
DEFAULT_255_1_234
10
4.749285
20
5.2829391
11
4.749285
21
5.1568408
0
LINE
8
DEFAULT_255_1_234
10
4.749285
20
5.1568408
11
4.2585458
21
5.1568408
0
LINE
8
DEFAULT_255_1_234
10
4.2585458
20
5.1568408
11
4.2585458
21
4.6404
0
LINE
8
DEFAULT_255_1_234
10
4.2585458
20
4.6404
11
4.1043364
21
4.6404
0
LINE
8
DEFAULT_255_1_234
10
4.1043364
20
4.6404
11
4.1043364
21
5.8098211
0
LINE
8
DEFAULT_255_1_234
10
4.1043364
20
5.8098211
11
4.8287992
21
5.8098211
0
LINE
8
DEFAULT_255_1_234
10
4.8287992
20
5.8098211
11
4.8287992
21
5.6829196
0
LINE
8
DEFAULT_255_1_234
10
4.8287992
20
5.6829196
11
4.2585458
21
5.6829196
0
LINE
8
DEFAULT_255_1_234
10
4.2585458
20
5.6829196
11
4.2585458
21
5.2829391
0
LINE
8
DEFAULT_255_1_234
10
4.2585458
20
5.2829391
11
4.749285
21
5.2829391
0
LINE
8
DEFAULT_255_1_234
10
5.876941
20
5.222701
11
5.876941
21
4.7938062
0
LINE
8
DEFAULT_255_1_234
10
4.97578
20
5.1688884
11
4.97578
21
5.2708915
0
LINE
8
DEFAULT_255_1_234
10
5.876941
20
5.4668659
11
5.7227316
21
5.4668659
0
LINE
8
DEFAULT_255_1_234
10
5.1307925
20
5.2749073
11
5.1307925
21
5.1793296
0
LINE
8
DEFAULT_255_1_234
10
5.7235348
20
4.8347681
11
5.7235348
21
5.0974059
0
LINE
8
DEFAULT_255_1_234
10
5.7235348
20
5.0974059
11
5.4528652
21
5.0974059
0
LINE
8
DEFAULT_255_1_234
10
5.4528652
20
5.0974059
11
5.4528652
21
5.222701
0
LINE
8
DEFAULT_255_1_234
10
5.4528652
20
5.222701
11
5.876941
21
5.222701
0
ARC
8
DEFAULT_255_1_234
10
5.5937916
20
4.9931396
40
0.3462765
50
295.8437914
51
324.8549609
0
ARC
8
DEFAULT_255_1_234
10
5.5521883
20
5.0684567
40
0.4322211
50
291.5695085
51
296.4549398
0
ARC
8
DEFAULT_255_1_234
10
5.5011135
20
5.2049275
40
0.5779178
50
278.6622409
51
291.3045483
0
ARC
8
DEFAULT_255_1_234
10
5.4671626
20
5.4197408
40
0.7953952
50
270.020006
51
278.7494541
0
ARC
8
DEFAULT_255_1_234
10
5.463355
20
5.5514036
40
0.927067
50
269.9969998
51
270.2524872
0
ARC
8
DEFAULT_255_1_234
10
5.4595264
20
5.1430589
40
0.5187361
50
253.5786322
51
270.4175299
0
ARC
8
DEFAULT_255_1_234
10
5.442192
20
5.0759236
40
0.4494451
50
238.8203306
51
253.2788235
0
ARC
8
DEFAULT_255_1_234
10
5.4402293
20
5.0708231
40
0.4440665
50
206.7883783
51
238.6962764
0
ARC
8
DEFAULT_255_1_234
10
5.5176203
20
5.1172405
40
0.5341121
50
206.1129412
51
207.4916643
0
ARC
8
DEFAULT_255_1_234
10
5.5773118
20
5.1426488
40
0.5989041
50
188.6921119
51
205.7821245
0
ARC
8
DEFAULT_255_1_234
10
5.762948
20
5.174223
40
0.7871862
50
180.3882829
51
188.9219216
0
ARC
8
DEFAULT_255_1_234
10
5.8857294
20
5.2765464
40
0.909967
50
170.2024264
51
180.3560651
0
ARC
8
DEFAULT_255_1_234
10
5.5693812
20
5.3331237
40
0.5886083
50
154.2857445
51
170.3893044
0
ARC
8
DEFAULT_255_1_234
10
5.4412015
20
5.391795
40
0.4476743
50
139.8401567
51
153.9332699
0
ARC
8
DEFAULT_255_1_234
10
5.4052751
20
5.4205577
40
0.4016697
50
98.4190291
51
139.6707122
0
ARC
8
DEFAULT_255_1_234
10
5.4432268
20
5.2360328
40
0.5898566
50
89.7659205
51
99.4415478
0
ARC
8
DEFAULT_255_1_234
10
5.4497518
20
5.2425844
40
0.5833147
50
78.0551672
51
90.4042112
0
ARC
8
DEFAULT_255_1_234
10
5.4902028
20
5.4244644
40
0.3970055
50
54.6380464
51
78.3339173
0
ARC
8
DEFAULT_255_1_234
10
5.5092084
20
5.4564795
40
0.3599102
50
50.031736
51
54.1558201
0
ARC
8
DEFAULT_255_1_234
10
5.4984871
20
5.4468766
40
0.3741624
50
18.1092409
51
49.7180913
0
ARC
8
DEFAULT_255_1_234
10
5.3528071
20
5.3935089
40
0.5292424
50
7.9672797
51
18.6984571
0
ARC
8
DEFAULT_255_1_234
10
5.367855
20
5.4058504
40
0.3600838
50
9.7557294
51
27.3215714
0
ARC
8
DEFAULT_255_1_234
10
5.4806021
20
5.4621912
40
0.2340608
50
27.7361077
51
84.5257964
0
ARC
8
DEFAULT_255_1_234
10
5.4478408
20
5.297864
40
0.4011215
50
82.106034
51
90.2001166
0
ARC
8
DEFAULT_255_1_234
10
5.4428625
20
5.3486215
40
0.3503799
50
89.4150119
51
105.5823402
0
ARC
8
DEFAULT_255_1_234
10
5.4171623
20
5.4421867
40
0.2533503
50
105.6678618
51
144.2648758
0
ARC
8
DEFAULT_255_1_234
10
5.5064879
20
5.3786289
40
0.3629787
50
144.3561283
51
162.8564086
0
ARC
8
DEFAULT_255_1_234
10
5.7148788
20
5.3117017
40
0.5818441
50
162.6076014
51
173.6780284
0
ARC
8
DEFAULT_255_1_234
10
6.0209931
20
5.274489
40
0.8902007
50
173.4670142
51
179.9730753
0
ARC
8
DEFAULT_255_1_234
10
5.8301603
20
5.175126
40
0.6993804
50
179.6556203
51
190.0080463
0
ARC
8
DEFAULT_255_1_234
10
5.5985432
20
5.1326375
40
0.4639066
50
189.8116607
51
206.6796816
0
ARC
8
DEFAULT_255_1_234
10
5.5140584
20
5.0932503
40
0.3707421
50
207.1031645
51
217.7074368
0
ARC
8
DEFAULT_255_1_234
10
5.4506273
20
5.0380559
40
0.2868417
50
216.7345547
51
265.6812148
0
ARC
8
DEFAULT_255_1_234
10
5.4637064
20
5.1284855
40
0.3780509
50
264.7366618
51
270.0611241
0
ARC
8
DEFAULT_255_1_234
10
5.4660327
20
5.4125111
40
0.662079
50
269.8335834
51
276.0539546
0
ARC
8
DEFAULT_255_1_234
10
5.4867331
20
5.222356
40
0.4708016
50
275.9894168
51
284.4615085
0
ARC
8
DEFAULT_255_1_234
10
5.5065338
20
5.1390663
40
0.3852094
50
284.7034461
51
286.4953897
0
ARC
8
DEFAULT_255_1_234
10
5.5472352
20
5.0079965
40
0.2479842
50
286.0770838
51
304.2625829
0
ARC
8
DEFAULT_255_1_234
10
5.5605766
20
4.9861594
40
0.2224291
50
304.5891602
51
317.1073298
0
LINE
8
DEFAULT_255_1_234
10
5.0514119
20
12.6991792
11
5.0514119
21
12.5779
0
LINE
8
DEFAULT_255_1_234
10
5.0514119
20
12.5779
11
4.285184
21
12.5779
0
LINE
8
DEFAULT_255_1_234
10
4.285184
20
12.5779
11
4.285184
21
12.6847221
0
LINE
8
DEFAULT_255_1_234
10
4.285184
20
12.6847221
11
4.6899836
21
13.1344995
0
LINE
8
DEFAULT_255_1_234
10
4.4112823
20
13.4027595
11
4.2626952
21
13.4027595
0
LINE
8
DEFAULT_255_1_234
10
4.7775296
20
13.0389218
11
4.4642918
21
12.6991792
0
LINE
8
DEFAULT_255_1_234
10
4.4642918
20
12.6991792
11
5.0514119
21
12.6991792
0
ARC
8
DEFAULT_255_1_234
10
3.340967
20
14.3274527
40
1.8008286
50
318.5132453
51
320.7828378
0
ARC
8
DEFAULT_255_1_234
10
3.8696644
20
13.8971426
40
1.1191493
50
320.7372736
51
323.9737074
0
ARC
8
DEFAULT_255_1_234
10
4.2616501
20
13.6131361
40
0.6350923
50
323.8961724
51
328.6421089
0
ARC
8
DEFAULT_255_1_234
10
4.4663096
20
13.4869031
40
0.3946393
50
328.8299013
51
331.789948
0
ARC
8
DEFAULT_255_1_234
10
4.5660274
20
13.4354509
40
0.2824501
50
331.4255242
51
352.9364833
0
ARC
8
DEFAULT_255_1_234
10
4.5796775
20
13.4323976
40
0.2685315
50
353.2248685
51
0.0169286
0
ARC
8
DEFAULT_255_1_234
10
4.6006652
20
13.434695
40
0.2475536
50
359.4866256
51
15.9339782
0
ARC
8
DEFAULT_255_1_234
10
4.6513637
20
13.4483286
40
0.1950618
50
16.1714718
51
43.5284424
0
ARC
8
DEFAULT_255_1_234
10
4.6590946
20
13.4560573
40
0.184134
50
43.4415429
51
83.1661404
0
ARC
8
DEFAULT_255_1_234
10
4.6456864
20
13.3823771
40
0.258926
50
82.160215
51
90.1505798
0
ARC
8
DEFAULT_255_1_234
10
4.6425291
20
13.3286865
40
0.3126255
50
89.5460705
51
102.5418777
0
ARC
8
DEFAULT_255_1_234
10
4.6182377
20
13.4317665
40
0.2067346
50
102.1739365
51
129.2061916
0
ARC
8
DEFAULT_255_1_234
10
4.6103449
20
13.4442094
40
0.1921118
50
129.7279328
51
135.7542026
0
ARC
8
DEFAULT_255_1_234
10
4.6224977
20
13.4345045
40
0.2075944
50
136.175737
51
166.3674722
0
ARC
8
DEFAULT_255_1_234
10
4.7231896
20
13.4075182
40
0.3118201
50
165.9092917
51
178.8683903
0
ARC
8
DEFAULT_255_1_234
10
4.8096757
20
13.4028179
40
0.3983935
50
178.438168
51
180.0083905
0
ARC
8
DEFAULT_255_1_234
10
4.6695359
20
13.4067231
40
0.4068601
50
163.2878735
51
180.5581814
0
ARC
8
DEFAULT_255_1_234
10
4.5893621
20
13.428784
40
0.3237344
50
133.454115
51
162.9470031
0
ARC
8
DEFAULT_255_1_234
10
4.6072162
20
13.4098
40
0.349795
50
100.7869394
51
133.4384016
0
ARC
8
DEFAULT_255_1_234
10
4.6419934
20
13.2549319
40
0.5084616
50
89.6605301
51
101.3704185
0
ARC
8
DEFAULT_255_1_234
10
4.6486273
20
13.2610496
40
0.502348
50
78.2171172
51
90.4130393
0
ARC
8
DEFAULT_255_1_234
10
4.6841351
20
13.4234637
40
0.3361092
50
55.9268222
51
78.4888551
0
ARC
8
DEFAULT_255_1_234
10
4.7037791
20
13.4573324
40
0.2970617
50
47.9292255
51
55.4054003
0
ARC
8
DEFAULT_255_1_234
10
4.7139352
20
13.4676502
40
0.2825983
50
4.3347696
51
48.0560701
0
ARC
8
DEFAULT_255_1_234
10
4.6043745
20
13.4506601
40
0.393225
50
359.925209
51
5.5967654
0
ARC
8
DEFAULT_255_1_234
10
4.6472637
20
13.4562816
40
0.3503892
50
337.8914096
51
358.9967724
0
ARC
8
DEFAULT_255_1_234
10
4.3759049
20
13.5609706
40
0.6412172
50
326.9135351
51
338.3505194
0
ARC
8
DEFAULT_255_1_234
10
3.9773353
20
13.8164284
40
1.1146189
50
319.6472867
51
327.095818
0
ARC
8
DEFAULT_255_1_234
10
3.5940356
20
14.1326
40
1.6114559
50
317.2586784
51
319.9046139
0
LINE
8
DEFAULT_255_1_234
10
5.9525729
20
12.9489663
11
6.1075854
21
12.9489663
0
LINE
8
DEFAULT_255_1_234
10
5.2072276
20
13.1079947
11
5.2072276
21
13.2204391
0
LINE
8
DEFAULT_255_1_234
10
6.1075854
20
13.3714357
11
5.9525729
21
13.3714357
0
LINE
8
DEFAULT_255_1_234
10
5.3622401
20
13.2164232
11
5.3622401
21
13.1031757
0
ARC
8
DEFAULT_255_1_234
10
5.5595241
20
13.0086846
40
0.5513052
50
340.1774281
51
353.7814284
0
ARC
8
DEFAULT_255_1_234
10
5.7166594
20
12.9501582
40
0.3836379
50
311.4558989
51
340.4421614
0
ARC
8
DEFAULT_255_1_234
10
5.7133262
20
12.9612528
40
0.3941894
50
282.4333181
51
310.7513653
0
ARC
8
DEFAULT_255_1_234
10
5.6694001
20
13.1427679
40
0.5809175
50
269.9358511
51
282.809604
0
ARC
8
DEFAULT_255_1_234
10
5.6642067
20
13.2885212
40
0.7266847
50
270.0021091
51
270.3581957
0
ARC
8
DEFAULT_255_1_234
10
5.6589484
20
13.0284585
40
0.4666519
50
250.7884749
51
270.6489167
0
ARC
8
DEFAULT_255_1_234
10
5.6421319
20
12.9647319
40
0.4009729
50
219.3627325
51
250.0611886
0
ARC
8
DEFAULT_255_1_234
10
5.725053
20
13.0352042
40
0.5097822
50
193.5479632
51
219.5756669
0
ARC
8
DEFAULT_255_1_234
10
5.9622151
20
13.0967919
40
0.7547848
50
181.1218675
51
193.87563
0
ARC
8
DEFAULT_255_1_234
10
6.1692332
20
13.107858
40
0.9620055
50
179.9918545
51
181.5394234
0
ARC
8
DEFAULT_255_1_234
10
5.9841434
20
13.2241788
40
0.7769248
50
169.5837241
51
180.2757934
0
ARC
8
DEFAULT_255_1_234
10
5.8004372
20
13.2581229
40
0.590109
50
155.0365899
51
169.6003176
0
ARC
8
DEFAULT_255_1_234
10
5.6868836
20
13.3128677
40
0.4640625
50
136.783148
51
155.2472683
0
ARC
8
DEFAULT_255_1_234
10
5.6479313
20
13.3459562
40
0.4130255
50
121.7633186
51
136.428115
0
ARC
8
DEFAULT_255_1_234
10
5.6614275
20
13.3210227
40
0.4413323
50
95.6459699
51
121.5490577
0
ARC
8
DEFAULT_255_1_234
10
5.6771557
20
13.2101949
40
0.55319
50
89.924208
51
96.1377933
0
ARC
8
DEFAULT_255_1_234
10
5.682199
20
13.2220542
40
0.5413475
50
76.6779277
51
90.4563316
0
ARC
8
DEFAULT_255_1_234
10
5.7215613
20
13.3811114
40
0.3775041
50
47.485847
51
76.9287264
0
ARC
8
DEFAULT_255_1_234
10
5.7068586
20
13.3711159
40
0.3948286
50
16.5424086
51
46.8933463
0
ARC
8
DEFAULT_255_1_234
10
5.5460743
20
13.3182861
40
0.564021
50
5.4072051
51
17.0365086
0
ARC
8
DEFAULT_255_1_234
10
5.402176
20
13.2951679
40
0.5556559
50
7.8891745
51
15.9239216
0
ARC
8
DEFAULT_255_1_234
10
5.6008773
20
13.3528631
40
0.3487515
50
15.7653144
51
27.9410532
0
ARC
8
DEFAULT_255_1_234
10
5.7112991
20
13.411979
40
0.2235026
50
27.8166557
51
46.4008329
0
ARC
8
DEFAULT_255_1_234
10
5.7162634
20
13.4114082
40
0.2205286
50
47.4371857
51
75.0698205
0
ARC
8
DEFAULT_255_1_234
10
5.6854029
20
13.3039765
40
0.3322915
50
74.7008593
51
87.8124495
0
ARC
8
DEFAULT_255_1_234
10
5.6780716
20
13.1983844
40
0.4380987
50
87.3814673
51
90.0240855
0
ARC
8
DEFAULT_255_1_234
10
5.6742259
20
13.3161291
40
0.3203749
50
89.3451631
51
108.5745436
0
ARC
8
DEFAULT_255_1_234
10
5.6605365
20
13.3674908
40
0.2673494
50
109.2998449
51
143.3037509
0
ARC
8
DEFAULT_255_1_234
10
5.7367437
20
13.3088881
40
0.3634757
50
143.0753173
51
163.1916937
0
ARC
8
DEFAULT_255_1_234
10
5.9319165
20
13.2472967
40
0.5681262
50
162.9373603
51
174.6208611
0
ARC
8
DEFAULT_255_1_234
10
6.1945207
20
13.218501
40
0.8322832
50
174.3419979
51
180.1430411
0
ARC
8
DEFAULT_255_1_234
10
6.1014363
20
13.0990698
40
0.7392076
50
179.6817502
51
189.150529
0
ARC
8
DEFAULT_255_1_234
10
5.8513611
20
13.057419
40
0.4856932
50
188.9910863
51
203.5773039
0
ARC
8
DEFAULT_255_1_234
10
5.7433944
20
13.0126211
40
0.3688271
50
203.9077269
51
215.1312379
0
ARC
8
DEFAULT_255_1_234
10
5.6511038
20
12.9410941
40
0.2522457
50
213.9071664
51
263.8849284
0
ARC
8
DEFAULT_255_1_234
10
5.6636367
20
13.0195518
40
0.3316174
50
263.1758525
51
270.1031083
0
ARC
8
DEFAULT_255_1_234
10
5.6668459
20
13.1442365
40
0.4563091
50
269.6719807
51
279.0609165
0
ARC
8
DEFAULT_255_1_234
10
5.6935227
20
12.9829907
40
0.2928759
50
278.8750225
51
293.6346586
0
ARC
8
DEFAULT_255_1_234
10
5.7255435
20
12.90779
40
0.2111472
50
293.8553404
51
310.0518804
0
ARC
8
DEFAULT_255_1_234
10
5.7260289
20
12.9015516
40
0.2060917
50
311.0646779
51
332.0108348
0
ARC
8
DEFAULT_255_1_234
10
5.6068016
20
12.9672978
40
0.3422352
50
331.6588543
51
343.2878891
0
ARC
8
DEFAULT_255_1_234
10
5.4005531
20
13.0306798
40
0.5580003
50
343.1446044
51
351.010618
0
ARC
8
DEFAULT_255_1_234
10
5.2464177
20
13.0587871
40
0.7146438
50
350.7157277
51
351.1602153
0
LINE
8
DEFAULT_255_1_234
10
7.2167685
20
13.7473211
11
7.2167685
21
12.5779
0
LINE
8
DEFAULT_255_1_234
10
7.2167685
20
12.5779
11
7.061756
21
12.5779
0
LINE
8
DEFAULT_255_1_234
10
7.061756
20
12.5779
11
7.061756
21
13.118436
0
LINE
8
DEFAULT_255_1_234
10
7.061756
20
13.118436
11
6.4722264
21
13.118436
0
LINE
8
DEFAULT_255_1_234
10
6.4722264
20
13.118436
11
6.4722264
21
12.5779
0
LINE
8
DEFAULT_255_1_234
10
6.4722264
20
12.5779
11
6.318017
21
12.5779
0
LINE
8
DEFAULT_255_1_234
10
6.318017
20
12.5779
11
6.318017
21
13.7473211
0
LINE
8
DEFAULT_255_1_234
10
6.318017
20
13.7473211
11
6.4722264
21
13.7473211
0
LINE
8
DEFAULT_255_1_234
10
6.4722264
20
13.7473211
11
6.4722264
21
13.2445343
0
LINE
8
DEFAULT_255_1_234
10
6.4722264
20
13.2445343
11
7.061756
21
13.2445343
0
LINE
8
DEFAULT_255_1_234
10
7.061756
20
13.2445343
11
7.061756
21
13.7473211
0
LINE
8
DEFAULT_255_1_234
10
7.061756
20
13.7473211
11
7.2167685
21
13.7473211
0
LINE
8
DEFAULT_255_1_234
10
8.2022628
20
12.5779
11
7.7878251
21
13.1216487
0
LINE
8
DEFAULT_255_1_234
10
7.7878251
20
13.1216487
11
7.6448602
21
12.9730615
0
LINE
8
DEFAULT_255_1_234
10
7.6448602
20
12.9730615
11
7.6448602
21
12.5779
0
LINE
8
DEFAULT_255_1_234
10
7.6448602
20
12.5779
11
7.4906508
21
12.5779
0
LINE
8
DEFAULT_255_1_234
10
7.4906508
20
12.5779
11
7.4906508
21
13.7473211
0
LINE
8
DEFAULT_255_1_234
10
7.4906508
20
13.7473211
11
7.6448602
21
13.7473211
0
LINE
8
DEFAULT_255_1_234
10
7.6448602
20
13.7473211
11
7.6448602
21
13.1690359
0
LINE
8
DEFAULT_255_1_234
10
7.6448602
20
13.1690359
11
8.1645136
21
13.7473211
0
LINE
8
DEFAULT_255_1_234
10
8.1645136
20
13.7473211
11
8.35085
21
13.7473211
0
LINE
8
DEFAULT_255_1_234
10
8.35085
20
13.7473211
11
7.8906313
21
13.2308803
0
LINE
8
DEFAULT_255_1_234
10
7.8906313
20
13.2308803
11
8.3869928
21
12.5779
0
LINE
8
DEFAULT_255_1_234
10
8.3869928
20
12.5779
11
8.2022628
21
12.5779
0
LINE
8
DEFAULT_255_1_234
10
8.7564527
20
13.1353026
11
8.7564527
21
13.0140234
0
LINE
8
DEFAULT_255_1_234
10
8.7564527
20
13.0140234
11
8.3645039
21
13.0140234
0
LINE
8
DEFAULT_255_1_234
10
8.3645039
20
13.0140234
11
8.3645039
21
13.1353026
0
LINE
8
DEFAULT_255_1_234
10
8.3645039
20
13.1353026
11
8.7564527
21
13.1353026
0
LINE
8
DEFAULT_255_1_234
10
5.0275119
20
20.6366792
11
5.0275119
21
20.5154
0
LINE
8
DEFAULT_255_1_234
10
5.0275119
20
20.5154
11
4.261284
21
20.5154
0
LINE
8
DEFAULT_255_1_234
10
4.261284
20
20.5154
11
4.261284
21
20.6222221
0
LINE
8
DEFAULT_255_1_234
10
4.261284
20
20.6222221
11
4.6660836
21
21.0719995
0
LINE
8
DEFAULT_255_1_234
10
4.3873823
20
21.3402595
11
4.2387952
21
21.3402595
0
LINE
8
DEFAULT_255_1_234
10
4.7536296
20
20.9764218
11
4.4403918
21
20.6366792
0
LINE
8
DEFAULT_255_1_234
10
4.4403918
20
20.6366792
11
5.0275119
21
20.6366792
0
ARC
8
DEFAULT_255_1_234
10
3.317067
20
22.2649527
40
1.8008286
50
318.5132453
51
320.7828378
0
ARC
8
DEFAULT_255_1_234
10
3.8457644
20
21.8346426
40
1.1191493
50
320.7372736
51
323.9737074
0
ARC
8
DEFAULT_255_1_234
10
4.2377501
20
21.5506361
40
0.6350923
50
323.8961724
51
328.6421089
0
ARC
8
DEFAULT_255_1_234
10
4.4424096
20
21.4244031
40
0.3946393
50
328.8299013
51
331.789948
0
ARC
8
DEFAULT_255_1_234
10
4.5421274
20
21.3729509
40
0.2824501
50
331.4255242
51
352.9364833
0
ARC
8
DEFAULT_255_1_234
10
4.5557775
20
21.3698976
40
0.2685315
50
353.2248685
51
0.0169286
0
ARC
8
DEFAULT_255_1_234
10
4.5767652
20
21.372195
40
0.2475536
50
359.4866256
51
15.9339782
0
ARC
8
DEFAULT_255_1_234
10
4.6274637
20
21.3858286
40
0.1950618
50
16.1714718
51
43.5284424
0
ARC
8
DEFAULT_255_1_234
10
4.6351946
20
21.3935573
40
0.184134
50
43.4415429
51
83.1661404
0
ARC
8
DEFAULT_255_1_234
10
4.6217864
20
21.3198771
40
0.258926
50
82.160215
51
90.1505798
0
ARC
8
DEFAULT_255_1_234
10
4.6186291
20
21.2661865
40
0.3126255
50
89.5460705
51
102.5418777
0
ARC
8
DEFAULT_255_1_234
10
4.5943377
20
21.3692665
40
0.2067346
50
102.1739365
51
129.2061916
0
ARC
8
DEFAULT_255_1_234
10
4.5864449
20
21.3817094
40
0.1921118
50
129.7279328
51
135.7542026
0
ARC
8
DEFAULT_255_1_234
10
4.5985977
20
21.3720045
40
0.2075944
50
136.175737
51
166.3674722
0
ARC
8
DEFAULT_255_1_234
10
4.6992896
20
21.3450182
40
0.3118201
50
165.9092917
51
178.8683903
0
ARC
8
DEFAULT_255_1_234
10
4.7857757
20
21.3403179
40
0.3983935
50
178.438168
51
180.0083905
0
ARC
8
DEFAULT_255_1_234
10
4.6456359
20
21.3442231
40
0.4068601
50
163.2878735
51
180.5581814
0
ARC
8
DEFAULT_255_1_234
10
4.5654621
20
21.366284
40
0.3237344
50
133.454115
51
162.9470031
0
ARC
8
DEFAULT_255_1_234
10
4.5833162
20
21.3473
40
0.349795
50
100.7869394
51
133.4384016
0
ARC
8
DEFAULT_255_1_234
10
4.6180934
20
21.1924319
40
0.5084616
50
89.6605301
51
101.3704185
0
ARC
8
DEFAULT_255_1_234
10
4.6247273
20
21.1985496
40
0.502348
50
78.2171172
51
90.4130393
0
ARC
8
DEFAULT_255_1_234
10
4.6602351
20
21.3609637
40
0.3361092
50
55.9268222
51
78.4888551
0
ARC
8
DEFAULT_255_1_234
10
4.6798791
20
21.3948324
40
0.2970617
50
47.9292255
51
55.4054003
0
ARC
8
DEFAULT_255_1_234
10
4.6900352
20
21.4051502
40
0.2825983
50
4.3347696
51
48.0560701
0
ARC
8
DEFAULT_255_1_234
10
4.5804745
20
21.3881601
40
0.393225
50
359.925209
51
5.5967654
0
ARC
8
DEFAULT_255_1_234
10
4.6233637
20
21.3937816
40
0.3503892
50
337.8914096
51
358.9967724
0
ARC
8
DEFAULT_255_1_234
10
4.3520049
20
21.4984706
40
0.6412172
50
326.9135351
51
338.3505194
0
ARC
8
DEFAULT_255_1_234
10
3.9534353
20
21.7539284
40
1.1146189
50
319.6472867
51
327.095818
0
ARC
8
DEFAULT_255_1_234
10
3.5701356
20
22.0701
40
1.6114559
50
317.2586784
51
319.9046139
0
LINE
8
DEFAULT_255_1_234
10
5.9286729
20
20.8864663
11
6.0836854
21
20.8864663
0
LINE
8
DEFAULT_255_1_234
10
5.1833276
20
21.0454947
11
5.1833276
21
21.1579391
0
LINE
8
DEFAULT_255_1_234
10
6.0836854
20
21.3089357
11
5.9286729
21
21.3089357
0
LINE
8
DEFAULT_255_1_234
10
5.3383401
20
21.1539232
11
5.3383401
21
21.0406757
0
ARC
8
DEFAULT_255_1_234
10
5.5356241
20
20.9461846
40
0.5513052
50
340.1774281
51
353.7814284
0
ARC
8
DEFAULT_255_1_234
10
5.6927594
20
20.8876582
40
0.3836379
50
311.4558989
51
340.4421614
0
ARC
8
DEFAULT_255_1_234
10
5.6894262
20
20.8987528
40
0.3941894
50
282.4333181
51
310.7513653
0
ARC
8
DEFAULT_255_1_234
10
5.6455001
20
21.0802679
40
0.5809175
50
269.9358511
51
282.809604
0
ARC
8
DEFAULT_255_1_234
10
5.6403067
20
21.2260212
40
0.7266847
50
270.0021091
51
270.3581957
0
ARC
8
DEFAULT_255_1_234
10
5.6350484
20
20.9659585
40
0.4666519
50
250.7884749
51
270.6489167
0
ARC
8
DEFAULT_255_1_234
10
5.6182319
20
20.9022319
40
0.4009729
50
219.3627325
51
250.0611886
0
ARC
8
DEFAULT_255_1_234
10
5.701153
20
20.9727042
40
0.5097822
50
193.5479632
51
219.5756669
0
ARC
8
DEFAULT_255_1_234
10
5.9383151
20
21.0342919
40
0.7547848
50
181.1218675
51
193.87563
0
ARC
8
DEFAULT_255_1_234
10
6.1453332
20
21.045358
40
0.9620055
50
179.9918545
51
181.5394234
0
ARC
8
DEFAULT_255_1_234
10
5.9602434
20
21.1616788
40
0.7769248
50
169.5837241
51
180.2757934
0
ARC
8
DEFAULT_255_1_234
10
5.7765372
20
21.1956229
40
0.590109
50
155.0365899
51
169.6003176
0
ARC
8
DEFAULT_255_1_234
10
5.6629836
20
21.2503677
40
0.4640625
50
136.783148
51
155.2472683
0
ARC
8
DEFAULT_255_1_234
10
5.6240313
20
21.2834562
40
0.4130255
50
121.7633186
51
136.428115
0
ARC
8
DEFAULT_255_1_234
10
5.6375275
20
21.2585227
40
0.4413323
50
95.6459699
51
121.5490577
0
ARC
8
DEFAULT_255_1_234
10
5.6532557
20
21.1476949
40
0.55319
50
89.924208
51
96.1377933
0
ARC
8
DEFAULT_255_1_234
10
5.658299
20
21.1595542
40
0.5413475
50
76.6779277
51
90.4563316
0
ARC
8
DEFAULT_255_1_234
10
5.6976613
20
21.3186114
40
0.3775041
50
47.485847
51
76.9287264
0
ARC
8
DEFAULT_255_1_234
10
5.6829586
20
21.3086159
40
0.3948286
50
16.5424086
51
46.8933463
0
ARC
8
DEFAULT_255_1_234
10
5.5221743
20
21.2557861
40
0.564021
50
5.4072051
51
17.0365086
0
ARC
8
DEFAULT_255_1_234
10
5.378276
20
21.2326679
40
0.5556559
50
7.8891745
51
15.9239216
0
ARC
8
DEFAULT_255_1_234
10
5.5769773
20
21.2903631
40
0.3487515
50
15.7653144
51
27.9410532
0
ARC
8
DEFAULT_255_1_234
10
5.6873991
20
21.349479
40
0.2235026
50
27.8166557
51
46.4008329
0
ARC
8
DEFAULT_255_1_234
10
5.6923634
20
21.3489082
40
0.2205286
50
47.4371857
51
75.0698205
0
ARC
8
DEFAULT_255_1_234
10
5.6615029
20
21.2414765
40
0.3322915
50
74.7008593
51
87.8124495
0
ARC
8
DEFAULT_255_1_234
10
5.6541716
20
21.1358844
40
0.4380987
50
87.3814673
51
90.0240855
0
ARC
8
DEFAULT_255_1_234
10
5.6503259
20
21.2536291
40
0.3203749
50
89.3451631
51
108.5745436
0
ARC
8
DEFAULT_255_1_234
10
5.6366365
20
21.3049908
40
0.2673494
50
109.2998449
51
143.3037509
0
ARC
8
DEFAULT_255_1_234
10
5.7128437
20
21.2463881
40
0.3634757
50
143.0753173
51
163.1916937
0
ARC
8
DEFAULT_255_1_234
10
5.9080165
20
21.1847967
40
0.5681262
50
162.9373603
51
174.6208611
0
ARC
8
DEFAULT_255_1_234
10
6.1706207
20
21.156001
40
0.8322832
50
174.3419979
51
180.1430411
0
ARC
8
DEFAULT_255_1_234
10
6.0775363
20
21.0365698
40
0.7392076
50
179.6817502
51
189.150529
0
ARC
8
DEFAULT_255_1_234
10
5.8274611
20
20.994919
40
0.4856932
50
188.9910863
51
203.5773039
0
ARC
8
DEFAULT_255_1_234
10
5.7194944
20
20.9501211
40
0.3688271
50
203.9077269
51
215.1312379
0
ARC
8
DEFAULT_255_1_234
10
5.6272038
20
20.8785941
40
0.2522457
50
213.9071664
51
263.8849284
0
ARC
8
DEFAULT_255_1_234
10
5.6397367
20
20.9570518
40
0.3316174
50
263.1758525
51
270.1031083
0
ARC
8
DEFAULT_255_1_234
10
5.6429459
20
21.0817365
40
0.4563091
50
269.6719807
51
279.0609165
0
ARC
8
DEFAULT_255_1_234
10
5.6696227
20
20.9204907
40
0.2928759
50
278.8750225
51
293.6346586
0
ARC
8
DEFAULT_255_1_234
10
5.7016435
20
20.84529
40
0.2111472
50
293.8553404
51
310.0518804
0
ARC
8
DEFAULT_255_1_234
10
5.7021289
20
20.8390516
40
0.2060917
50
311.0646779
51
332.0108348
0
ARC
8
DEFAULT_255_1_234
10
5.5829016
20
20.9047978
40
0.3422352
50
331.6588543
51
343.2878891
0
ARC
8
DEFAULT_255_1_234
10
5.3766531
20
20.9681798
40
0.5580003
50
343.1446044
51
351.010618
0
ARC
8
DEFAULT_255_1_234
10
5.2225177
20
20.9962871
40
0.7146438
50
350.7157277
51
351.1602153
0
LINE
8
DEFAULT_255_1_234
10
7.1928685
20
21.6848211
11
7.1928685
21
20.5154
0
LINE
8
DEFAULT_255_1_234
10
7.1928685
20
20.5154
11
7.037856
21
20.5154
0
LINE
8
DEFAULT_255_1_234
10
7.037856
20
20.5154
11
7.037856
21
21.055936
0
LINE
8
DEFAULT_255_1_234
10
7.037856
20
21.055936
11
6.4483264
21
21.055936
0
LINE
8
DEFAULT_255_1_234
10
6.4483264
20
21.055936
11
6.4483264
21
20.5154
0
LINE
8
DEFAULT_255_1_234
10
6.4483264
20
20.5154
11
6.294117
21
20.5154
0
LINE
8
DEFAULT_255_1_234
10
6.294117
20
20.5154
11
6.294117
21
21.6848211
0
LINE
8
DEFAULT_255_1_234
10
6.294117
20
21.6848211
11
6.4483264
21
21.6848211
0
LINE
8
DEFAULT_255_1_234
10
6.4483264
20
21.6848211
11
6.4483264
21
21.1820343
0
LINE
8
DEFAULT_255_1_234
10
6.4483264
20
21.1820343
11
7.037856
21
21.1820343
0
LINE
8
DEFAULT_255_1_234
10
7.037856
20
21.1820343
11
7.037856
21
21.6848211
0
LINE
8
DEFAULT_255_1_234
10
7.037856
20
21.6848211
11
7.1928685
21
21.6848211
0
LINE
8
DEFAULT_255_1_234
10
8.1783628
20
20.5154
11
7.7639251
21
21.0591487
0
LINE
8
DEFAULT_255_1_234
10
7.7639251
20
21.0591487
11
7.6209602
21
20.9105615
0
LINE
8
DEFAULT_255_1_234
10
7.6209602
20
20.9105615
11
7.6209602
21
20.5154
0
LINE
8
DEFAULT_255_1_234
10
7.6209602
20
20.5154
11
7.4667508
21
20.5154
0
LINE
8
DEFAULT_255_1_234
10
7.4667508
20
20.5154
11
7.4667508
21
21.6848211
0
LINE
8
DEFAULT_255_1_234
10
7.4667508
20
21.6848211
11
7.6209602
21
21.6848211
0
LINE
8
DEFAULT_255_1_234
10
7.6209602
20
21.6848211
11
7.6209602
21
21.1065359
0
LINE
8
DEFAULT_255_1_234
10
7.6209602
20
21.1065359
11
8.1406136
21
21.6848211
0
LINE
8
DEFAULT_255_1_234
10
8.1406136
20
21.6848211
11
8.32695
21
21.6848211
0
LINE
8
DEFAULT_255_1_234
10
8.32695
20
21.6848211
11
7.8667313
21
21.1683803
0
LINE
8
DEFAULT_255_1_234
10
7.8667313
20
21.1683803
11
8.3630928
21
20.5154
0
LINE
8
DEFAULT_255_1_234
10
8.3630928
20
20.5154
11
8.1783628
21
20.5154
0
LINE
8
DEFAULT_255_1_234
10
8.9004161
20
21.4840276
11
8.9004161
21
21.1426788
0
LINE
8
DEFAULT_255_1_234
10
8.9004161
20
21.1426788
11
9.2265046
21
21.1426788
0
LINE
8
DEFAULT_255_1_234
10
9.2265046
20
21.1426788
11
9.2265046
21
21.0021233
0
LINE
8
DEFAULT_255_1_234
10
9.2265046
20
21.0021233
11
8.9004161
21
21.0021233
0
LINE
8
DEFAULT_255_1_234
10
8.9004161
20
21.0021233
11
8.9004161
21
20.6326634
0
LINE
8
DEFAULT_255_1_234
10
8.9004161
20
20.6326634
11
8.7510257
21
20.6326634
0
LINE
8
DEFAULT_255_1_234
10
8.7510257
20
20.6326634
11
8.7510257
21
21.0021233
0
LINE
8
DEFAULT_255_1_234
10
8.7510257
20
21.0021233
11
8.4249372
21
21.0021233
0
LINE
8
DEFAULT_255_1_234
10
8.4249372
20
21.0021233
11
8.4249372
21
21.1426788
0
LINE
8
DEFAULT_255_1_234
10
8.4249372
20
21.1426788
11
8.7510257
21
21.1426788
0
LINE
8
DEFAULT_255_1_234
10
8.7510257
20
21.1426788
11
8.7510257
21
21.4840276
0
LINE
8
DEFAULT_255_1_234
10
8.7510257
20
21.4840276
11
8.9004161
21
21.4840276
0
LINE
8
DEFAULT_255_1_234
10
4.8732119
20
28.5741792
11
4.8732119
21
28.4529
0
LINE
8
DEFAULT_255_1_234
10
4.8732119
20
28.4529
11
4.106984
21
28.4529
0
LINE
8
DEFAULT_255_1_234
10
4.106984
20
28.4529
11
4.106984
21
28.5597221
0
LINE
8
DEFAULT_255_1_234
10
4.106984
20
28.5597221
11
4.5117836
21
29.0094995
0
LINE
8
DEFAULT_255_1_234
10
4.2330823
20
29.2777595
11
4.0844952
21
29.2777595
0
LINE
8
DEFAULT_255_1_234
10
4.5993296
20
28.9139218
11
4.2860918
21
28.5741792
0
LINE
8
DEFAULT_255_1_234
10
4.2860918
20
28.5741792
11
4.8732119
21
28.5741792
0
ARC
8
DEFAULT_255_1_234
10
3.162767
20
30.2024527
40
1.8008286
50
318.5132453
51
320.7828378
0
ARC
8
DEFAULT_255_1_234
10
3.6914644
20
29.7721426
40
1.1191493
50
320.7372736
51
323.9737074
0
ARC
8
DEFAULT_255_1_234
10
4.0834501
20
29.4881361
40
0.6350923
50
323.8961724
51
328.6421089
0
ARC
8
DEFAULT_255_1_234
10
4.2881096
20
29.3619031
40
0.3946393
50
328.8299013
51
331.789948
0
ARC
8
DEFAULT_255_1_234
10
4.3878274
20
29.3104509
40
0.2824501
50
331.4255242
51
352.9364833
0
ARC
8
DEFAULT_255_1_234
10
4.4014775
20
29.3073976
40
0.2685315
50
353.2248685
51
0.0169286
0
ARC
8
DEFAULT_255_1_234
10
4.4224652
20
29.309695
40
0.2475536
50
359.4866256
51
15.9339782
0
ARC
8
DEFAULT_255_1_234
10
4.4731637
20
29.3233286
40
0.1950618
50
16.1714718
51
43.5284424
0
ARC
8
DEFAULT_255_1_234
10
4.4808946
20
29.3310573
40
0.184134
50
43.4415429
51
83.1661404
0
ARC
8
DEFAULT_255_1_234
10
4.4674864
20
29.2573771
40
0.258926
50
82.160215
51
90.1505798
0
ARC
8
DEFAULT_255_1_234
10
4.4643291
20
29.2036865
40
0.3126255
50
89.5460705
51
102.5418777
0
ARC
8
DEFAULT_255_1_234
10
4.4400377
20
29.3067665
40
0.2067346
50
102.1739365
51
129.2061916
0
ARC
8
DEFAULT_255_1_234
10
4.4321449
20
29.3192094
40
0.1921118
50
129.7279328
51
135.7542026
0
ARC
8
DEFAULT_255_1_234
10
4.4442977
20
29.3095045
40
0.2075944
50
136.175737
51
166.3674722
0
ARC
8
DEFAULT_255_1_234
10
4.5449896
20
29.2825182
40
0.3118201
50
165.9092917
51
178.8683903
0
ARC
8
DEFAULT_255_1_234
10
4.6314757
20
29.2778179
40
0.3983935
50
178.438168
51
180.0083905
0
ARC
8
DEFAULT_255_1_234
10
4.4913359
20
29.2817231
40
0.4068601
50
163.2878735
51
180.5581814
0
ARC
8
DEFAULT_255_1_234
10
4.4111621
20
29.303784
40
0.3237344
50
133.454115
51
162.9470031
0
ARC
8
DEFAULT_255_1_234
10
4.4290162
20
29.2848
40
0.349795
50
100.7869394
51
133.4384016
0
ARC
8
DEFAULT_255_1_234
10
4.4637934
20
29.1299319
40
0.5084616
50
89.6605301
51
101.3704185
0
ARC
8
DEFAULT_255_1_234
10
4.4704273
20
29.1360496
40
0.502348
50
78.2171172
51
90.4130393
0
ARC
8
DEFAULT_255_1_234
10
4.5059351
20
29.2984637
40
0.3361092
50
55.9268222
51
78.4888551
0
ARC
8
DEFAULT_255_1_234
10
4.5255791
20
29.3323324
40
0.2970617
50
47.9292255
51
55.4054003
0
ARC
8
DEFAULT_255_1_234
10
4.5357352
20
29.3426502
40
0.2825983
50
4.3347696
51
48.0560701
0
ARC
8
DEFAULT_255_1_234
10
4.4261745
20
29.3256601
40
0.393225
50
359.925209
51
5.5967654
0
ARC
8
DEFAULT_255_1_234
10
4.4690637
20
29.3312816
40
0.3503892
50
337.8914096
51
358.9967724
0
ARC
8
DEFAULT_255_1_234
10
4.1977049
20
29.4359706
40
0.6412172
50
326.9135351
51
338.3505194
0
ARC
8
DEFAULT_255_1_234
10
3.7991353
20
29.6914284
40
1.1146189
50
319.6472867
51
327.095818
0
ARC
8
DEFAULT_255_1_234
10
3.4158356
20
30.0076
40
1.6114559
50
317.2586784
51
319.9046139
0
LINE
8
DEFAULT_255_1_234
10
5.4988843
20
28.9107091
11
5.2233957
21
28.9107091
0
LINE
8
DEFAULT_255_1_234
10
5.2233957
20
28.9107091
11
5.2233957
21
28.4529
0
LINE
8
DEFAULT_255_1_234
10
5.2233957
20
28.4529
11
5.0691863
21
28.4529
0
LINE
8
DEFAULT_255_1_234
10
5.0691863
20
28.4529
11
5.0691863
21
29.6223211
0
LINE
8
DEFAULT_255_1_234
10
5.0691863
20
29.6223211
11
5.5004906
21
29.6223211
0
LINE
8
DEFAULT_255_1_234
10
5.2233957
20
29.4954196
11
5.2233957
21
29.0368074
0
LINE
8
DEFAULT_255_1_234
10
5.2233957
20
29.0368074
11
5.5004906
21
29.0368074
0
LINE
8
DEFAULT_255_1_234
10
5.5093255
20
29.4954196
11
5.2233957
21
29.4954196
0
ARC
8
DEFAULT_255_1_234
10
5.5047033
20
29.0164195
40
0.6059162
50
78.8378113
51
90.3983573
0
ARC
8
DEFAULT_255_1_234
10
5.5463047
20
29.2184879
40
0.3996205
50
58.9632738
51
79.0810598
0
ARC
8
DEFAULT_255_1_234
10
5.5764589
20
29.2744721
40
0.3361177
50
48.0197965
51
58.447194
0
ARC
8
DEFAULT_255_1_234
10
5.585345
20
29.2830225
40
0.3238191
50
3.3375044
51
48.1766626
0
ARC
8
DEFAULT_255_1_234
10
5.4623289
20
29.2653171
40
0.4477806
50
359.9477528
51
4.6829065
0
ARC
8
DEFAULT_255_1_234
10
5.4746606
20
29.2610628
40
0.4354656
50
346.1877825
51
0.5060252
0
ARC
8
DEFAULT_255_1_234
10
5.6105474
20
29.2257731
40
0.295089
50
310.8831995
51
346.5426355
0
ARC
8
DEFAULT_255_1_234
10
5.5796894
20
29.2674695
40
0.3468331
50
286.6925341
51
310.2288297
0
ARC
8
DEFAULT_255_1_234
10
5.5227725
20
29.4464882
40
0.5346654
50
274.6850312
51
287.0245141
0
ARC
8
DEFAULT_255_1_234
10
5.5002448
20
29.6673932
40
0.7566852
50
269.8969846
51
275.018904
0
ARC
8
DEFAULT_255_1_234
10
5.5030039
20
29.4594707
40
0.4226708
50
269.6593078
51
279.4153575
0
ARC
8
DEFAULT_255_1_234
10
5.5287314
20
29.3104133
40
0.2714146
50
279.2049762
51
294.9900808
0
ARC
8
DEFAULT_255_1_234
10
5.557764
20
29.2456508
40
0.2004525
50
295.2888114
51
311.2911209
0
ARC
8
DEFAULT_255_1_234
10
5.5648534
20
29.235122
40
0.1878703
50
311.7854996
51
347.2861051
0
ARC
8
DEFAULT_255_1_234
10
5.4664693
20
29.2604092
40
0.2894234
50
346.6893224
51
0.1059443
0
ARC
8
DEFAULT_255_1_234
10
5.3909588
20
29.2632685
40
0.3649409
50
359.6350983
51
0.0053152
0
ARC
8
DEFAULT_255_1_234
10
5.4879916
20
29.2657937
40
0.2679199
50
359.4672059
51
15.5933957
0
ARC
8
DEFAULT_255_1_234
10
5.5504805
20
29.2826779
40
0.2031932
50
15.7442113
51
46.6203375
0
ARC
8
DEFAULT_255_1_234
10
5.5357026
20
29.2656484
40
0.2257226
50
46.8628658
51
75.6676503
0
ARC
8
DEFAULT_255_1_234
10
5.5062846
20
29.1597718
40
0.3355939
50
75.276167
51
88.2915297
0
ARC
8
DEFAULT_255_1_234
10
5.5004553
20
29.0719524
40
0.4235602
50
87.8575022
51
88.8000139
0
LINE
8
DEFAULT_255_1_234
10
4.7735137
20
37.5654433
11
4.7735137
21
36.3904
0
LINE
8
DEFAULT_255_1_234
10
4.7735137
20
36.3904
11
4.6241234
21
36.3904
0
LINE
8
DEFAULT_255_1_234
10
4.6241234
20
36.3904
11
4.6241234
21
37.3807133
0
LINE
8
DEFAULT_255_1_234
10
4.6241234
20
37.3807133
11
4.3245396
21
37.2706785
0
LINE
8
DEFAULT_255_1_234
10
4.3245396
20
37.2706785
11
4.3245396
21
37.4056117
0
LINE
8
DEFAULT_255_1_234
10
4.3245396
20
37.4056117
11
4.7502217
21
37.5654433
0
LINE
8
DEFAULT_255_1_234
10
4.7502217
20
37.5654433
11
4.7735137
21
37.5654433
0
LINE
8
DEFAULT_255_1_234
10
5.9525729
20
36.7614663
11
6.1075854
21
36.7614663
0
LINE
8
DEFAULT_255_1_234
10
5.2072276
20
36.9204947
11
5.2072276
21
37.0329391
0
LINE
8
DEFAULT_255_1_234
10
6.1075854
20
37.1839357
11
5.9525729
21
37.1839357
0
LINE
8
DEFAULT_255_1_234
10
5.3622401
20
37.0289232
11
5.3622401
21
36.9156757
0
ARC
8
DEFAULT_255_1_234
10
5.5595241
20
36.8211846
40
0.5513052
50
340.1774281
51
353.7814284
0
ARC
8
DEFAULT_255_1_234
10
5.7166594
20
36.7626582
40
0.3836379
50
311.4558989
51
340.4421614
0
ARC
8
DEFAULT_255_1_234
10
5.7133262
20
36.7737528
40
0.3941894
50
282.4333181
51
310.7513653
0
ARC
8
DEFAULT_255_1_234
10
5.6694001
20
36.9552679
40
0.5809175
50
269.9358511
51
282.809604
0
ARC
8
DEFAULT_255_1_234
10
5.6642067
20
37.1010212
40
0.7266847
50
270.0021091
51
270.3581957
0
ARC
8
DEFAULT_255_1_234
10
5.6589484
20
36.8409585
40
0.4666519
50
250.7884749
51
270.6489167
0
ARC
8
DEFAULT_255_1_234
10
5.6421319
20
36.7772319
40
0.4009729
50
219.3627325
51
250.0611886
0
ARC
8
DEFAULT_255_1_234
10
5.725053
20
36.8477042
40
0.5097822
50
193.5479632
51
219.5756669
0
ARC
8
DEFAULT_255_1_234
10
5.9622151
20
36.9092919
40
0.7547848
50
181.1218675
51
193.87563
0
ARC
8
DEFAULT_255_1_234
10
6.1692332
20
36.920358
40
0.9620055
50
179.9918545
51
181.5394234
0
ARC
8
DEFAULT_255_1_234
10
5.9841434
20
37.0366788
40
0.7769248
50
169.5837241
51
180.2757934
0
ARC
8
DEFAULT_255_1_234
10
5.8004372
20
37.0706229
40
0.590109
50
155.0365899
51
169.6003176
0
ARC
8
DEFAULT_255_1_234
10
5.6868836
20
37.1253677
40
0.4640625
50
136.783148
51
155.2472683
0
ARC
8
DEFAULT_255_1_234
10
5.6479313
20
37.1584562
40
0.4130255
50
121.7633186
51
136.428115
0
ARC
8
DEFAULT_255_1_234
10
5.6614275
20
37.1335227
40
0.4413323
50
95.6459699
51
121.5490577
0
ARC
8
DEFAULT_255_1_234
10
5.6771557
20
37.0226949
40
0.55319
50
89.924208
51
96.1377933
0
ARC
8
DEFAULT_255_1_234
10
5.682199
20
37.0345542
40
0.5413475
50
76.6779277
51
90.4563316
0
ARC
8
DEFAULT_255_1_234
10
5.7215613
20
37.1936114
40
0.3775041
50
47.485847
51
76.9287264
0
ARC
8
DEFAULT_255_1_234
10
5.7068586
20
37.1836159
40
0.3948286
50
16.5424086
51
46.8933463
0
ARC
8
DEFAULT_255_1_234
10
5.5460743
20
37.1307861
40
0.564021
50
5.4072051
51
17.0365086
0
ARC
8
DEFAULT_255_1_234
10
5.402176
20
37.1076679
40
0.5556559
50
7.8891745
51
15.9239216
0
ARC
8
DEFAULT_255_1_234
10
5.6008773
20
37.1653631
40
0.3487515
50
15.7653144
51
27.9410532
0
ARC
8
DEFAULT_255_1_234
10
5.7112991
20
37.224479
40
0.2235026
50
27.8166557
51
46.4008329
0
ARC
8
DEFAULT_255_1_234
10
5.7162634
20
37.2239082
40
0.2205286
50
47.4371857
51
75.0698205
0
ARC
8
DEFAULT_255_1_234
10
5.6854029
20
37.1164765
40
0.3322915
50
74.7008593
51
87.8124495
0
ARC
8
DEFAULT_255_1_234
10
5.6780716
20
37.0108844
40
0.4380987
50
87.3814673
51
90.0240855
0
ARC
8
DEFAULT_255_1_234
10
5.6742259
20
37.1286291
40
0.3203749
50
89.3451631
51
108.5745436
0
ARC
8
DEFAULT_255_1_234
10
5.6605365
20
37.1799908
40
0.2673494
50
109.2998449
51
143.3037509
0
ARC
8
DEFAULT_255_1_234
10
5.7367437
20
37.1213881
40
0.3634757
50
143.0753173
51
163.1916937
0
ARC
8
DEFAULT_255_1_234
10
5.9319165
20
37.0597967
40
0.5681262
50
162.9373603
51
174.6208611
0
ARC
8
DEFAULT_255_1_234
10
6.1945207
20
37.031001
40
0.8322832
50
174.3419979
51
180.1430411
0
ARC
8
DEFAULT_255_1_234
10
6.1014363
20
36.9115698
40
0.7392076
50
179.6817502
51
189.150529
0
ARC
8
DEFAULT_255_1_234
10
5.8513611
20
36.869919
40
0.4856932
50
188.9910863
51
203.5773039
0
ARC
8
DEFAULT_255_1_234
10
5.7433944
20
36.8251211
40
0.3688271
50
203.9077269
51
215.1312379
0
ARC
8
DEFAULT_255_1_234
10
5.6511038
20
36.7535941
40
0.2522457
50
213.9071664
51
263.8849284
0
ARC
8
DEFAULT_255_1_234
10
5.6636367
20
36.8320518
40
0.3316174
50
263.1758525
51
270.1031083
0
ARC
8
DEFAULT_255_1_234
10
5.6668459
20
36.9567365
40
0.4563091
50
269.6719807
51
279.0609165
0
ARC
8
DEFAULT_255_1_234
10
5.6935227
20
36.7954907
40
0.2928759
50
278.8750225
51
293.6346586
0
ARC
8
DEFAULT_255_1_234
10
5.7255435
20
36.72029
40
0.2111472
50
293.8553404
51
310.0518804
0
ARC
8
DEFAULT_255_1_234
10
5.7260289
20
36.7140516
40
0.2060917
50
311.0646779
51
332.0108348
0
ARC
8
DEFAULT_255_1_234
10
5.6068016
20
36.7797978
40
0.3422352
50
331.6588543
51
343.2878891
0
ARC
8
DEFAULT_255_1_234
10
5.4005531
20
36.8431798
40
0.5580003
50
343.1446044
51
351.010618
0
ARC
8
DEFAULT_255_1_234
10
5.2464177
20
36.8712871
40
0.7146438
50
350.7157277
51
351.1602153
0
LINE
8
DEFAULT_255_1_234
10
7.2167685
20
37.5598211
11
7.2167685
21
36.3904
0
LINE
8
DEFAULT_255_1_234
10
7.2167685
20
36.3904
11
7.061756
21
36.3904
0
LINE
8
DEFAULT_255_1_234
10
7.061756
20
36.3904
11
7.061756
21
36.930936
0
LINE
8
DEFAULT_255_1_234
10
7.061756
20
36.930936
11
6.4722264
21
36.930936
0
LINE
8
DEFAULT_255_1_234
10
6.4722264
20
36.930936
11
6.4722264
21
36.3904
0
LINE
8
DEFAULT_255_1_234
10
6.4722264
20
36.3904
11
6.318017
21
36.3904
0
LINE
8
DEFAULT_255_1_234
10
6.318017
20
36.3904
11
6.318017
21
37.5598211
0
LINE
8
DEFAULT_255_1_234
10
6.318017
20
37.5598211
11
6.4722264
21
37.5598211
0
LINE
8
DEFAULT_255_1_234
10
6.4722264
20
37.5598211
11
6.4722264
21
37.0570343
0
LINE
8
DEFAULT_255_1_234
10
6.4722264
20
37.0570343
11
7.061756
21
37.0570343
0
LINE
8
DEFAULT_255_1_234
10
7.061756
20
37.0570343
11
7.061756
21
37.5598211
0
LINE
8
DEFAULT_255_1_234
10
7.061756
20
37.5598211
11
7.2167685
21
37.5598211
0
LINE
8
DEFAULT_255_1_234
10
8.2022628
20
36.3904
11
7.7878251
21
36.9341487
0
LINE
8
DEFAULT_255_1_234
10
7.7878251
20
36.9341487
11
7.6448602
21
36.7855615
0
LINE
8
DEFAULT_255_1_234
10
7.6448602
20
36.7855615
11
7.6448602
21
36.3904
0
LINE
8
DEFAULT_255_1_234
10
7.6448602
20
36.3904
11
7.4906508
21
36.3904
0
LINE
8
DEFAULT_255_1_234
10
7.4906508
20
36.3904
11
7.4906508
21
37.5598211
0
LINE
8
DEFAULT_255_1_234
10
7.4906508
20
37.5598211
11
7.6448602
21
37.5598211
0
LINE
8
DEFAULT_255_1_234
10
7.6448602
20
37.5598211
11
7.6448602
21
36.9815359
0
LINE
8
DEFAULT_255_1_234
10
7.6448602
20
36.9815359
11
8.1645136
21
37.5598211
0
LINE
8
DEFAULT_255_1_234
10
8.1645136
20
37.5598211
11
8.35085
21
37.5598211
0
LINE
8
DEFAULT_255_1_234
10
8.35085
20
37.5598211
11
7.8906313
21
37.0433803
0
LINE
8
DEFAULT_255_1_234
10
7.8906313
20
37.0433803
11
8.3869928
21
36.3904
0
LINE
8
DEFAULT_255_1_234
10
8.3869928
20
36.3904
11
8.2022628
21
36.3904
0
LINE
8
DEFAULT_255_1_234
10
8.7564527
20
36.9478026
11
8.7564527
21
36.8265234
0
LINE
8
DEFAULT_255_1_234
10
8.7564527
20
36.8265234
11
8.3645039
21
36.8265234
0
LINE
8
DEFAULT_255_1_234
10
8.3645039
20
36.8265234
11
8.3645039
21
36.9478026
0
LINE
8
DEFAULT_255_1_234
10
8.3645039
20
36.9478026
11
8.7564527
21
36.9478026
0
LINE
8
DEFAULT_255_1_234
10
4.7496137
20
45.5029433
11
4.7496137
21
44.3279
0
LINE
8
DEFAULT_255_1_234
10
4.7496137
20
44.3279
11
4.6002234
21
44.3279
0
LINE
8
DEFAULT_255_1_234
10
4.6002234
20
44.3279
11
4.6002234
21
45.3182133
0
LINE
8
DEFAULT_255_1_234
10
4.6002234
20
45.3182133
11
4.3006396
21
45.2081785
0
LINE
8
DEFAULT_255_1_234
10
4.3006396
20
45.2081785
11
4.3006396
21
45.3431117
0
LINE
8
DEFAULT_255_1_234
10
4.3006396
20
45.3431117
11
4.7263217
21
45.5029433
0
LINE
8
DEFAULT_255_1_234
10
4.7263217
20
45.5029433
11
4.7496137
21
45.5029433
0
LINE
8
DEFAULT_255_1_234
10
5.9286729
20
44.6989663
11
6.0836854
21
44.6989663
0
LINE
8
DEFAULT_255_1_234
10
5.1833276
20
44.8579947
11
5.1833276
21
44.9704391
0
LINE
8
DEFAULT_255_1_234
10
6.0836854
20
45.1214357
11
5.9286729
21
45.1214357
0
LINE
8
DEFAULT_255_1_234
10
5.3383401
20
44.9664232
11
5.3383401
21
44.8531757
0
ARC
8
DEFAULT_255_1_234
10
5.5356241
20
44.7586846
40
0.5513052
50
340.1774281
51
353.7814284
0
ARC
8
DEFAULT_255_1_234
10
5.6927594
20
44.7001582
40
0.3836379
50
311.4558989
51
340.4421614
0
ARC
8
DEFAULT_255_1_234
10
5.6894262
20
44.7112528
40
0.3941894
50
282.4333181
51
310.7513653
0
ARC
8
DEFAULT_255_1_234
10
5.6455001
20
44.8927679
40
0.5809175
50
269.9358511
51
282.809604
0
ARC
8
DEFAULT_255_1_234
10
5.6403067
20
45.0385212
40
0.7266847
50
270.0021091
51
270.3581957
0
ARC
8
DEFAULT_255_1_234
10
5.6350484
20
44.7784585
40
0.4666519
50
250.7884749
51
270.6489167
0
ARC
8
DEFAULT_255_1_234
10
5.6182319
20
44.7147319
40
0.4009729
50
219.3627325
51
250.0611886
0
ARC
8
DEFAULT_255_1_234
10
5.701153
20
44.7852042
40
0.5097822
50
193.5479632
51
219.5756669
0
ARC
8
DEFAULT_255_1_234
10
5.9383151
20
44.8467919
40
0.7547848
50
181.1218675
51
193.87563
0
ARC
8
DEFAULT_255_1_234
10
6.1453332
20
44.857858
40
0.9620055
50
179.9918545
51
181.5394234
0
ARC
8
DEFAULT_255_1_234
10
5.9602434
20
44.9741788
40
0.7769248
50
169.5837241
51
180.2757934
0
ARC
8
DEFAULT_255_1_234
10
5.7765372
20
45.0081229
40
0.590109
50
155.0365899
51
169.6003176
0
ARC
8
DEFAULT_255_1_234
10
5.6629836
20
45.0628677
40
0.4640625
50
136.783148
51
155.2472683
0
ARC
8
DEFAULT_255_1_234
10
5.6240313
20
45.0959562
40
0.4130255
50
121.7633186
51
136.428115
0
ARC
8
DEFAULT_255_1_234
10
5.6375275
20
45.0710227
40
0.4413323
50
95.6459699
51
121.5490577
0
ARC
8
DEFAULT_255_1_234
10
5.6532557
20
44.9601949
40
0.55319
50
89.924208
51
96.1377933
0
ARC
8
DEFAULT_255_1_234
10
5.658299
20
44.9720542
40
0.5413475
50
76.6779277
51
90.4563316
0
ARC
8
DEFAULT_255_1_234
10
5.6976613
20
45.1311114
40
0.3775041
50
47.485847
51
76.9287264
0
ARC
8
DEFAULT_255_1_234
10
5.6829586
20
45.1211159
40
0.3948286
50
16.5424086
51
46.8933463
0
ARC
8
DEFAULT_255_1_234
10
5.5221743
20
45.0682861
40
0.564021
50
5.4072051
51
17.0365086
0
ARC
8
DEFAULT_255_1_234
10
5.378276
20
45.0451679
40
0.5556559
50
7.8891745
51
15.9239216
0
ARC
8
DEFAULT_255_1_234
10
5.5769773
20
45.1028631
40
0.3487515
50
15.7653144
51
27.9410532
0
ARC
8
DEFAULT_255_1_234
10
5.6873991
20
45.161979
40
0.2235026
50
27.8166557
51
46.4008329
0
ARC
8
DEFAULT_255_1_234
10
5.6923634
20
45.1614082
40
0.2205286
50
47.4371857
51
75.0698205
0
ARC
8
DEFAULT_255_1_234
10
5.6615029
20
45.0539765
40
0.3322915
50
74.7008593
51
87.8124495
0
ARC
8
DEFAULT_255_1_234
10
5.6541716
20
44.9483844
40
0.4380987
50
87.3814673
51
90.0240855
0
ARC
8
DEFAULT_255_1_234
10
5.6503259
20
45.0661291
40
0.3203749
50
89.3451631
51
108.5745436
0
ARC
8
DEFAULT_255_1_234
10
5.6366365
20
45.1174908
40
0.2673494
50
109.2998449
51
143.3037509
0
ARC
8
DEFAULT_255_1_234
10
5.7128437
20
45.0588881
40
0.3634757
50
143.0753173
51
163.1916937
0
ARC
8
DEFAULT_255_1_234
10
5.9080165
20
44.9972967
40
0.5681262
50
162.9373603
51
174.6208611
0
ARC
8
DEFAULT_255_1_234
10
6.1706207
20
44.968501
40
0.8322832
50
174.3419979
51
180.1430411
0
ARC
8
DEFAULT_255_1_234
10
6.0775363
20
44.8490698
40
0.7392076
50
179.6817502
51
189.150529
0
ARC
8
DEFAULT_255_1_234
10
5.8274611
20
44.807419
40
0.4856932
50
188.9910863
51
203.5773039
0
ARC
8
DEFAULT_255_1_234
10
5.7194944
20
44.7626211
40
0.3688271
50
203.9077269
51
215.1312379
0
ARC
8
DEFAULT_255_1_234
10
5.6272038
20
44.6910941
40
0.2522457
50
213.9071664
51
263.8849284
0
ARC
8
DEFAULT_255_1_234
10
5.6397367
20
44.7695518
40
0.3316174
50
263.1758525
51
270.1031083
0
ARC
8
DEFAULT_255_1_234
10
5.6429459
20
44.8942365
40
0.4563091
50
269.6719807
51
279.0609165
0
ARC
8
DEFAULT_255_1_234
10
5.6696227
20
44.7329907
40
0.2928759
50
278.8750225
51
293.6346586
0
ARC
8
DEFAULT_255_1_234
10
5.7016435
20
44.65779
40
0.2111472
50
293.8553404
51
310.0518804
0
ARC
8
DEFAULT_255_1_234
10
5.7021289
20
44.6515516
40
0.2060917
50
311.0646779
51
332.0108348
0
ARC
8
DEFAULT_255_1_234
10
5.5829016
20
44.7172978
40
0.3422352
50
331.6588543
51
343.2878891
0
ARC
8
DEFAULT_255_1_234
10
5.3766531
20
44.7806798
40
0.5580003
50
343.1446044
51
351.010618
0
ARC
8
DEFAULT_255_1_234
10
5.2225177
20
44.8087871
40
0.7146438
50
350.7157277
51
351.1602153
0
LINE
8
DEFAULT_255_1_234
10
7.1928685
20
45.4973211
11
7.1928685
21
44.3279
0
LINE
8
DEFAULT_255_1_234
10
7.1928685
20
44.3279
11
7.037856
21
44.3279
0
LINE
8
DEFAULT_255_1_234
10
7.037856
20
44.3279
11
7.037856
21
44.868436
0
LINE
8
DEFAULT_255_1_234
10
7.037856
20
44.868436
11
6.4483264
21
44.868436
0
LINE
8
DEFAULT_255_1_234
10
6.4483264
20
44.868436
11
6.4483264
21
44.3279
0
LINE
8
DEFAULT_255_1_234
10
6.4483264
20
44.3279
11
6.294117
21
44.3279
0
LINE
8
DEFAULT_255_1_234
10
6.294117
20
44.3279
11
6.294117
21
45.4973211
0
LINE
8
DEFAULT_255_1_234
10
6.294117
20
45.4973211
11
6.4483264
21
45.4973211
0
LINE
8
DEFAULT_255_1_234
10
6.4483264
20
45.4973211
11
6.4483264
21
44.9945343
0
LINE
8
DEFAULT_255_1_234
10
6.4483264
20
44.9945343
11
7.037856
21
44.9945343
0
LINE
8
DEFAULT_255_1_234
10
7.037856
20
44.9945343
11
7.037856
21
45.4973211
0
LINE
8
DEFAULT_255_1_234
10
7.037856
20
45.4973211
11
7.1928685
21
45.4973211
0
LINE
8
DEFAULT_255_1_234
10
8.1783628
20
44.3279
11
7.7639251
21
44.8716487
0
LINE
8
DEFAULT_255_1_234
10
7.7639251
20
44.8716487
11
7.6209602
21
44.7230615
0
LINE
8
DEFAULT_255_1_234
10
7.6209602
20
44.7230615
11
7.6209602
21
44.3279
0
LINE
8
DEFAULT_255_1_234
10
7.6209602
20
44.3279
11
7.4667508
21
44.3279
0
LINE
8
DEFAULT_255_1_234
10
7.4667508
20
44.3279
11
7.4667508
21
45.4973211
0
LINE
8
DEFAULT_255_1_234
10
7.4667508
20
45.4973211
11
7.6209602
21
45.4973211
0
LINE
8
DEFAULT_255_1_234
10
7.6209602
20
45.4973211
11
7.6209602
21
44.9190359
0
LINE
8
DEFAULT_255_1_234
10
7.6209602
20
44.9190359
11
8.1406136
21
45.4973211
0
LINE
8
DEFAULT_255_1_234
10
8.1406136
20
45.4973211
11
8.32695
21
45.4973211
0
LINE
8
DEFAULT_255_1_234
10
8.32695
20
45.4973211
11
7.8667313
21
44.9808803
0
LINE
8
DEFAULT_255_1_234
10
7.8667313
20
44.9808803
11
8.3630928
21
44.3279
0
LINE
8
DEFAULT_255_1_234
10
8.3630928
20
44.3279
11
8.1783628
21
44.3279
0
LINE
8
DEFAULT_255_1_234
10
8.9004161
20
45.2965276
11
8.9004161
21
44.9551788
0
LINE
8
DEFAULT_255_1_234
10
8.9004161
20
44.9551788
11
9.2265046
21
44.9551788
0
LINE
8
DEFAULT_255_1_234
10
9.2265046
20
44.9551788
11
9.2265046
21
44.8146233
0
LINE
8
DEFAULT_255_1_234
10
9.2265046
20
44.8146233
11
8.9004161
21
44.8146233
0
LINE
8
DEFAULT_255_1_234
10
8.9004161
20
44.8146233
11
8.9004161
21
44.4451634
0
LINE
8
DEFAULT_255_1_234
10
8.9004161
20
44.4451634
11
8.7510257
21
44.4451634
0
LINE
8
DEFAULT_255_1_234
10
8.7510257
20
44.4451634
11
8.7510257
21
44.8146233
0
LINE
8
DEFAULT_255_1_234
10
8.7510257
20
44.8146233
11
8.4249372
21
44.8146233
0
LINE
8
DEFAULT_255_1_234
10
8.4249372
20
44.8146233
11
8.4249372
21
44.9551788
0
LINE
8
DEFAULT_255_1_234
10
8.4249372
20
44.9551788
11
8.7510257
21
44.9551788
0
LINE
8
DEFAULT_255_1_234
10
8.7510257
20
44.9551788
11
8.7510257
21
45.2965276
0
LINE
8
DEFAULT_255_1_234
10
8.7510257
20
45.2965276
11
8.9004161
21
45.2965276
0
LINE
8
DEFAULT_255_1_234
10
4.5953137
20
53.4404433
11
4.5953137
21
52.2654
0
LINE
8
DEFAULT_255_1_234
10
4.5953137
20
52.2654
11
4.4459234
21
52.2654
0
LINE
8
DEFAULT_255_1_234
10
4.4459234
20
52.2654
11
4.4459234
21
53.2557133
0
LINE
8
DEFAULT_255_1_234
10
4.4459234
20
53.2557133
11
4.1463396
21
53.1456785
0
LINE
8
DEFAULT_255_1_234
10
4.1463396
20
53.1456785
11
4.1463396
21
53.2806117
0
LINE
8
DEFAULT_255_1_234
10
4.1463396
20
53.2806117
11
4.5720217
21
53.4404433
0
LINE
8
DEFAULT_255_1_234
10
4.5720217
20
53.4404433
11
4.5953137
21
53.4404433
0
LINE
8
DEFAULT_255_1_234
10
5.4988843
20
52.7232091
11
5.2233957
21
52.7232091
0
LINE
8
DEFAULT_255_1_234
10
5.2233957
20
52.7232091
11
5.2233957
21
52.2654
0
LINE
8
DEFAULT_255_1_234
10
5.2233957
20
52.2654
11
5.0691863
21
52.2654
0
LINE
8
DEFAULT_255_1_234
10
5.0691863
20
52.2654
11
5.0691863
21
53.4348211
0
LINE
8
DEFAULT_255_1_234
10
5.0691863
20
53.4348211
11
5.5004906
21
53.4348211
0
LINE
8
DEFAULT_255_1_234
10
5.2233957
20
53.3079196
11
5.2233957
21
52.8493074
0
LINE
8
DEFAULT_255_1_234
10
5.2233957
20
52.8493074
11
5.5004906
21
52.8493074
0
LINE
8
DEFAULT_255_1_234
10
5.5093255
20
53.3079196
11
5.2233957
21
53.3079196
0
ARC
8
DEFAULT_255_1_234
10
5.5047033
20
52.8289195
40
0.6059162
50
78.8378113
51
90.3983573
0
ARC
8
DEFAULT_255_1_234
10
5.5463047
20
53.0309879
40
0.3996205
50
58.9632738
51
79.0810598
0
ARC
8
DEFAULT_255_1_234
10
5.5764589
20
53.0869721
40
0.3361177
50
48.0197965
51
58.447194
0
ARC
8
DEFAULT_255_1_234
10
5.585345
20
53.0955225
40
0.3238191
50
3.3375044
51
48.1766626
0
ARC
8
DEFAULT_255_1_234
10
5.4623289
20
53.0778171
40
0.4477806
50
359.9477528
51
4.6829065
0
ARC
8
DEFAULT_255_1_234
10
5.4746606
20
53.0735628
40
0.4354656
50
346.1877825
51
0.5060252
0
ARC
8
DEFAULT_255_1_234
10
5.6105474
20
53.0382731
40
0.295089
50
310.8831995
51
346.5426355
0
ARC
8
DEFAULT_255_1_234
10
5.5796894
20
53.0799695
40
0.3468331
50
286.6925341
51
310.2288297
0
ARC
8
DEFAULT_255_1_234
10
5.5227725
20
53.2589882
40
0.5346654
50
274.6850312
51
287.0245141
0
ARC
8
DEFAULT_255_1_234
10
5.5002448
20
53.4798932
40
0.7566852
50
269.8969846
51
275.018904
0
ARC
8
DEFAULT_255_1_234
10
5.5030039
20
53.2719707
40
0.4226708
50
269.6593078
51
279.4153575
0
ARC
8
DEFAULT_255_1_234
10
5.5287314
20
53.1229133
40
0.2714146
50
279.2049762
51
294.9900808
0
ARC
8
DEFAULT_255_1_234
10
5.557764
20
53.0581508
40
0.2004525
50
295.2888114
51
311.2911209
0
ARC
8
DEFAULT_255_1_234
10
5.5648534
20
53.047622
40
0.1878703
50
311.7854996
51
347.2861051
0
ARC
8
DEFAULT_255_1_234
10
5.4664693
20
53.0729092
40
0.2894234
50
346.6893224
51
0.1059443
0
ARC
8
DEFAULT_255_1_234
10
5.3909588
20
53.0757685
40
0.3649409
50
359.6350983
51
0.0053152
0
ARC
8
DEFAULT_255_1_234
10
5.4879916
20
53.0782937
40
0.2679199
50
359.4672059
51
15.5933957
0
ARC
8
DEFAULT_255_1_234
10
5.5504805
20
53.0951779
40
0.2031932
50
15.7442113
51
46.6203375
0
ARC
8
DEFAULT_255_1_234
10
5.5357026
20
53.0781484
40
0.2257226
50
46.8628658
51
75.6676503
0
ARC
8
DEFAULT_255_1_234
10
5.5062846
20
52.9722718
40
0.3355939
50
75.276167
51
88.2915297
0
ARC
8
DEFAULT_255_1_234
10
5.5004553
20
52.8844524
40
0.4235602
50
87.8575022
51
88.8000139
0
LINE
8
DEFAULT_255_1_234
10
22.1798119
20
60.3241792
11
22.1798119
21
60.2029
0
LINE
8
DEFAULT_255_1_234
10
22.1798119
20
60.2029
11
21.413584
21
60.2029
0
LINE
8
DEFAULT_255_1_234
10
21.413584
20
60.2029
11
21.413584
21
60.3097221
0
LINE
8
DEFAULT_255_1_234
10
21.413584
20
60.3097221
11
21.8183836
21
60.7594995
0
LINE
8
DEFAULT_255_1_234
10
21.5396823
20
61.0277595
11
21.3910952
21
61.0277595
0
LINE
8
DEFAULT_255_1_234
10
21.9059296
20
60.6639218
11
21.5926918
21
60.3241792
0
LINE
8
DEFAULT_255_1_234
10
21.5926918
20
60.3241792
11
22.1798119
21
60.3241792
0
ARC
8
DEFAULT_255_1_234
10
20.469367
20
61.9524527
40
1.8008286
50
318.5132453
51
320.7828378
0
ARC
8
DEFAULT_255_1_234
10
20.9980644
20
61.5221426
40
1.1191493
50
320.7372736
51
323.9737074
0
ARC
8
DEFAULT_255_1_234
10
21.3900501
20
61.2381361
40
0.6350923
50
323.8961724
51
328.6421089
0
ARC
8
DEFAULT_255_1_234
10
21.5947096
20
61.1119031
40
0.3946393
50
328.8299013
51
331.789948
0
ARC
8
DEFAULT_255_1_234
10
21.6944274
20
61.0604509
40
0.2824501
50
331.4255242
51
352.9364833
0
ARC
8
DEFAULT_255_1_234
10
21.7080775
20
61.0573976
40
0.2685315
50
353.2248685
51
0.0169286
0
ARC
8
DEFAULT_255_1_234
10
21.7290652
20
61.059695
40
0.2475536
50
359.4866256
51
15.9339782
0
ARC
8
DEFAULT_255_1_234
10
21.7797637
20
61.0733286
40
0.1950618
50
16.1714718
51
43.5284424
0
ARC
8
DEFAULT_255_1_234
10
21.7874946
20
61.0810573
40
0.184134
50
43.4415429
51
83.1661404
0
ARC
8
DEFAULT_255_1_234
10
21.7740864
20
61.0073771
40
0.258926
50
82.160215
51
90.1505798
0
ARC
8
DEFAULT_255_1_234
10
21.7709291
20
60.9536865
40
0.3126255
50
89.5460705
51
102.5418777
0
ARC
8
DEFAULT_255_1_234
10
21.7466377
20
61.0567665
40
0.2067346
50
102.1739365
51
129.2061916
0
ARC
8
DEFAULT_255_1_234
10
21.7387449
20
61.0692094
40
0.1921118
50
129.7279328
51
135.7542026
0
ARC
8
DEFAULT_255_1_234
10
21.7508977
20
61.0595045
40
0.2075944
50
136.175737
51
166.3674722
0
ARC
8
DEFAULT_255_1_234
10
21.8515896
20
61.0325182
40
0.3118201
50
165.9092917
51
178.8683903
0
ARC
8
DEFAULT_255_1_234
10
21.9380757
20
61.0278179
40
0.3983935
50
178.438168
51
180.0083905
0
ARC
8
DEFAULT_255_1_234
10
21.7979359
20
61.0317231
40
0.4068601
50
163.2878735
51
180.5581814
0
ARC
8
DEFAULT_255_1_234
10
21.7177621
20
61.053784
40
0.3237344
50
133.454115
51
162.9470031
0
ARC
8
DEFAULT_255_1_234
10
21.7356162
20
61.0348
40
0.349795
50
100.7869394
51
133.4384016
0
ARC
8
DEFAULT_255_1_234
10
21.7703934
20
60.8799319
40
0.5084616
50
89.6605301
51
101.3704185
0
ARC
8
DEFAULT_255_1_234
10
21.7770273
20
60.8860496
40
0.502348
50
78.2171172
51
90.4130393
0
ARC
8
DEFAULT_255_1_234
10
21.8125351
20
61.0484637
40
0.3361092
50
55.9268222
51
78.4888551
0
ARC
8
DEFAULT_255_1_234
10
21.8321791
20
61.0823324
40
0.2970617
50
47.9292255
51
55.4054003
0
ARC
8
DEFAULT_255_1_234
10
21.8423352
20
61.0926502
40
0.2825983
50
4.3347696
51
48.0560701
0
ARC
8
DEFAULT_255_1_234
10
21.7327745
20
61.0756601
40
0.393225
50
359.925209
51
5.5967654
0
ARC
8
DEFAULT_255_1_234
10
21.7756637
20
61.0812816
40
0.3503892
50
337.8914096
51
358.9967724
0
ARC
8
DEFAULT_255_1_234
10
21.5043049
20
61.1859706
40
0.6412172
50
326.9135351
51
338.3505194
0
ARC
8
DEFAULT_255_1_234
10
21.1057353
20
61.4414284
40
1.1146189
50
319.6472867
51
327.095818
0
ARC
8
DEFAULT_255_1_234
10
20.7224356
20
61.7576
40
1.6114559
50
317.2586784
51
319.9046139
0
LINE
8
DEFAULT_255_1_234
10
22.9645127
20
61.3723211
11
22.9645127
21
60.595652
0
LINE
8
DEFAULT_255_1_234
10
22.9645127
20
60.595652
11
23.1267538
21
60.595652
0
LINE
8
DEFAULT_255_1_234
10
23.1267538
20
60.595652
11
23.1267538
21
60.4743728
0
LINE
8
DEFAULT_255_1_234
10
23.1267538
20
60.4743728
11
22.9645127
21
60.4743728
0
LINE
8
DEFAULT_255_1_234
10
22.9645127
20
60.4743728
11
22.9645127
21
60.2029
0
LINE
8
DEFAULT_255_1_234
10
22.9645127
20
60.2029
11
22.8151224
21
60.2029
0
LINE
8
DEFAULT_255_1_234
10
22.8151224
20
60.2029
11
22.8151224
21
60.4743728
0
LINE
8
DEFAULT_255_1_234
10
22.8151224
20
60.4743728
11
22.2826181
21
60.4743728
0
LINE
8
DEFAULT_255_1_234
10
22.2826181
20
60.4743728
11
22.2826181
21
60.5619187
0
LINE
8
DEFAULT_255_1_234
10
22.2826181
20
60.5619187
11
22.8062875
21
61.3723211
0
LINE
8
DEFAULT_255_1_234
10
22.8062875
20
61.3723211
11
22.9645127
21
61.3723211
0
LINE
8
DEFAULT_255_1_234
10
22.7974525
20
61.1369912
11
22.4512846
21
60.595652
0
LINE
8
DEFAULT_255_1_234
10
22.4512846
20
60.595652
11
22.8151224
21
60.595652
0
LINE
8
DEFAULT_255_1_234
10
22.8151224
20
60.595652
11
22.8151224
21
61.1691181
0
LINE
8
DEFAULT_255_1_234
10
22.8151224
20
61.1691181
11
22.7974525
21
61.1369912
0
LINE
8
DEFAULT_255_1_234
10
24.162848
20
60.785201
11
24.162848
21
60.3563062
0
LINE
8
DEFAULT_255_1_234
10
23.261687
20
60.7313884
11
23.261687
21
60.8333915
0
LINE
8
DEFAULT_255_1_234
10
24.162848
20
61.0293659
11
24.0086387
21
61.0293659
0
LINE
8
DEFAULT_255_1_234
10
23.4166996
20
60.8374073
11
23.4166996
21
60.7418296
0
LINE
8
DEFAULT_255_1_234
10
24.0094418
20
60.3972681
11
24.0094418
21
60.6599059
0
LINE
8
DEFAULT_255_1_234
10
24.0094418
20
60.6599059
11
23.7387723
21
60.6599059
0
LINE
8
DEFAULT_255_1_234
10
23.7387723
20
60.6599059
11
23.7387723
21
60.785201
0
LINE
8
DEFAULT_255_1_234
10
23.7387723
20
60.785201
11
24.162848
21
60.785201
0
ARC
8
DEFAULT_255_1_234
10
23.8796987
20
60.5556396
40
0.3462765
50
295.8437914
51
324.8549609
0
ARC
8
DEFAULT_255_1_234
10
23.8380954
20
60.6309567
40
0.4322211
50
291.5695085
51
296.4549398
0
ARC
8
DEFAULT_255_1_234
10
23.7870205
20
60.7674275
40
0.5779178
50
278.6622409
51
291.3045483
0
ARC
8
DEFAULT_255_1_234
10
23.7530697
20
60.9822408
40
0.7953952
50
270.020006
51
278.7494541
0
ARC
8
DEFAULT_255_1_234
10
23.7492621
20
61.1139036
40
0.927067
50
269.9969998
51
270.2524872
0
ARC
8
DEFAULT_255_1_234
10
23.7454334
20
60.7055589
40
0.5187361
50
253.5786322
51
270.4175299
0
ARC
8
DEFAULT_255_1_234
10
23.728099
20
60.6384236
40
0.4494451
50
238.8203306
51
253.2788235
0
ARC
8
DEFAULT_255_1_234
10
23.7261363
20
60.6333231
40
0.4440665
50
206.7883783
51
238.6962764
0
ARC
8
DEFAULT_255_1_234
10
23.8035273
20
60.6797405
40
0.5341121
50
206.1129412
51
207.4916643
0
ARC
8
DEFAULT_255_1_234
10
23.8632188
20
60.7051488
40
0.5989041
50
188.6921119
51
205.7821245
0
ARC
8
DEFAULT_255_1_234
10
24.048855
20
60.736723
40
0.7871862
50
180.3882829
51
188.9219216
0
ARC
8
DEFAULT_255_1_234
10
24.1716364
20
60.8390464
40
0.909967
50
170.2024264
51
180.3560651
0
ARC
8
DEFAULT_255_1_234
10
23.8552882
20
60.8956237
40
0.5886083
50
154.2857445
51
170.3893044
0
ARC
8
DEFAULT_255_1_234
10
23.7271085
20
60.954295
40
0.4476743
50
139.8401567
51
153.9332699
0
ARC
8
DEFAULT_255_1_234
10
23.6911821
20
60.9830577
40
0.4016697
50
98.4190291
51
139.6707122
0
ARC
8
DEFAULT_255_1_234
10
23.7291339
20
60.7985328
40
0.5898566
50
89.7659205
51
99.4415478
0
ARC
8
DEFAULT_255_1_234
10
23.7356588
20
60.8050844
40
0.5833147
50
78.0551672
51
90.4042112
0
ARC
8
DEFAULT_255_1_234
10
23.7761098
20
60.9869644
40
0.3970055
50
54.6380464
51
78.3339173
0
ARC
8
DEFAULT_255_1_234
10
23.7951154
20
61.0189795
40
0.3599102
50
50.031736
51
54.1558201
0
ARC
8
DEFAULT_255_1_234
10
23.7843942
20
61.0093766
40
0.3741624
50
18.1092409
51
49.7180913
0
ARC
8
DEFAULT_255_1_234
10
23.6387142
20
60.9560089
40
0.5292424
50
7.9672797
51
18.6984571
0
ARC
8
DEFAULT_255_1_234
10
23.653762
20
60.9683504
40
0.3600838
50
9.7557294
51
27.3215714
0
ARC
8
DEFAULT_255_1_234
10
23.7665092
20
61.0246912
40
0.2340608
50
27.7361077
51
84.5257964
0
ARC
8
DEFAULT_255_1_234
10
23.7337479
20
60.860364
40
0.4011215
50
82.106034
51
90.2001166
0
ARC
8
DEFAULT_255_1_234
10
23.7287696
20
60.9111215
40
0.3503799
50
89.4150119
51
105.5823402
0
ARC
8
DEFAULT_255_1_234
10
23.7030694
20
61.0046867
40
0.2533503
50
105.6678618
51
144.2648758
0
ARC
8
DEFAULT_255_1_234
10
23.7923949
20
60.9411289
40
0.3629787
50
144.3561283
51
162.8564086
0
ARC
8
DEFAULT_255_1_234
10
24.0007858
20
60.8742017
40
0.5818441
50
162.6076014
51
173.6780284
0
ARC
8
DEFAULT_255_1_234
10
24.3069002
20
60.836989
40
0.8902007
50
173.4670142
51
179.9730753
0
ARC
8
DEFAULT_255_1_234
10
24.1160673
20
60.737626
40
0.6993804
50
179.6556203
51
190.0080463
0
ARC
8
DEFAULT_255_1_234
10
23.8844502
20
60.6951375
40
0.4639066
50
189.8116607
51
206.6796816
0
ARC
8
DEFAULT_255_1_234
10
23.7999654
20
60.6557503
40
0.3707421
50
207.1031645
51
217.7074368
0
ARC
8
DEFAULT_255_1_234
10
23.7365343
20
60.6005559
40
0.2868417
50
216.7345547
51
265.6812148
0
ARC
8
DEFAULT_255_1_234
10
23.7496134
20
60.6909855
40
0.3780509
50
264.7366618
51
270.0611241
0
ARC
8
DEFAULT_255_1_234
10
23.7519397
20
60.9750111
40
0.662079
50
269.8335834
51
276.0539546
0
ARC
8
DEFAULT_255_1_234
10
23.7726402
20
60.784856
40
0.4708016
50
275.9894168
51
284.4615085
0
ARC
8
DEFAULT_255_1_234
10
23.7924409
20
60.7015663
40
0.3852094
50
284.7034461
51
286.4953897
0
ARC
8
DEFAULT_255_1_234
10
23.8331422
20
60.5704965
40
0.2479842
50
286.0770838
51
304.2625829
0
ARC
8
DEFAULT_255_1_234
10
23.8464836
20
60.5486594
40
0.2224291
50
304.5891602
51
317.1073298
0
ENDSEC
0
EOF