0
SECTION
2
HEADER
9
$MEASUREMENT
70
1
0
ENDSEC
0
SECTION
2
TABLES
0
TABLE
2
LTYPE
0
LTYPE
72
65
70
64
2
CONTINUOUS
3
______
73
0
40
0
0
ENDTAB
0
TABLE
2
LAYER
0
LAYER
2
DEFAULT_255_2_778
70
0
62
255
6
CONTINUOUS
0
ENDTAB
0
ENDSEC
0
SECTION
2
ENTITIES
0
ARC
8
DEFAULT_255_2_778
10
1.1225477
20
67.3171518
40
0.8892689
50
90.4468058
51
109.465189
0
ARC
8
DEFAULT_255_2_778
10
1.0065576
20
67.6265885
40
0.5589012
50
108.8248932
51
137.149039
0
ARC
8
DEFAULT_255_2_778
10
1.0057142
20
85.3851448
40
0.5571584
50
222.7852616
51
251.2056395
0
ARC
8
DEFAULT_255_2_778
10
1.1225476
20
85.6961348
40
0.8892682
50
250.5348017
51
269.5531973
0
ARC
8
DEFAULT_255_2_778
10
0.71561
20
87.9564905
40
0.5000969
50
179.9996485
51
270.0003515
0
ARC
8
DEFAULT_255_2_778
10
14.2169758
20
86.4602322
40
0.9961622
50
48.3471832
51
90.0726289
0
ARC
8
DEFAULT_255_2_778
10
14.2178374
20
86.4574786
40
0.9976499
50
1.7289608
51
48.4892607
0
ARC
8
DEFAULT_255_2_778
10
14.1967545
20
86.4563163
40
1.0187584
50
359.9987247
51
1.7585257
0
ARC
8
DEFAULT_255_2_778
10
14.2191487
20
67.0050267
40
0.9963651
50
318.3571295
51
0.0728495
0
ARC
8
DEFAULT_255_2_778
10
14.2166591
20
67.0038937
40
0.9974759
50
271.7423445
51
318.5007883
0
ARC
8
DEFAULT_255_2_778
10
14.2155541
20
67.0243841
40
1.0179904
50
270.0089477
51
271.7694473
0
ARC
8
DEFAULT_255_2_778
10
0.5156224
20
65.7062842
40
0.3001094
50
90.0208901
51
179.9791099
0
ARC
8
DEFAULT_255_2_778
10
1.1301542
20
85.3064867
40
0.5001029
50
269.9961272
51
323.1256099
0
ARC
8
DEFAULT_255_2_778
10
1.1301261
20
85.3084609
40
0.5020772
50
268.3435784
51
269.9993556
0
ARC
8
DEFAULT_255_2_778
10
1.1295687
20
85.1295645
40
0.3232723
50
234.2535016
51
267.5257626
0
ARC
8
DEFAULT_255_2_778
10
1.1655332
20
85.1656496
40
0.3736577
50
205.2271697
51
233.0101173
0
ARC
8
DEFAULT_255_2_778
10
1.1655332
20
67.8471376
40
0.3736577
50
126.9898827
51
154.7728303
0
ARC
8
DEFAULT_255_2_778
10
1.1293829
20
67.8832257
40
0.3231613
50
92.4421068
51
125.7200784
0
ARC
8
DEFAULT_255_2_778
10
1.1304179
20
67.7048683
40
0.5014439
50
90.0007356
51
91.6918721
0
ARC
8
DEFAULT_255_2_778
10
1.1303957
20
67.7065555
40
0.4997567
50
36.8676168
51
89.9981955
0
ARC
8
DEFAULT_255_2_778
10
0.7155036
20
66.306803
40
0.3001094
50
270.0208901
51
359.9791099
0
LINE
8
DEFAULT_255_2_778
10
0.615513
20
85.0063936
11
0.615513
21
86.0064936
0
LINE
8
DEFAULT_255_2_778
10
0.715613
20
86.5065936
11
0.215513
21
86.0064936
0
LINE
8
DEFAULT_255_2_778
10
0.215513
20
86.0064936
11
1.015613
21
86.0064936
0
LINE
8
DEFAULT_255_2_778
10
0.215513
20
85.0063936
11
1.015613
21
85.0063936
0
LINE
8
DEFAULT_255_2_778
10
0.615513
20
66.0063936
11
0.615513
21
68.0063936
0
LINE
8
DEFAULT_255_2_778
10
0.215513
20
68.0063936
11
1.015613
21
68.0063936
0
LINE
8
DEFAULT_255_2_778
10
0.615513
20
77.0064936
11
0.615513
21
76.0065936
0
LINE
8
DEFAULT_255_2_778
10
1.015613
20
77.0064936
11
1.015613
21
76.0065936
0
LINE
8
DEFAULT_255_2_778
10
0.715613
20
87.4563936
11
14.215713
21
87.4563936
0
LINE
8
DEFAULT_255_2_778
10
15.215513
20
86.4562936
11
15.215513
21
67.0062936
0
LINE
8
DEFAULT_255_2_778
10
14.215713
20
66.0063936
11
0.515513
21
66.0063936
0
LINE
8
DEFAULT_255_2_778
10
0.215513
20
77.0064936
11
14.215413
21
77.0064936
0
LINE
8
DEFAULT_255_2_778
10
14.215413
20
77.0064936
11
14.215413
21
85.0063936
0
LINE
8
DEFAULT_255_2_778
10
14.215413
20
85.0063936
11
1.530213
21
85.0063936
0
LINE
8
DEFAULT_255_2_778
10
1.530213
20
68.0063936
11
14.215713
21
68.0063936
0
LINE
8
DEFAULT_255_2_778
10
14.215713
20
68.0063936
11
14.215713
21
76.0065936
0
LINE
8
DEFAULT_255_2_778
10
14.215713
20
76.0065936
11
0.215513
21
76.0065936
0
LINE
8
DEFAULT_255_2_778
10
1.015613
20
68.1844936
11
1.015613
21
66.3066936
0
LINE
8
DEFAULT_255_2_778
10
1.515713
20
86.5065936
11
1.015613
21
86.0064936
0
LINE
8
DEFAULT_255_2_778
10
1.015613
20
86.0064936
11
1.015613
21
84.8285936
0
LINE
8
DEFAULT_255_2_778
10
38.115513
20
82.3062936
11
36.215513
21
82.3062936
0
LINE
8
DEFAULT_255_2_778
10
36.215513
20
82.3062936
11
36.215513
21
80.4063936
0
LINE
8
DEFAULT_255_2_778
10
36.215513
20
80.4063936
11
38.115513
21
80.4063936
0
LINE
8
DEFAULT_255_2_778
10
38.115513
20
80.4063936
11
38.115513
21
82.3062936
0
LINE
8
DEFAULT_255_2_778
10
38.115513
20
9.1063936
11
36.215513
21
9.1063936
0
LINE
8
DEFAULT_255_2_778
10
36.215513
20
9.1063936
11
36.215513
21
7.2064936
0
LINE
8
DEFAULT_255_2_778
10
36.215513
20
7.2064936
11
38.115513
21
7.2064936
0
LINE
8
DEFAULT_255_2_778
10
38.115513
20
7.2064936
11
38.115513
21
9.1063936
0
LINE
8
DEFAULT_255_2_778
10
17.465513
20
1.7565936
11
16.965513
21
1.2564936
0
LINE
8
DEFAULT_255_2_778
10
23.965613
20
7.5561936
11
24.465613
21
8.0562936
0
LINE
8
DEFAULT_255_2_778
10
23.965613
20
5.7564936
11
17.465513
21
5.7564936
0
LINE
8
DEFAULT_255_2_778
10
17.465513
20
4.2563936
11
23.965613
21
4.2563936
0
LINE
8
DEFAULT_255_2_778
10
17.465513
20
2.9564936
11
23.965613
21
2.9564936
0
LINE
8
DEFAULT_255_2_778
10
17.4656282
20
7.556128
11
23.9656282
21
7.556128
0
LINE
8
DEFAULT_255_2_778
10
23.9656282
20
7.556128
11
23.9656282
21
1.756228
0
LINE
8
DEFAULT_255_2_778
10
23.9656282
20
1.756228
11
24.4656282
21
1.256128
0
LINE
8
DEFAULT_255_2_778
10
24.4656282
20
1.256128
11
24.4656282
21
8.056228
0
LINE
8
DEFAULT_255_2_778
10
24.4656282
20
8.056228
11
16.9655282
21
8.056228
0
ARC
8
DEFAULT_255_2_778
10
17.0150425
20
84.7569957
40
1.0005985
50
296.7706417
51
328.1878758
0
ARC
8
DEFAULT_255_2_778
10
16.6153203
20
84.2564364
40
1.2500118
50
312.9064289
51
0.0049607
0
ARC
8
DEFAULT_255_2_778
10
16.6149353
20
84.2565851
40
1.2503969
50
359.9981463
51
47.0858827
0
ARC
8
DEFAULT_255_2_778
10
44.46487
20
81.5045089
40
0.8978669
50
269.9948906
51
270.1379765
0
ARC
8
DEFAULT_255_2_778
10
44.4646992
20
81.5599101
40
0.9532681
50
254.8105579
51
270.0054499
0
ARC
8
DEFAULT_255_2_778
10
44.9315405
20
81.2929309
40
0.7921768
50
114.4387953
51
155.7379592
0
ARC
8
DEFAULT_255_2_778
10
45.0170518
20
81.1343468
40
0.9720072
50
89.7476872
51
115.1603235
0
ARC
8
DEFAULT_255_2_778
10
45.3154183
20
81.1411414
40
0.9652183
50
62.0409059
51
90.3197263
0
ARC
8
DEFAULT_255_2_778
10
45.4068643
20
81.2983138
40
0.7835489
50
24.1147322
51
62.5588962
0
ARC
8
DEFAULT_255_2_778
10
45.4080469
20
81.410947
40
0.7844339
50
293.8864765
51
335.5318637
0
ARC
8
DEFAULT_255_2_778
10
45.3256088
20
81.5660754
40
0.959739
50
269.7625988
51
294.6364294
0
ARC
8
DEFAULT_255_2_778
10
44.9812809
20
81.5308609
40
0.9245318
50
241.2452244
51
270.3316351
0
ARC
8
DEFAULT_255_2_778
10
44.8922906
20
81.3810613
40
0.7504183
50
204.5355209
51
241.6998056
0
ARC
8
DEFAULT_255_2_778
10
45.8433953
20
81.5821498
40
0.9755074
50
269.9963009
51
286.2354179
0
ARC
8
DEFAULT_255_2_778
10
45.8434373
20
81.7092082
40
1.1025658
50
269.8854079
51
269.9945425
0
ARC
8
DEFAULT_255_2_778
10
45.8355548
20
81.1310385
40
0.9751244
50
73.2407872
51
85.2718689
0
ARC
8
DEFAULT_255_2_778
10
45.3982951
20
8.2208855
40
0.7939926
50
293.9233173
51
335.7157149
0
ARC
8
DEFAULT_255_2_778
10
45.3138926
20
8.379794
40
0.9735584
50
269.7551515
51
294.6714582
0
ARC
8
DEFAULT_255_2_778
10
45.0157134
20
8.3711992
40
0.9649692
50
241.90468
51
270.3158059
0
ARC
8
DEFAULT_255_2_778
10
44.9239316
20
8.2144008
40
0.7834559
50
204.1117957
51
242.4256885
0
ARC
8
DEFAULT_255_2_778
10
44.9128844
20
8.1125903
40
0.7740069
50
113.4477824
51
155.4529008
0
ARC
8
DEFAULT_255_2_778
10
44.9940602
20
7.9572243
40
0.9489286
50
89.7601713
51
114.2116278
0
ARC
8
DEFAULT_255_2_778
10
45.3153509
20
7.9411901
40
0.9649692
50
61.90468
51
90.3158059
0
ARC
8
DEFAULT_255_2_778
10
45.4071327
20
8.0979885
40
0.7834559
50
24.1117957
51
62.4256885
0
ARC
8
DEFAULT_255_2_778
10
45.834301
20
8.3883612
40
0.981816
50
274.7692505
51
286.7180355
0
ARC
8
DEFAULT_255_2_778
10
44.4770916
20
7.9416813
40
0.9647651
50
89.8906904
51
105.7674715
0
LINE
8
DEFAULT_255_2_778
10
45.8299322
20
8.9064446
11
45.8309641
21
8.9064452
0
ARC
8
DEFAULT_255_2_778
10
45.831398
20
7.9137326
40
0.9927126
50
73.3139902
51
90.025041
0
LINE
8
DEFAULT_255_2_778
10
24.4656322
20
1.2565446
11
16.9654322
21
1.2565446
0
LINE
8
DEFAULT_255_2_778
10
16.9654322
20
1.2565446
11
16.9654322
21
8.0565446
0
LINE
8
DEFAULT_255_2_778
10
16.9654322
20
8.0565446
11
17.4655322
21
7.5565446
0
LINE
8
DEFAULT_255_2_778
10
17.4655322
20
7.5565446
11
17.4655322
21
1.7565446
0
LINE
8
DEFAULT_255_2_778
10
17.4655322
20
1.7565446
11
23.9655322
21
1.7565446
0
LINE
8
DEFAULT_255_2_778
10
77.0155322
20
85.8565446
11
77.2155322
21
85.8565446
0
LINE
8
DEFAULT_255_2_778
10
77.2155322
20
83.8565446
11
77.0155322
21
83.8565446
0
LINE
8
DEFAULT_255_2_778
10
77.2155322
20
83.4564446
11
77.0155322
21
83.4564446
0
LINE
8
DEFAULT_255_2_778
10
16.9654322
20
80.9564446
11
24.9654322
21
80.9564446
0
LINE
8
DEFAULT_255_2_778
10
24.9654322
20
80.9564446
11
24.4653322
21
81.4564446
0
LINE
8
DEFAULT_255_2_778
10
24.4653322
20
81.4564446
11
24.4653322
21
87.7564446
0
LINE
8
DEFAULT_255_2_778
10
24.4653322
20
87.7564446
11
24.9654322
21
88.2565446
0
LINE
8
DEFAULT_255_2_778
10
24.9654322
20
88.2565446
11
24.9654322
21
80.9564446
0
LINE
8
DEFAULT_255_2_778
10
24.4653322
20
81.4564446
11
17.4655322
21
81.4564446
0
LINE
8
DEFAULT_255_2_778
10
17.7597322
20
84.7566446
11
17.4655322
21
84.7566446
0
LINE
8
DEFAULT_255_2_778
10
24.4656322
20
87.7564446
11
17.4655322
21
87.7564446
0
LINE
8
DEFAULT_255_2_778
10
17.4655322
20
87.7564446
11
16.9654322
21
88.2565446
0
LINE
8
DEFAULT_255_2_778
10
16.9654322
20
88.2565446
11
16.9654322
21
80.9564446
0
LINE
8
DEFAULT_255_2_778
10
16.9654322
20
80.9564446
11
17.4655322
21
81.4564446
0
LINE
8
DEFAULT_255_2_778
10
17.4655322
20
81.4564446
11
17.4655322
21
87.7564446
0
LINE
8
DEFAULT_255_2_778
10
45.1655322
20
81.3564446
11
45.1655322
21
80.6066446
0
LINE
8
DEFAULT_255_2_778
10
45.1655322
20
80.6066446
11
44.4670322
21
80.6066446
0
LINE
8
DEFAULT_255_2_778
10
44.4670322
20
80.6066446
11
44.4670322
21
80.6066446
0
LINE
8
DEFAULT_255_2_778
10
44.2156322
20
85.2564446
11
46.1156322
21
85.2564446
0
LINE
8
DEFAULT_255_2_778
10
46.1156322
20
85.2564446
11
46.1156322
21
80.4063446
0
LINE
8
DEFAULT_255_2_778
10
46.1156322
20
80.4063446
11
44.2156322
21
80.4063446
0
LINE
8
DEFAULT_255_2_778
10
44.2156322
20
80.4063446
11
44.2156322
21
85.2564446
0
LINE
8
DEFAULT_255_2_778
10
45.0213322
20
82.1063446
11
45.3100322
21
82.1063446
0
LINE
8
DEFAULT_255_2_778
10
44.9866322
20
80.6063446
11
44.9866322
21
80.6063446
0
LINE
8
DEFAULT_255_2_778
10
46.1156322
20
84.7566446
11
45.9156322
21
84.7566446
0
LINE
8
DEFAULT_255_2_778
10
45.8412322
20
80.6066446
11
45.1732322
21
80.6066446
0
LINE
8
DEFAULT_255_2_778
10
45.9159322
20
85.2567446
11
45.9159322
21
82.1028446
0
LINE
8
DEFAULT_255_2_778
10
65.9655322
20
88.2565446
11
58.4656322
21
88.2565446
0
LINE
8
DEFAULT_255_2_778
10
58.4656322
20
88.2565446
11
58.9656322
21
87.7564446
0
LINE
8
DEFAULT_255_2_778
10
58.9656322
20
87.7564446
11
58.9656322
21
81.9565446
0
LINE
8
DEFAULT_255_2_778
10
58.9656322
20
81.9565446
11
58.4656322
21
81.4564446
0
LINE
8
DEFAULT_255_2_778
10
58.4656322
20
81.4564446
11
58.4656322
21
88.2565446
0
LINE
8
DEFAULT_255_2_778
10
58.4656322
20
81.4564446
11
65.9655322
21
81.4564446
0
LINE
8
DEFAULT_255_2_778
10
65.9655322
20
81.4564446
11
65.4654322
21
81.9565446
0
LINE
8
DEFAULT_255_2_778
10
65.4654322
20
81.9565446
11
65.4654322
21
87.7564446
0
LINE
8
DEFAULT_255_2_778
10
65.4654322
20
87.7564446
11
65.9655322
21
88.2565446
0
LINE
8
DEFAULT_255_2_778
10
65.9655322
20
88.2565446
11
65.9655322
21
81.4564446
0
LINE
8
DEFAULT_255_2_778
10
65.4654322
20
81.9565446
11
58.9654322
21
81.9565446
0
LINE
8
DEFAULT_255_2_778
10
76.8155322
20
79.4065446
11
74.1154322
21
79.4065446
0
LINE
8
DEFAULT_255_2_778
10
74.1154322
20
79.4065446
11
74.1154322
21
74.4064446
0
LINE
8
DEFAULT_255_2_778
10
74.1154322
20
74.4064446
11
76.8155322
21
74.4064446
0
LINE
8
DEFAULT_255_2_778
10
76.8155322
20
74.4064446
11
76.8155322
21
79.4065446
0
LINE
8
DEFAULT_255_2_778
10
76.5258322
20
74.9064446
11
74.2154322
21
74.9064446
0
LINE
8
DEFAULT_255_2_778
10
74.2154322
20
74.9064446
11
74.2154322
21
78.9064446
0
LINE
8
DEFAULT_255_2_778
10
74.2154322
20
78.9064446
11
76.5258322
21
78.9064446
0
LINE
8
DEFAULT_255_2_778
10
74.7155322
20
74.9064446
11
74.7155322
21
78.9064446
0
LINE
8
DEFAULT_255_2_778
10
76.5258322
20
75.9065446
11
75.2156322
21
75.9065446
0
LINE
8
DEFAULT_255_2_778
10
75.2156322
20
75.9065446
11
75.2156322
21
77.9065446
0
LINE
8
DEFAULT_255_2_778
10
75.2156322
20
77.9065446
11
76.5258322
21
77.9065446
0
LINE
8
DEFAULT_255_2_778
10
76.5258322
20
74.4066446
11
76.5258322
21
79.4065446
0
LINE
8
DEFAULT_255_2_778
10
76.5258322
20
16.0562446
11
76.5258322
21
13.8062446
0
LINE
8
DEFAULT_255_2_778
10
76.5258322
20
13.8062446
11
75.2156322
21
13.8062446
0
LINE
8
DEFAULT_255_2_778
10
75.2156322
20
13.8062446
11
75.2156322
21
16.0562446
0
LINE
8
DEFAULT_255_2_778
10
75.2156322
20
16.0562446
11
76.5258322
21
16.0562446
0
LINE
8
DEFAULT_255_2_778
10
76.5258322
20
19.3063446
11
75.2156322
21
19.3063446
0
LINE
8
DEFAULT_255_2_778
10
75.2156322
20
19.3063446
11
75.2156322
21
17.0563446
0
LINE
8
DEFAULT_255_2_778
10
75.2156322
20
17.0563446
11
76.5258322
21
17.0563446
0
LINE
8
DEFAULT_255_2_778
10
76.5258322
20
17.0563446
11
76.5258322
21
19.3063446
0
LINE
8
DEFAULT_255_2_778
10
76.8155322
20
20.8063446
11
74.1154322
21
20.8063446
0
LINE
8
DEFAULT_255_2_778
10
74.1154322
20
20.8063446
11
74.1154322
21
12.3063446
0
LINE
8
DEFAULT_255_2_778
10
74.1154322
20
12.3063446
11
76.8155322
21
12.3063446
0
LINE
8
DEFAULT_255_2_778
10
76.8155322
20
12.3063446
11
76.8155322
21
20.8063446
0
LINE
8
DEFAULT_255_2_778
10
76.5258322
20
12.3063446
11
76.5258322
21
12.8063446
0
LINE
8
DEFAULT_255_2_778
10
76.5258322
20
12.8063446
11
74.2154322
21
12.8063446
0
LINE
8
DEFAULT_255_2_778
10
74.2154322
20
12.8063446
11
74.2154322
21
20.3062446
0
LINE
8
DEFAULT_255_2_778
10
74.2154322
20
20.3062446
11
76.5258322
21
20.3062446
0
LINE
8
DEFAULT_255_2_778
10
76.5258322
20
20.3062446
11
76.5258322
21
20.8063446
0
LINE
8
DEFAULT_255_2_778
10
74.7155322
20
12.8063446
11
74.7155322
21
20.3062446
0
LINE
8
DEFAULT_255_2_778
10
65.4657322
20
1.7563446
11
58.9656322
21
1.7563446
0
LINE
8
DEFAULT_255_2_778
10
58.9656322
20
1.7563446
11
58.9656322
21
7.5562446
0
LINE
8
DEFAULT_255_2_778
10
58.9656322
20
7.5562446
11
58.4656322
21
8.0563446
0
LINE
8
DEFAULT_255_2_778
10
58.4656322
20
8.0563446
11
58.4656322
21
1.2562446
0
LINE
8
DEFAULT_255_2_778
10
58.4656322
20
1.2562446
11
65.9655322
21
1.2562446
0
LINE
8
DEFAULT_255_2_778
10
58.9654322
20
7.5562446
11
65.4654322
21
7.5562446
0
LINE
8
DEFAULT_255_2_778
10
65.4654322
20
7.5562446
11
65.4654322
21
1.7563446
0
LINE
8
DEFAULT_255_2_778
10
65.4654322
20
1.7563446
11
65.9655322
21
1.2562446
0
LINE
8
DEFAULT_255_2_778
10
65.9655322
20
1.2562446
11
65.9655322
21
8.0563446
0
LINE
8
DEFAULT_255_2_778
10
65.9655322
20
8.0563446
11
58.4656322
21
8.0563446
0
LINE
8
DEFAULT_255_2_778
10
65.4657322
20
2.2563446
11
58.9656322
21
2.2563446
0
LINE
8
DEFAULT_255_2_778
10
65.4657322
20
7.5562446
11
65.9657322
21
8.0563446
0
LINE
8
DEFAULT_255_2_778
10
58.9656322
20
1.7563446
11
58.4656322
21
1.2562446
0
LINE
8
DEFAULT_255_2_778
10
45.1655322
20
8.1563446
11
45.1655322
21
8.9061446
0
LINE
8
DEFAULT_255_2_778
10
44.2154322
20
9.1061446
11
46.1154322
21
9.1061446
0
LINE
8
DEFAULT_255_2_778
10
46.1154322
20
9.1061446
11
46.1154322
21
4.2561446
0
LINE
8
DEFAULT_255_2_778
10
46.1154322
20
4.2561446
11
44.2154322
21
4.2561446
0
LINE
8
DEFAULT_255_2_778
10
44.2154322
20
4.2561446
11
44.2154322
21
9.1061446
0
LINE
8
DEFAULT_255_2_778
10
45.3097322
20
7.4062446
11
45.0210322
21
7.4062446
0
LINE
8
DEFAULT_255_2_778
10
45.0210322
20
7.4062446
11
45.0210322
21
7.4062446
0
LINE
8
DEFAULT_255_2_778
10
45.9159322
20
7.4099446
11
45.9159322
21
4.2563446
0
LINE
8
DEFAULT_255_2_778
10
44.4789322
20
8.9064446
11
45.8299322
21
8.9064446
0
LINE
8
DEFAULT_255_2_778
10
46.1159322
20
5.7562446
11
45.9159322
21
5.7562446
0
LINE
8
DEFAULT_255_2_778
10
11.0152322
20
15.3813446
11
11.5153322
21
15.3813446
0
LINE
8
DEFAULT_255_2_778
10
11.5153322
20
15.3813446
11
11.5153322
21
15.6313446
0
LINE
8
DEFAULT_255_2_778
10
11.5153322
20
15.6313446
11
11.0152322
21
15.6313446
0
LINE
8
DEFAULT_255_2_778
10
12.1653322
20
11.6562446
11
12.1653322
21
16.1562446
0
LINE
8
DEFAULT_255_2_778
10
12.1653322
20
44.3563446
11
12.1653322
21
46.4563446
0
ARC
8
DEFAULT_255_2_778
10
25.6153627
20
45.4557426
40
1.0005153
50
45.0116676
51
89.992721
0
ARC
8
DEFAULT_255_2_778
10
25.6154948
20
45.4562049
40
1.000095
50
359.9973023
51
44.9982952
0
ARC
8
DEFAULT_255_2_778
10
25.6192336
20
12.6548133
40
0.9963573
50
318.3578711
51
0.0830675
0
ARC
8
DEFAULT_255_2_778
10
25.6166641
20
12.6537715
40
0.9975883
50
271.730003
51
318.5006483
0
ARC
8
DEFAULT_255_2_778
10
25.6154997
20
12.6752586
40
1.0191008
50
269.999446
51
271.7589697
0
ARC
8
DEFAULT_255_2_778
10
8.9140708
20
12.6524794
40
0.9963226
50
228.3541388
51
270.0816049
0
ARC
8
DEFAULT_255_2_778
10
8.9130513
20
12.6551415
40
0.9976376
50
181.732932
51
228.4994886
0
ARC
8
DEFAULT_255_2_778
10
8.934149
20
12.6562482
40
1.0187592
50
179.9994554
51
181.7592612
0
ARC
8
DEFAULT_255_2_778
10
8.9159049
20
45.4560309
40
1.000515
50
135.0116647
51
179.9927292
0
ARC
8
DEFAULT_255_2_778
10
8.9156168
20
45.4557428
40
1.0005151
50
90.0072708
51
134.9883353
0
LINE
8
DEFAULT_255_2_778
10
26.6155898
20
45.4561578
11
26.6155898
21
12.6562578
0
LINE
8
DEFAULT_255_2_778
10
25.6154898
20
11.6561578
11
8.9154898
21
11.6561578
0
LINE
8
DEFAULT_255_2_778
10
7.9153898
20
12.6562578
11
7.9153898
21
45.4561578
0
LINE
8
DEFAULT_255_2_778
10
8.9154898
20
46.4562578
11
25.6154898
21
46.4562578
0
LINE
8
DEFAULT_255_2_778
10
8.0001042
20
12.2562578
11
9.4154042
21
12.2562578
0
LINE
8
DEFAULT_255_2_778
10
11.0153042
20
46.4562578
11
11.0153042
21
11.6561578
0
LINE
8
DEFAULT_255_2_778
10
9.4153605
20
46.4562578
11
9.4153605
21
11.6561578
0
LINE
8
DEFAULT_255_2_778
10
11.0152605
20
45.7812578
11
11.5153605
21
45.7812578
0
LINE
8
DEFAULT_255_2_778
10
11.5153605
20
45.7812578
11
11.5153605
21
46.0313578
0
LINE
8
DEFAULT_255_2_778
10
11.5153605
20
46.0313578
11
11.0152605
21
46.0313578
0
LINE
8
DEFAULT_255_2_778
10
11.0152605
20
44.9811578
11
11.5153605
21
44.9811578
0
LINE
8
DEFAULT_255_2_778
10
11.5153605
20
44.9811578
11
11.5153605
21
45.2312578
0
LINE
8
DEFAULT_255_2_778
10
11.5153605
20
45.2312578
11
11.0152605
21
45.2312578
0
LINE
8
DEFAULT_255_2_778
10
11.5153605
20
44.3559578
11
11.5153605
21
44.4311578
0
LINE
8
DEFAULT_255_2_778
10
11.5153605
20
44.4311578
11
11.0152605
21
44.4311578
0
LINE
8
DEFAULT_255_2_778
10
11.0155605
20
44.3562578
11
18.5154605
21
44.3562578
0
LINE
8
DEFAULT_255_2_778
10
18.5154605
20
44.3562578
11
18.5154605
21
16.1561578
0
LINE
8
DEFAULT_255_2_778
10
18.5154605
20
16.1561578
11
11.0155605
21
16.1561578
0
ARC
8
DEFAULT_255_2_778
10
8.9158236
20
15.3007689
40
0.2444387
50
269.8682671
51
0.1317164
0
ARC
8
DEFAULT_255_2_778
10
8.9157598
20
15.3018291
40
0.2445023
50
359.8832371
51
90.1167581
0
ARC
8
DEFAULT_255_2_778
10
8.9146996
20
15.3018929
40
0.2444386
50
89.8682754
51
180.1317528
0
ARC
8
DEFAULT_255_2_778
10
8.9146359
20
15.3007051
40
0.2443751
50
179.8532922
51
270.1467078
0
LINE
8
DEFAULT_255_2_778
10
17.5152616
20
43.3561309
11
12.0153616
21
43.3561309
0
LINE
8
DEFAULT_255_2_778
10
12.0153616
20
43.3561309
11
12.0153616
21
17.1560309
0
LINE
8
DEFAULT_255_2_778
10
12.0153616
20
17.1560309
11
17.5152616
21
17.1560309
0
LINE
8
DEFAULT_255_2_778
10
17.5152616
20
17.1560309
11
17.5152616
21
43.3561309
0
LINE
8
DEFAULT_255_2_778
10
8.6850616
20
15.6820309
11
9.0284616
21
15.8897309
0
LINE
8
DEFAULT_255_2_778
10
9.0284616
20
14.7128309
11
8.6850616
21
14.9205309
0
LINE
8
DEFAULT_255_2_778
10
9.4152616
20
25.7563309
11
7.9153616
21
25.7563309
0
LINE
8
DEFAULT_255_2_778
10
9.4152616
20
24.7562309
11
7.9153616
21
24.7562309
0
LINE
8
DEFAULT_255_2_778
10
9.4152616
20
20.7562309
11
7.9153616
21
20.7562309
0
LINE
8
DEFAULT_255_2_778
10
9.4152616
20
19.7563309
11
7.9153616
21
19.7563309
0
LINE
8
DEFAULT_255_2_778
10
9.4152616
20
35.7562309
11
7.9153616
21
35.7562309
0
LINE
8
DEFAULT_255_2_778
10
9.4152616
20
34.7563309
11
7.9153616
21
34.7563309
0
LINE
8
DEFAULT_255_2_778
10
9.4152616
20
30.7561309
11
7.9153616
21
30.7561309
0
LINE
8
DEFAULT_255_2_778
10
9.4152616
20
29.7563309
11
7.9153616
21
29.7563309
0
LINE
8
DEFAULT_255_2_778
10
9.4152616
20
40.7563309
11
7.9153616
21
40.7563309
0
LINE
8
DEFAULT_255_2_778
10
9.4152616
20
39.7562309
11
7.9153616
21
39.7562309
0
LINE
8
DEFAULT_255_2_778
10
8.9152616
20
15.0563309
11
8.9152616
21
15.0563309
0
ARC
8
DEFAULT_255_2_778
10
8.9154428
20
15.3013572
40
0.4451281
50
270.0036164
51
359.9963836
0
ARC
8
DEFAULT_255_2_778
10
8.9154639
20
15.3012223
40
0.4451069
50
0.0137556
51
89.9991093
0
ARC
8
DEFAULT_255_2_778
10
8.9155565
20
15.3012434
40
0.4450857
50
90.011031
51
179.9889663
0
ARC
8
DEFAULT_255_2_778
10
8.9155777
20
15.301336
40
0.4451068
50
180.0008797
51
269.986249
0
LINE
8
DEFAULT_255_2_778
10
8.9154708
20
14.8562292
11
8.9154708
21
14.8562292
0
ARC
8
DEFAULT_255_2_778
10
8.9144827
20
15.301069
40
0.6009703
50
33.4574475
51
89.9884595
0
ARC
8
DEFAULT_255_2_778
10
8.9145994
20
15.3037901
40
0.5982492
50
89.9995812
51
96.6090512
0
ARC
8
DEFAULT_255_2_778
10
8.9150212
20
15.3008548
40
0.6012136
50
96.6167929
51
106.7384809
0
ARC
8
DEFAULT_255_2_778
10
8.9147599
20
15.3013223
40
0.6006905
50
106.7274506
51
179.9931199
0
ARC
8
DEFAULT_255_2_778
10
8.9145781
20
15.3013313
40
0.6005086
50
179.9939739
51
253.2854432
0
ARC
8
DEFAULT_255_2_778
10
8.9151074
20
15.3022118
40
0.6015043
50
253.2612806
51
263.3781573
0
ARC
8
DEFAULT_255_2_778
10
8.9146717
20
15.299195
40
0.5984572
50
263.3862866
51
270.000186
0
ARC
8
DEFAULT_255_2_778
10
8.914601
20
15.3014738
40
0.6007361
50
270.006927
51
326.5559117
0
ARC
8
DEFAULT_255_2_778
10
17.0643416
20
14.7571225
40
0.374073
50
89.8731881
51
180.1268303
0
ARC
8
DEFAULT_255_2_778
10
17.0660119
20
14.7570371
40
0.3741583
50
359.8862753
51
90.1290056
0
ARC
8
DEFAULT_255_2_778
10
17.0660119
20
14.7555518
40
0.3741583
50
269.8709944
51
0.1137247
0
ARC
8
DEFAULT_255_2_778
10
17.0643416
20
14.7554664
40
0.3740729
50
179.8731729
51
270.1268043
0
ARC
8
DEFAULT_255_2_778
10
17.0646255
20
14.7569382
40
0.2893567
50
89.8922768
51
180.1274838
0
ARC
8
DEFAULT_255_2_778
10
17.0657282
20
14.7568532
40
0.2894418
50
359.8893952
51
90.1106048
0
ARC
8
DEFAULT_255_2_778
10
17.0657282
20
14.7557357
40
0.2894418
50
269.8893952
51
0.1106048
0
ARC
8
DEFAULT_255_2_778
10
17.0646255
20
14.7556506
40
0.2893567
50
179.8725162
51
270.1077232
0
LINE
8
DEFAULT_255_2_778
10
15.3155695
20
30.7564944
11
14.3156695
21
30.7564944
0
LINE
8
DEFAULT_255_2_778
10
14.3156695
20
30.7564944
11
14.3156695
21
29.7565944
0
LINE
8
DEFAULT_255_2_778
10
14.3156695
20
29.7565944
11
15.3157695
21
29.7565944
0
LINE
8
DEFAULT_255_2_778
10
15.3157695
20
29.7565944
11
15.3155695
21
30.7564944
0
LINE
8
DEFAULT_255_2_778
10
15.3155695
20
25.7563944
11
14.3156695
21
25.7563944
0
LINE
8
DEFAULT_255_2_778
10
14.3156695
20
25.7563944
11
14.3156695
21
24.7562944
0
LINE
8
DEFAULT_255_2_778
10
14.3156695
20
24.7562944
11
15.3157695
21
24.7562944
0
LINE
8
DEFAULT_255_2_778
10
15.3157695
20
24.7562944
11
15.3155695
21
25.7563944
0
LINE
8
DEFAULT_255_2_778
10
15.3155695
20
40.7563944
11
14.3156695
21
40.7563944
0
LINE
8
DEFAULT_255_2_778
10
14.3156695
20
40.7563944
11
14.3156695
21
39.7564944
0
LINE
8
DEFAULT_255_2_778
10
14.3156695
20
39.7564944
11
15.3157695
21
39.7564944
0
LINE
8
DEFAULT_255_2_778
10
15.3157695
20
39.7564944
11
15.3155695
21
40.7563944
0
LINE
8
DEFAULT_255_2_778
10
15.3155695
20
35.7562944
11
14.3156695
21
35.7562944
0
LINE
8
DEFAULT_255_2_778
10
14.3156695
20
35.7562944
11
14.3156695
21
34.7561944
0
LINE
8
DEFAULT_255_2_778
10
14.3156695
20
34.7561944
11
15.3157695
21
34.7561944
0
LINE
8
DEFAULT_255_2_778
10
15.3157695
20
34.7561944
11
15.3155695
21
35.7562944
0
LINE
8
DEFAULT_255_2_778
10
15.3155695
20
20.7562944
11
14.3156695
21
20.7562944
0
LINE
8
DEFAULT_255_2_778
10
14.3156695
20
20.7562944
11
14.3156695
21
19.7563944
0
LINE
8
DEFAULT_255_2_778
10
14.3156695
20
19.7563944
11
15.3157695
21
19.7563944
0
LINE
8
DEFAULT_255_2_778
10
15.3157695
20
19.7563944
11
15.3155695
21
20.7562944
0
LINE
8
DEFAULT_255_2_778
10
16.6902695
20
14.7562944
11
16.6902695
21
14.7562944
0
LINE
8
DEFAULT_255_2_778
10
16.7752695
20
14.7562944
11
16.7752695
21
14.7562944
0
ARC
8
DEFAULT_255_2_778
10
93.2141991
20
25.9103584
40
0.9962099
50
89.9263615
51
131.6471197
0
ARC
8
DEFAULT_255_2_778
10
93.2134657
20
25.9075025
40
0.9978596
50
131.5066771
51
178.2516254
0
ARC
8
DEFAULT_255_2_778
10
93.233879
20
25.906327
40
1.0182996
50
178.2205569
51
179.9808408
0
ARC
8
DEFAULT_255_2_778
10
93.2142165
20
29.4030473
40
0.9962806
50
228.3467815
51
270.0726352
0
ARC
8
DEFAULT_255_2_778
10
93.2132614
20
29.4057354
40
0.9976575
50
181.7316695
51
228.4903679
0
ARC
8
DEFAULT_255_2_778
10
93.233977
20
29.4068448
40
1.0183973
50
179.9987254
51
181.7588425
0
ARC
8
DEFAULT_255_2_778
10
93.2143749
20
31.1104176
40
0.9965505
50
89.9364917
51
131.6516107
0
ARC
8
DEFAULT_255_2_778
10
93.2132756
20
31.1079449
40
0.9976706
50
131.5100637
51
178.2706393
0
ARC
8
DEFAULT_255_2_778
10
93.234338
20
31.1067902
40
1.0187584
50
178.2414743
51
180.0012753
0
ARC
8
DEFAULT_255_2_778
10
94.7153825
20
36.9064706
40
0.5000969
50
359.9996485
51
90.0003515
0
ARC
8
DEFAULT_255_2_778
10
94.7154037
20
1.9066432
40
0.5000758
50
269.9972237
51
359.991324
0
ARC
8
DEFAULT_255_2_778
10
93.2136912
20
16.9101518
40
0.9963166
50
89.9259163
51
131.6494466
0
ARC
8
DEFAULT_255_2_778
10
93.2127135
20
16.9075576
40
0.9976082
50
131.5084725
51
178.2712593
0
ARC
8
DEFAULT_255_2_778
10
93.233838
20
16.9063902
40
1.0187584
50
178.2414743
51
180.0012753
0
ARC
8
DEFAULT_255_2_778
10
93.2138749
20
20.4029174
40
0.9965505
50
228.3483893
51
270.0635083
0
ARC
8
DEFAULT_255_2_778
10
93.2127756
20
20.4053901
40
0.9976706
50
181.7293607
51
228.4899363
0
ARC
8
DEFAULT_255_2_778
10
93.233838
20
20.4065448
40
1.0187584
50
179.9987247
51
181.7585257
0
ARC
8
DEFAULT_255_2_778
10
93.2137165
20
7.9103877
40
0.9962806
50
89.9273648
51
131.6532185
0
ARC
8
DEFAULT_255_2_778
10
93.2127614
20
7.9076996
40
0.9976575
50
131.5096321
51
178.2683305
0
ARC
8
DEFAULT_255_2_778
10
93.233477
20
7.9065902
40
1.0183973
50
178.2411575
51
180.0012746
0
ARC
8
DEFAULT_255_2_778
10
93.2138749
20
11.4031174
40
0.9965505
50
228.3483893
51
270.0635083
0
ARC
8
DEFAULT_255_2_778
10
93.2127756
20
11.4055901
40
0.9976706
50
181.7293607
51
228.4899363
0
ARC
8
DEFAULT_255_2_778
10
93.233838
20
11.4067448
40
1.0187584
50
179.9987247
51
181.7585257
0
ARC
8
DEFAULT_255_2_778
10
92.2153211
20
33.4064997
40
0.7997322
50
269.9826916
51
337.9731684
0
ARC
8
DEFAULT_255_2_778
10
93.2096051
20
3.4072076
40
0.9945257
50
180.0253547
51
185.9179699
0
ARC
8
DEFAULT_255_2_778
10
94.6541858
20
36.7765045
40
0.630263
50
86.7296431
51
89.9914807
0
ARC
8
DEFAULT_255_2_778
10
94.6477461
20
36.7125619
40
0.6944742
50
68.5347884
51
86.5001731
0
ARC
8
DEFAULT_255_2_778
10
92.3151688
20
31.6071382
40
0.4998293
50
58.9759762
51
89.9758475
0
ARC
8
DEFAULT_255_2_778
10
92.7153911
20
31.5569559
40
0.5000116
50
90.0013268
51
180.0101312
0
ARC
8
DEFAULT_255_2_778
10
94.5887918
20
2.0420148
40
0.6542583
50
270.3317056
51
292.1794043
0
ARC
8
DEFAULT_255_2_778
10
71.7153697
20
80.9564773
40
0.4999902
50
89.9988754
51
180.0011189
0
ARC
8
DEFAULT_255_2_778
10
94.715404
20
40.056643
40
0.5000755
50
269.9971846
51
359.9913517
0
ARC
8
DEFAULT_255_2_778
10
71.7153911
20
8.5565791
40
0.5000116
50
179.9898688
51
269.9986732
0
ARC
8
DEFAULT_255_2_778
10
0.7155552
20
0.2564432
40
0.5000758
50
180.008676
51
270.0027763
0
ARC
8
DEFAULT_255_2_778
10
94.9654149
20
0.2564963
40
0.5001288
50
269.9959452
51
323.1227391
0
ARC
8
DEFAULT_255_2_778
10
94.9620572
20
0.4065781
40
0.5001943
50
284.5690659
51
323.7583923
0
ARC
8
DEFAULT_255_2_778
10
96.9156472
20
3.0701633
40
0.5000322
50
323.746893
51
0.0119452
0
ARC
8
DEFAULT_255_2_778
10
96.9154245
20
35.7428988
40
0.500255
50
359.9964146
51
36.2447576
0
ARC
8
DEFAULT_255_2_778
10
94.9616184
20
38.4058894
40
0.5008837
50
36.2642929
51
64.9522252
0
ARC
8
DEFAULT_255_2_778
10
3.6153915
20
62.6566116
40
0.2001439
50
269.9965653
51
329.9761519
0
ARC
8
DEFAULT_255_2_778
10
3.6148778
20
62.6570302
40
0.600563
50
270.0478643
51
349.9248119
0
ARC
8
DEFAULT_255_2_778
10
94.9646792
20
38.4560433
40
0.5006548
50
36.8743862
51
69.4917784
0
ARC
8
DEFAULT_255_2_778
10
94.7153825
20
0.2566644
40
0.5000969
50
269.9996485
51
0.0003515
0
ARC
8
DEFAULT_255_2_778
10
94.715404
20
38.656392
40
0.5000754
50
0.0086483
51
90.0028154
0
ARC
8
DEFAULT_255_2_778
10
94.7153825
20
89.0563706
40
0.5000969
50
359.9996485
51
90.0003515
0
ARC
8
DEFAULT_255_2_778
10
76.5151825
20
7.2561706
40
0.5000969
50
359.9996485
51
90.0003515
0
ARC
8
DEFAULT_255_2_778
10
76.5152679
20
82.2565791
40
0.5000116
50
269.9898688
51
359.9986732
0
ARC
8
DEFAULT_255_2_778
10
94.7150825
20
89.2563706
40
0.5000969
50
359.9996485
51
90.0003515
0
ARC
8
DEFAULT_255_2_778
10
0.7155764
20
89.2563706
40
0.5000969
50
89.9996485
51
180.0003515
0
LINE
8
DEFAULT_255_2_778
10
93.5154795
20
26.9065675
11
93.2154795
21
26.9065675
0
LINE
8
DEFAULT_255_2_778
10
93.5154795
20
28.4067675
11
93.2154795
21
28.4067675
0
LINE
8
DEFAULT_255_2_778
10
93.5154795
20
32.1069675
11
93.2154795
21
32.1069675
0
LINE
8
DEFAULT_255_2_778
10
93.5154795
20
33.1067675
11
92.2155795
21
33.1067675
0
LINE
8
DEFAULT_255_2_778
10
93.5154795
20
34.4566675
11
92.2155795
21
34.4566675
0
LINE
8
DEFAULT_255_2_778
10
93.5154795
20
35.2567675
11
92.2155795
21
35.2567675
0
LINE
8
DEFAULT_255_2_778
10
92.2155795
20
3.3067675
11
92.2155795
21
35.5065675
0
LINE
8
DEFAULT_255_2_778
10
93.5154795
20
35.5065675
11
93.5154795
21
3.3064675
0
LINE
8
DEFAULT_255_2_778
10
95.2154795
20
36.9064675
11
95.2154795
21
1.9065675
0
LINE
8
DEFAULT_255_2_778
10
92.2153795
20
1.2565675
11
92.2153795
21
1.3874675
0
LINE
8
DEFAULT_255_2_778
10
92.6153795
20
1.2565675
11
92.6153795
21
1.3874675
0
LINE
8
DEFAULT_255_2_778
10
93.8152795
20
1.2565675
11
93.8152795
21
1.3874675
0
LINE
8
DEFAULT_255_2_778
10
94.2152795
20
1.2565675
11
94.2152795
21
1.3874675
0
LINE
8
DEFAULT_255_2_778
10
92.2153795
20
37.5565675
11
92.2153795
21
37.4065675
0
LINE
8
DEFAULT_255_2_778
10
92.6153795
20
37.5565675
11
92.6153795
21
37.4065675
0
LINE
8
DEFAULT_255_2_778
10
93.8152795
20
37.5565675
11
93.8152795
21
37.4065675
0
LINE
8
DEFAULT_255_2_778
10
94.2152795
20
37.5565675
11
94.2152795
21
37.4065675
0
LINE
8
DEFAULT_255_2_778
10
93.5152795
20
17.9675675
11
92.4584795
21
18.2022675
0
LINE
8
DEFAULT_255_2_778
10
92.4584795
20
18.2022675
11
92.2150795
21
18.0070675
0
LINE
8
DEFAULT_255_2_778
10
93.5149795
20
17.9064675
11
93.2149795
21
17.9064675
0
LINE
8
DEFAULT_255_2_778
10
93.5149795
20
19.4063675
11
93.2149795
21
19.4063675
0
LINE
8
DEFAULT_255_2_778
10
93.5149795
20
8.9066675
11
93.2149795
21
8.9066675
0
LINE
8
DEFAULT_255_2_778
10
93.5149795
20
10.4065675
11
93.2149795
21
10.4065675
0
LINE
8
DEFAULT_255_2_778
10
90.7151795
20
34.5566675
11
92.2150795
21
34.5566675
0
LINE
8
DEFAULT_255_2_778
10
93.5453795
20
35.5068675
11
91.2151795
21
35.5068675
0
LINE
8
DEFAULT_255_2_778
10
91.2151795
20
35.5068675
11
91.2151795
21
36.9067675
0
LINE
8
DEFAULT_255_2_778
10
91.2151795
20
36.9067675
11
91.6313795
21
37.4067675
0
LINE
8
DEFAULT_255_2_778
10
91.6313795
20
37.4067675
11
94.6542795
21
37.4067675
0
LINE
8
DEFAULT_255_2_778
10
92.2153795
20
32.1069675
11
92.3153795
21
32.1069675
0
LINE
8
DEFAULT_255_2_778
10
92.9180795
20
32.0569675
11
92.7153795
21
32.0569675
0
LINE
8
DEFAULT_255_2_778
10
92.2719795
20
17.2198675
11
92.2153795
21
17.2323675
0
LINE
8
DEFAULT_255_2_778
10
92.2153795
20
4.2566675
11
90.7153795
21
4.2566675
0
LINE
8
DEFAULT_255_2_778
10
94.5925795
20
1.3877675
11
91.6239795
21
1.3877675
0
LINE
8
DEFAULT_255_2_778
10
91.6239795
20
1.3877675
11
91.2151795
21
1.8928675
0
LINE
8
DEFAULT_255_2_778
10
91.2151795
20
1.8928675
11
91.2151795
21
3.3067675
0
LINE
8
DEFAULT_255_2_778
10
91.2151795
20
3.3067675
11
93.5035795
21
3.3067675
0
LINE
8
DEFAULT_255_2_778
10
93.0154795
20
86.5565675
11
93.2154795
21
86.5565675
0
LINE
8
DEFAULT_255_2_778
10
93.2154795
20
86.8566675
11
93.0154795
21
86.8566675
0
LINE
8
DEFAULT_255_2_778
10
93.2154795
20
87.2566675
11
93.0154795
21
87.2566675
0
LINE
8
DEFAULT_255_2_778
10
93.0154795
20
87.5567675
11
93.2154795
21
87.5567675
0
LINE
8
DEFAULT_255_2_778
10
93.2154795
20
88.1567675
11
93.0154795
21
88.1567675
0
LINE
8
DEFAULT_255_2_778
10
93.2154795
20
88.4568675
11
93.0154795
21
88.4568675
0
LINE
8
DEFAULT_255_2_778
10
93.0154795
20
40.5569675
11
93.2154795
21
40.5569675
0
LINE
8
DEFAULT_255_2_778
10
93.2154795
20
40.8569675
11
93.0154795
21
40.8569675
0
LINE
8
DEFAULT_255_2_778
10
93.2154795
20
41.2570675
11
93.0154795
21
41.2570675
0
LINE
8
DEFAULT_255_2_778
10
93.0154795
20
41.5570675
11
93.2154795
21
41.5570675
0
LINE
8
DEFAULT_255_2_778
10
77.2155795
20
0.6569675
11
77.0155795
21
0.6569675
0
LINE
8
DEFAULT_255_2_778
10
77.0155795
20
3.6570675
11
77.2155795
21
3.6570675
0
LINE
8
DEFAULT_255_2_778
10
77.0155795
20
6.0571675
11
77.2155795
21
6.0571675
0
LINE
8
DEFAULT_255_2_778
10
0.7155795
20
-0.2436325
11
94.9653795
21
-0.2436325
0
LINE
8
DEFAULT_255_2_778
10
95.3654795
20
-0.0436325
11
95.9655795
21
0.7564675
0
LINE
8
DEFAULT_255_2_778
10
95.9655795
20
0.7564675
11
95.9655795
21
0.9292675
0
LINE
8
DEFAULT_255_2_778
10
95.3654795
20
0.1108675
11
97.3188795
21
2.7744675
0
LINE
8
DEFAULT_255_2_778
10
97.4156795
20
3.0702675
11
97.4156795
21
35.7428675
0
LINE
8
DEFAULT_255_2_778
10
97.3188795
20
36.0386675
11
95.3654795
21
38.7021675
0
LINE
8
DEFAULT_255_2_778
10
3.6153795
20
62.4564675
11
3.1152795
21
62.4564675
0
LINE
8
DEFAULT_255_2_778
10
3.6153795
20
62.0564675
11
3.1152795
21
62.0564675
0
LINE
8
DEFAULT_255_2_778
10
95.9652795
20
37.8835675
11
95.9652795
21
37.9563675
0
LINE
8
DEFAULT_255_2_778
10
95.9652795
20
37.9563675
11
95.3651795
21
38.7564675
0
LINE
8
DEFAULT_255_2_778
10
95.2154795
20
0.2566675
11
95.2154795
21
1.2565675
0
LINE
8
DEFAULT_255_2_778
10
95.2154795
20
1.2565675
11
90.7153795
21
1.2565675
0
LINE
8
DEFAULT_255_2_778
10
90.7153795
20
1.2565675
11
90.7153795
21
37.5565675
0
LINE
8
DEFAULT_255_2_778
10
90.7153795
20
37.5565675
11
95.2154795
21
37.5565675
0
LINE
8
DEFAULT_255_2_778
10
95.2154795
20
37.5565675
11
95.2154795
21
38.6564675
0
LINE
8
DEFAULT_255_2_778
10
93.0154795
20
39.2564675
11
93.2154795
21
39.2564675
0
LINE
8
DEFAULT_255_2_778
10
93.2154795
20
39.2564675
11
93.2154795
21
89.5564675
0
LINE
8
DEFAULT_255_2_778
10
93.2154795
20
89.5564675
11
94.7153795
21
89.5564675
0
LINE
8
DEFAULT_255_2_778
10
93.0154795
20
89.7564675
11
93.0154795
21
39.1564675
0
LINE
8
DEFAULT_255_2_778
10
93.0154795
20
39.1564675
11
94.7153795
21
39.1564675
0
LINE
8
DEFAULT_255_2_778
10
94.7153795
20
39.1564675
11
94.7153795
21
39.5565675
0
LINE
8
DEFAULT_255_2_778
10
94.7153795
20
39.5565675
11
93.0154795
21
39.5565675
0
LINE
8
DEFAULT_255_2_778
10
4.2154795
20
26.9565675
11
1.7153795
21
26.9565675
0
LINE
8
DEFAULT_255_2_778
10
71.7153795
20
81.7565675
11
71.7153795
21
81.4564675
0
LINE
8
DEFAULT_255_2_778
10
71.7153795
20
81.4564675
11
77.2152795
21
81.4564675
0
LINE
8
DEFAULT_255_2_778
10
77.2152795
20
81.4564675
11
77.2152795
21
89.7564675
0
LINE
8
DEFAULT_255_2_778
10
77.0152795
20
-0.2436325
11
77.0152795
21
7.2561675
0
LINE
8
DEFAULT_255_2_778
10
76.5151795
20
7.7562675
11
71.2150795
21
7.7562675
0
LINE
8
DEFAULT_255_2_778
10
71.2150795
20
7.7562675
11
71.2150795
21
81.7565675
0
LINE
8
DEFAULT_255_2_778
10
71.2150795
20
81.7565675
11
76.5151795
21
81.7565675
0
LINE
8
DEFAULT_255_2_778
10
77.0152795
20
82.2565675
11
77.0152795
21
89.7564675
0
LINE
8
DEFAULT_255_2_778
10
71.7153795
20
7.7565675
11
71.7153795
21
8.0565675
0
LINE
8
DEFAULT_255_2_778
10
71.7153795
20
8.0565675
11
77.2152795
21
8.0565675
0
LINE
8
DEFAULT_255_2_778
10
77.2152795
20
8.0565675
11
77.2152795
21
-0.2434325
0
LINE
8
DEFAULT_255_2_778
10
0.7155795
20
25.2494675
11
0.2154795
21
25.4563675
0
LINE
8
DEFAULT_255_2_778
10
0.2154795
20
25.4563675
11
1.7153795
21
26.9562675
0
LINE
8
DEFAULT_255_2_778
10
1.7153795
20
26.9562675
11
1.9225795
21
26.4562675
0
LINE
8
DEFAULT_255_2_778
10
0.2154795
20
0.1960675
11
0.2154795
21
26.6064675
0
LINE
8
DEFAULT_255_2_778
10
0.2154795
20
26.6064675
11
2.2609795
21
29.7563675
0
LINE
8
DEFAULT_255_2_778
10
2.2609795
20
29.7563675
11
2.8152795
21
29.7563675
0
LINE
8
DEFAULT_255_2_778
10
2.8152795
20
29.7563675
11
3.0152795
21
29.2562675
0
LINE
8
DEFAULT_255_2_778
10
3.0152795
20
29.2562675
11
3.0152795
21
28.2564675
0
LINE
8
DEFAULT_255_2_778
10
4.2151795
20
62.5564675
11
4.2151795
21
26.9565675
0
LINE
8
DEFAULT_255_2_778
10
4.2151795
20
26.9565675
11
4.7152795
21
26.4564675
0
LINE
8
DEFAULT_255_2_778
10
95.2151795
20
38.8863675
11
95.2151795
21
89.2563675
0
LINE
8
DEFAULT_255_2_778
10
94.7150795
20
89.7564675
11
0.7155795
21
89.7564675
0
LINE
8
DEFAULT_255_2_778
10
0.2154795
20
89.2563675
11
0.2154795
21
61.5563675
0
LINE
8
DEFAULT_255_2_778
10
0.2154795
20
61.5563675
11
1.3155795
21
60.5565675
0
LINE
8
DEFAULT_255_2_778
10
1.3155795
20
60.5565675
11
1.8156795
21
60.5565675
0
LINE
8
DEFAULT_255_2_778
10
1.8156795
20
60.5565675
11
3.1155795
21
61.5563675
0
LINE
8
DEFAULT_255_2_778
10
3.1155795
20
61.5563675
11
3.1155795
21
62.5562675
0
LINE
8
DEFAULT_255_2_778
10
3.1155795
20
62.5562675
11
4.7154795
21
62.5562675
0
LINE
8
DEFAULT_255_2_778
10
4.2154795
20
28.2561675
11
2.2154795
21
28.2561675
0
LINE
8
DEFAULT_255_2_778
10
2.2154795
20
28.2561675
11
2.2154795
21
26.9562675
0
ENDSEC
0
EOF