0
SECTION
2
HEADER
9
$MEASUREMENT
70
1
0
ENDSEC
0
SECTION
2
TABLES
0
TABLE
2
LTYPE
0
LTYPE
72
65
70
64
2
CONTINUOUS
3
______
73
0
40
0
0
ENDTAB
0
TABLE
2
LAYER
0
LAYER
2
DEFAULT_255_2_778
70
0
62
255
6
CONTINUOUS
0
ENDTAB
0
ENDSEC
0
SECTION
2
ENTITIES
0
ARC
8
DEFAULT_255_2_778
10
12.8823699
20
17.8710551
40
0.3312723
50
88.7599282
51
133.2450109
0
ARC
8
DEFAULT_255_2_778
10
12.8100491
20
17.9533508
40
0.2218082
50
134.201259
51
165.9896861
0
ARC
8
DEFAULT_255_2_778
10
12.9055154
20
17.9494178
40
0.3159765
50
169.4908065
51
180.0667297
0
ARC
8
DEFAULT_255_2_778
10
12.8896479
20
1.0563587
40
0.3001087
50
179.9826105
51
224.9730267
0
ARC
8
DEFAULT_255_2_778
10
12.8894479
20
1.0565579
40
0.3001081
50
225.0269039
51
270.0174139
0
ARC
8
DEFAULT_255_2_778
10
16.7896303
20
1.0565579
40
0.3001081
50
269.9825861
51
314.9730961
0
ARC
8
DEFAULT_255_2_778
10
16.7894306
20
1.0563587
40
0.3001084
50
315.0269503
51
0.0173976
0
ARC
8
DEFAULT_255_2_778
10
16.7645624
20
17.9485959
40
0.324977
50
0.0800336
51
10.362246
0
ARC
8
DEFAULT_255_2_778
10
16.8333871
20
17.9324266
40
0.2617162
50
16.566645
51
75.2905408
0
ARC
8
DEFAULT_255_2_778
10
16.7905241
20
17.8358136
40
0.3664375
50
72.6430013
51
90.1540146
0
ARC
8
DEFAULT_255_2_778
10
38.1895422
20
24.8565468
40
0.5000969
50
269.9996485
51
0.0003515
0
ARC
8
DEFAULT_255_2_778
10
39.1896507
20
26.5565382
40
0.5000116
50
90.0013268
51
180.0101312
0
ARC
8
DEFAULT_255_2_778
10
43.1896276
20
27.5565614
40
0.5000116
50
270.0013268
51
0.0101312
0
ARC
8
DEFAULT_255_2_778
10
43.1896276
20
32.0567382
40
0.5000116
50
359.9898688
51
89.9986732
0
ARC
8
DEFAULT_255_2_778
10
22.1896361
20
32.0566529
40
0.5000969
50
89.9996485
51
180.0003515
0
ARC
8
DEFAULT_255_2_778
10
22.1896361
20
24.8565468
40
0.5000969
50
179.9996485
51
270.0003515
0
LINE
8
DEFAULT_255_2_778
10
12.5895391
20
17.9490498
11
12.5895391
21
1.0564498
0
LINE
8
DEFAULT_255_2_778
10
12.8895391
20
0.7564498
11
16.7895391
21
0.7564498
0
LINE
8
DEFAULT_255_2_778
10
17.0895391
20
1.0564498
11
17.0895391
21
17.9490498
0
LINE
8
DEFAULT_255_2_778
10
16.7895391
20
18.2022498
11
12.8895391
21
18.2022498
0
LINE
8
DEFAULT_255_2_778
10
14.7175391
20
19.5378498
11
13.8425391
21
18.6314498
0
LINE
8
DEFAULT_255_2_778
10
13.8425391
20
18.6314498
11
14.3897391
21
18.6314498
0
LINE
8
DEFAULT_255_2_778
10
14.3897391
20
18.6314498
11
14.3897391
21
18.2880498
0
LINE
8
DEFAULT_255_2_778
10
14.3897391
20
18.2880498
11
15.0459391
21
18.2880498
0
LINE
8
DEFAULT_255_2_778
10
15.0459391
20
18.2880498
11
15.0459391
21
18.6314498
0
LINE
8
DEFAULT_255_2_778
10
15.0459391
20
18.6314498
11
15.5925391
21
18.6314498
0
LINE
8
DEFAULT_255_2_778
10
15.5925391
20
18.6314498
11
14.7175391
21
19.5378498
0
LINE
8
DEFAULT_255_2_778
10
22.6608391
20
34.9519498
11
22.6608391
21
33.4838498
0
LINE
8
DEFAULT_255_2_778
10
22.6608391
20
33.4838498
11
21.3895391
21
34.2175498
0
LINE
8
DEFAULT_255_2_778
10
21.3895391
20
34.2175498
11
22.6608391
21
34.9519498
0
LINE
8
DEFAULT_255_2_778
10
42.7890391
20
82.2565498
11
42.7890391
21
81.2561498
0
LINE
8
DEFAULT_255_2_778
10
42.7890391
20
81.2561498
11
2.7893391
21
81.2561498
0
LINE
8
DEFAULT_255_2_778
10
2.7893391
20
81.2561498
11
2.7893391
21
82.2565498
0
LINE
8
DEFAULT_255_2_778
10
2.7893391
20
82.2565498
11
42.7890391
21
82.2565498
0
LINE
8
DEFAULT_255_2_778
10
45.1896391
20
88.3565498
11
45.5896391
21
88.3565498
0
LINE
8
DEFAULT_255_2_778
10
38.6896391
20
24.8565498
11
38.6896391
21
26.5564498
0
LINE
8
DEFAULT_255_2_778
10
39.1896391
20
27.0565498
11
43.1896391
21
27.0565498
0
LINE
8
DEFAULT_255_2_778
10
43.6896391
20
27.5566498
11
43.6896391
21
32.0566498
0
LINE
8
DEFAULT_255_2_778
10
43.1896391
20
32.5567498
11
22.1896391
21
32.5567498
0
LINE
8
DEFAULT_255_2_778
10
21.6895391
20
32.0566498
11
21.6895391
21
24.8565498
0
LINE
8
DEFAULT_255_2_778
10
22.1896391
20
24.3564498
11
38.1895391
21
24.3564498
0
LINE
8
DEFAULT_255_2_778
10
8.6004324
20
85.7194239
11
8.8737324
21
84.7672239
0
LINE
8
DEFAULT_255_2_778
10
8.8737324
20
84.7672239
11
8.8845324
21
84.7672239
0
LINE
8
DEFAULT_255_2_778
10
8.8845324
20
84.7672239
11
9.1134324
21
84.7672239
0
LINE
8
DEFAULT_255_2_778
10
9.1134324
20
84.7672239
11
9.1240324
21
84.7672239
0
LINE
8
DEFAULT_255_2_778
10
9.1240324
20
84.7672239
11
9.3976324
21
85.7194239
0
LINE
8
DEFAULT_255_2_778
10
9.3976324
20
85.7194239
11
9.3976324
21
84.7672239
0
LINE
8
DEFAULT_255_2_778
10
9.3976324
20
84.7672239
11
9.6405324
21
84.7672239
0
LINE
8
DEFAULT_255_2_778
10
9.6405324
20
84.7672239
11
9.6405324
21
86.0480239
0
LINE
8
DEFAULT_255_2_778
10
9.6405324
20
86.0480239
11
9.5079324
21
86.0480239
0
LINE
8
DEFAULT_255_2_778
10
9.5079324
20
86.0480239
11
9.3933324
21
86.0480239
0
LINE
8
DEFAULT_255_2_778
10
9.3933324
20
86.0480239
11
9.2682324
21
86.0480239
0
LINE
8
DEFAULT_255_2_778
10
9.2682324
20
86.0480239
11
8.9986324
21
85.1489239
0
LINE
8
DEFAULT_255_2_778
10
8.9986324
20
85.1489239
11
8.7290324
21
86.0480239
0
LINE
8
DEFAULT_255_2_778
10
8.7290324
20
86.0480239
11
8.6038324
21
86.0480239
0
LINE
8
DEFAULT_255_2_778
10
8.6038324
20
86.0480239
11
8.4893324
21
86.0480239
0
LINE
8
DEFAULT_255_2_778
10
8.4893324
20
86.0480239
11
8.3567324
21
86.0480239
0
LINE
8
DEFAULT_255_2_778
10
8.3567324
20
86.0480239
11
8.3567324
21
84.7672239
0
LINE
8
DEFAULT_255_2_778
10
8.3567324
20
84.7672239
11
8.5996324
21
84.7672239
0
LINE
8
DEFAULT_255_2_778
10
8.5996324
20
84.7672239
11
8.5996324
21
85.7194239
0
LINE
8
DEFAULT_255_2_778
10
8.5996324
20
85.7194239
11
8.6004324
21
85.7194239
0
LINE
8
DEFAULT_255_2_778
10
14.5284324
20
86.0480239
11
14.2691324
21
86.0480239
0
LINE
8
DEFAULT_255_2_778
10
14.2691324
20
86.0480239
11
14.2691324
21
84.7672239
0
LINE
8
DEFAULT_255_2_778
10
14.2691324
20
84.7672239
11
14.5284324
21
84.7672239
0
LINE
8
DEFAULT_255_2_778
10
14.5284324
20
84.7672239
11
14.5284324
21
86.0480239
0
LINE
8
DEFAULT_255_2_778
10
14.5284324
20
86.0480239
11
14.5284324
21
86.0480239
0
LINE
8
DEFAULT_255_2_778
10
17.0940324
20
86.0480239
11
16.8347324
21
86.0480239
0
LINE
8
DEFAULT_255_2_778
10
16.8347324
20
86.0480239
11
16.8347324
21
84.7672239
0
LINE
8
DEFAULT_255_2_778
10
16.8347324
20
84.7672239
11
17.0940324
21
84.7672239
0
LINE
8
DEFAULT_255_2_778
10
17.0940324
20
84.7672239
11
17.0940324
21
86.0480239
0
LINE
8
DEFAULT_255_2_778
10
17.0940324
20
86.0480239
11
17.0940324
21
86.0480239
0
LINE
8
DEFAULT_255_2_778
10
10.0040324
20
86.0480239
11
9.7444324
21
86.0480239
0
LINE
8
DEFAULT_255_2_778
10
9.7444324
20
86.0480239
11
9.7444324
21
84.7672239
0
LINE
8
DEFAULT_255_2_778
10
9.7444324
20
84.7672239
11
10.0040324
21
84.7672239
0
LINE
8
DEFAULT_255_2_778
10
10.0040324
20
84.7672239
11
10.0040324
21
86.0480239
0
LINE
8
DEFAULT_255_2_778
10
10.0040324
20
86.0480239
11
10.0040324
21
86.0480239
0
LINE
8
DEFAULT_255_2_778
10
16.4720324
20
85.5485239
11
15.9563324
21
85.5485239
0
LINE
8
DEFAULT_255_2_778
10
15.9563324
20
85.5485239
11
15.9563324
21
86.0480239
0
LINE
8
DEFAULT_255_2_778
10
15.9563324
20
86.0480239
11
15.7010324
21
86.0480239
0
LINE
8
DEFAULT_255_2_778
10
15.7010324
20
86.0480239
11
15.7010324
21
84.7672239
0
LINE
8
DEFAULT_255_2_778
10
15.7010324
20
84.7672239
11
15.9563324
21
84.7672239
0
LINE
8
DEFAULT_255_2_778
10
15.9563324
20
84.7672239
11
15.9563324
21
85.3262239
0
LINE
8
DEFAULT_255_2_778
10
15.9563324
20
85.3262239
11
16.4720324
21
85.3262239
0
LINE
8
DEFAULT_255_2_778
10
16.4720324
20
85.3262239
11
16.4720324
21
84.7672239
0
LINE
8
DEFAULT_255_2_778
10
16.4720324
20
84.7672239
11
16.7273324
21
84.7672239
0
LINE
8
DEFAULT_255_2_778
10
16.7273324
20
84.7672239
11
16.7273324
21
86.0480239
0
LINE
8
DEFAULT_255_2_778
10
16.7273324
20
86.0480239
11
16.4720324
21
86.0480239
0
LINE
8
DEFAULT_255_2_778
10
16.4720324
20
86.0480239
11
16.4720324
21
85.5485239
0
LINE
8
DEFAULT_255_2_778
10
16.4720324
20
85.5485239
11
16.4720324
21
85.5485239
0
LINE
8
DEFAULT_255_2_778
10
10.3874324
20
84.7672239
11
10.6522324
21
84.7672239
0
LINE
8
DEFAULT_255_2_778
10
10.6522324
20
84.7672239
11
10.6522324
21
85.8260239
0
LINE
8
DEFAULT_255_2_778
10
10.6522324
20
85.8260239
11
10.9668324
21
85.8260239
0
LINE
8
DEFAULT_255_2_778
10
10.9668324
20
85.8260239
11
10.9668324
21
86.0480239
0
LINE
8
DEFAULT_255_2_778
10
10.9668324
20
86.0480239
11
10.6522324
21
86.0480239
0
LINE
8
DEFAULT_255_2_778
10
10.6522324
20
86.0480239
11
10.3874324
21
86.0480239
0
LINE
8
DEFAULT_255_2_778
10
10.3874324
20
86.0480239
11
10.0728324
21
86.0480239
0
LINE
8
DEFAULT_255_2_778
10
10.0728324
20
86.0480239
11
10.0728324
21
85.8260239
0
LINE
8
DEFAULT_255_2_778
10
10.0728324
20
85.8260239
11
10.3874324
21
85.8260239
0
LINE
8
DEFAULT_255_2_778
10
10.3874324
20
85.8260239
11
10.3874324
21
84.7672239
0
LINE
8
DEFAULT_255_2_778
10
10.3874324
20
84.7672239
11
10.3874324
21
84.7672239
0
ARC
8
DEFAULT_255_2_778
10
12.58845
20
85.5136866
40
0.7822832
50
269.1091684
51
285.8338943
0
ARC
8
DEFAULT_255_2_778
10
12.712476
20
85.1246313
40
0.3743811
50
283.8184498
51
354.6618029
0
ARC
8
DEFAULT_255_2_778
10
12.4983491
20
85.1654557
40
0.5917404
50
352.6545591
51
0.1493255
0
ARC
8
DEFAULT_255_2_778
10
12.6350918
20
85.1472694
40
0.1957283
50
284.9837748
51
358.954463
0
ARC
8
DEFAULT_255_2_778
10
12.5802898
20
85.2841531
40
0.3425765
50
269.3640653
51
287.9199625
0
ARC
8
DEFAULT_255_2_778
10
12.5685187
20
85.2980193
40
0.3565105
50
250.4405988
51
271.2807975
0
ARC
8
DEFAULT_255_2_778
10
12.5095499
20
85.1371937
40
0.1852317
50
205.3549924
51
250.9739345
0
ARC
8
DEFAULT_255_2_778
10
12.5193578
20
85.1390021
40
0.1948861
50
188.7491808
51
204.6006487
0
ARC
8
DEFAULT_255_2_778
10
12.5449674
20
85.1434812
40
0.2208798
50
179.9437814
51
188.8870502
0
ARC
8
DEFAULT_255_2_778
10
12.5823687
20
85.1556303
40
0.513407
50
178.7312839
51
201.2993419
0
ARC
8
DEFAULT_255_2_778
10
12.4444716
20
85.117744
40
0.3714617
50
203.5814117
51
260.7810752
0
ARC
8
DEFAULT_255_2_778
10
12.5669549
20
85.5846656
40
0.8532211
50
257.684044
51
270.6401513
0
ARC
8
DEFAULT_255_2_778
10
13.7626607
20
85.7218201
40
0.1227781
50
80.3636362
51
89.8941155
0
ARC
8
DEFAULT_255_2_778
10
13.7547333
20
85.6870827
40
0.1583648
50
2.1405783
51
79.6397881
0
ARC
8
DEFAULT_255_2_778
10
13.7526274
20
85.69079
40
0.1603754
50
0.0002966
51
0.788825
0
ARC
8
DEFAULT_255_2_778
10
13.7541028
20
85.6906196
40
0.1589
50
314.4041335
51
0.0617265
0
ARC
8
DEFAULT_255_2_778
10
13.7543016
20
85.6903801
40
0.1585899
50
269.977396
51
314.4133809
0
ARC
8
DEFAULT_255_2_778
10
13.7542331
20
85.6906254
40
0.1588351
50
267.8908943
51
270.0021272
0
ARC
8
DEFAULT_255_2_778
10
13.758912
20
85.1514588
40
0.1818545
50
358.3107206
51
95.7515129
0
ARC
8
DEFAULT_255_2_778
10
13.7539648
20
85.1473362
40
0.1867269
50
266.8141896
51
359.620026
0
ARC
8
DEFAULT_255_2_778
10
13.8311756
20
85.2235297
40
0.4564433
50
268.7335802
51
296.4287775
0
ARC
8
DEFAULT_255_2_778
10
13.8857135
20
85.1010016
40
0.3224972
50
297.4410301
51
2.1317856
0
ARC
8
DEFAULT_255_2_778
10
13.8482573
20
85.108899
40
0.3597536
50
0.6528266
51
60.8649692
0
ARC
8
DEFAULT_255_2_778
10
13.8923438
20
85.1807709
40
0.2755332
50
61.5961658
51
75.8957683
0
ARC
8
DEFAULT_255_2_778
10
13.8791872
20
85.7190581
40
0.2827044
50
286.5016943
51
352.3160964
0
ARC
8
DEFAULT_255_2_778
10
13.8397087
20
85.7328354
40
0.3237789
50
350.8338962
51
0.0287631
0
ARC
8
DEFAULT_255_2_778
10
13.8709975
20
85.7404688
40
0.2925854
50
358.5368428
51
78.7786564
0
ARC
8
DEFAULT_255_2_778
10
13.7694403
20
85.4304623
40
0.6176794
50
75.1318004
51
90.6820541
0
ARC
8
DEFAULT_255_2_778
10
11.1770724
20
83.886589
40
1.439733
50
74.1237537
51
81.0003511
0
ARC
8
DEFAULT_255_2_778
10
11.5013451
20
84.9905279
40
0.2893657
50
49.2091059
51
76.0862005
0
ARC
8
DEFAULT_255_2_778
10
11.5979751
20
85.1150538
40
0.132213
50
357.7650929
51
45.6557649
0
ARC
8
DEFAULT_255_2_778
10
11.5838992
20
85.1157654
40
0.1463061
50
294.2216086
51
357.7015826
0
ARC
8
DEFAULT_255_2_778
10
11.494004
20
85.2815389
40
0.3346585
50
272.0533742
51
296.6140483
0
ARC
8
DEFAULT_255_2_778
10
11.4735733
20
85.4733701
40
0.5272723
50
269.9580892
51
273.525312
0
ARC
8
DEFAULT_255_2_778
10
11.463854
20
85.2657046
40
0.319743
50
242.3263613
51
271.6727574
0
ARC
8
DEFAULT_255_2_778
10
11.4094248
20
85.1572883
40
0.1984616
50
179.102227
51
241.705803
0
ARC
8
DEFAULT_255_2_778
10
11.3488182
20
85.1448825
40
0.3881408
50
177.7090621
51
242.2425028
0
ARC
8
DEFAULT_255_2_778
10
11.4314541
20
85.3135039
40
0.5758698
50
242.7803174
51
263.1485467
0
ARC
8
DEFAULT_255_2_778
10
11.4814141
20
85.634151
40
0.9002587
50
262.4260799
51
270.2019714
0
ARC
8
DEFAULT_255_2_778
10
11.4941871
20
85.5116602
40
0.7778216
50
269.2928603
51
285.1189068
0
ARC
8
DEFAULT_255_2_778
10
11.583008
20
85.1967062
40
0.4506171
50
284.6612622
51
312.5662046
0
ARC
8
DEFAULT_255_2_778
10
11.6300842
20
85.1318128
40
0.3710935
50
313.9906986
51
1.263864
0
ARC
8
DEFAULT_255_2_778
10
11.6547276
20
85.1483562
40
0.3464608
50
358.6176202
51
71.5945506
0
ARC
8
DEFAULT_255_2_778
10
11.5006764
20
84.825148
40
0.703161
50
67.9970373
51
79.3947148
0
ARC
8
DEFAULT_255_2_778
10
10.4096094
20
79.2342899
40
6.399468
50
79.0054535
51
79.6308359
0
ARC
8
DEFAULT_255_2_778
10
13.2452133
20
94.7492945
40
9.3725331
50
259.2561168
51
259.6506913
0
ARC
8
DEFAULT_255_2_778
10
11.660064
20
86.4952011
40
0.9678088
50
251.9384504
51
260.3597653
0
ARC
8
DEFAULT_255_2_778
10
11.3859464
20
85.714042
40
0.1413604
50
179.7341464
51
259.4259937
0
ARC
8
DEFAULT_255_2_778
10
11.3971914
20
85.7093114
40
0.1526989
50
97.3433999
51
177.9784518
0
ARC
8
DEFAULT_255_2_778
10
11.4712835
20
85.4807784
40
0.3913402
50
89.413756
51
103.8394562
0
ARC
8
DEFAULT_255_2_778
10
11.4868328
20
85.5866438
40
0.2856875
50
60.3759264
51
92.3160803
0
ARC
8
DEFAULT_255_2_778
10
11.533535
20
85.6862617
40
0.1762177
50
356.8563125
51
57.5641863
0
ARC
8
DEFAULT_255_2_778
10
11.5636719
20
85.6765965
40
0.3977156
50
0.0002045
51
2.4114441
0
ARC
8
DEFAULT_255_2_778
10
11.5761478
20
85.6785463
40
0.3851714
50
2.1997482
51
55.4225508
0
ARC
8
DEFAULT_255_2_778
10
11.5131747
20
85.5814909
40
0.5008317
50
55.7922188
51
80.7537451
0
ARC
8
DEFAULT_255_2_778
10
11.4681066
20
85.3575891
40
0.7291154
50
80.0852737
51
90.2451007
0
ARC
8
DEFAULT_255_2_778
10
11.4650093
20
85.4642702
40
0.6224277
50
90.0020006
51
92.2661941
0
ARC
8
DEFAULT_255_2_778
10
11.4413088
20
85.5758683
40
0.5103435
50
90.1023545
51
140.15727
0
ARC
8
DEFAULT_255_2_778
10
11.3226462
20
85.7023052
40
0.3388824
50
143.7192011
51
180.677534
0
ARC
8
DEFAULT_255_2_778
10
11.3405046
20
85.6965731
40
0.3567212
50
179.7229697
51
251.3820006
0
ARC
8
DEFAULT_255_2_778
10
11.5302347
20
86.0881822
40
0.79031
50
247.4075836
51
260.6831048
0
ARC
8
DEFAULT_255_2_778
10
14.807951
20
83.8879213
40
1.4384205
50
74.1135875
51
80.9912061
0
ARC
8
DEFAULT_255_2_778
10
15.1320777
20
84.9906403
40
0.2892644
50
49.1982892
51
76.0746208
0
ARC
8
DEFAULT_255_2_778
10
15.228652
20
85.1150518
40
0.1322361
50
357.7663427
51
45.6467829
0
ARC
8
DEFAULT_255_2_778
10
15.2146766
20
85.1156824
40
0.1462254
50
294.2305941
51
357.7328423
0
ARC
8
DEFAULT_255_2_778
10
15.1247241
20
85.2817541
40
0.3348711
50
272.0405006
51
296.6044506
0
ARC
8
DEFAULT_255_2_778
10
15.1041759
20
85.4749925
40
0.5288947
50
269.9579267
51
273.5198991
0
ARC
8
DEFAULT_255_2_778
10
15.0945906
20
85.2672885
40
0.3213222
50
242.6763391
51
271.6401616
0
ARC
8
DEFAULT_255_2_778
10
15.0398675
20
85.1573097
40
0.1985041
50
179.1085971
51
242.1381365
0
ARC
8
DEFAULT_255_2_778
10
14.9794657
20
85.1448825
40
0.3881884
50
177.7093519
51
242.2291726
0
ARC
8
DEFAULT_255_2_778
10
15.0619123
20
85.3131224
40
0.5754907
50
242.7706682
51
263.1443412
0
ARC
8
DEFAULT_255_2_778
10
15.1118173
20
85.6332682
40
0.8993759
50
262.4223533
51
270.201968
0
ARC
8
DEFAULT_255_2_778
10
15.1245816
20
85.5113006
40
0.7774619
50
269.2929405
51
285.1224158
0
ARC
8
DEFAULT_255_2_778
10
15.2133442
20
85.196621
40
0.4505373
50
284.6652863
51
312.5711834
0
ARC
8
DEFAULT_255_2_778
10
15.2603529
20
85.1318153
40
0.3711248
50
313.9951256
51
1.2633597
0
ARC
8
DEFAULT_255_2_778
10
15.2851717
20
85.1485439
40
0.3463213
50
358.5859973
51
71.5654884
0
ARC
8
DEFAULT_255_2_778
10
15.1314393
20
84.8259289
40
0.7023635
50
67.9880031
51
79.3960489
0
ARC
8
DEFAULT_255_2_778
10
14.0350796
20
79.2078799
40
6.4263717
50
79.0054639
51
79.6281494
0
ARC
8
DEFAULT_255_2_778
10
16.8647489
20
94.6862322
40
9.3085075
50
259.2508676
51
259.648009
0
ARC
8
DEFAULT_255_2_778
10
15.2903808
20
86.4929709
40
0.9655571
50
251.9213456
51
260.3561204
0
ARC
8
DEFAULT_255_2_778
10
15.0167764
20
85.7139544
40
0.1412907
50
179.6985169
51
259.3839681
0
ARC
8
DEFAULT_255_2_778
10
15.0279884
20
85.7094167
40
0.1525922
50
97.3418007
51
178.0165922
0
ARC
8
DEFAULT_255_2_778
10
15.1021548
20
85.4803208
40
0.391798
50
89.4102514
51
103.8314807
0
ARC
8
DEFAULT_255_2_778
10
15.1177106
20
85.5873193
40
0.2850116
50
60.3358437
51
92.3171002
0
ARC
8
DEFAULT_255_2_778
10
15.1640707
20
85.6862886
40
0.1762835
50
356.8487244
51
57.5079358
0
ARC
8
DEFAULT_255_2_778
10
15.1945719
20
85.6765965
40
0.3977156
50
0.0002045
51
2.4114441
0
ARC
8
DEFAULT_255_2_778
10
15.2070478
20
85.6785463
40
0.3851714
50
2.1997482
51
55.4225508
0
ARC
8
DEFAULT_255_2_778
10
15.1440747
20
85.5814909
40
0.5008317
50
55.7922188
51
80.7537451
0
ARC
8
DEFAULT_255_2_778
10
15.0990066
20
85.3575891
40
0.7291154
50
80.0852737
51
90.2451007
0
ARC
8
DEFAULT_255_2_778
10
15.0959145
20
85.4637784
40
0.6229195
50
90.0024813
51
92.2889147
0
ARC
8
DEFAULT_255_2_778
10
15.0721322
20
85.5754852
40
0.510717
50
90.1229734
51
140.1452126
0
ARC
8
DEFAULT_255_2_778
10
14.9530805
20
85.702291
40
0.3387164
50
143.7084946
51
180.6754718
0
ARC
8
DEFAULT_255_2_778
10
14.9712308
20
85.6967483
40
0.3568466
50
179.7511889
51
251.4102831
0
ARC
8
DEFAULT_255_2_778
10
15.161297
20
86.0890339
40
0.7911767
50
247.4172936
51
260.6814923
0
LINE
8
DEFAULT_255_2_778
10
13.0900876
20
85.1669979
11
13.0900876
21
86.0480979
0
LINE
8
DEFAULT_255_2_778
10
13.0900876
20
86.0480979
11
12.8307876
21
86.0480979
0
LINE
8
DEFAULT_255_2_778
10
12.8307876
20
86.0480979
11
12.8307876
21
85.1436979
0
LINE
8
DEFAULT_255_2_778
10
12.3240876
20
85.1436979
11
12.3240876
21
86.0480979
0
LINE
8
DEFAULT_255_2_778
10
12.3240876
20
86.0480979
11
12.0690876
21
86.0480979
0
LINE
8
DEFAULT_255_2_778
10
12.0690876
20
86.0480979
11
12.0690876
21
85.1669979
0
LINE
8
DEFAULT_255_2_778
10
13.7483876
20
85.5318979
11
13.4395876
21
85.5318979
0
LINE
8
DEFAULT_255_2_778
10
13.4395876
20
85.5318979
11
13.4395876
21
85.8448979
0
LINE
8
DEFAULT_255_2_778
10
13.4395876
20
85.8448979
11
13.7628876
21
85.8448979
0
LINE
8
DEFAULT_255_2_778
10
13.7628876
20
85.8448979
11
13.7628876
21
85.8445979
0
LINE
8
DEFAULT_255_2_778
10
13.7438876
20
84.9608979
11
13.4395876
21
84.9608979
0
LINE
8
DEFAULT_255_2_778
10
13.4395876
20
84.9608979
11
13.4395876
21
85.3323979
0
LINE
8
DEFAULT_255_2_778
10
13.4395876
20
85.3323979
11
13.7406876
21
85.3323979
0
LINE
8
DEFAULT_255_2_778
10
13.4493876
20
84.7671979
11
13.8210876
21
84.7671979
0
LINE
8
DEFAULT_255_2_778
10
13.7620876
20
86.0480979
11
13.4493876
21
86.0480979
0
LINE
8
DEFAULT_255_2_778
10
13.4493876
20
86.0480979
11
13.1829876
21
86.0480979
0
LINE
8
DEFAULT_255_2_778
10
13.1829876
20
86.0480979
11
13.1815876
21
86.0480979
0
LINE
8
DEFAULT_255_2_778
10
13.1815876
20
86.0480979
11
13.1815876
21
84.7671979
0
LINE
8
DEFAULT_255_2_778
10
13.1815876
20
84.7671979
11
13.1829876
21
84.7671979
0
LINE
8
DEFAULT_255_2_778
10
13.1829876
20
84.7671979
11
13.4493876
21
84.7671979
0
LINE
8
DEFAULT_255_2_778
10
13.4493876
20
84.7671979
11
13.4493876
21
84.7671979
0
LINE
8
DEFAULT_255_2_778
10
11.2109876
20
85.1603979
11
10.9609876
21
85.1603979
0
LINE
8
DEFAULT_255_2_778
10
11.7094876
20
85.6765979
11
11.9613876
21
85.6765979
0
LINE
8
DEFAULT_255_2_778
10
14.8413876
20
85.1603979
11
14.5915876
21
85.1603979
0
LINE
8
DEFAULT_255_2_778
10
15.3400876
20
85.6765979
11
15.5922876
21
85.6765979
0
LINE
8
DEFAULT_255_2_778
10
8.6184605
20
83.8363885
11
9.2341605
21
83.8363885
0
LINE
8
DEFAULT_255_2_778
10
9.2341605
20
83.8363885
11
9.2341605
21
84.0582885
0
LINE
8
DEFAULT_255_2_778
10
9.2341605
20
84.0582885
11
8.6184605
21
84.0582885
0
LINE
8
DEFAULT_255_2_778
10
8.6184605
20
84.0582885
11
8.6184605
21
84.3316885
0
LINE
8
DEFAULT_255_2_778
10
8.6184605
20
84.3316885
11
9.3111605
21
84.3316885
0
LINE
8
DEFAULT_255_2_778
10
9.3111605
20
84.3316885
11
9.3111605
21
84.5538885
0
LINE
8
DEFAULT_255_2_778
10
9.3111605
20
84.5538885
11
8.6184605
21
84.5538885
0
LINE
8
DEFAULT_255_2_778
10
8.6184605
20
84.5538885
11
8.3575605
21
84.5538885
0
LINE
8
DEFAULT_255_2_778
10
8.3575605
20
84.5538885
11
8.3575605
21
84.3316885
0
LINE
8
DEFAULT_255_2_778
10
8.3575605
20
84.3316885
11
8.3575605
21
83.4947885
0
LINE
8
DEFAULT_255_2_778
10
8.3575605
20
83.4947885
11
8.3575605
21
83.2727885
0
LINE
8
DEFAULT_255_2_778
10
8.3575605
20
83.2727885
11
8.6184605
21
83.2727885
0
LINE
8
DEFAULT_255_2_778
10
8.6184605
20
83.2727885
11
9.3290605
21
83.2727885
0
LINE
8
DEFAULT_255_2_778
10
9.3290605
20
83.2727885
11
9.3290605
21
83.4947885
0
LINE
8
DEFAULT_255_2_778
10
9.3290605
20
83.4947885
11
8.6184605
21
83.4947885
0
LINE
8
DEFAULT_255_2_778
10
8.6184605
20
83.4947885
11
8.6184605
21
83.8363885
0
LINE
8
DEFAULT_255_2_778
10
8.6184605
20
83.8363885
11
8.6184605
21
83.8363885
0
LINE
8
DEFAULT_255_2_778
10
14.7398605
20
84.5535885
11
14.4805605
21
84.5535885
0
LINE
8
DEFAULT_255_2_778
10
14.4805605
20
84.5535885
11
14.4805605
21
83.2724885
0
LINE
8
DEFAULT_255_2_778
10
14.4805605
20
83.2724885
11
14.7398605
21
83.2724885
0
LINE
8
DEFAULT_255_2_778
10
14.7398605
20
83.2724885
11
14.7398605
21
84.5535885
0
LINE
8
DEFAULT_255_2_778
10
14.7398605
20
84.5535885
11
14.7398605
21
84.5535885
0
LINE
8
DEFAULT_255_2_778
10
12.7536605
20
83.2724885
11
13.0181605
21
83.2724885
0
LINE
8
DEFAULT_255_2_778
10
13.0181605
20
83.2724885
11
13.0181605
21
84.3313885
0
LINE
8
DEFAULT_255_2_778
10
13.0181605
20
84.3313885
11
13.3330605
21
84.3313885
0
LINE
8
DEFAULT_255_2_778
10
13.3330605
20
84.3313885
11
13.3330605
21
84.5535885
0
LINE
8
DEFAULT_255_2_778
10
13.3330605
20
84.5535885
11
13.0181605
21
84.5535885
0
LINE
8
DEFAULT_255_2_778
10
13.0181605
20
84.5535885
11
12.7536605
21
84.5535885
0
LINE
8
DEFAULT_255_2_778
10
12.7536605
20
84.5535885
11
12.4387605
21
84.5535885
0
LINE
8
DEFAULT_255_2_778
10
12.4387605
20
84.5535885
11
12.4387605
21
84.3313885
0
LINE
8
DEFAULT_255_2_778
10
12.4387605
20
84.3313885
11
12.7536605
21
84.3313885
0
LINE
8
DEFAULT_255_2_778
10
12.7536605
20
84.3313885
11
12.7536605
21
83.2724885
0
LINE
8
DEFAULT_255_2_778
10
12.7536605
20
83.2724885
11
12.7536605
21
83.2724885
0
LINE
8
DEFAULT_255_2_778
10
10.6160605
20
83.8363885
11
11.2319605
21
83.8363885
0
LINE
8
DEFAULT_255_2_778
10
11.2319605
20
83.8363885
11
11.2319605
21
84.0582885
0
LINE
8
DEFAULT_255_2_778
10
11.2319605
20
84.0582885
11
10.6160605
21
84.0582885
0
LINE
8
DEFAULT_255_2_778
10
10.6160605
20
84.0582885
11
10.6160605
21
84.3316885
0
LINE
8
DEFAULT_255_2_778
10
10.6160605
20
84.3316885
11
11.3087605
21
84.3316885
0
LINE
8
DEFAULT_255_2_778
10
11.3087605
20
84.3316885
11
11.3087605
21
84.5538885
0
LINE
8
DEFAULT_255_2_778
10
11.3087605
20
84.5538885
11
10.6160605
21
84.5538885
0
LINE
8
DEFAULT_255_2_778
10
10.6160605
20
84.5538885
11
10.3551605
21
84.5538885
0
LINE
8
DEFAULT_255_2_778
10
10.3551605
20
84.5538885
11
10.3551605
21
84.3316885
0
LINE
8
DEFAULT_255_2_778
10
10.3551605
20
84.3316885
11
10.3551605
21
83.4947885
0
LINE
8
DEFAULT_255_2_778
10
10.3551605
20
83.4947885
11
10.3551605
21
83.2727885
0
LINE
8
DEFAULT_255_2_778
10
10.3551605
20
83.2727885
11
10.6160605
21
83.2727885
0
LINE
8
DEFAULT_255_2_778
10
10.6160605
20
83.2727885
11
11.3269605
21
83.2727885
0
LINE
8
DEFAULT_255_2_778
10
11.3269605
20
83.2727885
11
11.3269605
21
83.4947885
0
LINE
8
DEFAULT_255_2_778
10
11.3269605
20
83.4947885
11
10.6160605
21
83.4947885
0
LINE
8
DEFAULT_255_2_778
10
10.6160605
20
83.4947885
11
10.6160605
21
83.8363885
0
LINE
8
DEFAULT_255_2_778
10
10.6160605
20
83.8363885
11
10.6160605
21
83.8363885
0
ARC
8
DEFAULT_255_2_778
10
13.9799802
20
84.1654321
40
0.1683394
50
357.5909748
51
92.8974539
0
ARC
8
DEFAULT_255_2_778
10
13.9883529
20
84.1608036
40
0.1598367
50
339.5929209
51
359.1226682
0
ARC
8
DEFAULT_255_2_778
10
13.9733208
20
84.1576796
40
0.1730291
50
272.0037884
51
342.2990995
0
ARC
8
DEFAULT_255_2_778
10
14.0777389
20
84.2097811
40
0.3363067
50
286.6983492
51
290.6455519
0
ARC
8
DEFAULT_255_2_778
10
14.0891182
20
84.1916649
40
0.3153704
50
289.871401
51
336.7522337
0
ARC
8
DEFAULT_255_2_778
10
14.0674535
20
84.1936751
40
0.3361365
50
337.895074
51
0.6104357
0
ARC
8
DEFAULT_255_2_778
10
14.0561843
20
84.2102475
40
0.3476294
50
357.8583012
51
37.9726139
0
ARC
8
DEFAULT_255_2_778
10
14.0581127
20
84.1865422
40
0.3612418
50
41.1262997
51
80.1219066
0
ARC
8
DEFAULT_255_2_778
10
13.9890595
20
83.9058412
40
0.6499314
50
78.369558
51
90.4045195
0
ARC
8
DEFAULT_255_2_778
10
13.8881977
20
83.5206377
40
0.2589975
50
57.9040095
51
92.1301467
0
ARC
8
DEFAULT_255_2_778
10
13.9138619
20
83.5764076
40
0.1982721
50
12.4510618
51
55.6230912
0
ARC
8
DEFAULT_255_2_778
10
13.2843673
20
83.4418848
40
0.8419766
50
3.9210321
51
12.1541162
0
ARC
8
DEFAULT_255_2_778
10
9.791193
20
83.132035
40
4.3487298
50
4.2746311
51
4.8467156
0
ARC
8
DEFAULT_255_2_778
10
-58.4352136
20
77.9412529
40
72.7723098
50
4.3407045
51
4.3462289
0
ARC
8
DEFAULT_255_2_778
10
15.3974157
20
83.5174986
40
1.270896
50
183.0814627
51
189.9336836
0
ARC
8
DEFAULT_255_2_778
10
14.5151023
20
83.3734383
40
0.3770996
50
191.4997049
51
195.1859296
0
ARC
8
DEFAULT_255_2_778
10
15.8415297
20
83.6240757
40
1.4702829
50
186.3914169
51
193.7481538
0
ARC
8
DEFAULT_255_2_778
10
16.6774039
20
83.7359269
40
2.313484
50
183.0841319
51
186.8398456
0
ARC
8
DEFAULT_255_2_778
10
14.0122549
20
83.6007362
40
0.3551777
50
1.7295723
51
26.168749
0
ARC
8
DEFAULT_255_2_778
10
14.0901846
20
83.6275713
40
0.2735946
50
28.3228663
51
72.1230672
0
LINE
8
DEFAULT_255_2_778
10
13.6573708
20
83.9847562
11
13.6573708
21
84.3335562
0
LINE
8
DEFAULT_255_2_778
10
13.6573708
20
84.3335562
11
13.9714708
21
84.3335562
0
LINE
8
DEFAULT_255_2_778
10
13.9793708
20
83.9847562
11
13.6576708
21
83.9847562
0
LINE
8
DEFAULT_255_2_778
10
13.6576708
20
83.9847562
11
13.6573708
21
83.9847562
0
LINE
8
DEFAULT_255_2_778
10
13.9844708
20
84.5557562
11
13.6573708
21
84.5557562
0
LINE
8
DEFAULT_255_2_778
10
13.6573708
20
84.5557562
11
13.3988708
21
84.5557562
0
LINE
8
DEFAULT_255_2_778
10
13.3988708
20
84.5557562
11
13.3962708
21
84.5557562
0
LINE
8
DEFAULT_255_2_778
10
13.3962708
20
84.5557562
11
13.3962708
21
83.2746562
0
LINE
8
DEFAULT_255_2_778
10
13.3962708
20
83.2746562
11
13.6571708
21
83.2746562
0
LINE
8
DEFAULT_255_2_778
10
13.6571708
20
83.2746562
11
13.6571708
21
83.7794562
0
LINE
8
DEFAULT_255_2_778
10
13.6571708
20
83.7794562
11
13.8785708
21
83.7794562
0
LINE
8
DEFAULT_255_2_778
10
14.1511708
20
83.2746562
11
14.4133708
21
83.2746562
0
LINE
8
DEFAULT_255_2_778
10
9.6738833
20
84.5536562
11
9.4129833
21
84.5536562
0
LINE
8
DEFAULT_255_2_778
10
9.4129833
20
84.5536562
11
9.4129833
21
83.4947562
0
LINE
8
DEFAULT_255_2_778
10
9.4129833
20
83.4947562
11
9.4129833
21
83.2725562
0
LINE
8
DEFAULT_255_2_778
10
9.4129833
20
83.2725562
11
9.6738833
21
83.2725562
0
LINE
8
DEFAULT_255_2_778
10
9.6738833
20
83.2725562
11
10.2807833
21
83.2725562
0
LINE
8
DEFAULT_255_2_778
10
10.2807833
20
83.2725562
11
10.2807833
21
83.4947562
0
LINE
8
DEFAULT_255_2_778
10
10.2807833
20
83.4947562
11
9.6738833
21
83.4947562
0
LINE
8
DEFAULT_255_2_778
10
9.6738833
20
83.4947562
11
9.6738833
21
84.5536562
0
LINE
8
DEFAULT_255_2_778
10
9.6738833
20
84.5536562
11
9.6738833
21
84.5536562
0
ARC
8
DEFAULT_255_2_778
10
11.9250759
20
83.7911856
40
0.3209912
50
193.5073633
51
267.9859588
0
ARC
8
DEFAULT_255_2_778
10
12.2153111
20
83.9135033
40
0.633835
50
179.5580181
51
198.1355827
0
ARC
8
DEFAULT_255_2_778
10
12.169597
20
83.9308741
40
0.5882346
50
152.807778
51
181.2158168
0
ARC
8
DEFAULT_255_2_778
10
11.913611
20
84.0692039
40
0.2973888
50
89.9645767
51
153.9757111
0
ARC
8
DEFAULT_255_2_778
10
11.9228871
20
84.094028
40
0.2727163
50
53.3968756
51
91.9105765
0
ARC
8
DEFAULT_255_2_778
10
11.8837546
20
84.0692708
40
0.3163632
50
14.3150589
51
50.3794956
0
ARC
8
DEFAULT_255_2_778
10
11.958154
20
84.0702155
40
0.50825
50
8.7454892
51
78.7505311
0
ARC
8
DEFAULT_255_2_778
10
11.9097625
20
83.8920624
40
0.6925373
50
77.6991452
51
90.2537971
0
ARC
8
DEFAULT_255_2_778
10
11.8970235
20
83.9695444
40
0.6151243
50
89.0991279
51
114.2556561
0
ARC
8
DEFAULT_255_2_778
10
11.9043575
20
84.012567
40
0.579425
50
116.6652378
51
171.1994463
0
ARC
8
DEFAULT_255_2_778
10
12.2414287
20
83.9180098
40
0.9279398
50
168.6130755
51
180.2048144
0
ARC
8
DEFAULT_255_2_778
10
12.1156538
20
83.9013066
40
0.8022707
50
179.0439618
51
206.2223945
0
ARC
8
DEFAULT_255_2_778
10
11.877569
20
83.7843588
40
0.537014
50
206.2530343
51
263.0468546
0
ARC
8
DEFAULT_255_2_778
10
11.90546
20
83.9328134
40
0.6878219
50
262.2376155
51
270.1028605
0
ARC
8
DEFAULT_255_2_778
10
11.917198
20
83.8804473
40
0.6355414
50
269.0530697
51
295.0272308
0
ARC
8
DEFAULT_255_2_778
10
11.9688759
20
83.7506156
40
0.4961038
50
295.9626947
51
353.8181213
0
ARC
8
DEFAULT_255_2_778
10
11.9195109
20
83.7456359
40
0.2750831
50
272.1905352
51
349.8570879
0
ARC
8
DEFAULT_255_2_778
10
11.9138963
20
83.830674
40
0.3602814
50
269.983868
51
272.5658613
0
ARC
8
DEFAULT_255_2_778
10
15.4149494
20
83.7909509
40
0.3207557
50
193.4778059
51
267.9892107
0
ARC
8
DEFAULT_255_2_778
10
15.7060933
20
83.9134843
40
0.6345175
50
179.5567774
51
198.1153807
0
ARC
8
DEFAULT_255_2_778
10
15.6620162
20
83.9306934
40
0.5905494
50
153.1319225
51
181.1935127
0
ARC
8
DEFAULT_255_2_778
10
15.4036009
20
84.0689922
40
0.2976004
50
89.9819027
51
154.3991903
0
ARC
8
DEFAULT_255_2_778
10
15.4127953
20
84.0941564
40
0.2725882
50
53.3878474
51
91.9131912
0
ARC
8
DEFAULT_255_2_778
10
15.3732323
20
84.0689619
40
0.3168489
50
14.3502868
51
50.3609721
0
ARC
8
DEFAULT_255_2_778
10
15.4478203
20
84.0700545
40
0.5084067
50
8.7611347
51
78.7036182
0
ARC
8
DEFAULT_255_2_778
10
15.3993995
20
83.8914924
40
0.6931074
50
77.6698178
51
90.256646
0
ARC
8
DEFAULT_255_2_778
10
15.3866235
20
83.9695444
40
0.6151243
50
89.0991279
51
114.2556561
0
ARC
8
DEFAULT_255_2_778
10
15.3939575
20
84.012567
40
0.579425
50
116.6652378
51
171.1994463
0
ARC
8
DEFAULT_255_2_778
10
15.7310287
20
83.9180098
40
0.9279398
50
168.6130755
51
180.2048144
0
ARC
8
DEFAULT_255_2_778
10
15.6052538
20
83.9013066
40
0.8022707
50
179.0439618
51
206.2223945
0
ARC
8
DEFAULT_255_2_778
10
15.367169
20
83.7843588
40
0.537014
50
206.2530343
51
263.0468546
0
ARC
8
DEFAULT_255_2_778
10
15.39506
20
83.9328134
40
0.6878219
50
262.2376155
51
270.1028605
0
ARC
8
DEFAULT_255_2_778
10
15.4068002
20
83.8803689
40
0.6354631
50
269.0527527
51
295.0288066
0
ARC
8
DEFAULT_255_2_778
10
15.4580673
20
83.7511626
40
0.496768
50
295.9758808
51
353.7629511
0
ARC
8
DEFAULT_255_2_778
10
15.4095635
20
83.7454606
40
0.274902
50
272.1602937
51
349.8874577
0
ARC
8
DEFAULT_255_2_778
10
15.4037959
20
83.8307166
40
0.3603239
50
269.9839303
51
272.5657324
0
LINE
8
DEFAULT_255_2_778
10
12.1902949
20
84.1474927
11
12.4604949
21
84.1474927
0
LINE
8
DEFAULT_255_2_778
10
12.4620949
20
83.6971927
11
12.1902949
21
83.6971927
0
LINE
8
DEFAULT_255_2_778
10
15.6801949
20
84.1474927
11
15.9502949
21
84.1474927
0
LINE
8
DEFAULT_255_2_778
10
15.9518949
20
83.6971927
11
15.6801949
21
83.6971927
0
LINE
8
DEFAULT_255_2_778
10
4.8542104
20
83.2723198
11
3.3172104
21
83.2723198
0
LINE
8
DEFAULT_255_2_778
10
3.3172104
20
83.2723198
11
4.0858104
21
84.5965198
0
LINE
8
DEFAULT_255_2_778
10
4.0858104
20
84.5965198
11
5.6228104
21
84.5965198
0
LINE
8
DEFAULT_255_2_778
10
5.6228104
20
84.5965198
11
4.8542104
21
83.2723198
0
LINE
8
DEFAULT_255_2_778
10
4.8542104
20
83.2723198
11
4.8542104
21
83.2723198
0
LINE
8
DEFAULT_255_2_778
10
6.3911104
20
83.2723198
11
7.9284104
21
83.2723198
0
LINE
8
DEFAULT_255_2_778
10
7.9284104
20
83.2723198
11
7.1600104
21
84.5965198
0
LINE
8
DEFAULT_255_2_778
10
7.1600104
20
84.5965198
11
5.6228104
21
84.5965198
0
LINE
8
DEFAULT_255_2_778
10
5.6228104
20
84.5965198
11
6.3911104
21
83.2723198
0
LINE
8
DEFAULT_255_2_778
10
6.3911104
20
83.2723198
11
6.3911104
21
83.2723198
0
LINE
8
DEFAULT_255_2_778
10
6.3912177
20
85.9205073
11
5.6228177
21
87.2447073
0
LINE
8
DEFAULT_255_2_778
10
5.6228177
20
87.2447073
11
4.8542177
21
85.9205073
0
LINE
8
DEFAULT_255_2_778
10
4.8542177
20
85.9205073
11
5.6228177
21
84.5965073
0
LINE
8
DEFAULT_255_2_778
10
5.6228177
20
84.5965073
11
6.3912177
21
85.9205073
0
LINE
8
DEFAULT_255_2_778
10
6.3912177
20
85.9205073
11
6.3912177
21
85.9205073
0
ARC
8
DEFAULT_255_2_778
10
38.2635658
20
83.9688097
40
0.2889104
50
183.711114
51
205.9015439
0
ARC
8
DEFAULT_255_2_778
10
38.1935899
20
83.9348996
40
0.211151
50
205.9188095
51
248.1514973
0
ARC
8
DEFAULT_255_2_778
10
38.1943961
20
83.9396148
40
0.2158299
50
248.4187003
51
270.0838593
0
LINE
8
DEFAULT_255_2_778
10
38.194712
20
83.7237851
11
38.1948725
21
83.7237852
0
ARC
8
DEFAULT_255_2_778
10
38.196008
20
83.9392806
40
0.2154984
50
269.6981034
51
332.6166581
0
ARC
8
DEFAULT_255_2_778
10
38.1520549
20
83.9587436
40
0.2634948
50
333.2545921
51
359.3086862
0
ARC
8
DEFAULT_255_2_778
10
38.084477
20
83.9645676
40
0.331176
50
358.4421887
51
0.0070736
0
ARC
8
DEFAULT_255_2_778
10
38.0585142
20
83.9643499
40
0.3571388
50
0.0414968
51
4.5341257
0
ARC
8
DEFAULT_255_2_778
10
38.0338895
20
83.9627519
40
0.3818129
50
4.4810565
51
4.6206095
0
ARC
8
DEFAULT_255_2_778
10
38.022278
20
84.263085
40
0.3909238
50
0.824424
51
32.0562455
0
ARC
8
DEFAULT_255_2_778
10
37.90526
20
84.1541212
40
0.5487663
50
35.2153884
51
63.4949884
0
ARC
8
DEFAULT_255_2_778
10
38.540368
20
85.8684203
40
1.2506943
50
231.7572868
51
234.7850765
0
ARC
8
DEFAULT_255_2_778
10
38.3938806
20
85.6803988
40
1.012349
50
230.5018874
51
231.6818076
0
ARC
8
DEFAULT_255_2_778
10
38.1137274
20
85.3659572
40
0.5917405
50
207.773157
51
232.0684814
0
ARC
8
DEFAULT_255_2_778
10
38.2051939
20
85.3868231
40
0.6828204
50
187.1910409
51
205.7455644
0
ARC
8
DEFAULT_255_2_778
10
39.3930539
20
85.5618004
40
1.8834051
50
181.912857
51
187.9487652
0
ARC
8
DEFAULT_255_2_778
10
48.9632023
20
85.9802625
40
11.4626143
50
182.4022429
51
182.4066274
0
ARC
8
DEFAULT_255_2_778
10
40.6827746
20
85.6311901
40
3.1748329
50
180.7644106
51
182.3716807
0
ARC
8
DEFAULT_255_2_778
10
39.8625325
20
85.6178686
40
2.3544871
50
180.0082189
51
180.7065567
0
ARC
8
DEFAULT_255_2_778
10
38.6906119
20
85.6410716
40
1.1828007
50
167.661001
51
181.1404105
0
ARC
8
DEFAULT_255_2_778
10
38.0825751
20
85.7733406
40
0.5605446
50
126.348008
51
167.5873033
0
ARC
8
DEFAULT_255_2_778
10
38.2275328
20
85.5916731
40
0.7928319
50
119.4719776
51
127.0043071
0
ARC
8
DEFAULT_255_2_778
10
38.187242
20
85.5410673
40
0.8192643
50
104.5614034
51
115.2738353
0
ARC
8
DEFAULT_255_2_778
10
38.2319383
20
85.3792077
40
0.9871656
50
90.0527476
51
104.7103485
0
ARC
8
DEFAULT_255_2_778
10
38.2310474
20
85.423937
40
0.9424359
50
88.8764341
51
90.001088
0
ARC
8
DEFAULT_255_2_778
10
38.2655759
20
85.7100218
40
0.6563663
50
47.2933219
51
91.4010625
0
ARC
8
DEFAULT_255_2_778
10
38.3536189
20
85.8446346
40
0.4984438
50
17.0119383
51
44.2338282
0
ARC
8
DEFAULT_255_2_778
10
38.1775809
20
85.7900345
40
0.6827538
50
1.4566245
51
17.0713055
0
ARC
8
DEFAULT_255_2_778
10
37.996056
20
85.7779259
40
0.8645603
50
359.9890101
51
1.9530214
0
ARC
8
DEFAULT_255_2_778
10
37.9527286
20
85.777803
40
0.9078877
50
359.3693219
51
359.9972906
0
ARC
8
DEFAULT_255_2_778
10
38.1035491
20
85.6979701
40
0.3134037
50
7.2294408
51
27.759653
0
ARC
8
DEFAULT_255_2_778
10
38.190139
20
85.744394
40
0.2151582
50
27.5597963
51
63.8104784
0
ARC
8
DEFAULT_255_2_778
10
38.1980502
20
85.755561
40
0.2016578
50
64.4271929
51
90.0925131
0
ARC
8
DEFAULT_255_2_778
10
38.1977246
20
85.755973
40
0.2012455
50
90.0000012
51
90.3231328
0
ARC
8
DEFAULT_255_2_778
10
38.1993549
20
85.7409988
40
0.2162343
50
90.732742
51
148.3050289
0
ARC
8
DEFAULT_255_2_778
10
38.2452795
20
85.7128546
40
0.2700965
50
148.3436191
51
175.5103289
0
ARC
8
DEFAULT_255_2_778
10
38.3073076
20
85.703245
40
0.3327201
50
174.696714
51
176.3528886
0
ARC
8
DEFAULT_255_2_778
10
38.266732
20
85.4366062
40
0.2936849
50
188.87242
51
240.3758901
0
ARC
8
DEFAULT_255_2_778
10
38.2429837
20
84.269119
40
0.7172461
50
45.9027121
51
52.8770617
0
ARC
8
DEFAULT_255_2_778
10
38.4017075
20
84.4351564
40
0.4875546
50
40.1662826
51
45.7202162
0
ARC
8
DEFAULT_255_2_778
10
38.5112389
20
84.5256634
40
0.345479
50
357.0543551
51
40.4126228
0
ARC
8
DEFAULT_255_2_778
10
38.2241888
20
83.9013371
40
0.6328238
50
333.9402081
51
357.2077904
0
ARC
8
DEFAULT_255_2_778
10
38.3051688
20
83.8853949
40
0.5534812
50
277.5346013
51
331.7394891
0
ARC
8
DEFAULT_255_2_778
10
38.2086694
20
84.2654593
40
0.9440307
50
270.7521205
51
280.3172658
0
ARC
8
DEFAULT_255_2_778
10
38.2019234
20
84.3502428
40
1.0289111
50
270.0025884
51
271.0657727
0
ARC
8
DEFAULT_255_2_778
10
38.1929074
20
84.1383606
40
0.8170792
50
252.041401
51
270.6354945
0
ARC
8
DEFAULT_255_2_778
10
38.1206244
20
83.9194275
40
0.5865269
50
215.8204004
51
252.1642693
0
ARC
8
DEFAULT_255_2_778
10
38.2069125
20
83.9633706
40
0.6823737
50
178.9390522
51
214.5718799
0
ARC
8
DEFAULT_255_2_778
10
38.3308295
20
83.9760049
40
0.8061737
50
179.7864394
51
179.9999584
0
ARC
8
DEFAULT_255_2_778
10
38.2266254
20
83.9576812
40
0.1248647
50
180.1704345
51
213.6309376
0
ARC
8
DEFAULT_255_2_778
10
38.192289
20
83.9372871
40
0.0850048
50
215.0036217
51
270.4207224
0
ARC
8
DEFAULT_255_2_778
10
38.1930494
20
83.9139048
40
0.0616203
50
269.8733361
51
270.379255
0
ARC
8
DEFAULT_255_2_778
10
38.1929308
20
83.944024
40
0.0917392
50
270.3287925
51
351.7886078
0
ARC
8
DEFAULT_255_2_778
10
38.1713926
20
83.9495818
40
0.1138761
50
350.5685668
51
356.5402635
0
ARC
8
DEFAULT_255_2_778
10
38.0143867
20
84.265046
40
0.2706993
50
0.7754744
51
56.4147256
0
ARC
8
DEFAULT_255_2_778
10
37.5840338
20
83.7286379
40
0.9576179
50
52.7156181
51
60.6120291
0
ARC
8
DEFAULT_255_2_778
10
37.1789176
20
83.056145
40
1.7425228
50
59.8564604
51
59.9238136
0
ARC
8
DEFAULT_255_2_778
10
37.0150547
20
82.773589
40
2.0691554
50
59.9183552
51
59.9747313
0
ARC
8
DEFAULT_255_2_778
10
37.0258495
20
82.7920217
40
2.0477948
50
59.9781671
51
60.0347837
0
ARC
8
DEFAULT_255_2_778
10
36.818301
20
82.4321012
40
2.4632695
50
60.0339868
51
60.104185
0
ARC
8
DEFAULT_255_2_778
10
36.9272114
20
82.6212634
40
2.2449948
50
60.1076295
51
60.1839417
0
ARC
8
DEFAULT_255_2_778
10
36.7129157
20
82.2469979
40
2.6762688
50
60.1874245
51
60.2508451
0
ARC
8
DEFAULT_255_2_778
10
36.734344
20
82.2841364
40
2.6333922
50
60.2546733
51
60.3185256
0
ARC
8
DEFAULT_255_2_778
10
36.5784562
20
82.010248
40
2.9485364
50
60.3222062
51
60.3786996
0
ARC
8
DEFAULT_255_2_778
10
36.6024831
20
82.0518496
40
2.900496
50
60.3851119
51
60.4420005
0
ARC
8
DEFAULT_255_2_778
10
36.6259891
20
82.0928739
40
2.8532151
50
60.4462053
51
60.5034899
0
ARC
8
DEFAULT_255_2_778
10
36.6494318
20
82.13492
40
2.8050764
50
60.4974024
51
60.5551169
0
ARC
8
DEFAULT_255_2_778
10
36.4549112
20
81.7902741
40
3.2008278
50
60.5556345
51
60.6057308
0
ARC
8
DEFAULT_255_2_778
10
36.4814537
20
81.8373881
40
3.1467517
50
60.6057518
51
60.656221
0
ARC
8
DEFAULT_255_2_778
10
36.2176805
20
81.3687967
40
3.6844824
50
60.6515991
51
60.6942882
0
ARC
8
DEFAULT_255_2_778
10
36.5338434
20
81.9325161
40
3.0381554
50
60.6900853
51
60.7413561
0
ARC
8
DEFAULT_255_2_778
10
45.1859123
20
97.6103767
40
14.8687227
50
240.6016815
51
241.1819693
0
ARC
8
DEFAULT_255_2_778
10
38.9321062
20
86.4897084
40
2.1102513
50
237.7056788
51
240.3192772
0
ARC
8
DEFAULT_255_2_778
10
38.488503
20
85.7933622
40
1.2846199
50
230.9259889
51
237.8371828
0
ARC
8
DEFAULT_255_2_778
10
38.3507826
20
85.6167648
40
1.0607224
50
229.9575373
51
230.6884973
0
ARC
8
DEFAULT_255_2_778
10
38.025722
20
85.2832555
40
0.5972543
50
209.3214651
51
233.248946
0
ARC
8
DEFAULT_255_2_778
10
38.2554471
20
85.4177381
40
0.8634189
50
191.7868742
51
209.6370045
0
ARC
8
DEFAULT_255_2_778
10
38.5183124
20
85.4779641
40
1.1330562
50
181.0900161
51
192.0528683
0
ARC
8
DEFAULT_255_2_778
10
40.6290739
20
85.6232821
40
3.2479023
50
181.6181882
51
182.9450681
0
ARC
8
DEFAULT_255_2_778
10
39.9556486
20
85.6043772
40
2.5742117
50
180.0306442
51
181.6208466
0
ARC
8
DEFAULT_255_2_778
10
38.927319
20
85.6175272
40
1.5459501
50
171.54371
51
180.5384011
0
ARC
8
DEFAULT_255_2_778
10
38.0888304
20
85.7617283
40
0.6956403
50
128.1295212
51
173.1359764
0
ARC
8
DEFAULT_255_2_778
10
38.3216274
20
85.4835674
40
1.058246
50
121.7437806
51
128.7453491
0
ARC
8
DEFAULT_255_2_778
10
38.233645
20
85.3811952
40
1.1065228
50
105.409028
51
115.0655464
0
ARC
8
DEFAULT_255_2_778
10
38.2141143
20
85.4503348
40
1.0346792
50
94.656058
51
105.3836842
0
ARC
8
DEFAULT_255_2_778
10
38.2121694
20
85.468044
40
1.0168708
50
90.0010621
51
94.6278353
0
ARC
8
DEFAULT_255_2_778
10
38.2121963
20
85.470276
40
1.0146389
50
77.4632621
51
90.0025828
0
ARC
8
DEFAULT_255_2_778
10
38.2229019
20
85.5134183
40
0.970202
50
67.144418
51
77.5273724
0
ARC
8
DEFAULT_255_2_778
10
38.2930147
20
85.6766978
40
0.7925104
50
58.5195674
51
67.2303589
0
ARC
8
DEFAULT_255_2_778
10
38.3959331
20
85.8487699
40
0.5920232
50
54.7588263
51
58.3176298
0
ARC
8
DEFAULT_255_2_778
10
38.4446994
20
85.9186407
40
0.5068188
50
53.4163416
51
54.7036705
0
ARC
8
DEFAULT_255_2_778
10
38.3742088
20
85.8491195
40
0.6048457
50
12.7060978
51
51.9792839
0
ARC
8
DEFAULT_255_2_778
10
38.143986
20
85.7910125
40
0.8422329
50
359.6049322
51
13.1174334
0
ARC
8
DEFAULT_255_2_778
10
37.9373642
20
85.7854384
40
1.0488347
50
357.8510475
51
359.9872596
0
ARC
8
DEFAULT_255_2_778
10
38.1568513
20
85.7193897
40
0.1310062
50
2.1960749
51
35.3026593
0
ARC
8
DEFAULT_255_2_778
10
38.1928322
20
85.7435583
40
0.0876812
50
36.0011463
51
87.2158116
0
ARC
8
DEFAULT_255_2_778
10
38.1935649
20
85.7469267
40
0.0842831
50
87.602061
51
90.0024476
0
ARC
8
DEFAULT_255_2_778
10
38.1942949
20
85.745115
40
0.0860978
50
90.4882171
51
166.4235978
0
ARC
8
DEFAULT_255_2_778
10
38.2335908
20
85.7312169
40
0.1276302
50
164.4994368
51
179.8236575
0
ARC
8
DEFAULT_255_2_778
10
38.1789941
20
85.4019249
40
0.0743629
50
181.6299657
51
186.9949038
0
ARC
8
DEFAULT_255_2_778
10
38.2517355
20
85.4264038
40
0.1503387
50
192.8889649
51
232.8083455
0
ARC
8
DEFAULT_255_2_778
10
38.6961529
20
85.9266141
40
0.8190888
50
229.192136
51
239.0283428
0
ARC
8
DEFAULT_255_2_778
10
40.5160725
20
88.8643365
40
4.2747895
50
238.3763178
51
240.75127
0
ARC
8
DEFAULT_255_2_778
10
30.9400888
20
71.8474711
40
15.2514398
50
59.8000259
51
60.5986014
0
ARC
8
DEFAULT_255_2_778
10
37.6868818
20
83.4124113
40
1.8624324
50
56.1586123
51
60.2213003
0
ARC
8
DEFAULT_255_2_778
10
38.1534679
20
84.1043148
40
1.0279121
50
49.6423211
51
56.282363
0
ARC
8
DEFAULT_255_2_778
10
38.4589784
20
84.460661
40
0.5585384
50
38.2926778
51
49.8525712
0
ARC
8
DEFAULT_255_2_778
10
38.5798912
20
84.5604011
40
0.4018464
50
32.4247627
51
37.8143881
0
ARC
8
DEFAULT_255_2_778
10
38.4843322
20
84.5257863
40
0.5015512
50
1.7050589
51
29.9084764
0
ARC
8
DEFAULT_255_2_778
10
37.9506354
20
83.9727404
40
1.0381836
50
344.0447387
51
358.723345
0
ARC
8
DEFAULT_255_2_778
10
38.31769
20
83.8638755
40
0.6553545
50
316.2030098
51
344.3745754
0
ARC
8
DEFAULT_255_2_778
10
38.295369
20
83.9167964
40
0.7084578
50
280.8527359
51
314.362839
0
ARC
8
DEFAULT_255_2_778
10
38.1820443
20
84.3377046
40
1.1436244
50
275.5945702
51
282.4585073
0
ARC
8
DEFAULT_255_2_778
10
38.1926456
20
84.2346491
40
1.0400264
50
270.0352965
51
275.5667976
0
ARC
8
DEFAULT_255_2_778
10
38.1881268
20
84.0948037
40
0.9001956
50
251.2586887
51
270.3283959
0
ARC
8
DEFAULT_255_2_778
10
38.1352349
20
83.9438813
40
0.740283
50
226.1175828
51
251.3822758
0
ARC
8
DEFAULT_255_2_778
10
38.0513153
20
83.8531823
40
0.6167438
50
208.2558632
51
225.896052
0
ARC
8
DEFAULT_255_2_778
10
38.4901109
20
84.099829
40
1.120059
50
203.7037624
51
208.7432016
0
ARC
8
DEFAULT_255_2_778
10
38.1037993
20
83.9292057
40
0.6977468
50
196.5929062
51
203.6275106
0
ARC
8
DEFAULT_255_2_778
10
38.2012836
20
83.9453349
40
0.7958741
50
182.300224
51
195.7015499
0
ARC
8
DEFAULT_255_2_778
10
40.2185607
20
84.0681884
40
2.8167664
50
180.7090109
51
183.150298
0
ARC
8
DEFAULT_255_2_778
10
46.6549776
20
84.1857048
40
9.2542222
50
180.655644
51
180.9434242
0
ARC
8
DEFAULT_255_2_778
10
41.259904
20
85.6995641
40
1.0590667
50
359.7590142
51
14.0882764
0
ARC
8
DEFAULT_255_2_778
10
41.604013
20
85.7885993
40
0.70364
50
13.8769495
51
38.1886004
0
ARC
8
DEFAULT_255_2_778
10
41.5952727
20
85.7418592
40
0.7400704
50
40.615109
51
86.7307903
0
ARC
8
DEFAULT_255_2_778
10
41.5206395
20
85.3209229
40
1.1656726
50
84.2474745
51
90.0675711
0
ARC
8
DEFAULT_255_2_778
10
41.5194211
20
85.2076362
40
1.2789587
50
90.007004
51
91.8756034
0
ARC
8
DEFAULT_255_2_778
10
41.5179287
20
85.5234272
40
0.9633287
50
92.4016339
51
114.7546388
0
ARC
8
DEFAULT_255_2_778
10
41.3901411
20
85.8244844
40
0.6365057
50
115.656411
51
155.4462853
0
ARC
8
DEFAULT_255_2_778
10
41.6634395
20
85.6967258
40
0.9381836
50
155.2852085
51
171.2083049
0
ARC
8
DEFAULT_255_2_778
10
42.2121839
20
85.6046472
40
1.4945712
50
170.9351518
51
180.3354942
0
ARC
8
DEFAULT_255_2_778
10
42.6591284
20
85.5962252
40
1.9414902
50
180.0097224
51
181.4603899
0
ARC
8
DEFAULT_255_2_778
10
42.7615417
20
85.5984899
40
2.0439279
50
181.4506866
51
181.920009
0
ARC
8
DEFAULT_255_2_778
10
42.2459325
20
84.0234054
40
1.5375779
50
178.8557669
51
179.9956893
0
ARC
8
DEFAULT_255_2_778
10
41.9005656
20
84.0138686
40
1.19225
50
179.5361276
51
192.0918225
0
ARC
8
DEFAULT_255_2_778
10
41.4906716
20
83.9232226
40
0.7724668
50
191.8863177
51
212.0000088
0
ARC
8
DEFAULT_255_2_778
10
41.4335962
20
83.9270396
40
0.7268583
50
214.6402423
51
270.2259636
0
ARC
8
DEFAULT_255_2_778
10
41.5053681
20
84.3998114
40
1.2016018
50
266.712597
51
270.0235172
0
ARC
8
DEFAULT_255_2_778
10
41.5422436
20
84.3973239
40
1.199666
50
268.2621229
51
269.9929193
0
ARC
8
DEFAULT_255_2_778
10
41.5552622
20
84.1202806
40
0.9227165
50
269.1823783
51
290.7443051
0
ARC
8
DEFAULT_255_2_778
10
41.6487078
20
83.8651472
40
0.6510319
50
291.0065937
51
342.2829722
0
ARC
8
DEFAULT_255_2_778
10
41.3397298
20
83.9742985
40
0.9786224
50
341.7005674
51
358.2741253
0
ARC
8
DEFAULT_255_2_778
10
41.0445507
20
83.9960624
40
1.2743881
50
357.6957584
51
0.0152673
0
ARC
8
DEFAULT_255_2_778
10
40.9661702
20
83.9963154
40
1.3527685
50
0.0036682
51
1.1603509
0
ARC
8
DEFAULT_255_2_778
10
41.4047455
20
83.965674
40
0.2151142
50
0.0438719
51
3.9012542
0
ARC
8
DEFAULT_255_2_778
10
41.4805983
20
83.9617794
40
0.1393206
50
332.4708053
51
1.6696052
0
ARC
8
DEFAULT_255_2_778
10
41.5233628
20
83.9413174
40
0.0919548
50
269.1101268
51
331.4610107
0
ARC
8
DEFAULT_255_2_778
10
41.5219358
20
83.9522402
40
0.1028665
50
267.8442449
51
269.9993763
0
ARC
8
DEFAULT_255_2_778
10
41.5215813
20
83.9542167
40
0.1048291
50
190.6544604
51
268.0785262
0
ARC
8
DEFAULT_255_2_778
10
41.5416726
20
83.9586746
40
0.1253999
50
179.8469698
51
190.9589696
0
ARC
8
DEFAULT_255_2_778
10
41.5627493
20
83.9587908
40
0.1464763
50
172.6972377
51
179.9144296
0
ARC
8
DEFAULT_255_2_778
10
41.5672636
20
85.7178984
40
0.1490696
50
180.0509199
51
185.4231571
0
ARC
8
DEFAULT_255_2_778
10
41.5252889
20
85.7212653
40
0.107152
50
133.7609934
51
181.8715289
0
ARC
8
DEFAULT_255_2_778
10
41.5191546
20
85.7248726
40
0.1003226
50
90.6228712
51
132.6555994
0
ARC
8
DEFAULT_255_2_778
10
41.5191079
20
85.7243475
40
0.1008473
50
90.0111981
51
90.593091
0
ARC
8
DEFAULT_255_2_778
10
41.5195016
20
85.7314109
40
0.0937847
50
21.0070013
51
90.252545
0
ARC
8
DEFAULT_255_2_778
10
41.4644072
20
85.7081881
40
0.1535544
50
358.9145934
51
21.7267599
0
ARC
8
DEFAULT_255_2_778
10
41.40236
20
85.7053397
40
0.215574
50
357.7056929
51
359.9839683
0
ARC
8
DEFAULT_255_2_778
10
41.4766164
20
85.6992729
40
0.658086
50
86.764286
51
141.6981855
0
ARC
8
DEFAULT_255_2_778
10
41.4624876
20
85.7565379
40
0.6125748
50
145.0843625
51
170.5205058
0
ARC
8
DEFAULT_255_2_778
10
41.6849213
20
85.7089717
40
0.8398677
50
169.8189832
51
177.3358685
0
ARC
8
DEFAULT_255_2_778
10
42.8556031
20
84.0916854
40
2.0169323
50
177.7971944
51
178.8731779
0
ARC
8
DEFAULT_255_2_778
10
42.714145
20
84.0944409
40
1.8754473
50
178.8723575
51
179.9935861
0
ARC
8
DEFAULT_255_2_778
10
42.2834151
20
84.0871411
40
1.4447369
50
179.702174
51
187.8517808
0
ARC
8
DEFAULT_255_2_778
10
41.7546868
20
84.0119915
40
0.910702
50
187.7124266
51
199.629892
0
ARC
8
DEFAULT_255_2_778
10
41.452743
20
83.9025385
40
0.5895388
50
199.4689554
51
218.1238644
0
ARC
8
DEFAULT_255_2_778
10
41.3841832
20
83.858021
40
0.5081733
50
218.9475574
51
252.0184192
0
ARC
8
DEFAULT_255_2_778
10
41.4623579
20
84.0655814
40
0.7298014
50
251.2113188
51
258.5829793
0
ARC
8
DEFAULT_255_2_778
10
41.536064
20
84.4587652
40
1.129809
50
258.8660854
51
266.7586288
0
ARC
8
DEFAULT_255_2_778
10
41.5931377
20
85.2201157
40
1.89322
50
266.3369377
51
267.1668809
0
ARC
8
DEFAULT_255_2_778
10
41.5338433
20
84.1563272
40
0.8278277
50
267.626588
51
298.1718184
0
ARC
8
DEFAULT_255_2_778
10
41.6711979
20
83.8521043
40
0.4953103
50
300.7807512
51
338.3943032
0
ARC
8
DEFAULT_255_2_778
10
41.4307473
20
83.9488005
40
0.7544732
50
338.2907008
51
355.3833838
0
ARC
8
DEFAULT_255_2_778
10
41.1418547
20
83.9854259
40
1.0454603
50
354.6569763
51
356.9779947
0
ARC
8
DEFAULT_255_2_778
10
41.3392574
20
83.9885718
40
0.401804
50
335.8507428
51
359.948369
0
ARC
8
DEFAULT_255_2_778
10
41.5432346
20
83.907713
40
0.1828535
50
271.8336586
51
332.8199713
0
ARC
8
DEFAULT_255_2_778
10
41.5115631
20
84.0819201
40
0.3589335
50
271.5003843
51
276.0005969
0
ARC
8
DEFAULT_255_2_778
10
41.5124377
20
84.0771033
40
0.3540962
50
270.0062129
51
271.3793159
0
ARC
8
DEFAULT_255_2_778
10
41.4965488
20
83.9258836
40
0.2035007
50
197.9075131
51
274.4889421
0
ARC
8
DEFAULT_255_2_778
10
41.6782272
20
83.9906291
40
0.3963272
50
182.4467263
51
198.7382439
0
ARC
8
DEFAULT_255_2_778
10
42.1094127
20
85.6448633
40
0.8289029
50
180.0203277
51
181.8910914
0
ARC
8
DEFAULT_255_2_778
10
41.7669869
20
85.6561896
40
0.4866158
50
162.5106194
51
181.3683439
0
ARC
8
DEFAULT_255_2_778
10
41.4996079
20
85.7442876
40
0.205154
50
87.9458994
51
163.5357287
0
ARC
8
DEFAULT_255_2_778
10
41.5210545
20
85.4203291
40
0.5291683
50
90.093298
51
91.5261233
0
ARC
8
DEFAULT_255_2_778
10
41.5225354
20
85.6755416
40
0.2739651
50
78.7495079
51
90.4899361
0
ARC
8
DEFAULT_255_2_778
10
41.5354869
20
85.7458013
40
0.2025314
50
66.8847283
51
78.4652009
0
ARC
8
DEFAULT_255_2_778
10
41.5446355
20
85.7683865
40
0.1781684
50
32.528926
51
66.739223
0
ARC
8
DEFAULT_255_2_778
10
41.46654
20
85.7201193
40
0.2699698
50
12.0730362
51
32.2532703
0
ARC
8
DEFAULT_255_2_778
10
41.2744476
20
85.6739737
40
0.4674914
50
2.8489791
51
12.6793709
0
ARC
8
DEFAULT_255_2_778
10
41.4189373
20
85.7410164
40
0.7660771
50
1.473051
51
19.2021307
0
ARC
8
DEFAULT_255_2_778
10
41.6565884
20
85.8255537
40
0.5138461
50
19.0159015
51
57.0543873
0
ARC
8
DEFAULT_255_2_778
10
41.5755517
20
85.6598533
40
0.6973215
50
58.8713721
51
91.6504259
0
ARC
8
DEFAULT_255_2_778
10
41.5556556
20
85.3685274
40
0.9883581
50
90.0108793
51
92.4119612
0
LINE
8
DEFAULT_255_2_778
10
37.5262613
20
83.9790097
11
37.5262613
21
84.2295097
0
LINE
8
DEFAULT_255_2_778
10
37.5262613
20
84.2295097
11
37.9739613
21
84.2282097
0
LINE
8
DEFAULT_255_2_778
10
37.9739613
20
84.2282097
11
37.9752613
21
83.9501097
0
LINE
8
DEFAULT_255_2_778
10
38.4144613
20
83.9935097
11
38.4131613
21
84.2687097
0
LINE
8
DEFAULT_255_2_778
10
38.1501613
20
84.6452097
11
37.8191613
21
84.8466097
0
LINE
8
DEFAULT_255_2_778
10
38.8605613
20
85.7678097
11
38.8605613
21
85.4998097
0
LINE
8
DEFAULT_255_2_778
10
38.8605613
20
85.4998097
11
38.4157613
21
85.4998097
0
LINE
8
DEFAULT_255_2_778
10
38.4157613
20
85.4998097
11
38.4144613
21
85.7374097
0
LINE
8
DEFAULT_255_2_778
10
37.9752613
20
85.7244097
11
37.9765613
21
85.3913097
0
LINE
8
DEFAULT_255_2_778
10
38.1215613
20
85.1813097
11
38.6758613
21
84.8410097
0
LINE
8
DEFAULT_255_2_778
10
38.8562613
20
84.5079097
11
38.8562613
21
83.8705097
0
LINE
8
DEFAULT_255_2_778
10
37.4010613
20
84.0544097
11
37.3997613
21
84.3558097
0
LINE
8
DEFAULT_255_2_778
10
37.3997613
20
84.3558097
11
38.1017613
21
84.3558097
0
LINE
8
DEFAULT_255_2_778
10
38.1017613
20
84.3558097
11
38.1017613
21
83.9573097
0
LINE
8
DEFAULT_255_2_778
10
38.2850613
20
83.9427097
11
38.2850613
21
84.2687097
0
LINE
8
DEFAULT_255_2_778
10
38.9854613
20
85.7461097
11
38.9854613
21
85.3739097
0
LINE
8
DEFAULT_255_2_778
10
38.9854613
20
85.3739097
11
38.2890613
21
85.3739097
0
LINE
8
DEFAULT_255_2_778
10
38.2890613
20
85.3739097
11
38.2877613
21
85.7244097
0
LINE
8
DEFAULT_255_2_778
10
38.1059613
20
85.7316097
11
38.1046613
21
85.3998097
0
LINE
8
DEFAULT_255_2_778
10
38.9856613
20
84.5407097
11
38.9885613
21
83.9496097
0
LINE
8
DEFAULT_255_2_778
10
41.6183613
20
85.6967097
11
41.6225613
21
85.1781097
0
LINE
8
DEFAULT_255_2_778
10
41.6225613
20
85.1781097
11
42.3189613
21
85.1781097
0
LINE
8
DEFAULT_255_2_778
10
42.3189613
20
85.1781097
11
42.3189613
21
85.6951097
0
LINE
8
DEFAULT_255_2_778
10
40.7187613
20
85.5300097
11
40.7086613
21
84.0541097
0
LINE
8
DEFAULT_255_2_778
10
42.3186613
20
84.0237097
11
42.3186613
21
84.5698097
0
LINE
8
DEFAULT_255_2_778
10
42.3186613
20
84.5698097
11
41.6222613
21
84.5698097
0
LINE
8
DEFAULT_255_2_778
10
41.6222613
20
84.5698097
11
41.6193613
21
83.9803097
0
LINE
8
DEFAULT_255_2_778
10
41.4174613
20
83.9774097
11
41.4188613
21
85.7038097
0
LINE
8
DEFAULT_255_2_778
10
41.6177613
20
85.6967097
11
41.6183613
21
85.6967097
0
LINE
8
DEFAULT_255_2_778
10
40.8459613
20
85.7480097
11
40.8346613
21
85.3569097
0
LINE
8
DEFAULT_255_2_778
10
40.8346613
20
85.3569097
11
40.8401613
21
84.1692097
0
LINE
8
DEFAULT_255_2_778
10
42.1858613
20
83.9303097
11
42.1858613
21
84.4444097
0
LINE
8
DEFAULT_255_2_778
10
42.1858613
20
84.4444097
11
41.7410613
21
84.4444097
0
LINE
8
DEFAULT_255_2_778
10
41.7410613
20
84.4444097
11
41.7410613
21
83.9882097
0
LINE
8
DEFAULT_255_2_778
10
41.2822613
20
83.9737097
11
41.2809613
21
85.6175097
0
LINE
8
DEFAULT_255_2_778
10
41.7413613
20
85.6972097
11
41.7426613
21
85.3045097
0
LINE
8
DEFAULT_255_2_778
10
41.7426613
20
85.3045097
11
42.1860613
21
85.3059097
0
LINE
8
DEFAULT_255_2_778
10
42.1860613
20
85.3059097
11
42.1847613
21
85.7607097
0
LINE
8
DEFAULT_255_2_778
10
41.5140613
20
86.3560097
11
41.5137613
21
86.3563097
0
LINE
8
DEFAULT_255_2_778
10
39.9578116
20
84.5216635
11
40.4546116
21
84.5229635
0
LINE
8
DEFAULT_255_2_778
10
40.4546116
20
84.5229635
11
40.4546116
21
85.1788635
0
LINE
8
DEFAULT_255_2_778
10
40.4546116
20
85.1788635
11
39.9578116
21
85.1788635
0
LINE
8
DEFAULT_255_2_778
10
39.9578116
20
85.1788635
11
39.9578116
21
85.7673635
0
LINE
8
DEFAULT_255_2_778
10
39.9578116
20
85.7673635
11
40.5044116
21
85.7673635
0
LINE
8
DEFAULT_255_2_778
10
40.5044116
20
85.7673635
11
40.5044116
21
86.4390635
0
LINE
8
DEFAULT_255_2_778
10
40.5044116
20
86.4390635
11
39.2593116
21
86.4396635
0
LINE
8
DEFAULT_255_2_778
10
39.2593116
20
86.4396635
11
39.2593116
21
83.2476635
0
LINE
8
DEFAULT_255_2_778
10
39.2593116
20
83.2476635
11
40.5224116
21
83.2476635
0
LINE
8
DEFAULT_255_2_778
10
40.5224116
20
83.2476635
11
40.5218116
21
83.9186635
0
LINE
8
DEFAULT_255_2_778
10
40.5218116
20
83.9186635
11
39.9580116
21
83.9199635
0
LINE
8
DEFAULT_255_2_778
10
39.9580116
20
83.9199635
11
39.9578116
21
84.5216635
0
LINE
8
DEFAULT_255_2_778
10
39.8323116
20
85.0534635
11
40.3284116
21
85.0529635
0
LINE
8
DEFAULT_255_2_778
10
40.3284116
20
85.0529635
11
40.3284116
21
84.6491635
0
LINE
8
DEFAULT_255_2_778
10
40.3284116
20
84.6491635
11
39.8323116
21
84.6491635
0
LINE
8
DEFAULT_255_2_778
10
39.8323116
20
84.6491635
11
39.8323116
21
83.7940635
0
LINE
8
DEFAULT_255_2_778
10
39.8323116
20
83.7940635
11
40.3943116
21
83.7940635
0
LINE
8
DEFAULT_255_2_778
10
40.3943116
20
83.7940635
11
40.3954116
21
83.3738635
0
LINE
8
DEFAULT_255_2_778
10
40.3954116
20
83.3738635
11
39.3865116
21
83.3738635
0
LINE
8
DEFAULT_255_2_778
10
39.3865116
20
83.3738635
11
39.3855116
21
86.3128635
0
LINE
8
DEFAULT_255_2_778
10
39.3855116
20
86.3128635
11
40.3790116
21
86.3142635
0
LINE
8
DEFAULT_255_2_778
10
40.3790116
20
86.3142635
11
40.3790116
21
85.8940635
0
LINE
8
DEFAULT_255_2_778
10
40.3790116
20
85.8940635
11
39.8323116
21
85.8940635
0
LINE
8
DEFAULT_255_2_778
10
39.8323116
20
85.8940635
11
39.8323116
21
85.0534635
0
LINE
8
DEFAULT_255_2_778
10
36.6235116
20
86.3139635
11
36.6248116
21
83.7937635
0
LINE
8
DEFAULT_255_2_778
10
36.6248116
20
83.7937635
11
37.1868116
21
83.7937635
0
LINE
8
DEFAULT_255_2_778
10
37.1868116
20
83.7937635
11
37.1868116
21
83.3736635
0
LINE
8
DEFAULT_255_2_778
10
37.1868116
20
83.3736635
11
36.1766116
21
83.3736635
0
LINE
8
DEFAULT_255_2_778
10
36.1766116
20
83.3736635
11
36.1777116
21
86.3126635
0
LINE
8
DEFAULT_255_2_778
10
36.1777116
20
86.3126635
11
36.6235116
21
86.3139635
0
LINE
8
DEFAULT_255_2_778
10
36.0509116
20
83.2492635
11
37.3117116
21
83.2474635
0
LINE
8
DEFAULT_255_2_778
10
37.3117116
20
83.2474635
11
37.3117116
21
83.9197635
0
LINE
8
DEFAULT_255_2_778
10
37.3117116
20
83.9197635
11
36.7492116
21
83.9197635
0
LINE
8
DEFAULT_255_2_778
10
36.7492116
20
83.9197635
11
36.7492116
21
86.4388635
0
LINE
8
DEFAULT_255_2_778
10
36.7492116
20
86.4388635
11
36.0509116
21
86.4401635
0
LINE
8
DEFAULT_255_2_778
10
36.0509116
20
86.4401635
11
36.0509116
21
83.2492635
0
LINE
8
DEFAULT_255_2_778
10
35.2405116
20
84.5216635
11
35.7374116
21
84.5229635
0
LINE
8
DEFAULT_255_2_778
10
35.7374116
20
84.5229635
11
35.7374116
21
85.1788635
0
LINE
8
DEFAULT_255_2_778
10
35.7374116
20
85.1788635
11
35.2405116
21
85.1788635
0
LINE
8
DEFAULT_255_2_778
10
35.2405116
20
85.1788635
11
35.2405116
21
85.7673635
0
LINE
8
DEFAULT_255_2_778
10
35.2405116
20
85.7673635
11
35.7882116
21
85.7673635
0
LINE
8
DEFAULT_255_2_778
10
35.7882116
20
85.7673635
11
35.7882116
21
86.4390635
0
LINE
8
DEFAULT_255_2_778
10
35.7882116
20
86.4390635
11
34.5423116
21
86.4396635
0
LINE
8
DEFAULT_255_2_778
10
34.5423116
20
86.4396635
11
34.5423116
21
83.2476635
0
LINE
8
DEFAULT_255_2_778
10
34.5423116
20
83.2476635
11
35.8035116
21
83.2476635
0
LINE
8
DEFAULT_255_2_778
10
35.8035116
20
83.2476635
11
35.8046116
21
83.9186635
0
LINE
8
DEFAULT_255_2_778
10
35.8046116
20
83.9186635
11
35.2402116
21
83.9199635
0
LINE
8
DEFAULT_255_2_778
10
35.2402116
20
83.9199635
11
35.2405116
21
84.5216635
0
LINE
8
DEFAULT_255_2_778
10
35.6136116
20
85.0532635
11
35.6125116
21
84.6489635
0
LINE
8
DEFAULT_255_2_778
10
35.6125116
20
84.6489635
11
35.1156116
21
84.6489635
0
LINE
8
DEFAULT_255_2_778
10
35.1156116
20
84.6489635
11
35.1156116
21
83.7937635
0
LINE
8
DEFAULT_255_2_778
10
35.1156116
20
83.7937635
11
35.6776116
21
83.7937635
0
LINE
8
DEFAULT_255_2_778
10
35.6776116
20
83.7937635
11
35.6776116
21
83.3736635
0
LINE
8
DEFAULT_255_2_778
10
35.6776116
20
83.3736635
11
34.6687116
21
83.3736635
0
LINE
8
DEFAULT_255_2_778
10
34.6687116
20
83.3736635
11
34.6687116
21
86.3128635
0
LINE
8
DEFAULT_255_2_778
10
34.6687116
20
86.3128635
11
35.6617116
21
86.3142635
0
LINE
8
DEFAULT_255_2_778
10
35.6617116
20
86.3142635
11
35.6617116
21
85.8940635
0
LINE
8
DEFAULT_255_2_778
10
35.6617116
20
85.8940635
11
35.1159116
21
85.8940635
0
LINE
8
DEFAULT_255_2_778
10
35.1159116
20
85.8940635
11
35.1159116
21
85.0534635
0
LINE
8
DEFAULT_255_2_778
10
35.1159116
20
85.0534635
11
35.6136116
21
85.0532635
0
LINE
8
DEFAULT_255_2_778
10
32.8865116
20
86.4377635
11
32.0020116
21
86.4390635
0
LINE
8
DEFAULT_255_2_778
10
32.0020116
20
86.4390635
11
32.0020116
21
83.2476635
0
LINE
8
DEFAULT_255_2_778
10
32.0020116
20
83.2476635
11
32.6751116
21
83.2476635
0
LINE
8
DEFAULT_255_2_778
10
32.6751116
20
83.2476635
11
32.6751116
21
84.3158635
0
LINE
8
DEFAULT_255_2_778
10
32.6751116
20
84.3158635
11
32.9032116
21
83.2476635
0
LINE
8
DEFAULT_255_2_778
10
32.9032116
20
83.2476635
11
33.3278116
21
83.2476635
0
LINE
8
DEFAULT_255_2_778
10
33.3278116
20
83.2476635
11
33.5564116
21
84.3158635
0
LINE
8
DEFAULT_255_2_778
10
33.5564116
20
84.3158635
11
33.5564116
21
83.2476635
0
LINE
8
DEFAULT_255_2_778
10
33.5564116
20
83.2476635
11
34.2303116
21
83.2476635
0
LINE
8
DEFAULT_255_2_778
10
34.2303116
20
83.2476635
11
34.2303116
21
86.4396635
0
LINE
8
DEFAULT_255_2_778
10
34.2303116
20
86.4396635
11
33.3463116
21
86.4396635
0
LINE
8
DEFAULT_255_2_778
10
33.3463116
20
86.4396635
11
33.1148116
21
85.2542635
0
LINE
8
DEFAULT_255_2_778
10
33.1148116
20
85.2542635
11
32.8865116
21
86.4377635
0
LINE
8
DEFAULT_255_2_778
10
33.6787116
20
83.3736635
11
33.6787116
21
84.9899635
0
LINE
8
DEFAULT_255_2_778
10
33.6787116
20
84.9899635
11
33.5681116
21
84.9899635
0
LINE
8
DEFAULT_255_2_778
10
33.5681116
20
84.9899635
11
33.2188116
21
83.3736635
0
LINE
8
DEFAULT_255_2_778
10
33.2188116
20
83.3736635
11
33.0064116
21
83.3736635
0
LINE
8
DEFAULT_255_2_778
10
33.0064116
20
83.3736635
11
32.6576116
21
84.9899635
0
LINE
8
DEFAULT_255_2_778
10
32.6576116
20
84.9899635
11
32.5452116
21
84.9899635
0
LINE
8
DEFAULT_255_2_778
10
32.5452116
20
84.9899635
11
32.5452116
21
83.3736635
0
LINE
8
DEFAULT_255_2_778
10
32.5452116
20
83.3736635
11
32.1253116
21
83.3736635
0
LINE
8
DEFAULT_255_2_778
10
32.1253116
20
83.3736635
11
32.1253116
21
86.3142635
0
LINE
8
DEFAULT_255_2_778
10
32.1253116
20
86.3142635
11
32.7762116
21
86.3142635
0
LINE
8
DEFAULT_255_2_778
10
32.7762116
20
86.3142635
11
33.0564116
21
84.8777635
0
LINE
8
DEFAULT_255_2_778
10
33.0564116
20
84.8777635
11
33.1683116
21
84.8791635
0
LINE
8
DEFAULT_255_2_778
10
33.1683116
20
84.8791635
11
33.4477116
21
86.3142635
0
LINE
8
DEFAULT_255_2_778
10
33.4477116
20
86.3142635
11
34.1001116
21
86.3128635
0
LINE
8
DEFAULT_255_2_778
10
34.1001116
20
86.3128635
11
34.1001116
21
83.3738635
0
LINE
8
DEFAULT_255_2_778
10
34.1001116
20
83.3738635
11
33.6787116
21
83.3736635
0
LINE
8
DEFAULT_255_2_778
10
50.9094094
20
82.1573687
11
51.3208094
21
82.1573687
0
LINE
8
DEFAULT_255_2_778
10
51.3208094
20
82.1573687
11
51.3208094
21
81.0455687
0
ARC
8
DEFAULT_255_2_778
10
51.9709597
20
81.0332725
40
0.6502665
50
178.9165038
51
194.61133
0
ARC
8
DEFAULT_255_2_778
10
51.5788173
20
80.9214674
40
0.242779
50
192.4237435
51
238.6097874
0
ARC
8
DEFAULT_255_2_778
10
51.5708816
20
80.9388191
40
0.2539504
50
242.1796031
51
271.6083896
0
ARC
8
DEFAULT_255_2_778
10
51.5918718
20
80.91014
40
0.2255975
50
266.4771211
51
348.0021488
0
ARC
8
DEFAULT_255_2_778
10
51.2150627
20
81.029081
40
0.6200665
50
344.4873852
51
0.2984843
0
ARC
8
DEFAULT_255_2_778
10
50.8502543
20
81.0455221
40
0.9849552
50
359.2314894
51
0.0027135
0
LINE
8
DEFAULT_255_2_778
10
51.8352094
20
81.0455687
11
51.8352094
21
82.1573687
0
LINE
8
DEFAULT_255_2_778
10
51.8352094
20
82.1573687
11
52.2722094
21
82.1573687
0
LINE
8
DEFAULT_255_2_778
10
52.2722094
20
82.1573687
11
52.2722094
21
80.9553687
0
ARC
8
DEFAULT_255_2_778
10
51.3744084
20
80.942795
40
0.897889
50
344.9402934
51
0.8023758
0
ARC
8
DEFAULT_255_2_778
10
51.7698558
20
80.8281321
40
0.4862962
50
282.8383227
51
345.8802565
0
ARC
8
DEFAULT_255_2_778
10
51.6422871
20
81.2735176
40
0.9492336
50
269.2347557
51
284.3725369
0
ARC
8
DEFAULT_255_2_778
10
51.6168837
20
81.4514223
40
1.1271254
50
257.1683621
51
270.6469056
0
ARC
8
DEFAULT_255_2_778
10
51.4955306
20
80.9484214
40
0.6097708
50
230.1036961
51
257.7897155
0
ARC
8
DEFAULT_255_2_778
10
51.4717516
20
80.8901476
40
0.5501439
50
191.6484488
51
228.1106045
0
ARC
8
DEFAULT_255_2_778
10
51.8401866
20
80.9872307
40
0.9308226
50
181.9616112
51
192.922374
0
LINE
8
DEFAULT_255_2_778
10
50.9099094
20
80.9553687
11
50.9099094
21
82.1573687
0
ARC
8
DEFAULT_255_2_778
10
50.1331526
20
81.6163414
40
0.1870868
50
357.8641211
51
80.7123997
0
ARC
8
DEFAULT_255_2_778
10
50.0169093
20
81.2334581
40
0.5861059
50
75.5314857
51
90.2972638
0
ARC
8
DEFAULT_255_2_778
10
50.0021946
20
80.8836431
40
0.9359859
50
89.2853778
51
90.0033345
0
ARC
8
DEFAULT_255_2_778
10
50.0037484
20
80.7083569
40
1.1112733
50
90.0829169
51
93.4525701
0
ARC
8
DEFAULT_255_2_778
10
50.0191312
20
80.4316871
40
1.3883681
50
93.3986434
51
95.1415915
0
LINE
8
DEFAULT_255_2_778
10
49.8947094
20
81.8144687
11
49.8947094
21
81.4043687
0
ARC
8
DEFAULT_255_2_778
10
50.0304875
20
82.6553269
40
1.2583052
50
263.8054094
51
267.338586
0
ARC
8
DEFAULT_255_2_778
10
50.0161842
20
82.3670173
40
0.969643
50
267.391803
51
269.9560016
0
ARC
8
DEFAULT_255_2_778
10
50.0256039
20
81.9632337
40
0.5659503
50
268.9709286
51
284.0205431
0
ARC
8
DEFAULT_255_2_778
10
50.1183731
20
81.6216343
40
0.2121761
50
282.063371
51
323.4844598
0
ARC
8
DEFAULT_255_2_778
10
50.121423
20
81.6025049
40
0.1988049
50
327.3953241
51
1.9785485
0
ARC
8
DEFAULT_255_2_778
10
49.932786
20
80.1924301
40
0.8592972
50
90.0296537
51
92.0658899
0
ARC
8
DEFAULT_255_2_778
10
49.9435126
20
80.5791406
40
0.4727185
50
74.3079156
51
91.3541422
0
ARC
8
DEFAULT_255_2_778
10
50.0335455
20
80.8796449
40
0.159155
50
30.4777112
51
76.2525266
0
ARC
8
DEFAULT_255_2_778
10
50.3476922
20
81.0089231
40
0.2396114
50
25.4179783
51
69.1668694
0
ARC
8
DEFAULT_255_2_778
10
50.3352145
20
81.6265711
40
0.4056426
50
283.9361241
51
323.8429179
0
ARC
8
DEFAULT_255_2_778
10
50.280944
20
81.6400476
40
0.4579
50
326.4888921
51
356.4503818
0
ARC
8
DEFAULT_255_2_778
10
49.9965303
20
81.6782932
40
0.7444198
50
354.8674797
51
0.0936194
0
ARC
8
DEFAULT_255_2_778
10
49.8891557
20
81.6794367
40
0.8517934
50
0.0049013
51
1.038092
0
ARC
8
DEFAULT_255_2_778
10
50.2503983
20
81.6858359
40
0.4904943
50
1.0552084
51
29.6787011
0
ARC
8
DEFAULT_255_2_778
10
50.3160246
20
81.7028585
40
0.4254173
50
32.0638476
51
71.8439917
0
ARC
8
DEFAULT_255_2_778
10
50.1689013
20
81.308699
40
0.8459669
50
70.6941592
51
85.8297225
0
ARC
8
DEFAULT_255_2_778
10
50.1142428
20
80.780105
40
1.3772299
50
85.1609944
51
90.1218865
0
ARC
8
DEFAULT_255_2_778
10
50.1116127
20
80.4812397
40
1.6760923
50
90.0102438
51
91.3470893
0
LINE
8
DEFAULT_255_2_778
10
50.0722094
20
82.1568687
11
49.4756094
21
82.1568687
0
LINE
8
DEFAULT_255_2_778
10
50.9099094
20
82.1573687
11
50.9094094
21
82.1573687
0
LINE
8
DEFAULT_255_2_778
10
50.3201094
20
81.6093687
11
50.3201094
21
81.6093687
0
LINE
8
DEFAULT_255_2_778
10
49.4759094
20
82.1568687
11
49.4759094
21
80.3243687
0
LINE
8
DEFAULT_255_2_778
10
49.4759094
20
80.3243687
11
49.9018094
21
80.3243687
0
LINE
8
DEFAULT_255_2_778
10
49.9018094
20
80.3243687
11
49.9018094
21
81.0511687
0
LINE
8
DEFAULT_255_2_778
10
50.1707094
20
80.9603687
11
50.3739094
21
80.3319687
0
LINE
8
DEFAULT_255_2_778
10
50.3739094
20
80.3319687
11
50.8131094
21
80.3243687
0
LINE
8
DEFAULT_255_2_778
10
50.8131094
20
80.3243687
11
50.5641094
21
81.1117687
0
LINE
8
DEFAULT_255_2_778
10
49.4756094
20
82.1568687
11
49.4759094
21
82.1568687
0
LINE
8
DEFAULT_255_2_778
10
53.6266094
20
80.7841687
11
53.6266094
21
82.1573687
0
LINE
8
DEFAULT_255_2_778
10
53.6266094
20
82.1573687
11
53.9738094
21
82.1573687
0
LINE
8
DEFAULT_255_2_778
10
53.9738094
20
82.1573687
11
53.9738094
21
80.3206687
0
LINE
8
DEFAULT_255_2_778
10
53.9738094
20
80.3206687
11
53.5311094
21
80.3206687
0
LINE
8
DEFAULT_255_2_778
10
53.5311094
20
80.3206687
11
52.8392094
21
81.6945687
0
LINE
8
DEFAULT_255_2_778
10
52.8392094
20
81.6945687
11
52.8342094
21
81.6945687
0
LINE
8
DEFAULT_255_2_778
10
52.8342094
20
81.6945687
11
52.8342094
21
80.3206687
0
LINE
8
DEFAULT_255_2_778
10
52.8342094
20
80.3206687
11
52.4871094
21
80.3206687
0
LINE
8
DEFAULT_255_2_778
10
52.4871094
20
80.3206687
11
52.4871094
21
82.1573687
0
LINE
8
DEFAULT_255_2_778
10
52.4871094
20
82.1573687
11
52.9324094
21
82.1573687
0
LINE
8
DEFAULT_255_2_778
10
52.9324094
20
82.1573687
11
53.6216094
21
80.7841687
0
LINE
8
DEFAULT_255_2_778
10
53.6216094
20
80.7841687
11
53.6266094
21
80.7841687
0
LINE
8
DEFAULT_255_2_778
10
59.9896095
20
79.1905838
11
60.3920095
21
79.1905838
0
LINE
8
DEFAULT_255_2_778
10
60.3920095
20
79.1905838
11
60.3920095
21
78.1112838
0
ARC
8
DEFAULT_255_2_778
10
61.0145521
20
78.0990661
40
0.6226625
50
178.875688
51
194.9737237
0
ARC
8
DEFAULT_255_2_778
10
60.6297812
20
77.9819798
40
0.2211289
50
191.4229955
51
273.5853256
0
ARC
8
DEFAULT_255_2_778
10
60.6574693
20
77.982051
40
0.2212018
50
266.4076762
51
348.5620138
0
ARC
8
DEFAULT_255_2_778
10
60.273001
20
78.0990662
40
0.6224282
50
345.0205057
51
1.1247316
0
LINE
8
DEFAULT_255_2_778
10
60.8953095
20
78.1112838
11
60.8953095
21
79.1905838
0
LINE
8
DEFAULT_255_2_778
10
60.8953095
20
79.1905838
11
61.3228095
21
79.1905838
0
LINE
8
DEFAULT_255_2_778
10
61.3228095
20
79.1905838
11
61.3228095
21
78.0239838
0
ARC
8
DEFAULT_255_2_778
10
60.4651743
20
78.0112076
40
0.8577304
50
344.343867
51
0.8534754
0
ARC
8
DEFAULT_255_2_778
10
60.8320124
20
77.9034799
40
0.4754544
50
281.4371252
51
344.9144406
0
ARC
8
DEFAULT_255_2_778
10
60.7052419
20
78.3623045
40
0.950888
50
269.3171478
51
283.4423244
0
ARC
8
DEFAULT_255_2_778
10
60.6814373
20
78.5231642
40
1.1117504
50
257.2710865
51
270.642787
0
ARC
8
DEFAULT_255_2_778
10
60.5616047
20
78.023372
40
0.5978758
50
230.1936192
51
257.9193156
0
ARC
8
DEFAULT_255_2_778
10
60.5363751
20
77.9633471
40
0.5359505
50
191.176327
51
228.1570788
0
ARC
8
DEFAULT_255_2_778
10
60.8933048
20
78.0556238
40
0.9042489
50
182.0052076
51
192.528832
0
LINE
8
DEFAULT_255_2_778
10
59.9896095
20
78.0239838
11
59.9896095
21
79.1905838
0
ARC
8
DEFAULT_255_2_778
10
62.0971481
20
77.8075427
40
1.1688648
50
66.2336675
51
73.623183
0
ARC
8
DEFAULT_255_2_778
10
62.2247069
20
78.2488288
40
0.7095197
50
73.458565
51
84.7044561
0
ARC
8
DEFAULT_255_2_778
10
62.2473787
20
78.4513958
40
0.5057397
50
85.1439694
51
89.9343177
0
ARC
8
DEFAULT_255_2_778
10
62.2399491
20
78.6124128
40
0.3448153
50
88.6690199
51
118.8567339
0
ARC
8
DEFAULT_255_2_778
10
62.2303166
20
78.6433008
40
0.3131808
50
120.0406426
51
140.6005558
0
ARC
8
DEFAULT_255_2_778
10
62.2597302
20
78.7026537
40
0.3051392
50
152.8102202
51
166.841189
0
ARC
8
DEFAULT_255_2_778
10
62.1616489
20
78.726848
40
0.2041291
50
167.186631
51
179.7283043
0
ARC
8
DEFAULT_255_2_778
10
62.141334
20
78.7320744
40
0.1838613
50
181.3271563
51
236.6669883
0
ARC
8
DEFAULT_255_2_778
10
62.3247832
20
78.970732
40
0.4845691
50
234.049793
51
250.1988349
0
ARC
8
DEFAULT_255_2_778
10
62.4809412
20
79.3610764
40
0.9048528
50
249.2684161
51
254.1830058
0
ARC
8
DEFAULT_255_2_778
10
61.8719758
20
77.4048826
40
1.1444718
50
60.9328164
51
71.5428932
0
ARC
8
DEFAULT_255_2_778
10
62.1203292
20
77.8429203
40
0.6409601
50
42.5526987
51
61.3135687
0
ARC
8
DEFAULT_255_2_778
10
62.2801691
20
77.9922397
40
0.4222376
50
359.2104899
51
42.2945617
0
ARC
8
DEFAULT_255_2_778
10
62.1175152
20
77.9895144
40
0.5848596
50
348.0465596
51
359.6970136
0
ARC
8
DEFAULT_255_2_778
10
61.8991481
20
78.0344011
40
0.8077895
50
340.125244
51
348.1397743
0
ARC
8
DEFAULT_255_2_778
10
61.7597327
20
78.0811028
40
0.9547842
50
339.8553863
51
340.3338527
0
ARC
8
DEFAULT_255_2_778
10
61.9811284
20
78.113015
40
0.7653277
50
315.6276362
51
331.8785515
0
ARC
8
DEFAULT_255_2_778
10
62.1372079
20
77.9636296
40
0.5492977
50
268.5656914
51
315.3807205
0
ARC
8
DEFAULT_255_2_778
10
62.12843
20
78.2628117
40
0.8483221
50
258.469264
51
269.6642312
0
ARC
8
DEFAULT_255_2_778
10
62.1987912
20
78.6192755
40
1.2116584
50
250.976027
51
258.5786715
0
ARC
8
DEFAULT_255_2_778
10
62.3598693
20
79.0899468
40
1.7091288
50
245.0649325
51
251.0142877
0
ARC
8
DEFAULT_255_2_778
10
62.6356928
20
79.6988654
40
2.3775816
50
245.1521596
51
245.2240218
0
ARC
8
DEFAULT_255_2_778
10
37.8152464
20
80.4991222
40
24.004282
50
352.922192
51
353.6403338
0
ARC
8
DEFAULT_255_2_778
10
62.2308534
20
78.9916158
40
1.279971
50
244.1024729
51
251.4040275
0
ARC
8
DEFAULT_255_2_778
10
62.0783134
20
78.5317324
40
0.7954566
50
251.2543891
51
262.2263177
0
ARC
8
DEFAULT_255_2_778
10
62.0425558
20
78.2930388
40
0.5541289
50
262.5513151
51
269.8583804
0
ARC
8
DEFAULT_255_2_778
10
62.0524902
20
78.1042193
40
0.3654827
50
268.2276083
51
317.5597151
0
ARC
8
DEFAULT_255_2_778
10
62.0985865
20
77.9814645
40
0.2556436
50
331.0148017
51
347.0445592
0
ARC
8
DEFAULT_255_2_778
10
62.1746177
20
77.9624032
40
0.177281
50
347.5391835
51
359.7999589
0
ARC
8
DEFAULT_255_2_778
10
62.1728517
20
77.9559348
40
0.1791413
50
1.8712009
51
53.3774965
0
ARC
8
DEFAULT_255_2_778
10
61.9763002
20
77.7271842
40
0.4804555
50
50.8377705
51
66.6927835
0
ARC
8
DEFAULT_255_2_778
10
61.7645921
20
77.2685669
40
0.9854981
50
65.938412
51
72.6418355
0
ARC
8
DEFAULT_255_2_778
10
62.2519497
20
79.0334559
40
0.8466433
50
240.7548424
51
256.7994072
0
ARC
8
DEFAULT_255_2_778
10
62.0392022
20
78.6744308
40
0.4295651
50
183.4362077
51
242.1193713
0
ARC
8
DEFAULT_255_2_778
10
62.6258355
20
78.6734596
40
1.0157283
50
180.0082725
51
181.3977023
0
ARC
8
DEFAULT_255_2_778
10
62.3341677
20
78.6832355
40
0.7241283
50
164.3375199
51
180.7851368
0
ARC
8
DEFAULT_255_2_778
10
62.0561799
20
78.7629091
40
0.4349564
50
104.9529613
51
164.5571004
0
ARC
8
DEFAULT_255_2_778
10
62.1848379
20
78.3841626
40
0.834498
50
92.9294901
51
106.7778754
0
ARC
8
DEFAULT_255_2_778
10
62.2172653
20
77.9912782
40
1.2285881
50
89.9428896
51
93.5033931
0
ARC
8
DEFAULT_255_2_778
10
62.215959
20
77.6742926
40
1.5455753
50
85.7313189
51
89.9061739
0
ARC
8
DEFAULT_255_2_778
10
62.1817181
20
77.2117462
40
2.0093873
50
82.1252094
51
85.7393923
0
ARC
8
DEFAULT_255_2_778
10
62.1024161
20
76.6342573
40
2.5922954
50
79.1134262
51
82.1377372
0
ARC
8
DEFAULT_255_2_778
10
62.0326997
20
76.2552906
40
2.9776104
50
78.7792955
51
79.1733085
0
ARC
8
DEFAULT_255_2_778
10
65.0883689
20
78.6870043
40
0.1747099
50
358.3861368
51
81.7334903
0
ARC
8
DEFAULT_255_2_778
10
64.9731825
20
78.296649
40
0.5804619
50
76.0122783
51
90.6935672
0
ARC
8
DEFAULT_255_2_778
10
64.9605835
20
77.9528002
40
0.924285
50
89.6545508
51
90.0008021
0
ARC
8
DEFAULT_255_2_778
10
64.9624345
20
77.7773873
40
1.0996995
50
90.0971154
51
93.6828329
0
ARC
8
DEFAULT_255_2_778
10
64.9782852
20
77.50349
40
1.3740505
50
93.6088036
51
95.0133688
0
LINE
8
DEFAULT_255_2_778
10
64.8582095
20
78.8722838
11
64.8582095
21
78.4915838
0
ARC
8
DEFAULT_255_2_778
10
64.9876985
20
79.7095678
40
1.2248479
50
263.9314373
51
267.4154873
0
ARC
8
DEFAULT_255_2_778
10
64.9741141
20
79.4287367
40
0.9436903
50
267.4705624
51
269.9573815
0
ARC
8
DEFAULT_255_2_778
10
64.9835937
20
79.0284876
40
0.5435364
50
268.92667
51
284.1685165
0
ARC
8
DEFAULT_255_2_778
10
65.0883162
20
78.6740413
40
0.1748647
50
279.3207958
51
2.5377431
0
ARC
8
DEFAULT_255_2_778
10
64.8943564
20
77.3280642
40
0.836731
50
90.0285006
51
92.0031113
0
ARC
8
DEFAULT_255_2_778
10
64.905104
20
77.7112526
40
0.4536799
50
74.1391617
51
91.4100394
0
ARC
8
DEFAULT_255_2_778
10
64.9927004
20
78.0022809
40
0.1498657
50
31.1858508
51
75.9450861
0
ARC
8
DEFAULT_255_2_778
10
65.292816
20
78.1209662
40
0.2255825
50
26.1495258
51
69.8811182
0
ARC
8
DEFAULT_255_2_778
10
65.2788198
20
78.7119067
40
0.3900292
50
283.5814586
51
321.6195549
0
ARC
8
DEFAULT_255_2_778
10
65.2453472
20
78.7116056
40
0.4166122
50
324.5114091
51
357.0315866
0
ARC
8
DEFAULT_255_2_778
10
64.9840009
20
78.7463802
40
0.6797391
50
355.2448391
51
0.0785327
0
ARC
8
DEFAULT_255_2_778
10
64.8960073
20
78.7472669
40
0.767732
50
0.0033558
51
1.0536032
0
ARC
8
DEFAULT_255_2_778
10
65.2259727
20
78.7545836
40
0.4376896
50
0.8902167
51
32.8917402
0
ARC
8
DEFAULT_255_2_778
10
65.2594224
20
78.7531204
40
0.4108545
50
35.5972931
51
72.7523004
0
ARC
8
DEFAULT_255_2_778
10
65.1154699
20
78.3449934
40
0.8434719
50
71.6335613
51
86.5801433
0
ARC
8
DEFAULT_255_2_778
10
65.0671859
20
77.8246155
40
1.3659112
50
85.8604723
51
90.0921497
0
ARC
8
DEFAULT_255_2_778
10
65.0652728
20
77.5563677
40
1.6341573
50
90.0099463
51
91.3311651
0
LINE
8
DEFAULT_255_2_778
10
65.0273095
20
79.1900838
11
64.4597095
21
79.1900838
0
LINE
8
DEFAULT_255_2_778
10
59.9896095
20
79.1905838
11
59.9896095
21
79.1905838
0
LINE
8
DEFAULT_255_2_778
10
62.6121095
20
79.1759838
11
62.5770095
21
78.8859838
0
LINE
8
DEFAULT_255_2_778
10
64.0782095
20
77.7572838
11
64.0782095
21
77.4892838
0
LINE
8
DEFAULT_255_2_778
10
64.0782095
20
77.4892838
11
63.0691095
21
77.4892838
0
LINE
8
DEFAULT_255_2_778
10
63.0691095
20
77.4892838
11
63.0691095
21
79.1905838
0
LINE
8
DEFAULT_255_2_778
10
63.0691095
20
79.1905838
11
64.0734095
21
79.1905838
0
LINE
8
DEFAULT_255_2_778
10
64.0734095
20
79.1905838
11
64.0734095
21
78.9225838
0
LINE
8
DEFAULT_255_2_778
10
64.0734095
20
78.9225838
11
63.4104095
21
78.9225838
0
LINE
8
DEFAULT_255_2_778
10
63.4104095
20
78.9225838
11
63.4104095
21
78.5031838
0
LINE
8
DEFAULT_255_2_778
10
63.4104095
20
78.5031838
11
64.0171095
21
78.5031838
0
LINE
8
DEFAULT_255_2_778
10
64.0171095
20
78.5031838
11
64.0171095
21
78.2351838
0
LINE
8
DEFAULT_255_2_778
10
64.0171095
20
78.2351838
11
63.4104095
21
78.2351838
0
LINE
8
DEFAULT_255_2_778
10
63.4104095
20
78.2351838
11
63.4104095
21
77.7572838
0
LINE
8
DEFAULT_255_2_778
10
63.4104095
20
77.7572838
11
64.0782095
21
77.7572838
0
LINE
8
DEFAULT_255_2_778
10
65.2630095
20
78.6817838
11
65.2630095
21
78.6820838
0
LINE
8
DEFAULT_255_2_778
10
64.4597095
20
79.1902838
11
64.4597095
21
77.4895838
0
LINE
8
DEFAULT_255_2_778
10
64.4597095
20
77.4895838
11
64.8651095
21
77.4895838
0
LINE
8
DEFAULT_255_2_778
10
64.8651095
20
77.4895838
11
64.8651095
21
78.1642838
0
LINE
8
DEFAULT_255_2_778
10
65.1209095
20
78.0798838
11
65.3143095
21
77.4964838
0
LINE
8
DEFAULT_255_2_778
10
65.3143095
20
77.4964838
11
65.7324095
21
77.4892838
0
LINE
8
DEFAULT_255_2_778
10
65.7324095
20
77.4892838
11
65.4953095
21
78.2203838
0
LINE
8
DEFAULT_255_2_778
10
64.4597095
20
79.1900838
11
64.4597095
21
79.1902838
0
LINE
8
DEFAULT_255_2_778
10
47.4772028
20
84.8532062
11
47.9487028
21
83.4083062
0
LINE
8
DEFAULT_255_2_778
10
47.9487028
20
83.4083062
11
48.2847028
21
83.4083062
0
LINE
8
DEFAULT_255_2_778
10
48.2847028
20
83.4083062
11
48.7565028
21
84.8532062
0
LINE
8
DEFAULT_255_2_778
10
48.7565028
20
84.8532062
11
48.7618028
21
84.8532062
0
LINE
8
DEFAULT_255_2_778
10
48.7618028
20
84.8532062
11
48.7618028
21
83.4083062
0
LINE
8
DEFAULT_255_2_778
10
48.7618028
20
83.4083062
11
49.0978028
21
83.4083062
0
LINE
8
DEFAULT_255_2_778
10
49.0978028
20
83.4083062
11
49.0978028
21
85.1593062
0
LINE
8
DEFAULT_255_2_778
10
49.0978028
20
85.1593062
11
48.5358028
21
85.1593062
0
LINE
8
DEFAULT_255_2_778
10
48.5358028
20
85.1593062
11
48.1197028
21
83.8322062
0
LINE
8
DEFAULT_255_2_778
10
48.1197028
20
83.8322062
11
48.1144028
21
83.8322062
0
LINE
8
DEFAULT_255_2_778
10
48.1144028
20
83.8322062
11
47.6982028
21
85.1593062
0
LINE
8
DEFAULT_255_2_778
10
47.6982028
20
85.1593062
11
47.1362028
21
85.1593062
0
LINE
8
DEFAULT_255_2_778
10
47.1362028
20
85.1593062
11
47.1362028
21
83.4083062
0
LINE
8
DEFAULT_255_2_778
10
47.1362028
20
83.4083062
11
47.4720028
21
83.4083062
0
LINE
8
DEFAULT_255_2_778
10
47.4720028
20
83.4083062
11
47.4720028
21
84.8482062
0
LINE
8
DEFAULT_255_2_778
10
47.4720028
20
84.8482062
11
47.4772028
21
84.8532062
0
ARC
8
DEFAULT_255_2_778
10
50.7362613
20
84.2527641
40
1.3177921
50
178.8924437
51
179.9972045
0
ARC
8
DEFAULT_255_2_778
10
50.5022377
20
84.2443517
40
1.0838016
50
179.5518713
51
195.081627
0
ARC
8
DEFAULT_255_2_778
10
50.2347201
20
84.1710907
40
0.8064369
50
195.0012805
51
219.2720541
0
ARC
8
DEFAULT_255_2_778
10
50.226702
20
84.1891067
40
0.8118569
50
220.6146651
51
271.1273323
0
ARC
8
DEFAULT_255_2_778
10
50.2426732
20
84.2996413
40
0.9222342
50
270.0000991
51
271.1065926
0
ARC
8
DEFAULT_255_2_778
10
50.2427233
20
84.2986418
40
0.921234
50
271.1046761
51
271.9403494
0
ARC
8
DEFAULT_255_2_778
10
50.2799954
20
84.5331325
40
1.1552124
50
269.6984444
51
269.9999195
0
ARC
8
DEFAULT_255_2_778
10
50.3210993
20
84.1813447
40
0.8044756
50
267.0711406
51
324.9334202
0
ARC
8
DEFAULT_255_2_778
10
50.2418684
20
84.1991793
40
0.8801148
50
326.9469331
51
346.7063342
0
ARC
8
DEFAULT_255_2_778
10
49.8437414
20
84.2975336
40
1.2901962
50
346.5210334
51
359.0382981
0
ARC
8
DEFAULT_255_2_778
10
49.5349144
20
84.3140432
40
1.5992968
50
358.632609
51
359.3727865
0
ARC
8
DEFAULT_255_2_778
10
50.736553
20
84.3183006
40
1.3180836
50
180.00322
51
181.1069863
0
ARC
8
DEFAULT_255_2_778
10
50.5045864
20
84.3264762
40
1.0861483
50
165.1408038
51
180.4351822
0
ARC
8
DEFAULT_255_2_778
10
50.2352595
20
84.3992515
40
0.8071662
50
141.5518767
51
165.2312532
0
ARC
8
DEFAULT_255_2_778
10
50.2130409
20
84.3949578
40
0.7926214
50
88.8617913
51
140.3100209
0
ARC
8
DEFAULT_255_2_778
10
50.2287466
20
84.279254
40
0.9081689
50
86.8885299
51
89.9975367
0
ARC
8
DEFAULT_255_2_778
10
50.2260685
20
84.2273367
40
0.960155
50
86.8448478
51
86.8971123
0
ARC
8
DEFAULT_255_2_778
10
50.2911019
20
84.0506793
40
1.1354222
50
90.0012547
51
90.6149687
0
ARC
8
DEFAULT_255_2_778
10
50.3320134
20
84.3911828
40
0.7959721
50
34.2691436
51
92.9479848
0
ARC
8
DEFAULT_255_2_778
10
50.2559534
20
84.3763897
40
0.8676977
50
12.7452832
51
32.2479551
0
ARC
8
DEFAULT_255_2_778
10
49.8746472
20
84.286206
40
1.2595105
50
0.4699258
51
12.9199185
0
ARC
8
DEFAULT_255_2_778
10
49.5963
20
84.306046
40
1.1744016
50
356.993588
51
358.9798123
0
ARC
8
DEFAULT_255_2_778
10
50.0010765
20
84.2559256
40
0.7680943
50
326.3092211
51
359.144047
0
ARC
8
DEFAULT_255_2_778
10
50.3027249
20
84.0752146
40
0.4172127
50
278.6537572
51
323.9783472
0
ARC
8
DEFAULT_255_2_778
10
50.2757606
20
84.2095025
40
0.5540664
50
269.9953284
51
279.3209661
0
ARC
8
DEFAULT_255_2_778
10
50.2681113
20
84.1316959
40
0.4763205
50
243.9852225
51
270.9147283
0
ARC
8
DEFAULT_255_2_778
10
50.3243467
20
84.1585221
40
0.5265231
50
188.0592942
51
239.7623032
0
ARC
8
DEFAULT_255_2_778
10
50.8127049
20
84.2959941
40
1.0315518
50
182.8412651
51
191.8193554
0
ARC
8
DEFAULT_255_2_778
10
50.9424622
20
84.3059241
40
1.1616469
50
182.6045543
51
183.0131969
0
ARC
8
DEFAULT_255_2_778
10
50.9983721
20
84.2533614
40
1.2163567
50
177.4157632
51
180.0106134
0
ARC
8
DEFAULT_255_2_778
10
50.5785725
20
84.3003471
40
0.7953588
50
148.0931131
51
179.4339477
0
ARC
8
DEFAULT_255_2_778
10
50.2501162
20
84.4882073
40
0.4174768
50
98.9750228
51
146.1539937
0
ARC
8
DEFAULT_255_2_778
10
50.2767435
20
84.3553317
40
0.5529076
50
89.8060182
51
99.5524576
0
ARC
8
DEFAULT_255_2_778
10
50.2826809
20
84.2915578
40
0.6166917
50
90.0033161
51
90.3777224
0
ARC
8
DEFAULT_255_2_778
10
50.2914055
20
84.4464787
40
0.4618539
50
63.7783009
51
91.0868325
0
ARC
8
DEFAULT_255_2_778
10
50.2341879
20
84.4141935
40
0.5174272
50
9.2070569
51
59.6705723
0
ARC
8
DEFAULT_255_2_778
10
49.7488687
20
84.2713113
40
1.0213244
50
2.823714
51
12.7654339
0
ARC
8
DEFAULT_255_2_778
10
49.5944521
20
84.2595086
40
1.1761425
50
1.2485424
51
3.0274071
0
LINE
8
DEFAULT_255_2_778
10
51.1341154
20
84.2965361
11
51.1341154
21
84.2904361
0
LINE
8
DEFAULT_255_2_778
10
49.7810154
20
84.3073361
11
49.7823154
21
84.2531361
0
LINE
8
DEFAULT_255_2_778
10
50.7708154
20
84.2589361
11
50.7705154
21
84.2851361
0
LINE
8
DEFAULT_255_2_778
10
50.7708154
20
84.3073361
11
50.7705154
21
84.2851361
0
LINE
8
DEFAULT_255_2_778
10
50.2755154
20
83.6554361
11
50.2755154
21
83.6554361
0
ARC
8
DEFAULT_255_2_778
10
51.8976301
20
85.4636366
40
1.8011858
50
267.3542607
51
269.2948913
0
ARC
8
DEFAULT_255_2_778
10
51.8953167
20
85.3184417
40
1.6559734
50
269.3131035
51
269.9969651
0
ARC
8
DEFAULT_255_2_778
10
51.9066142
20
84.8682979
40
1.2058833
50
269.4590415
51
280.990549
0
ARC
8
DEFAULT_255_2_778
10
52.0167042
20
84.3269376
40
0.653482
50
280.5642476
51
301.3293592
0
ARC
8
DEFAULT_255_2_778
10
52.102926
20
84.1657268
40
0.4710552
50
302.5667873
51
352.3183361
0
ARC
8
DEFAULT_255_2_778
10
51.7668814
20
84.2394404
40
0.8144233
50
350.3387285
51
0.3039716
0
ARC
8
DEFAULT_255_2_778
10
51.5327359
20
84.2432446
40
1.0485576
50
0.0282256
51
2.7243599
0
ARC
8
DEFAULT_255_2_778
10
51.4402195
20
84.23933
40
1.1411554
50
2.6998935
51
3.5490414
0
ARC
8
DEFAULT_255_2_778
10
51.8265322
20
84.3184323
40
0.7527018
50
359.3558941
51
16.9659803
0
ARC
8
DEFAULT_255_2_778
10
52.106243
20
84.4013843
40
0.4609645
50
17.2492363
51
78.116369
0
ARC
8
DEFAULT_255_2_778
10
51.9656014
20
83.9217315
40
0.9600853
50
75.796956
51
89.7465137
0
ARC
8
DEFAULT_255_2_778
10
51.9478294
20
83.5365887
40
1.345399
50
89.0622206
51
90.0046683
0
ARC
8
DEFAULT_255_2_778
10
51.9489526
20
83.3660673
40
1.5159208
50
90.0465945
51
93.0593464
0
ARC
8
DEFAULT_255_2_778
10
51.9610636
20
83.1234387
40
1.7588503
50
93.031481
51
94.7803947
0
LINE
8
DEFAULT_255_2_778
10
51.8144865
20
84.8761708
11
51.8144865
21
83.6643708
0
LINE
8
DEFAULT_255_2_778
10
51.4546865
20
83.4077708
11
51.4546865
21
85.1592708
0
LINE
8
DEFAULT_255_2_778
10
51.4546865
20
85.1592708
11
51.9943865
21
85.1592708
0
ARC
8
DEFAULT_255_2_778
10
52.0057927
20
83.4697884
40
1.6895209
50
80.6266799
51
90.3868154
0
ARC
8
DEFAULT_255_2_778
10
52.121547
20
84.1420006
40
1.0074427
50
64.6994627
51
80.8955647
0
ARC
8
DEFAULT_255_2_778
10
52.2665318
20
84.4516248
40
0.6655577
50
9.6337281
51
64.5922611
0
ARC
8
DEFAULT_255_2_778
10
51.7746326
20
84.3314142
40
1.1711966
50
359.5698725
51
11.4047651
0
ARC
8
DEFAULT_255_2_778
10
51.3652422
20
84.3236041
40
1.5805542
50
357.0077598
51
359.9643952
0
ARC
8
DEFAULT_255_2_778
10
51.1500999
20
84.3343672
40
1.7959651
50
354.911358
51
357.0231414
0
ARC
8
DEFAULT_255_2_778
10
51.895618
20
84.2232099
40
1.0444784
50
341.204622
51
357.3583509
0
ARC
8
DEFAULT_255_2_778
10
52.2563092
20
84.0996819
40
0.6632221
50
284.4737715
51
341.2676943
0
ARC
8
DEFAULT_255_2_778
10
52.0828296
20
84.6269281
40
1.2176317
50
272.9219082
51
286.1772063
0
ARC
8
DEFAULT_255_2_778
10
52.0409529
20
85.1467872
40
1.739017
50
269.948391
51
273.4267478
0
LINE
8
DEFAULT_255_2_778
10
52.0393865
20
83.4077708
11
51.4546865
21
83.4077708
0
LINE
8
DEFAULT_255_2_778
10
51.8144865
20
83.6643708
11
51.8144865
21
83.6643708
0
LINE
8
DEFAULT_255_2_778
10
51.4546865
20
83.4077708
11
51.4546865
21
83.4077708
0
LINE
8
DEFAULT_255_2_778
10
53.6173865
20
83.6841708
11
53.6173865
21
84.1757708
0
LINE
8
DEFAULT_255_2_778
10
53.6173865
20
84.1757708
11
54.2420865
21
84.1757708
0
LINE
8
DEFAULT_255_2_778
10
54.2420865
20
84.1757708
11
54.2420865
21
84.4517708
0
LINE
8
DEFAULT_255_2_778
10
54.2420865
20
84.4517708
11
53.6173865
21
84.4517708
0
LINE
8
DEFAULT_255_2_778
10
53.6173865
20
84.4517708
11
53.6173865
21
84.8832708
0
LINE
8
DEFAULT_255_2_778
10
53.6173865
20
84.8832708
11
54.2994865
21
84.8832708
0
LINE
8
DEFAULT_255_2_778
10
54.2994865
20
84.8832708
11
54.2994865
21
85.1592708
0
LINE
8
DEFAULT_255_2_778
10
54.2994865
20
85.1592708
11
53.2662865
21
85.1592708
0
LINE
8
DEFAULT_255_2_778
10
53.2662865
20
85.1592708
11
53.2662865
21
83.4082708
0
LINE
8
DEFAULT_255_2_778
10
53.2662865
20
83.4082708
11
54.3044865
21
83.4082708
0
LINE
8
DEFAULT_255_2_778
10
54.3044865
20
83.4082708
11
54.3044865
21
83.6841708
0
LINE
8
DEFAULT_255_2_778
10
54.3044865
20
83.6841708
11
53.6173865
21
83.6841708
0
LINE
8
DEFAULT_255_2_778
10
68.8662219
20
80.7182781
11
68.8662219
21
80.3570781
0
LINE
8
DEFAULT_255_2_778
10
68.8662219
20
80.3570781
11
68.5050219
21
80.3570781
0
LINE
8
DEFAULT_255_2_778
10
68.5050219
20
80.3570781
11
68.5050219
21
80.7182781
0
LINE
8
DEFAULT_255_2_778
10
68.5050219
20
80.7182781
11
68.8662219
21
80.7182781
0
ARC
8
DEFAULT_255_2_778
10
63.2430746
20
81.2354641
40
1.3177921
50
178.8924437
51
179.9972045
0
ARC
8
DEFAULT_255_2_778
10
63.009051
20
81.2270517
40
1.0838016
50
179.5518713
51
195.081627
0
ARC
8
DEFAULT_255_2_778
10
62.7415333
20
81.1537907
40
0.8064369
50
195.0012805
51
219.2720541
0
ARC
8
DEFAULT_255_2_778
10
62.7335153
20
81.1718067
40
0.8118569
50
220.6146651
51
271.1273323
0
ARC
8
DEFAULT_255_2_778
10
62.7494864
20
81.2823413
40
0.9222342
50
270.0000991
51
271.1065926
0
ARC
8
DEFAULT_255_2_778
10
62.7495366
20
81.2813418
40
0.921234
50
271.1046761
51
271.9403494
0
ARC
8
DEFAULT_255_2_778
10
62.7868087
20
81.5158325
40
1.1552124
50
269.6984444
51
269.9999195
0
ARC
8
DEFAULT_255_2_778
10
62.8279245
20
81.1639727
40
0.8044043
50
267.0700257
51
324.9361195
0
ARC
8
DEFAULT_255_2_778
10
62.7487718
20
81.181729
40
0.8799366
50
326.9510609
51
346.7136503
0
ARC
8
DEFAULT_255_2_778
10
62.3506205
20
81.2800349
40
1.2900301
50
346.5283366
51
359.0469976
0
ARC
8
DEFAULT_255_2_778
10
62.0413957
20
81.2964995
40
1.5995261
50
358.641536
51
359.3816055
0
ARC
8
DEFAULT_255_2_778
10
63.2433663
20
81.3010006
40
1.3180836
50
180.00322
51
181.1069863
0
ARC
8
DEFAULT_255_2_778
10
63.0113996
20
81.3091762
40
1.0861483
50
165.1408038
51
180.4351822
0
ARC
8
DEFAULT_255_2_778
10
62.7420727
20
81.3819515
40
0.8071662
50
141.5518767
51
165.2312532
0
ARC
8
DEFAULT_255_2_778
10
62.7198541
20
81.3776578
40
0.7926214
50
88.8617913
51
140.3100209
0
ARC
8
DEFAULT_255_2_778
10
62.7355599
20
81.261954
40
0.9081689
50
86.8885299
51
89.9975367
0
ARC
8
DEFAULT_255_2_778
10
62.7328817
20
81.2100367
40
0.960155
50
86.8448478
51
86.8971123
0
ARC
8
DEFAULT_255_2_778
10
62.7979152
20
81.0333793
40
1.1354222
50
90.0012547
51
90.6149687
0
ARC
8
DEFAULT_255_2_778
10
62.8388394
20
81.3739588
40
0.7958968
50
34.2662135
51
92.949189
0
ARC
8
DEFAULT_255_2_778
10
62.7628466
20
81.3592385
40
0.8675283
50
12.7377398
51
32.2433975
0
ARC
8
DEFAULT_255_2_778
10
62.3815424
20
81.2691074
40
1.2593271
50
0.4608296
51
12.9124303
0
ARC
8
DEFAULT_255_2_778
10
62.1031132
20
81.288746
40
1.1744016
50
356.993588
51
358.9798123
0
ARC
8
DEFAULT_255_2_778
10
62.5078897
20
81.2386256
40
0.7680943
50
326.3092211
51
359.144047
0
ARC
8
DEFAULT_255_2_778
10
62.8095381
20
81.0579146
40
0.4172127
50
278.6537572
51
323.9783472
0
ARC
8
DEFAULT_255_2_778
10
62.7825738
20
81.1922025
40
0.5540664
50
269.9953284
51
279.3209661
0
ARC
8
DEFAULT_255_2_778
10
62.7749245
20
81.1143959
40
0.4763205
50
243.9852225
51
270.9147283
0
ARC
8
DEFAULT_255_2_778
10
62.83116
20
81.1412221
40
0.5265231
50
188.0592942
51
239.7623032
0
ARC
8
DEFAULT_255_2_778
10
63.3195181
20
81.2786941
40
1.0315518
50
182.8412651
51
191.8193554
0
ARC
8
DEFAULT_255_2_778
10
63.4492754
20
81.2886241
40
1.1616469
50
182.6045543
51
183.0131969
0
ARC
8
DEFAULT_255_2_778
10
63.5051853
20
81.2360614
40
1.2163567
50
177.4157632
51
180.0106134
0
ARC
8
DEFAULT_255_2_778
10
63.0853858
20
81.2830471
40
0.7953588
50
148.0931131
51
179.4339477
0
ARC
8
DEFAULT_255_2_778
10
62.7569294
20
81.4709073
40
0.4174768
50
98.9750228
51
146.1539937
0
ARC
8
DEFAULT_255_2_778
10
62.7835567
20
81.3380317
40
0.5529076
50
89.8060182
51
99.5524576
0
ARC
8
DEFAULT_255_2_778
10
62.7894942
20
81.2742578
40
0.6166917
50
90.0033161
51
90.3777224
0
ARC
8
DEFAULT_255_2_778
10
62.7982196
20
81.4291886
40
0.4618441
50
63.7780059
51
91.0869653
0
ARC
8
DEFAULT_255_2_778
10
62.7410733
20
81.3970052
40
0.5172937
50
9.1969292
51
59.6713534
0
ARC
8
DEFAULT_255_2_778
10
62.2562239
20
81.254344
40
1.0206784
50
2.806806
51
12.7545028
0
ARC
8
DEFAULT_255_2_778
10
62.1020467
20
81.2426082
40
1.1752527
50
1.2300034
51
3.0101943
0
LINE
8
DEFAULT_255_2_778
10
63.6408286
20
81.2792361
11
63.6408286
21
81.2731361
0
LINE
8
DEFAULT_255_2_778
10
62.2878286
20
81.2900361
11
62.2891286
21
81.2358361
0
LINE
8
DEFAULT_255_2_778
10
63.2776286
20
81.2416361
11
63.2773286
21
81.2678361
0
LINE
8
DEFAULT_255_2_778
10
63.2776286
20
81.2900361
11
63.2773286
21
81.2678361
0
LINE
8
DEFAULT_255_2_778
10
62.7823286
20
80.6381361
11
62.7823286
21
80.6381361
0
LINE
8
DEFAULT_255_2_778
10
60.7228542
20
80.3260979
11
61.3525542
21
82.1892979
0
LINE
8
DEFAULT_255_2_778
10
61.3525542
20
82.1892979
11
61.6205542
21
82.1892979
0
LINE
8
DEFAULT_255_2_778
10
61.6205542
20
82.1892979
11
60.9910542
21
80.3260979
0
LINE
8
DEFAULT_255_2_778
10
60.9910542
20
80.3260979
11
60.7228542
21
80.3260979
0
LINE
8
DEFAULT_255_2_778
10
60.3508542
20
82.1582979
11
60.3508542
21
80.3572979
0
LINE
8
DEFAULT_255_2_778
10
60.3508542
20
80.3572979
11
59.9896542
21
80.3572979
0
LINE
8
DEFAULT_255_2_778
10
59.9896542
20
80.3572979
11
59.9896542
21
82.1582979
0
LINE
8
DEFAULT_255_2_778
10
59.9896542
20
82.1582979
11
60.3508542
21
82.1582979
0
ARC
8
DEFAULT_255_2_778
10
66.0800208
20
81.6282702
40
0.1835324
50
358.1471856
51
81.2313574
0
ARC
8
DEFAULT_255_2_778
10
65.9628067
20
81.2387258
40
0.5891043
50
75.7316641
51
90.2957912
0
ARC
8
DEFAULT_255_2_778
10
65.9481889
20
80.8867495
40
0.9411442
50
89.2952138
51
90.0032915
0
ARC
8
DEFAULT_255_2_778
10
65.9497258
20
80.7100285
40
1.1178662
50
90.0815443
51
93.4076789
0
ARC
8
DEFAULT_255_2_778
10
65.9650697
20
80.4307323
40
1.3975811
50
93.3550142
51
95.0742928
0
LINE
8
DEFAULT_255_2_778
10
65.8414573
20
81.8228363
11
65.8414573
21
81.4217363
0
ARC
8
DEFAULT_255_2_778
10
65.9757628
20
82.6794608
40
1.2648751
50
263.9047964
51
267.4055527
0
ARC
8
DEFAULT_255_2_778
10
65.9617314
20
82.3904759
40
0.9755516
50
267.4605153
51
269.9577234
0
ARC
8
DEFAULT_255_2_778
10
65.9713748
20
81.980933
40
0.5661035
50
268.9510672
51
284.0604439
0
ARC
8
DEFAULT_255_2_778
10
66.0649121
20
81.6366372
40
0.2095185
50
282.1212357
51
323.2590422
0
ARC
8
DEFAULT_255_2_778
10
66.0708688
20
81.6157495
40
0.1927012
50
327.1794547
51
1.958824
0
ARC
8
DEFAULT_255_2_778
10
65.8787837
20
80.2116861
40
0.8652782
50
90.0282254
51
92.0018939
0
ARC
8
DEFAULT_255_2_778
10
65.8894677
20
80.6007239
40
0.47637
50
74.5354961
51
91.3364193
0
ARC
8
DEFAULT_255_2_778
10
65.9797602
20
80.9060707
40
0.1581016
50
31.0157337
51
76.5673286
0
ARC
8
DEFAULT_255_2_778
10
66.2923427
20
81.0322476
40
0.2370029
50
25.8906841
51
69.4962618
0
ARC
8
DEFAULT_255_2_778
10
66.2782693
20
81.6492955
40
0.4068143
50
283.8071321
51
321.6187639
0
ARC
8
DEFAULT_255_2_778
10
66.2417504
20
81.6511967
40
0.4371354
50
324.3964453
51
356.3914726
0
ARC
8
DEFAULT_255_2_778
10
65.9648831
20
81.6899877
40
0.7162118
50
354.6881943
51
0.0988767
0
ARC
8
DEFAULT_255_2_778
10
65.8593224
20
81.6911531
40
0.8217715
50
0.0049199
51
1.0447188
0
ARC
8
DEFAULT_255_2_778
10
66.2096758
20
81.6979088
40
0.4713533
50
1.0001518
51
30.8829168
0
ARC
8
DEFAULT_255_2_778
10
66.2609974
20
81.7068547
40
0.4231283
50
33.4111711
51
72.1979582
0
ARC
8
DEFAULT_255_2_778
10
66.1119887
20
81.2987003
40
0.8574662
50
71.0559864
51
86.2028269
0
ARC
8
DEFAULT_255_2_778
10
66.0591388
20
80.7618383
40
1.3967552
50
85.4980591
51
90.107275
0
ARC
8
DEFAULT_255_2_778
10
66.0568308
20
80.4721369
40
1.6864542
50
90.0104369
51
91.3310056
0
LINE
8
DEFAULT_255_2_778
10
66.0176573
20
82.1581363
11
65.4257573
21
82.1581363
0
LINE
8
DEFAULT_255_2_778
10
66.2634573
20
81.6223363
11
66.2634573
21
81.6223363
0
LINE
8
DEFAULT_255_2_778
10
65.4257573
20
82.1578363
11
65.4257573
21
80.3652363
0
LINE
8
DEFAULT_255_2_778
10
65.4257573
20
80.3652363
11
65.8485573
21
80.3652363
0
LINE
8
DEFAULT_255_2_778
10
65.8485573
20
80.3652363
11
65.8485573
21
81.0764363
0
LINE
8
DEFAULT_255_2_778
10
66.1152573
20
80.9875363
11
66.3168573
21
80.3726363
0
LINE
8
DEFAULT_255_2_778
10
66.3168573
20
80.3726363
11
66.7526573
21
80.3652363
0
LINE
8
DEFAULT_255_2_778
10
66.7526573
20
80.3652363
11
66.5055573
21
81.1357363
0
LINE
8
DEFAULT_255_2_778
10
65.4257573
20
82.1581363
11
65.4257573
21
82.1578363
0
ARC
8
DEFAULT_255_2_778
10
67.6500208
20
81.6282702
40
0.1835324
50
358.1471856
51
81.2313574
0
ARC
8
DEFAULT_255_2_778
10
67.5328067
20
81.2387258
40
0.5891043
50
75.7316641
51
90.2957912
0
ARC
8
DEFAULT_255_2_778
10
67.5181889
20
80.8867495
40
0.9411442
50
89.2952138
51
90.0032915
0
ARC
8
DEFAULT_255_2_778
10
67.5197258
20
80.7100285
40
1.1178662
50
90.0815443
51
93.4076789
0
ARC
8
DEFAULT_255_2_778
10
67.5350697
20
80.4307323
40
1.3975811
50
93.3550142
51
95.0742928
0
LINE
8
DEFAULT_255_2_778
10
67.4114573
20
81.8228363
11
67.4114573
21
81.4217363
0
ARC
8
DEFAULT_255_2_778
10
67.5457628
20
82.6794608
40
1.2648751
50
263.9047964
51
267.4055527
0
ARC
8
DEFAULT_255_2_778
10
67.5317314
20
82.3904759
40
0.9755516
50
267.4605153
51
269.9577234
0
ARC
8
DEFAULT_255_2_778
10
67.5413748
20
81.980933
40
0.5661035
50
268.9510672
51
284.0604439
0
ARC
8
DEFAULT_255_2_778
10
67.6349121
20
81.6366372
40
0.2095185
50
282.1212357
51
323.2590422
0
ARC
8
DEFAULT_255_2_778
10
67.6408688
20
81.6157495
40
0.1927012
50
327.1794547
51
1.958824
0
ARC
8
DEFAULT_255_2_778
10
67.4487837
20
80.2116861
40
0.8652782
50
90.0282254
51
92.0018939
0
ARC
8
DEFAULT_255_2_778
10
67.4594677
20
80.6007239
40
0.47637
50
74.5354961
51
91.3364193
0
ARC
8
DEFAULT_255_2_778
10
67.5497602
20
80.9060707
40
0.1581016
50
31.0157337
51
76.5673286
0
ARC
8
DEFAULT_255_2_778
10
67.8623427
20
81.0322476
40
0.2370029
50
25.8906841
51
69.4962618
0
ARC
8
DEFAULT_255_2_778
10
67.8482693
20
81.6492955
40
0.4068143
50
283.8071321
51
321.6187639
0
ARC
8
DEFAULT_255_2_778
10
67.8117504
20
81.6511967
40
0.4371354
50
324.3964453
51
356.3914726
0
ARC
8
DEFAULT_255_2_778
10
67.5348831
20
81.6899877
40
0.7162118
50
354.6881943
51
0.0988767
0
ARC
8
DEFAULT_255_2_778
10
67.4293224
20
81.6911531
40
0.8217715
50
0.0049199
51
1.0447188
0
ARC
8
DEFAULT_255_2_778
10
67.7796758
20
81.6979088
40
0.4713533
50
1.0001518
51
30.8829168
0
ARC
8
DEFAULT_255_2_778
10
67.8309974
20
81.7068547
40
0.4231283
50
33.4111711
51
72.1979582
0
ARC
8
DEFAULT_255_2_778
10
67.6819887
20
81.2987003
40
0.8574662
50
71.0559864
51
86.2028269
0
ARC
8
DEFAULT_255_2_778
10
67.6291388
20
80.7618383
40
1.3967552
50
85.4980591
51
90.107275
0
ARC
8
DEFAULT_255_2_778
10
67.6268308
20
80.4721369
40
1.6864542
50
90.0104369
51
91.3310056
0
LINE
8
DEFAULT_255_2_778
10
67.5876573
20
82.1581363
11
66.9957573
21
82.1581363
0
LINE
8
DEFAULT_255_2_778
10
67.8334573
20
81.6223363
11
67.8334573
21
81.6223363
0
LINE
8
DEFAULT_255_2_778
10
66.9957573
20
82.1578363
11
66.9957573
21
80.3652363
0
LINE
8
DEFAULT_255_2_778
10
66.9957573
20
80.3652363
11
67.4185573
21
80.3652363
0
LINE
8
DEFAULT_255_2_778
10
67.4185573
20
80.3652363
11
67.4185573
21
81.0764363
0
LINE
8
DEFAULT_255_2_778
10
67.6852573
20
80.9875363
11
67.8868573
21
80.3726363
0
LINE
8
DEFAULT_255_2_778
10
67.8868573
20
80.3726363
11
68.3226573
21
80.3652363
0
LINE
8
DEFAULT_255_2_778
10
68.3226573
20
80.3652363
11
68.0755573
21
81.1357363
0
LINE
8
DEFAULT_255_2_778
10
66.9957573
20
82.1581363
11
66.9957573
21
82.1578363
0
LINE
8
DEFAULT_255_2_778
10
65.0913653
20
80.6478406
11
65.0913653
21
80.3652406
0
LINE
8
DEFAULT_255_2_778
10
65.0913653
20
80.3652406
11
64.0282653
21
80.3652406
0
LINE
8
DEFAULT_255_2_778
10
64.0282653
20
80.3652406
11
64.0282653
21
82.1583406
0
LINE
8
DEFAULT_255_2_778
10
64.0282653
20
82.1583406
11
65.0863653
21
82.1583406
0
LINE
8
DEFAULT_255_2_778
10
65.0863653
20
82.1583406
11
65.0863653
21
81.8757406
0
LINE
8
DEFAULT_255_2_778
10
65.0863653
20
81.8757406
11
64.3875653
21
81.8757406
0
LINE
8
DEFAULT_255_2_778
10
64.3875653
20
81.8757406
11
64.3875653
21
81.4339406
0
LINE
8
DEFAULT_255_2_778
10
64.3875653
20
81.4339406
11
65.0273653
21
81.4339406
0
LINE
8
DEFAULT_255_2_778
10
65.0273653
20
81.4339406
11
65.0273653
21
81.1513406
0
LINE
8
DEFAULT_255_2_778
10
65.0273653
20
81.1513406
11
64.3875653
21
81.1513406
0
LINE
8
DEFAULT_255_2_778
10
64.3875653
20
81.1513406
11
64.3875653
21
80.6475406
0
LINE
8
DEFAULT_255_2_778
10
64.3875653
20
80.6475406
11
65.0913653
21
80.6475406
0
ARC
8
DEFAULT_255_2_778
10
50.0208539
20
77.8704725
40
0.6522014
50
351.7496287
51
358.0846277
0
ARC
8
DEFAULT_255_2_778
10
50.1118482
20
77.8662393
40
0.5611177
50
358.2060906
51
359.9905311
0
ARC
8
DEFAULT_255_2_778
10
50.3045993
20
77.8829548
40
0.3687498
50
357.3874531
51
63.9649831
0
ARC
8
DEFAULT_255_2_778
10
50.1328088
20
77.5687096
40
0.7266953
50
62.6694961
51
78.4972018
0
ARC
8
DEFAULT_255_2_778
10
50.0484477
20
77.2322264
40
1.0733559
50
77.6662257
51
79.4047627
0
ARC
8
DEFAULT_255_2_778
10
50.1898789
20
78.7952315
40
0.5110188
50
276.283092
51
300.4486263
0
ARC
8
DEFAULT_255_2_778
10
50.2563935
20
78.6561659
40
0.3576664
50
302.5528325
51
355.2532934
0
ARC
8
DEFAULT_255_2_778
10
50.0511418
20
78.7029217
40
0.5668571
50
352.2589931
51
352.8617923
0
ARC
8
DEFAULT_255_2_778
10
49.8421729
20
78.6900439
40
0.7735769
50
355.732696
51
359.6660146
0
ARC
8
DEFAULT_255_2_778
10
49.911556
20
78.6889332
40
0.7041889
50
359.723478
51
0.0030925
0
ARC
8
DEFAULT_255_2_778
10
50.1286402
20
78.7017257
40
0.4872719
50
358.5000858
51
25.6315818
0
ARC
8
DEFAULT_255_2_778
10
50.2143902
20
78.7249545
40
0.4002378
50
27.9443027
51
70.6295197
0
ARC
8
DEFAULT_255_2_778
10
50.0615148
20
78.3446791
40
0.8098944
50
69.3493709
51
84.7452428
0
ARC
8
DEFAULT_255_2_778
10
49.9986964
20
77.8406562
40
1.3176543
50
84.0323729
51
88.7211038
0
ARC
8
DEFAULT_255_2_778
10
50.0470709
20
78.7044304
40
1.3628972
50
269.5137792
51
279.2291238
0
ARC
8
DEFAULT_255_2_778
10
50.1631475
20
78.0276776
40
0.6763151
50
278.7178994
51
296.8028691
0
ARC
8
DEFAULT_255_2_778
10
50.3066738
20
77.7458843
40
0.3600792
50
296.6374776
51
3.5215197
0
ARC
8
DEFAULT_255_2_778
10
50.0796449
20
77.7679651
40
0.5864281
50
0.0035691
51
0.8712709
0
ARC
8
DEFAULT_255_2_778
10
49.9504679
20
78.6489812
40
0.3046701
50
354.0657486
51
359.8993916
0
ARC
8
DEFAULT_255_2_778
10
50.0561937
20
78.6531247
40
0.1989989
50
358.6528521
51
77.1763617
0
ARC
8
DEFAULT_255_2_778
10
49.9210003
20
78.2866854
40
0.5884747
50
72.2544543
51
86.5370999
0
ARC
8
DEFAULT_255_2_778
10
49.8779702
20
77.8171232
40
1.059879
50
85.7484142
51
90.1230802
0
ARC
8
DEFAULT_255_2_778
10
49.8771159
20
77.4490509
40
1.4279494
50
90.0570765
51
92.753062
0
ARC
8
DEFAULT_255_2_778
10
49.8906551
20
77.1438145
40
1.7334842
50
92.7154687
51
94.1367874
0
LINE
8
DEFAULT_255_2_778
10
49.7656053
20
78.8727823
11
49.7656053
21
78.4224823
0
ARC
8
DEFAULT_255_2_778
10
49.7776409
20
80.1020828
40
1.6796437
50
269.5894387
51
276.4905686
0
ARC
8
DEFAULT_255_2_778
10
49.8948288
20
79.1238603
40
0.6944689
50
276.0071928
51
289.039756
0
ARC
8
DEFAULT_255_2_778
10
50.0565106
20
78.679298
40
0.2216207
50
287.0202949
51
321.5154755
0
ARC
8
DEFAULT_255_2_778
10
50.1241196
20
78.6157849
40
0.1293995
50
324.901731
51
0.8401307
0
ARC
8
DEFAULT_255_2_778
10
49.9275583
20
77.8910299
40
0.3761659
50
354.3632281
51
359.9039747
0
ARC
8
DEFAULT_255_2_778
10
50.0750363
20
77.9001119
40
0.2288936
50
357.5680917
51
74.0490619
0
ARC
8
DEFAULT_255_2_778
10
49.9396796
20
77.556463
40
0.5975766
50
70.6235704
51
85.9424757
0
ARC
8
DEFAULT_255_2_778
10
49.8900235
20
77.0727306
40
1.0837182
50
85.1333469
51
90.1512261
0
ARC
8
DEFAULT_255_2_778
10
49.888709
20
76.6788897
40
1.4775562
50
90.0599445
51
92.8992249
0
ARC
8
DEFAULT_255_2_778
10
49.9036931
20
76.3598079
40
1.7969879
50
92.8617891
51
94.407183
0
LINE
8
DEFAULT_255_2_778
10
49.7656053
20
78.1514823
11
49.7656053
21
77.6268823
0
ARC
8
DEFAULT_255_2_778
10
49.9279405
20
79.5791306
40
1.9589861
50
265.246621
51
267.7017936
0
ARC
8
DEFAULT_255_2_778
10
49.9107404
20
79.1611935
40
1.5406955
50
267.7176655
51
269.9587581
0
ARC
8
DEFAULT_255_2_778
10
49.9197599
20
78.5645894
40
0.9441455
50
269.3853362
51
279.5696633
0
ARC
8
DEFAULT_255_2_778
10
50.0164835
20
78.0227882
40
0.3938396
50
278.7978827
51
299.3656536
0
ARC
8
DEFAULT_255_2_778
10
50.1223139
20
77.8368841
40
0.1799286
50
299.0255041
51
2.1297698
0
ARC
8
DEFAULT_255_2_778
10
50.0393009
20
77.8435081
40
0.2628172
50
0.0136776
51
2.3058648
0
LINE
8
DEFAULT_255_2_778
10
54.4694053
20
77.7183823
11
54.4694053
21
77.3571823
0
LINE
8
DEFAULT_255_2_778
10
54.4694053
20
77.3571823
11
54.1082053
21
77.3571823
0
LINE
8
DEFAULT_255_2_778
10
54.1082053
20
77.3571823
11
54.1082053
21
77.7183823
0
LINE
8
DEFAULT_255_2_778
10
54.1082053
20
77.7183823
11
54.4694053
21
77.7183823
0
LINE
8
DEFAULT_255_2_778
10
54.0725053
20
79.1579823
11
54.0725053
21
78.8722823
0
LINE
8
DEFAULT_255_2_778
10
54.0725053
20
78.8722823
11
53.5526053
21
78.8722823
0
LINE
8
DEFAULT_255_2_778
10
53.5526053
20
78.8722823
11
53.5526053
21
77.3434823
0
LINE
8
DEFAULT_255_2_778
10
53.5526053
20
77.3434823
11
53.1885053
21
77.3434823
0
LINE
8
DEFAULT_255_2_778
10
53.1885053
20
77.3434823
11
53.1885053
21
78.8722823
0
LINE
8
DEFAULT_255_2_778
10
53.1885053
20
78.8722823
11
52.6686053
21
78.8722823
0
LINE
8
DEFAULT_255_2_778
10
52.6686053
20
78.8722823
11
52.6686053
21
79.1579823
0
LINE
8
DEFAULT_255_2_778
10
52.6686053
20
79.1579823
11
54.0725053
21
79.1579823
0
LINE
8
DEFAULT_255_2_778
10
50.0281053
20
79.1579823
11
49.4050053
21
79.1579823
0
LINE
8
DEFAULT_255_2_778
10
49.4050053
20
79.1579823
11
49.4050053
21
77.3415823
0
LINE
8
DEFAULT_255_2_778
10
49.4050053
20
77.3415823
11
50.0355053
21
77.3415823
0
LINE
8
DEFAULT_255_2_778
10
50.6660053
20
77.7768823
11
50.6663053
21
77.7768823
0
LINE
8
DEFAULT_255_2_778
10
50.2535053
20
78.6176823
11
50.2535053
21
78.6174823
0
LINE
8
DEFAULT_255_2_778
10
50.3019053
20
77.8540823
11
50.3019053
21
77.8540823
0
LINE
8
DEFAULT_255_2_778
10
51.7923386
20
78.7938562
11
51.7870386
21
78.7938562
0
LINE
8
DEFAULT_255_2_778
10
51.7923386
20
78.7938562
11
51.5242386
21
78.0451562
0
LINE
8
DEFAULT_255_2_778
10
51.5242386
20
78.0451562
11
52.0547386
21
78.0451562
0
LINE
8
DEFAULT_255_2_778
10
52.0547386
20
78.0451562
11
51.7923386
21
78.7938562
0
LINE
8
DEFAULT_255_2_778
10
50.8850386
20
77.3434562
11
51.5920386
21
79.1579562
0
LINE
8
DEFAULT_255_2_778
10
51.5920386
20
79.1579562
11
52.0026386
21
79.1579562
0
LINE
8
DEFAULT_255_2_778
10
52.0026386
20
79.1579562
11
52.7151386
21
77.3434562
0
LINE
8
DEFAULT_255_2_778
10
52.7151386
20
77.3434562
11
52.3124386
21
77.3434562
0
LINE
8
DEFAULT_255_2_778
10
52.3124386
20
77.3434562
11
52.1561386
21
77.7593562
0
LINE
8
DEFAULT_255_2_778
10
52.1561386
20
77.7593562
11
51.4205386
21
77.7593562
0
LINE
8
DEFAULT_255_2_778
10
51.4205386
20
77.7593562
11
51.2620386
21
77.3434562
0
LINE
8
DEFAULT_255_2_778
10
51.2620386
20
77.3434562
11
50.8850386
21
77.3434562
0
LINE
8
DEFAULT_255_2_778
10
65.1284219
20
83.7188427
11
65.1284219
21
83.3571427
0
LINE
8
DEFAULT_255_2_778
10
65.1284219
20
83.3571427
11
64.7672219
21
83.3571427
0
LINE
8
DEFAULT_255_2_778
10
64.7672219
20
83.3571427
11
64.7672219
21
83.7188427
0
LINE
8
DEFAULT_255_2_778
10
64.7672219
20
83.7188427
11
65.1284219
21
83.7188427
0
ARC
8
DEFAULT_255_2_778
10
62.0414208
20
84.6276702
40
0.1835324
50
358.1471856
51
81.2313574
0
ARC
8
DEFAULT_255_2_778
10
61.9242067
20
84.2381258
40
0.5891043
50
75.7316641
51
90.2957912
0
ARC
8
DEFAULT_255_2_778
10
61.9095889
20
83.8861495
40
0.9411442
50
89.2952138
51
90.0032915
0
ARC
8
DEFAULT_255_2_778
10
61.9111258
20
83.7094285
40
1.1178662
50
90.0815443
51
93.4076789
0
ARC
8
DEFAULT_255_2_778
10
61.9264697
20
83.4301323
40
1.3975811
50
93.3550142
51
95.0742928
0
LINE
8
DEFAULT_255_2_778
10
61.8028573
20
84.8222363
11
61.8028573
21
84.4211363
0
ARC
8
DEFAULT_255_2_778
10
61.9371628
20
85.6788608
40
1.2648751
50
263.9047964
51
267.4055527
0
ARC
8
DEFAULT_255_2_778
10
61.9231314
20
85.3898759
40
0.9755516
50
267.4605153
51
269.9577234
0
ARC
8
DEFAULT_255_2_778
10
61.9327748
20
84.980333
40
0.5661035
50
268.9510672
51
284.0604439
0
ARC
8
DEFAULT_255_2_778
10
62.0263121
20
84.6360372
40
0.2095185
50
282.1212357
51
323.2590422
0
ARC
8
DEFAULT_255_2_778
10
62.0322688
20
84.6151495
40
0.1927012
50
327.1794547
51
1.958824
0
ARC
8
DEFAULT_255_2_778
10
61.8401837
20
83.2110861
40
0.8652782
50
90.0282254
51
92.0018939
0
ARC
8
DEFAULT_255_2_778
10
61.8508677
20
83.6001239
40
0.47637
50
74.5354961
51
91.3364193
0
ARC
8
DEFAULT_255_2_778
10
61.9411602
20
83.9054707
40
0.1581016
50
31.0157337
51
76.5673286
0
ARC
8
DEFAULT_255_2_778
10
62.2537427
20
84.0316476
40
0.2370029
50
25.8906841
51
69.4962618
0
ARC
8
DEFAULT_255_2_778
10
62.2396693
20
84.6486955
40
0.4068143
50
283.8071321
51
321.6187639
0
ARC
8
DEFAULT_255_2_778
10
62.2031504
20
84.6505967
40
0.4371354
50
324.3964453
51
356.3914726
0
ARC
8
DEFAULT_255_2_778
10
61.9262831
20
84.6893877
40
0.7162118
50
354.6881943
51
0.0988767
0
ARC
8
DEFAULT_255_2_778
10
61.8207224
20
84.6905531
40
0.8217715
50
0.0049199
51
1.0447188
0
ARC
8
DEFAULT_255_2_778
10
62.1710758
20
84.6973088
40
0.4713533
50
1.0001518
51
30.8829168
0
ARC
8
DEFAULT_255_2_778
10
62.2223974
20
84.7062547
40
0.4231283
50
33.4111711
51
72.1979582
0
ARC
8
DEFAULT_255_2_778
10
62.0733887
20
84.2981003
40
0.8574662
50
71.0559864
51
86.2028269
0
ARC
8
DEFAULT_255_2_778
10
62.0205388
20
83.7612383
40
1.3967552
50
85.4980591
51
90.107275
0
ARC
8
DEFAULT_255_2_778
10
62.0182308
20
83.4715369
40
1.6864542
50
90.0104369
51
91.3310056
0
LINE
8
DEFAULT_255_2_778
10
61.9790573
20
85.1575363
11
61.3871573
21
85.1575363
0
LINE
8
DEFAULT_255_2_778
10
62.2248573
20
84.6217363
11
62.2248573
21
84.6217363
0
LINE
8
DEFAULT_255_2_778
10
61.3871573
20
85.1572363
11
61.3871573
21
83.3646363
0
LINE
8
DEFAULT_255_2_778
10
61.3871573
20
83.3646363
11
61.8099573
21
83.3646363
0
LINE
8
DEFAULT_255_2_778
10
61.8099573
20
83.3646363
11
61.8099573
21
84.0758363
0
LINE
8
DEFAULT_255_2_778
10
62.0766573
20
83.9869363
11
62.2782573
21
83.3720363
0
LINE
8
DEFAULT_255_2_778
10
62.2782573
20
83.3720363
11
62.7140573
21
83.3646363
0
LINE
8
DEFAULT_255_2_778
10
62.7140573
20
83.3646363
11
62.4669573
21
84.1351363
0
LINE
8
DEFAULT_255_2_778
10
61.3871573
20
85.1575363
11
61.3871573
21
85.1572363
0
ARC
8
DEFAULT_255_2_778
10
63.6114208
20
84.6276702
40
0.1835324
50
358.1471856
51
81.2313574
0
ARC
8
DEFAULT_255_2_778
10
63.4942067
20
84.2381258
40
0.5891043
50
75.7316641
51
90.2957912
0
ARC
8
DEFAULT_255_2_778
10
63.4795889
20
83.8861495
40
0.9411442
50
89.2952138
51
90.0032915
0
ARC
8
DEFAULT_255_2_778
10
63.4811258
20
83.7094285
40
1.1178662
50
90.0815443
51
93.4076789
0
ARC
8
DEFAULT_255_2_778
10
63.4964697
20
83.4301323
40
1.3975811
50
93.3550142
51
95.0742928
0
LINE
8
DEFAULT_255_2_778
10
63.3728573
20
84.8222363
11
63.3728573
21
84.4211363
0
ARC
8
DEFAULT_255_2_778
10
63.5071628
20
85.6788608
40
1.2648751
50
263.9047964
51
267.4055527
0
ARC
8
DEFAULT_255_2_778
10
63.4931314
20
85.3898759
40
0.9755516
50
267.4605153
51
269.9577234
0
ARC
8
DEFAULT_255_2_778
10
63.5027748
20
84.980333
40
0.5661035
50
268.9510672
51
284.0604439
0
ARC
8
DEFAULT_255_2_778
10
63.5963121
20
84.6360372
40
0.2095185
50
282.1212357
51
323.2590422
0
ARC
8
DEFAULT_255_2_778
10
63.6022688
20
84.6151495
40
0.1927012
50
327.1794547
51
1.958824
0
ARC
8
DEFAULT_255_2_778
10
63.4101837
20
83.2110861
40
0.8652782
50
90.0282254
51
92.0018939
0
ARC
8
DEFAULT_255_2_778
10
63.4208677
20
83.6001239
40
0.47637
50
74.5354961
51
91.3364193
0
ARC
8
DEFAULT_255_2_778
10
63.5111602
20
83.9054707
40
0.1581016
50
31.0157337
51
76.5673286
0
ARC
8
DEFAULT_255_2_778
10
63.8237427
20
84.0316476
40
0.2370029
50
25.8906841
51
69.4962618
0
ARC
8
DEFAULT_255_2_778
10
63.8096693
20
84.6486955
40
0.4068143
50
283.8071321
51
321.6187639
0
ARC
8
DEFAULT_255_2_778
10
63.7731504
20
84.6505967
40
0.4371354
50
324.3964453
51
356.3914726
0
ARC
8
DEFAULT_255_2_778
10
63.4962831
20
84.6893877
40
0.7162118
50
354.6881943
51
0.0988767
0
ARC
8
DEFAULT_255_2_778
10
63.3907224
20
84.6905531
40
0.8217715
50
0.0049199
51
1.0447188
0
ARC
8
DEFAULT_255_2_778
10
63.7410758
20
84.6973088
40
0.4713533
50
1.0001518
51
30.8829168
0
ARC
8
DEFAULT_255_2_778
10
63.7923974
20
84.7062547
40
0.4231283
50
33.4111711
51
72.1979582
0
ARC
8
DEFAULT_255_2_778
10
63.6433887
20
84.2981003
40
0.8574662
50
71.0559864
51
86.2028269
0
ARC
8
DEFAULT_255_2_778
10
63.5905388
20
83.7612383
40
1.3967552
50
85.4980591
51
90.107275
0
ARC
8
DEFAULT_255_2_778
10
63.5882308
20
83.4715369
40
1.6864542
50
90.0104369
51
91.3310056
0
LINE
8
DEFAULT_255_2_778
10
63.5490573
20
85.1575363
11
62.9571573
21
85.1575363
0
LINE
8
DEFAULT_255_2_778
10
63.7948573
20
84.6217363
11
63.7948573
21
84.6217363
0
LINE
8
DEFAULT_255_2_778
10
62.9571573
20
85.1572363
11
62.9571573
21
83.3646363
0
LINE
8
DEFAULT_255_2_778
10
62.9571573
20
83.3646363
11
63.3799573
21
83.3646363
0
LINE
8
DEFAULT_255_2_778
10
63.3799573
20
83.3646363
11
63.3799573
21
84.0758363
0
LINE
8
DEFAULT_255_2_778
10
63.6466573
20
83.9869363
11
63.8482573
21
83.3720363
0
LINE
8
DEFAULT_255_2_778
10
63.8482573
20
83.3720363
11
64.2840573
21
83.3646363
0
LINE
8
DEFAULT_255_2_778
10
64.2840573
20
83.3646363
11
64.0369573
21
84.1351363
0
LINE
8
DEFAULT_255_2_778
10
62.9571573
20
85.1575363
11
62.9571573
21
85.1572363
0
LINE
8
DEFAULT_255_2_778
10
61.0527521
20
83.6472406
11
61.0527521
21
83.3646406
0
LINE
8
DEFAULT_255_2_778
10
61.0527521
20
83.3646406
11
59.9896521
21
83.3646406
0
LINE
8
DEFAULT_255_2_778
10
59.9896521
20
83.3646406
11
59.9896521
21
85.1577406
0
LINE
8
DEFAULT_255_2_778
10
59.9896521
20
85.1577406
11
61.0477521
21
85.1577406
0
LINE
8
DEFAULT_255_2_778
10
61.0477521
20
85.1577406
11
61.0477521
21
84.8751406
0
LINE
8
DEFAULT_255_2_778
10
61.0477521
20
84.8751406
11
60.3489521
21
84.8751406
0
LINE
8
DEFAULT_255_2_778
10
60.3489521
20
84.8751406
11
60.3489521
21
84.4333406
0
LINE
8
DEFAULT_255_2_778
10
60.3489521
20
84.4333406
11
60.9887521
21
84.4333406
0
LINE
8
DEFAULT_255_2_778
10
60.9887521
20
84.4333406
11
60.9887521
21
84.1507406
0
LINE
8
DEFAULT_255_2_778
10
60.9887521
20
84.1507406
11
60.3489521
21
84.1507406
0
LINE
8
DEFAULT_255_2_778
10
60.3489521
20
84.1507406
11
60.3489521
21
83.6469406
0
LINE
8
DEFAULT_255_2_778
10
60.3489521
20
83.6469406
11
61.0527521
21
83.6469406
0
LINE
8
DEFAULT_255_2_778
10
22.7706334
20
37.5972594
11
23.1484334
21
37.5972594
0
LINE
8
DEFAULT_255_2_778
10
23.1484334
20
37.5972594
11
23.1484334
21
36.6360594
0
ARC
8
DEFAULT_255_2_778
10
23.6585294
20
36.6237861
40
0.5102436
50
178.6216923
51
197.2444839
0
ARC
8
DEFAULT_255_2_778
10
23.3683572
20
36.5286818
40
0.2049778
50
195.9004792
51
274.5824019
0
ARC
8
DEFAULT_255_2_778
10
23.4002329
20
36.5319076
40
0.2081262
50
265.7291333
51
349.8287536
0
ARC
8
DEFAULT_255_2_778
10
23.0691613
20
36.6271553
40
0.5519438
50
346.1632438
51
0.9243434
0
LINE
8
DEFAULT_255_2_778
10
23.6210334
20
36.6360594
11
23.6210334
21
37.5972594
0
LINE
8
DEFAULT_255_2_778
10
23.6210334
20
37.5972594
11
24.0226334
21
37.5972594
0
LINE
8
DEFAULT_255_2_778
10
24.0226334
20
37.5972594
11
24.0226334
21
36.5580594
0
ARC
8
DEFAULT_255_2_778
10
23.3126271
20
36.5452143
40
0.7101225
50
342.0010195
51
1.0364478
0
ARC
8
DEFAULT_255_2_778
10
23.5750709
20
36.4653432
40
0.4358724
50
280.8369436
51
341.3263009
0
ARC
8
DEFAULT_255_2_778
10
23.4435577
20
36.9414722
40
0.929083
50
269.2954535
51
283.2827785
0
ARC
8
DEFAULT_255_2_778
10
23.4195222
20
37.0982393
40
1.0858532
50
257.3927014
51
270.6654514
0
ARC
8
DEFAULT_255_2_778
10
23.2997457
20
36.5921106
40
0.5658209
50
231.0716543
51
258.0425216
0
ARC
8
DEFAULT_255_2_778
10
23.2626411
20
36.5174723
40
0.4847783
50
188.8751025
51
228.9397322
0
ARC
8
DEFAULT_255_2_778
10
23.5709754
20
36.5900441
40
0.800981
50
182.2885435
51
190.601629
0
LINE
8
DEFAULT_255_2_778
10
22.7706334
20
36.5580594
11
22.7706334
21
37.5972594
0
ARC
8
DEFAULT_255_2_778
10
21.8340986
20
35.3893681
40
2.2079156
50
86.0367167
51
90.2689785
0
ARC
8
DEFAULT_255_2_778
10
21.9676223
20
36.8302673
40
0.7619753
50
59.306335
51
88.5650601
0
ARC
8
DEFAULT_255_2_778
10
22.1389657
20
37.1601971
40
0.3913716
50
17.7155526
51
56.2199194
0
ARC
8
DEFAULT_255_2_778
10
21.9901707
20
37.1091299
40
0.5486604
50
5.0115937
51
18.0673238
0
ARC
8
DEFAULT_255_2_778
10
22.1145758
20
37.0748102
40
0.4226978
50
296.5455026
51
1.9318142
0
ARC
8
DEFAULT_255_2_778
10
22.0121873
20
37.2967298
40
0.6670241
50
278.7195578
51
295.8941287
0
ARC
8
DEFAULT_255_2_778
10
21.9266661
20
37.7988623
40
1.1763479
50
269.6039796
51
279.1291997
0
ARC
8
DEFAULT_255_2_778
10
21.9188463
20
38.2178772
40
1.5953349
50
268.5412481
51
269.9888343
0
ARC
8
DEFAULT_255_2_778
10
21.8558122
20
37.8338669
40
0.9634107
50
269.8525789
51
272.8955335
0
ARC
8
DEFAULT_255_2_778
10
21.9244677
20
37.1351335
40
0.2642045
50
265.6610755
51
332.03733
0
ARC
8
DEFAULT_255_2_778
10
21.8821052
20
37.1353771
40
0.3023747
50
335.7630529
51
347.873957
0
ARC
8
DEFAULT_255_2_778
10
21.9588787
20
37.119266
40
0.219585
50
4.6740461
51
74.9683678
0
ARC
8
DEFAULT_255_2_778
10
21.8855991
20
36.9030516
40
0.4476478
50
73.0869883
51
90.9783066
0
ARC
8
DEFAULT_255_2_778
10
21.8781837
20
36.6843444
40
0.6662899
50
90.0195726
51
92.1632408
0
LINE
8
DEFAULT_255_2_778
10
22.7706334
20
37.5972594
11
22.7706334
21
37.5972594
0
LINE
8
DEFAULT_255_2_778
10
25.4884334
20
36.2743594
11
25.4884334
21
36.0269594
0
LINE
8
DEFAULT_255_2_778
10
25.4884334
20
36.0269594
11
24.4806334
21
36.0269594
0
LINE
8
DEFAULT_255_2_778
10
24.4806334
20
36.0269594
11
24.4806334
21
37.5972594
0
LINE
8
DEFAULT_255_2_778
10
24.4806334
20
37.5972594
11
24.8235334
21
37.5972594
0
LINE
8
DEFAULT_255_2_778
10
24.8235334
20
37.5972594
11
24.8235334
21
36.2743594
0
LINE
8
DEFAULT_255_2_778
10
24.8235334
20
36.2743594
11
25.4884334
21
36.2743594
0
LINE
8
DEFAULT_255_2_778
10
26.7150334
20
36.2743594
11
26.7150334
21
36.0269594
0
LINE
8
DEFAULT_255_2_778
10
26.7150334
20
36.0269594
11
25.7067334
21
36.0269594
0
LINE
8
DEFAULT_255_2_778
10
25.7067334
20
36.0269594
11
25.7067334
21
37.5972594
0
LINE
8
DEFAULT_255_2_778
10
25.7067334
20
37.5972594
11
26.0501334
21
37.5972594
0
LINE
8
DEFAULT_255_2_778
10
26.0501334
20
37.5972594
11
26.0501334
21
36.2743594
0
LINE
8
DEFAULT_255_2_778
10
26.0501334
20
36.2743594
11
26.7150334
21
36.2743594
0
LINE
8
DEFAULT_255_2_778
10
22.5367334
20
37.1570594
11
22.5378334
21
37.1226594
0
LINE
8
DEFAULT_255_2_778
10
22.5378334
20
37.1226594
11
22.5370334
21
37.0890594
0
LINE
8
DEFAULT_255_2_778
10
21.8782334
20
36.6230594
11
21.7329334
21
36.6230594
0
LINE
8
DEFAULT_255_2_778
10
21.7329334
20
36.6230594
11
21.7329334
21
36.0272594
0
LINE
8
DEFAULT_255_2_778
10
21.7329334
20
36.0272594
11
21.3895334
21
36.0272594
0
LINE
8
DEFAULT_255_2_778
10
21.3895334
20
36.0272594
11
21.3895334
21
37.5975594
0
LINE
8
DEFAULT_255_2_778
10
21.3895334
20
37.5975594
11
21.8237334
21
37.5972594
0
LINE
8
DEFAULT_255_2_778
10
22.1777334
20
37.0718594
11
22.1795334
21
37.1043594
0
LINE
8
DEFAULT_255_2_778
10
22.1795334
20
37.1043594
11
22.1777334
21
37.1371594
0
LINE
8
DEFAULT_255_2_778
10
21.8530334
20
37.3501594
11
21.7327334
21
37.3501594
0
LINE
8
DEFAULT_255_2_778
10
21.7327334
20
37.3501594
11
21.7327334
21
36.8707594
0
LINE
8
DEFAULT_255_2_778
10
21.7327334
20
36.8707594
11
21.8533334
21
36.8704594
0
ARC
8
DEFAULT_255_2_778
10
34.3148522
20
31.0324485
40
2.990566
50
89.7894069
51
90.0010364
0
ARC
8
DEFAULT_255_2_778
10
34.3910055
20
33.1725706
40
0.8529167
50
55.1976081
51
94.3815697
0
ARC
8
DEFAULT_255_2_778
10
34.4810916
20
33.3691594
40
0.6412169
50
46.8167481
51
51.7794978
0
ARC
8
DEFAULT_255_2_778
10
32.7698732
20
30.7664996
40
3.7443977
50
48.6324224
51
53.2679573
0
ARC
8
DEFAULT_255_2_778
10
36.2544413
20
33.9890402
40
0.9752517
50
226.6113242
51
267.9540176
0
ARC
8
DEFAULT_255_2_778
10
36.2196814
20
33.7679897
40
0.7535794
50
269.9955796
51
270.1913431
0
ARC
8
DEFAULT_255_2_778
10
36.2237306
20
33.7811885
40
0.5421761
50
268.3102342
51
269.8380447
0
ARC
8
DEFAULT_255_2_778
10
36.2610405
20
34.0048138
40
0.7674187
50
226.4602411
51
266.0175903
0
ARC
8
DEFAULT_255_2_778
10
28.4039433
20
40.5573033
40
8.5213087
50
312.7846584
51
314.326057
0
LINE
8
DEFAULT_255_2_778
10
34.3581285
20
34.4613718
11
34.3719625
21
34.4747726
0
ARC
8
DEFAULT_255_2_778
10
36.238711
20
32.7328192
40
2.5532629
50
119.1333719
51
136.9805953
0
ARC
8
DEFAULT_255_2_778
10
35.6060749
20
33.7363543
40
1.3701882
50
114.0994183
51
116.4546987
0
ARC
8
DEFAULT_255_2_778
10
35.4226747
20
33.157336
40
1.8680265
50
88.5100294
51
101.6143333
0
ARC
8
DEFAULT_255_2_778
10
35.4544873
20
23.1693811
40
11.8553617
50
89.4367497
51
89.9190017
0
ARC
8
DEFAULT_255_2_778
10
35.6876066
20
46.8884236
40
11.8648264
50
269.4370394
51
269.9194857
0
ARC
8
DEFAULT_255_2_778
10
35.6709336
20
40.8302762
40
5.8066673
50
270.0000001
51
270.0795736
0
ARC
8
DEFAULT_255_2_778
10
36.0163153
20
35.1199284
40
0.3319489
50
196.9569337
51
250.9734904
0
ARC
8
DEFAULT_255_2_778
10
36.0356818
20
35.0970065
40
0.3024184
50
291.2313576
51
338.3706203
0
ARC
8
DEFAULT_255_2_778
10
35.9452208
20
35.123928
40
0.3965204
50
339.572656
51
0.9765043
0
ARC
8
DEFAULT_255_2_778
10
35.7402266
20
35.1292949
40
0.6014585
50
0.1324834
51
6.3831238
0
ARC
8
DEFAULT_255_2_778
10
35.613601
20
35.1164187
40
0.7287319
50
6.2823817
51
9.0316113
0
ARC
8
DEFAULT_255_2_778
10
36.0167832
20
35.1269998
40
0.3330506
50
22.7165081
51
67.2834735
0
ARC
8
DEFAULT_255_2_778
10
36.0099409
20
35.1317915
40
0.3281851
50
107.3089313
51
159.371294
0
ARC
8
DEFAULT_255_2_778
10
35.3985129
20
27.8456987
40
7.4073201
50
87.7710931
51
88.3615624
0
ARC
8
DEFAULT_255_2_778
10
35.4792073
20
30.7840098
40
4.4679042
50
88.3185838
51
89.9320102
0
ARC
8
DEFAULT_255_2_778
10
35.4060881
20
33.7813781
40
1.4726223
50
86.9474047
51
117.3828477
0
ARC
8
DEFAULT_255_2_778
10
35.2476877
20
34.19722
40
1.0317623
50
120.1943211
51
137.0657015
0
ARC
8
DEFAULT_255_2_778
10
33.5232302
20
34.9385285
40
0.6995897
50
280.150638
51
318.8107074
0
ARC
8
DEFAULT_255_2_778
10
33.5979163
20
34.7348456
40
0.4873866
50
269.9660093
51
275.7236635
0
ARC
8
DEFAULT_255_2_778
10
33.5978124
20
34.7695225
40
0.5220635
50
266.1873311
51
269.9796633
0
ARC
8
DEFAULT_255_2_778
10
33.0997676
20
34.1392914
40
0.4455007
50
13.9664368
51
70.6064805
0
ARC
8
DEFAULT_255_2_778
10
33.085243
20
34.1490693
40
0.4336366
50
100.1536201
51
175.5765296
0
ARC
8
DEFAULT_255_2_778
10
33.1018347
20
34.1384377
40
0.4517901
50
196.3423757
51
249.9863818
0
ARC
8
DEFAULT_255_2_778
10
33.0962318
20
34.1190895
40
0.431695
50
249.8062427
51
269.8759406
0
ARC
8
DEFAULT_255_2_778
10
33.0953481
20
34.100701
40
0.4133055
50
269.9929302
51
275.4169634
0
ARC
8
DEFAULT_255_2_778
10
33.0946533
20
34.1008978
40
0.4135675
50
275.5102128
51
304.4830655
0
ARC
8
DEFAULT_255_2_778
10
33.0477481
20
34.1683202
40
0.4956997
50
304.5398943
51
322.2659276
0
ARC
8
DEFAULT_255_2_778
10
32.9205051
20
34.2679055
40
0.6572777
50
322.1887253
51
334.8049471
0
ARC
8
DEFAULT_255_2_778
10
32.7946328
20
34.3317668
40
0.7983719
50
334.5033995
51
337.1399875
0
LINE
8
DEFAULT_255_2_778
10
27.5805981
20
35.1059145
11
28.0120981
21
35.1059145
0
LINE
8
DEFAULT_255_2_778
10
28.0120981
20
35.1059145
11
28.0120981
21
34.0256145
0
ARC
8
DEFAULT_255_2_778
10
28.59582
20
34.0135077
40
0.5838474
50
178.8118116
51
196.0214537
0
ARC
8
DEFAULT_255_2_778
10
28.2626062
20
33.9095262
40
0.235013
50
194.0764003
51
274.7330781
0
ARC
8
DEFAULT_255_2_778
10
28.2975852
20
33.9184528
40
0.2436373
50
266.3319021
51
316.7913498
0
ARC
8
DEFAULT_255_2_778
10
28.2313202
20
33.9497381
40
0.3141669
50
320.9103355
51
352.5440849
0
ARC
8
DEFAULT_255_2_778
10
27.8644953
20
34.0203749
40
0.6874227
50
350.673481
51
0.4367215
0
LINE
8
DEFAULT_255_2_778
10
28.5518981
20
34.0256145
11
28.5518981
21
35.1059145
0
LINE
8
DEFAULT_255_2_778
10
28.5518981
20
35.1059145
11
29.0103981
21
35.1059145
0
LINE
8
DEFAULT_255_2_778
10
29.0103981
20
35.1059145
11
29.0103981
21
33.9380145
0
ARC
8
DEFAULT_255_2_778
10
28.2077995
20
33.9252368
40
0.8027003
50
343.0869053
51
0.9120954
0
ARC
8
DEFAULT_255_2_778
10
28.5065042
20
33.8375038
40
0.491401
50
281.8007491
51
342.7416434
0
ARC
8
DEFAULT_255_2_778
10
28.3544753
20
34.3583023
40
1.0331502
50
270.0923748
51
284.1476833
0
ARC
8
DEFAULT_255_2_778
10
28.3360878
20
34.7757531
40
1.4507384
50
269.9964555
51
270.7920111
0
ARC
8
DEFAULT_255_2_778
10
28.3233994
20
34.6136974
40
1.2887444
50
258.616125
51
270.5601278
0
ARC
8
DEFAULT_255_2_778
10
28.2017656
20
34.0380901
40
0.7004755
50
237.0430869
51
259.0763674
0
ARC
8
DEFAULT_255_2_778
10
28.1215258
20
33.8892484
40
0.5321092
50
189.1621198
51
235.573838
0
ARC
8
DEFAULT_255_2_778
10
28.4613906
20
33.9733338
40
0.8815004
50
182.296293
51
191.0406668
0
LINE
8
DEFAULT_255_2_778
10
27.5805981
20
33.9380145
11
27.5805981
21
35.1059145
0
LINE
8
DEFAULT_255_2_778
10
34.9198981
20
33.8367145
11
34.9412981
21
33.8200145
0
LINE
8
DEFAULT_255_2_778
10
34.9412981
20
33.8200145
11
35.0092981
21
33.7674145
0
LINE
8
DEFAULT_255_2_778
10
35.2444981
20
33.5766145
11
35.5069981
21
33.3483145
0
LINE
8
DEFAULT_255_2_778
10
35.5069981
20
33.3483145
11
35.5844981
21
33.2803145
0
LINE
8
DEFAULT_255_2_778
10
36.2221981
20
33.0144145
11
36.2221981
21
32.7805145
0
LINE
8
DEFAULT_255_2_778
10
36.2221981
20
32.7805145
11
36.8946981
21
32.7805145
0
LINE
8
DEFAULT_255_2_778
10
36.8946981
20
32.7805145
11
36.8946981
21
33.4541145
0
LINE
8
DEFAULT_255_2_778
10
36.8946981
20
33.4541145
11
36.2221981
21
33.4541145
0
LINE
8
DEFAULT_255_2_778
10
36.2221981
20
33.4541145
11
36.2221981
21
33.2390145
0
LINE
8
DEFAULT_255_2_778
10
35.7323981
20
33.4485145
11
35.6556981
21
33.5165145
0
LINE
8
DEFAULT_255_2_778
10
35.6556981
20
33.5165145
11
35.3865981
21
33.7504145
0
LINE
8
DEFAULT_255_2_778
10
35.3865981
20
33.7504145
11
35.1426981
21
33.9489145
0
LINE
8
DEFAULT_255_2_778
10
35.1426981
20
33.9489145
11
35.0616981
21
34.0118145
0
LINE
8
DEFAULT_255_2_778
10
35.0616981
20
34.0118145
11
35.0457981
21
34.0235145
0
LINE
8
DEFAULT_255_2_778
10
35.0457981
20
34.0235145
11
37.3608981
21
34.0235145
0
LINE
8
DEFAULT_255_2_778
10
37.3608981
20
34.0235145
11
37.3608981
21
33.7502145
0
LINE
8
DEFAULT_255_2_778
10
37.3608981
20
33.7502145
11
38.0363981
21
34.1460145
0
LINE
8
DEFAULT_255_2_778
10
38.0363981
20
34.1460145
11
37.3608981
21
34.5349145
0
LINE
8
DEFAULT_255_2_778
10
37.3608981
20
34.5349145
11
37.3608981
21
34.2479145
0
LINE
8
DEFAULT_255_2_778
10
37.3608981
20
34.2479145
11
34.1300981
21
34.2479145
0
LINE
8
DEFAULT_255_2_778
10
34.1300981
20
34.2479145
11
34.1919981
21
34.3034145
0
LINE
8
DEFAULT_255_2_778
10
35.6789981
20
35.0236145
11
35.6987981
21
35.0231145
0
LINE
8
DEFAULT_255_2_778
10
35.9080981
20
34.8061145
11
35.9596981
21
34.7932145
0
LINE
8
DEFAULT_255_2_778
10
35.9596981
20
34.7932145
11
36.0144981
21
34.7887145
0
LINE
8
DEFAULT_255_2_778
10
36.0144981
20
34.7887145
11
36.0821981
21
34.7955145
0
LINE
8
DEFAULT_255_2_778
10
36.0821981
20
34.7955145
11
36.1451981
21
34.8151145
0
LINE
8
DEFAULT_255_2_778
10
36.3332981
20
35.2308145
11
36.3239981
21
35.2556145
0
LINE
8
DEFAULT_255_2_778
10
36.1453981
20
35.4342145
11
36.0824981
21
35.4538145
0
LINE
8
DEFAULT_255_2_778
10
36.0824981
20
35.4538145
11
36.0146981
21
35.4607145
0
LINE
8
DEFAULT_255_2_778
10
36.0146981
20
35.4607145
11
35.9620981
21
35.4567145
0
LINE
8
DEFAULT_255_2_778
10
35.9620981
20
35.4567145
11
35.9122981
21
35.4451145
0
LINE
8
DEFAULT_255_2_778
10
35.7027981
20
35.2474145
11
35.6865981
21
35.2474145
0
LINE
8
DEFAULT_255_2_778
10
34.4922981
20
34.9000145
11
34.3655981
21
34.7818145
0
LINE
8
DEFAULT_255_2_778
10
34.3655981
20
34.7818145
11
34.2385981
21
34.6593145
0
LINE
8
DEFAULT_255_2_778
10
34.2385981
20
34.6593145
11
34.0496981
21
34.4778145
0
LINE
8
DEFAULT_255_2_778
10
33.5630981
20
34.2486145
11
33.5424981
21
34.2486145
0
LINE
8
DEFAULT_255_2_778
10
33.5424981
20
34.2486145
11
33.5424981
21
34.2473145
0
LINE
8
DEFAULT_255_2_778
10
33.5424981
20
34.2473145
11
33.5320981
21
34.2468145
0
LINE
8
DEFAULT_255_2_778
10
33.2476981
20
34.5595145
11
33.1754981
21
34.5786145
0
LINE
8
DEFAULT_255_2_778
10
33.1754981
20
34.5786145
11
33.0989981
21
34.5852145
0
LINE
8
DEFAULT_255_2_778
10
33.0989981
20
34.5852145
11
33.0531981
21
34.5828145
0
LINE
8
DEFAULT_255_2_778
10
33.0531981
20
34.5828145
11
33.0087981
21
34.5759145
0
LINE
8
DEFAULT_255_2_778
10
32.6528981
20
34.1825145
11
32.6504981
21
34.1365145
0
LINE
8
DEFAULT_255_2_778
10
32.6504981
20
34.1365145
11
32.6528981
21
34.0904145
0
LINE
8
DEFAULT_255_2_778
10
32.6528981
20
34.0904145
11
32.6597981
21
34.0457145
0
LINE
8
DEFAULT_255_2_778
10
32.6597981
20
34.0457145
11
32.6682981
21
34.0113145
0
LINE
8
DEFAULT_255_2_778
10
33.5302981
20
34.0216145
11
33.5656981
21
34.0235145
0
LINE
8
DEFAULT_255_2_778
10
33.5656981
20
34.0235145
11
34.3147981
21
34.0230145
0
LINE
8
DEFAULT_255_2_778
10
27.5805981
20
35.1059145
11
27.5805981
21
35.1059145
0
ARC
8
DEFAULT_255_2_778
10
29.855397
20
33.6493019
40
1.2416363
50
66.9605855
51
74.1550618
0
ARC
8
DEFAULT_255_2_778
10
29.9843085
20
34.1104329
40
0.7628315
50
74.0129925
51
84.7030692
0
ARC
8
DEFAULT_255_2_778
10
30.0081504
20
34.3265494
40
0.5454501
50
85.1010663
51
89.9313503
0
ARC
8
DEFAULT_255_2_778
10
30.0009782
20
34.4992966
40
0.3727848
50
88.7971265
51
116.1299432
0
ARC
8
DEFAULT_255_2_778
10
29.9836836
20
34.5486177
40
0.3209477
50
117.2358329
51
139.5836306
0
ARC
8
DEFAULT_255_2_778
10
30.0060015
20
34.6150707
40
0.3019488
50
152.0272747
51
165.9738437
0
ARC
8
DEFAULT_255_2_778
10
29.9067866
20
34.6409487
40
0.1994229
50
166.2784739
51
179.6900614
0
ARC
8
DEFAULT_255_2_778
10
29.8879123
20
34.6465749
40
0.180603
50
181.4428147
51
236.590163
0
ARC
8
DEFAULT_255_2_778
10
30.0724352
20
34.8855568
40
0.4822192
50
233.9227216
51
250.0398023
0
ARC
8
DEFAULT_255_2_778
10
30.2403478
20
35.3057389
40
0.9345916
50
249.1575978
51
254.7632198
0
ARC
8
DEFAULT_255_2_778
10
29.6225186
20
33.2503563
40
1.2122024
50
61.8565142
51
72.1182767
0
ARC
8
DEFAULT_255_2_778
10
29.8779252
20
33.7200874
40
0.6775474
50
44.9746574
51
62.1648553
0
ARC
8
DEFAULT_255_2_778
10
30.0634164
20
33.9029291
40
0.4170997
50
359.3765951
51
45.2161922
0
ARC
8
DEFAULT_255_2_778
10
29.9143593
20
33.9014259
40
0.5661403
50
347.8123792
51
359.692856
0
ARC
8
DEFAULT_255_2_778
10
29.6987472
20
33.9468838
40
0.7864904
50
339.4913002
51
347.8914391
0
ARC
8
DEFAULT_255_2_778
10
29.5556406
20
33.9964425
40
0.9378971
50
339.2203508
51
339.7185396
0
ARC
8
DEFAULT_255_2_778
10
29.7622674
20
34.0346328
40
0.766056
50
314.1544029
51
331.0392093
0
ARC
8
DEFAULT_255_2_778
10
29.8953751
20
33.9051648
40
0.5804694
50
268.6298226
51
313.6299318
0
ARC
8
DEFAULT_255_2_778
10
29.8795596
20
34.1051337
40
0.7802747
50
269.9999559
51
270.1421141
0
ARC
8
DEFAULT_255_2_778
10
29.8844312
20
34.2313368
40
0.906491
50
259.0736145
51
269.6920445
0
ARC
8
DEFAULT_255_2_778
10
29.9540672
20
34.6022556
40
1.2838862
50
251.658326
51
259.1598857
0
ARC
8
DEFAULT_255_2_778
10
30.1153846
20
35.0930866
40
1.8005456
50
245.9015133
51
251.7007831
0
ARC
8
DEFAULT_255_2_778
10
30.2442475
20
35.3954921
40
2.1292186
50
245.8913442
51
246.0587248
0
ARC
8
DEFAULT_255_2_778
10
7.0860065
20
36.3177013
40
22.4719932
50
352.6735073
51
353.4435433
0
ARC
8
DEFAULT_255_2_778
10
29.9862794
20
34.9770283
40
1.3535498
50
244.849726
51
251.9780724
0
ARC
8
DEFAULT_255_2_778
10
29.8320695
20
34.4962456
40
0.8486482
50
251.83623
51
262.4846349
0
ARC
8
DEFAULT_255_2_778
10
29.7955781
20
34.2441468
40
0.5939509
50
262.7938452
51
269.8639419
0
ARC
8
DEFAULT_255_2_778
10
29.801983
20
34.0584428
40
0.40832
50
268.9032797
51
297.6641501
0
ARC
8
DEFAULT_255_2_778
10
29.8098709
20
34.0302396
40
0.3797278
50
298.585848
51
316.6346258
0
ARC
8
DEFAULT_255_2_778
10
29.8667008
20
33.8953216
40
0.2527689
50
330.1472306
51
346.1192526
0
ARC
8
DEFAULT_255_2_778
10
29.944049
20
33.8747527
40
0.1727505
50
346.587672
51
359.7690182
0
ARC
8
DEFAULT_255_2_778
10
29.9417358
20
33.8681045
40
0.1751636
50
1.9471856
51
53.2524628
0
ARC
8
DEFAULT_255_2_778
10
29.7462538
20
33.6417078
40
0.4739994
50
50.6908478
51
66.5254356
0
ARC
8
DEFAULT_255_2_778
10
29.5204086
20
33.1516014
40
1.0135768
50
65.8513961
51
73.2552257
0
ARC
8
DEFAULT_255_2_778
10
30.0133363
20
35.0067908
40
0.9071187
50
242.1701359
51
257.2041182
0
ARC
8
DEFAULT_255_2_778
10
29.7774535
20
34.5929034
40
0.4312554
50
183.9627689
51
244.2136244
0
ARC
8
DEFAULT_255_2_778
10
30.3315459
20
34.5877185
40
0.9846246
50
180.0083883
51
181.4327031
0
ARC
8
DEFAULT_255_2_778
10
30.0494075
20
34.5975279
40
0.7025567
50
163.7184764
51
180.8117705
0
ARC
8
DEFAULT_255_2_778
10
29.7998086
20
34.6686319
40
0.4430365
50
104.6183785
51
163.4954733
0
ARC
8
DEFAULT_255_2_778
10
29.9407861
20
34.2558335
40
0.8786431
50
93.1356943
51
106.7206703
0
ARC
8
DEFAULT_255_2_778
10
29.9770748
20
33.8270996
40
1.3087825
50
89.9344558
51
93.6952861
0
ARC
8
DEFAULT_255_2_778
10
29.9759511
20
33.4754858
40
1.6603977
50
85.877021
51
89.9095586
0
ARC
8
DEFAULT_255_2_778
10
29.9405932
20
32.9808986
40
2.156247
50
82.3911681
51
85.8848116
0
ARC
8
DEFAULT_255_2_778
10
29.8660813
20
32.4130558
40
2.7289564
50
79.88123
51
82.4191292
0
ARC
8
DEFAULT_255_2_778
10
29.7967661
20
32.012292
40
3.1356653
50
79.1498094
51
79.9209322
0
ARC
8
DEFAULT_255_2_778
10
31.4443971
20
33.9678112
40
0.6131882
50
271.722528
51
316.6473392
0
ARC
8
DEFAULT_255_2_778
10
31.5491991
20
33.8857624
40
0.4808137
50
315.1833684
51
352.5845841
0
ARC
8
DEFAULT_255_2_778
10
31.6602107
20
33.860684
40
0.3676449
50
354.2276025
51
359.9794182
0
ARC
8
DEFAULT_255_2_778
10
31.6698574
20
33.8605589
40
0.3579984
50
359.9988871
51
2.2516086
0
ARC
8
DEFAULT_255_2_778
10
31.6751339
20
33.860359
40
0.3527341
50
2.3177297
51
31.841092
0
ARC
8
DEFAULT_255_2_778
10
31.5958363
20
33.8109768
40
0.4461508
50
31.8560188
51
48.2756721
0
ARC
8
DEFAULT_255_2_778
10
31.477562
20
33.6800779
40
0.6225663
50
48.1693485
51
59.5906684
0
ARC
8
DEFAULT_255_2_778
10
31.3468428
20
33.4598529
40
0.8786628
50
59.5082405
51
67.9765512
0
ARC
8
DEFAULT_255_2_778
10
31.6749837
20
34.4449977
40
0.1706029
50
270.4518374
51
287.7267345
0
ARC
8
DEFAULT_255_2_778
10
31.6653387
20
34.4805543
40
0.2074145
50
287.2739391
51
289.396993
0
ARC
8
DEFAULT_255_2_778
10
31.6253655
20
34.5696183
40
0.3048071
50
290.9244844
51
315.3195975
0
ARC
8
DEFAULT_255_2_778
10
31.5006643
20
34.7000542
40
0.4852172
50
314.7219355
51
341.0505157
0
ARC
8
DEFAULT_255_2_778
10
31.5548082
20
34.6845992
40
0.428999
50
340.6545266
51
359.6129171
0
ARC
8
DEFAULT_255_2_778
10
31.6069971
20
34.6817253
40
0.3768003
50
359.9963007
51
2.0730103
0
ARC
8
DEFAULT_255_2_778
10
31.6449249
20
34.6854843
40
0.3387699
50
1.6696945
51
37.1501572
0
ARC
8
DEFAULT_255_2_778
10
31.5901914
20
34.640918
40
0.4093167
50
37.4956302
51
56.0696553
0
ARC
8
DEFAULT_255_2_778
10
31.4860594
20
34.4881314
40
0.5942123
50
55.9619556
51
68.6635156
0
ARC
8
DEFAULT_255_2_778
10
31.3807082
20
34.2247056
40
0.8779171
50
68.5144244
51
77.0922107
0
ARC
8
DEFAULT_255_2_778
10
31.2914911
20
33.8402315
40
1.2726059
50
77.0436872
51
83.8120404
0
ARC
8
DEFAULT_255_2_778
10
31.259495
20
33.5951428
40
1.5197251
50
83.6087722
51
83.8074032
0
ARC
8
DEFAULT_255_2_778
10
31.3563058
20
34.1627485
40
0.5281656
50
269.5360497
51
282.0312754
0
ARC
8
DEFAULT_255_2_778
10
31.3987345
20
33.9706647
40
0.3314603
50
281.7793078
51
300.9762425
0
ARC
8
DEFAULT_255_2_778
10
31.4554961
20
33.8778
40
0.2226274
50
300.7522315
51
335.4851076
0
ARC
8
DEFAULT_255_2_778
10
31.4605506
20
33.8725587
40
0.2158702
50
336.1941904
51
0.240845
0
ARC
8
DEFAULT_255_2_778
10
31.4426617
20
33.8734213
40
0.2337572
50
0.0109867
51
4.2394561
0
ARC
8
DEFAULT_255_2_778
10
31.4058118
20
33.8661667
40
0.27108
50
5.1928734
51
52.0210201
0
ARC
8
DEFAULT_255_2_778
10
31.3820513
20
33.8381924
40
0.3077556
50
51.7391016
51
82.2733066
0
ARC
8
DEFAULT_255_2_778
10
31.3722299
20
33.7858875
40
0.3609163
50
81.8446717
51
90.0739692
0
ARC
8
DEFAULT_255_2_778
10
31.3718336
20
33.7568328
40
0.3899707
50
90.0102357
51
92.9109931
0
ARC
8
DEFAULT_255_2_778
10
31.3327947
20
34.8792108
40
0.4770306
50
269.4756445
51
282.5052329
0
ARC
8
DEFAULT_255_2_778
10
31.3755346
20
34.6933799
40
0.2863579
50
282.2074654
51
302.48551
0
ARC
8
DEFAULT_255_2_778
10
31.4317563
20
34.6071873
40
0.1834596
50
302.1320666
51
341.6431018
0
ARC
8
DEFAULT_255_2_778
10
31.4366809
20
34.6032353
40
0.1775546
50
342.353055
51
0.1285168
0
ARC
8
DEFAULT_255_2_778
10
31.4255262
20
34.6035995
40
0.1887088
50
0.010331
51
4.469246
0
ARC
8
DEFAULT_255_2_778
10
31.3892572
20
34.5959105
40
0.2255186
50
5.6988484
51
52.2858618
0
ARC
8
DEFAULT_255_2_778
10
31.3563513
20
34.5572462
40
0.2762443
50
51.7924035
51
82.3014993
0
ARC
8
DEFAULT_255_2_778
10
31.3459529
20
34.5030675
40
0.3313415
50
81.7746307
51
90.0795165
0
ARC
8
DEFAULT_255_2_778
10
31.345559
20
34.4751402
40
0.3592686
50
90.0105063
51
92.7328892
0
LINE
8
DEFAULT_255_2_778
10
30.3870291
20
35.0919001
11
30.3505291
21
34.8011001
0
LINE
8
DEFAULT_255_2_778
10
30.8067291
20
35.1060001
11
30.7987291
21
33.3549001
0
LINE
8
DEFAULT_255_2_778
10
30.7987291
20
33.3549001
11
31.4628291
21
33.3549001
0
LINE
8
DEFAULT_255_2_778
10
31.4234291
20
35.1060001
11
30.8067291
21
35.1060001
0
LINE
8
DEFAULT_255_2_778
10
31.1546291
20
34.1463001
11
31.1546291
21
33.6346001
0
LINE
8
DEFAULT_255_2_778
10
31.1546291
20
33.6346001
11
31.3520291
21
33.6346001
0
LINE
8
DEFAULT_255_2_778
10
31.3520291
20
34.1463001
11
31.1546291
21
34.1463001
0
LINE
8
DEFAULT_255_2_778
10
31.1546291
20
34.8340001
11
31.1546291
21
34.4022001
0
LINE
8
DEFAULT_255_2_778
10
31.1546291
20
34.4022001
11
31.3284291
21
34.4022001
0
LINE
8
DEFAULT_255_2_778
10
31.3284291
20
34.8340001
11
31.1546291
21
34.8340001
0
LINE
8
DEFAULT_255_2_778
10
64.5896554
20
2.0562386
11
64.5896554
21
74.6563386
0
LINE
8
DEFAULT_255_2_778
10
64.5896554
20
74.6563386
11
53.2895554
21
74.6563386
0
LINE
8
DEFAULT_255_2_778
10
53.2895554
20
74.6563386
11
53.2895554
21
2.0562386
0
LINE
8
DEFAULT_255_2_778
10
53.2895554
20
2.0562386
11
64.5896554
21
2.0562386
0
LINE
8
DEFAULT_255_2_778
10
63.589548
20
3.2561334
11
63.089448
21
3.2561334
0
LINE
8
DEFAULT_255_2_778
10
58.789448
20
73.2562334
11
63.589548
21
73.2562334
0
LINE
8
DEFAULT_255_2_778
10
58.789448
20
73.0961334
11
58.789448
21
73.6562334
0
LINE
8
DEFAULT_255_2_778
10
54.289448
20
9.7562334
11
54.839548
21
9.7562334
0
LINE
8
DEFAULT_255_2_778
10
54.839548
20
8.8312334
11
54.289448
21
8.8312334
0
LINE
8
DEFAULT_255_2_778
10
63.5895261
20
28.7561459
11
63.0895261
21
28.7561459
0
LINE
8
DEFAULT_255_2_778
10
63.5895261
20
26.7562459
11
63.0895261
21
26.7562459
0
LINE
8
DEFAULT_255_2_778
10
63.0895261
20
22.7562459
11
63.5895261
21
22.7562459
0
LINE
8
DEFAULT_255_2_778
10
63.5895261
20
20.7562459
11
63.0895261
21
20.7562459
0
LINE
8
DEFAULT_255_2_778
10
63.5895261
20
68.7561459
11
63.0895261
21
68.7561459
0
LINE
8
DEFAULT_255_2_778
10
63.5895261
20
66.7561459
11
63.0895261
21
66.7561459
0
LINE
8
DEFAULT_255_2_778
10
63.0895261
20
62.7562459
11
63.5895261
21
62.7562459
0
LINE
8
DEFAULT_255_2_778
10
63.5895261
20
60.7562459
11
63.0895261
21
60.7562459
0
LINE
8
DEFAULT_255_2_778
10
62.5894261
20
3.0561459
11
62.5894261
21
3.6162459
0
LINE
8
DEFAULT_255_2_778
10
61.3895261
20
3.6162459
11
61.3895261
21
3.0561459
0
LINE
8
DEFAULT_255_2_778
10
60.2894261
20
3.0561459
11
60.4894261
21
3.2561459
0
LINE
8
DEFAULT_255_2_778
10
60.4894261
20
3.2561459
11
60.4894261
21
3.6162459
0
LINE
8
DEFAULT_255_2_778
10
63.0895261
20
3.0561459
11
63.0895261
21
73.6562459
0
LINE
8
DEFAULT_255_2_778
10
63.0895137
20
73.0961553
11
54.8395137
21
73.0961553
0
LINE
8
DEFAULT_255_2_778
10
54.8395137
20
73.0961553
11
54.8395137
21
3.6160553
0
LINE
8
DEFAULT_255_2_778
10
54.8395137
20
3.6160553
11
63.0895137
21
3.6160553
0
LINE
8
DEFAULT_255_2_778
10
63.589548
20
3.0561459
11
63.589548
21
73.6562459
0
LINE
8
DEFAULT_255_2_778
10
63.589548
20
73.6562459
11
54.289448
21
73.6562459
0
LINE
8
DEFAULT_255_2_778
10
54.289448
20
73.6562459
11
54.289448
21
3.0561459
0
LINE
8
DEFAULT_255_2_778
10
54.289448
20
3.0561459
11
63.589548
21
3.0561459
0
ARC
8
DEFAULT_255_2_778
10
58.9584005
20
70.3484057
40
1.2938885
50
146.7179954
51
180.0924523
0
ARC
8
DEFAULT_255_2_778
10
58.9640887
20
70.3467501
40
1.2995535
50
96.4896882
51
146.7945945
0
ARC
8
DEFAULT_255_2_778
10
58.9641572
20
70.3320242
40
1.3141938
50
89.9888195
51
96.4200928
0
ARC
8
DEFAULT_255_2_778
10
58.9664577
20
70.3524577
40
1.2937618
50
56.6493082
51
90.0905241
0
ARC
8
DEFAULT_255_2_778
10
58.9647158
20
70.3465026
40
1.299695
50
6.4869709
51
56.7294893
0
ARC
8
DEFAULT_255_2_778
10
58.9505661
20
70.3465703
40
1.3137476
50
359.9889925
51
6.4143193
0
ARC
8
DEFAULT_255_2_778
10
58.9705846
20
70.3442605
40
1.2937307
50
326.7117946
51
0.0911164
0
ARC
8
DEFAULT_255_2_778
10
58.9645712
20
70.3460707
40
1.2997523
50
276.4945215
51
326.7905801
0
ARC
8
DEFAULT_255_2_778
10
58.9646676
20
70.360012
40
1.3135942
50
269.9889238
51
276.4215646
0
ARC
8
DEFAULT_255_2_778
10
58.9623123
20
70.3402747
40
1.2938585
50
236.8021795
51
270.093053
0
ARC
8
DEFAULT_255_2_778
10
58.9640414
20
70.3460223
40
1.2996158
50
186.4997895
51
236.8771337
0
ARC
8
DEFAULT_255_2_778
10
58.9785853
20
70.3460608
40
1.3140717
50
179.9887905
51
186.4296717
0
LINE
8
DEFAULT_255_2_778
10
63.0895137
20
9.1162179
11
54.8395137
21
9.1162179
0
LINE
8
DEFAULT_255_2_778
10
57.6645137
20
70.3463179
11
57.6645137
21
70.3463179
0
ARC
8
DEFAULT_255_2_778
10
58.9584005
20
6.3684734
40
1.2938885
50
146.7179954
51
180.0924523
0
ARC
8
DEFAULT_255_2_778
10
58.9640887
20
6.3668178
40
1.2995535
50
96.4896882
51
146.7945945
0
ARC
8
DEFAULT_255_2_778
10
58.9641572
20
6.3520919
40
1.3141938
50
89.9888195
51
96.4200928
0
ARC
8
DEFAULT_255_2_778
10
58.9664577
20
6.3725255
40
1.2937618
50
56.6493082
51
90.0905241
0
ARC
8
DEFAULT_255_2_778
10
58.9647158
20
6.3665703
40
1.299695
50
6.4869709
51
56.7294893
0
ARC
8
DEFAULT_255_2_778
10
58.9505661
20
6.366638
40
1.3137476
50
359.9889925
51
6.4143193
0
ARC
8
DEFAULT_255_2_778
10
58.9705846
20
6.3643282
40
1.2937307
50
326.7117946
51
0.0911164
0
ARC
8
DEFAULT_255_2_778
10
58.9645712
20
6.3661384
40
1.2997523
50
276.4945215
51
326.7905801
0
ARC
8
DEFAULT_255_2_778
10
58.9646676
20
6.3800797
40
1.3135942
50
269.9889238
51
276.4215646
0
ARC
8
DEFAULT_255_2_778
10
58.9623123
20
6.3603424
40
1.2938585
50
236.8021795
51
270.093053
0
ARC
8
DEFAULT_255_2_778
10
58.9640414
20
6.36609
40
1.2996158
50
186.4997895
51
236.8771337
0
ARC
8
DEFAULT_255_2_778
10
58.9785853
20
6.3661285
40
1.3140717
50
179.9887905
51
186.4296717
0
ARC
8
DEFAULT_255_2_778
10
56.4889337
20
5.5558672
40
1.6005217
50
18.2195808
51
41.1225727
0
ARC
8
DEFAULT_255_2_778
10
56.4841612
20
5.5572659
40
1.7052056
50
352.9333711
51
353.4934569
0
ARC
8
DEFAULT_255_2_778
10
56.4910098
20
5.5565169
40
1.6983163
50
353.4923825
51
359.9989727
0
ARC
8
DEFAULT_255_2_778
10
56.4895387
20
5.5561256
40
1.6997876
50
0.0121637
51
43.2451209
0
LINE
8
DEFAULT_255_2_778
10
63.0895137
20
67.5962856
11
54.8395137
21
67.5962856
0
LINE
8
DEFAULT_255_2_778
10
57.6645137
20
6.3663856
11
57.6645137
21
6.3663856
0
LINE
8
DEFAULT_255_2_778
10
57.7142137
20
6.0560856
11
58.1127137
21
6.0560856
0
ARC
8
DEFAULT_255_2_778
10
60.5685655
20
63.700587
40
1.4958767
50
359.9543086
51
34.3368857
0
ARC
8
DEFAULT_255_2_778
10
60.5653786
20
63.7006953
40
1.4984483
50
34.2647297
51
77.6011973
0
ARC
8
DEFAULT_255_2_778
10
60.5621094
20
63.6844892
40
1.5149785
50
77.6120407
51
80.9947349
0
ARC
8
DEFAULT_255_2_778
10
57.3648127
20
64.2040684
40
1.502147
50
81.0177063
51
84.5520629
0
ARC
8
DEFAULT_255_2_778
10
57.365016
20
64.206265
40
1.4999411
50
84.5518277
51
89.9997003
0
ARC
8
DEFAULT_255_2_778
10
57.3651021
20
64.2054914
40
1.5007147
50
90.0029861
51
130.4911656
0
ARC
8
DEFAULT_255_2_778
10
57.3651705
20
64.2059256
40
1.500429
50
130.5039219
51
179.9821122
0
ARC
8
DEFAULT_255_2_778
10
57.3651705
20
12.5066623
40
1.5004288
50
180.017881
51
229.4960737
0
ARC
8
DEFAULT_255_2_778
10
57.3651021
20
12.5070968
40
1.5007148
50
229.5088344
51
269.9970139
0
ARC
8
DEFAULT_255_2_778
10
57.365016
20
12.5063232
40
1.4999411
50
270.0002997
51
275.4481723
0
ARC
8
DEFAULT_255_2_778
10
57.3648127
20
12.5085197
40
1.502147
50
275.4479371
51
278.9822937
0
ARC
8
DEFAULT_255_2_778
10
60.5663958
20
13.0093057
40
1.4957466
50
278.9557745
51
313.3394388
0
ARC
8
DEFAULT_255_2_778
10
60.5658605
20
13.0126824
40
1.4985713
50
313.2657184
51
356.5998134
0
ARC
8
DEFAULT_255_2_778
10
60.5496879
20
13.0133334
40
1.514754
50
356.6115139
51
359.9947282
0
LINE
8
DEFAULT_255_2_778
10
60.7992418
20
65.1807941
11
57.5993418
21
65.6877941
0
LINE
8
DEFAULT_255_2_778
10
55.8647418
20
64.2063941
11
55.8647418
21
12.5061941
0
LINE
8
DEFAULT_255_2_778
10
57.5993418
20
11.0247941
11
60.7992418
21
11.5317941
0
LINE
8
DEFAULT_255_2_778
10
62.0644418
20
13.0131941
11
62.0644418
21
63.6993941
0
LINE
8
DEFAULT_255_2_778
10
60.4846688
20
54.2461504
11
60.4846688
21
55.4862504
0
LINE
8
DEFAULT_255_2_778
10
60.4846688
20
55.4862504
11
59.9845688
21
55.4862504
0
LINE
8
DEFAULT_255_2_778
10
59.9845688
20
55.4862504
11
59.9845688
21
54.2461504
0
LINE
8
DEFAULT_255_2_778
10
59.9845688
20
54.2461504
11
60.4846688
21
54.2461504
0
LINE
8
DEFAULT_255_2_778
10
60.4846688
20
56.7861504
11
60.4846688
21
58.0262504
0
LINE
8
DEFAULT_255_2_778
10
60.4846688
20
58.0262504
11
59.9845688
21
58.0262504
0
LINE
8
DEFAULT_255_2_778
10
59.9845688
20
58.0262504
11
59.9845688
21
56.7861504
0
LINE
8
DEFAULT_255_2_778
10
59.9845688
20
56.7861504
11
60.4846688
21
56.7861504
0
LINE
8
DEFAULT_255_2_778
10
60.4846688
20
59.3261504
11
60.4846688
21
60.5662504
0
LINE
8
DEFAULT_255_2_778
10
60.4846688
20
60.5662504
11
59.9845688
21
60.5662504
0
LINE
8
DEFAULT_255_2_778
10
59.9845688
20
60.5662504
11
59.9845688
21
59.3261504
0
LINE
8
DEFAULT_255_2_778
10
59.9845688
20
59.3261504
11
60.4846688
21
59.3261504
0
LINE
8
DEFAULT_255_2_778
10
60.4846688
20
61.8661504
11
60.4846688
21
63.1062504
0
LINE
8
DEFAULT_255_2_778
10
60.4846688
20
63.1062504
11
59.9845688
21
63.1062504
0
LINE
8
DEFAULT_255_2_778
10
59.9845688
20
63.1062504
11
59.9845688
21
61.8661504
0
LINE
8
DEFAULT_255_2_778
10
59.9845688
20
61.8661504
11
60.4846688
21
61.8661504
0
LINE
8
DEFAULT_255_2_778
10
57.9446688
20
54.2461504
11
57.9446688
21
55.4862504
0
LINE
8
DEFAULT_255_2_778
10
57.9446688
20
55.4862504
11
57.4445688
21
55.4862504
0
LINE
8
DEFAULT_255_2_778
10
57.4445688
20
55.4862504
11
57.4445688
21
54.2461504
0
LINE
8
DEFAULT_255_2_778
10
57.4445688
20
54.2461504
11
57.9446688
21
54.2461504
0
LINE
8
DEFAULT_255_2_778
10
57.9446688
20
56.7861504
11
57.9446688
21
58.0262504
0
LINE
8
DEFAULT_255_2_778
10
57.9446688
20
58.0262504
11
57.4445688
21
58.0262504
0
LINE
8
DEFAULT_255_2_778
10
57.4445688
20
58.0262504
11
57.4445688
21
56.7861504
0
LINE
8
DEFAULT_255_2_778
10
57.4445688
20
56.7861504
11
57.9446688
21
56.7861504
0
LINE
8
DEFAULT_255_2_778
10
57.9446688
20
59.3261504
11
57.9446688
21
60.5662504
0
LINE
8
DEFAULT_255_2_778
10
57.9446688
20
60.5662504
11
57.4445688
21
60.5662504
0
LINE
8
DEFAULT_255_2_778
10
57.4445688
20
60.5662504
11
57.4445688
21
59.3261504
0
LINE
8
DEFAULT_255_2_778
10
57.4445688
20
59.3261504
11
57.9446688
21
59.3261504
0
LINE
8
DEFAULT_255_2_778
10
57.9446688
20
61.8661504
11
57.9446688
21
63.1062504
0
LINE
8
DEFAULT_255_2_778
10
57.9446688
20
63.1062504
11
57.4445688
21
63.1062504
0
LINE
8
DEFAULT_255_2_778
10
57.4445688
20
63.1062504
11
57.4445688
21
61.8661504
0
LINE
8
DEFAULT_255_2_778
10
57.4445688
20
61.8661504
11
57.9446688
21
61.8661504
0
LINE
8
DEFAULT_255_2_778
10
60.4846688
20
44.0861504
11
60.4846688
21
45.3262504
0
LINE
8
DEFAULT_255_2_778
10
60.4846688
20
45.3262504
11
59.9845688
21
45.3262504
0
LINE
8
DEFAULT_255_2_778
10
59.9845688
20
45.3262504
11
59.9845688
21
44.0861504
0
LINE
8
DEFAULT_255_2_778
10
59.9845688
20
44.0861504
11
60.4846688
21
44.0861504
0
LINE
8
DEFAULT_255_2_778
10
60.4846688
20
46.6261504
11
60.4846688
21
47.8662504
0
LINE
8
DEFAULT_255_2_778
10
60.4846688
20
47.8662504
11
59.9845688
21
47.8662504
0
LINE
8
DEFAULT_255_2_778
10
59.9845688
20
47.8662504
11
59.9845688
21
46.6261504
0
LINE
8
DEFAULT_255_2_778
10
59.9845688
20
46.6261504
11
60.4846688
21
46.6261504
0
LINE
8
DEFAULT_255_2_778
10
60.4846688
20
49.1661504
11
60.4846688
21
50.4062504
0
LINE
8
DEFAULT_255_2_778
10
60.4846688
20
50.4062504
11
59.9845688
21
50.4062504
0
LINE
8
DEFAULT_255_2_778
10
59.9845688
20
50.4062504
11
59.9845688
21
49.1661504
0
LINE
8
DEFAULT_255_2_778
10
59.9845688
20
49.1661504
11
60.4846688
21
49.1661504
0
LINE
8
DEFAULT_255_2_778
10
60.4846688
20
51.7061504
11
60.4846688
21
52.9462504
0
LINE
8
DEFAULT_255_2_778
10
60.4846688
20
52.9462504
11
59.9845688
21
52.9462504
0
LINE
8
DEFAULT_255_2_778
10
59.9845688
20
52.9462504
11
59.9845688
21
51.7061504
0
LINE
8
DEFAULT_255_2_778
10
59.9845688
20
51.7061504
11
60.4846688
21
51.7061504
0
LINE
8
DEFAULT_255_2_778
10
57.9446688
20
44.0861504
11
57.9446688
21
45.3262504
0
LINE
8
DEFAULT_255_2_778
10
57.9446688
20
45.3262504
11
57.4445688
21
45.3262504
0
LINE
8
DEFAULT_255_2_778
10
57.4445688
20
45.3262504
11
57.4445688
21
44.0861504
0
LINE
8
DEFAULT_255_2_778
10
57.4445688
20
44.0861504
11
57.9446688
21
44.0861504
0
LINE
8
DEFAULT_255_2_778
10
57.9446688
20
46.6261504
11
57.9446688
21
47.8662504
0
LINE
8
DEFAULT_255_2_778
10
57.9446688
20
47.8662504
11
57.4445688
21
47.8662504
0
LINE
8
DEFAULT_255_2_778
10
57.4445688
20
47.8662504
11
57.4445688
21
46.6261504
0
LINE
8
DEFAULT_255_2_778
10
57.4445688
20
46.6261504
11
57.9446688
21
46.6261504
0
LINE
8
DEFAULT_255_2_778
10
57.9446688
20
49.1661504
11
57.9446688
21
50.4062504
0
LINE
8
DEFAULT_255_2_778
10
57.9446688
20
50.4062504
11
57.4445688
21
50.4062504
0
LINE
8
DEFAULT_255_2_778
10
57.4445688
20
50.4062504
11
57.4445688
21
49.1661504
0
LINE
8
DEFAULT_255_2_778
10
57.4445688
20
49.1661504
11
57.9446688
21
49.1661504
0
LINE
8
DEFAULT_255_2_778
10
57.9446688
20
51.7061504
11
57.9446688
21
52.9462504
0
LINE
8
DEFAULT_255_2_778
10
57.9446688
20
52.9462504
11
57.4445688
21
52.9462504
0
LINE
8
DEFAULT_255_2_778
10
57.4445688
20
52.9462504
11
57.4445688
21
51.7061504
0
LINE
8
DEFAULT_255_2_778
10
57.4445688
20
51.7061504
11
57.9446688
21
51.7061504
0
LINE
8
DEFAULT_255_2_778
10
60.4846688
20
33.9261504
11
60.4846688
21
35.1662504
0
LINE
8
DEFAULT_255_2_778
10
60.4846688
20
35.1662504
11
59.9845688
21
35.1662504
0
LINE
8
DEFAULT_255_2_778
10
59.9845688
20
35.1662504
11
59.9845688
21
33.9261504
0
LINE
8
DEFAULT_255_2_778
10
59.9845688
20
33.9261504
11
60.4846688
21
33.9261504
0
LINE
8
DEFAULT_255_2_778
10
60.4846688
20
36.4661504
11
60.4846688
21
37.7062504
0
LINE
8
DEFAULT_255_2_778
10
60.4846688
20
37.7062504
11
59.9845688
21
37.7062504
0
LINE
8
DEFAULT_255_2_778
10
59.9845688
20
37.7062504
11
59.9845688
21
36.4661504
0
LINE
8
DEFAULT_255_2_778
10
59.9845688
20
36.4661504
11
60.4846688
21
36.4661504
0
LINE
8
DEFAULT_255_2_778
10
60.4846688
20
39.0061504
11
60.4846688
21
40.2462504
0
LINE
8
DEFAULT_255_2_778
10
60.4846688
20
40.2462504
11
59.9845688
21
40.2462504
0
LINE
8
DEFAULT_255_2_778
10
59.9845688
20
40.2462504
11
59.9845688
21
39.0061504
0
LINE
8
DEFAULT_255_2_778
10
59.9845688
20
39.0061504
11
60.4846688
21
39.0061504
0
LINE
8
DEFAULT_255_2_778
10
60.4846688
20
41.5461504
11
60.4846688
21
42.7862504
0
LINE
8
DEFAULT_255_2_778
10
60.4846688
20
42.7862504
11
59.9845688
21
42.7862504
0
LINE
8
DEFAULT_255_2_778
10
59.9845688
20
42.7862504
11
59.9845688
21
41.5461504
0
LINE
8
DEFAULT_255_2_778
10
59.9845688
20
41.5461504
11
60.4846688
21
41.5461504
0
LINE
8
DEFAULT_255_2_778
10
57.9446688
20
33.9261504
11
57.9446688
21
35.1662504
0
LINE
8
DEFAULT_255_2_778
10
57.9446688
20
35.1662504
11
57.4445688
21
35.1662504
0
LINE
8
DEFAULT_255_2_778
10
57.4445688
20
35.1662504
11
57.4445688
21
33.9261504
0
LINE
8
DEFAULT_255_2_778
10
57.4445688
20
33.9261504
11
57.9446688
21
33.9261504
0
LINE
8
DEFAULT_255_2_778
10
57.9446688
20
36.4661504
11
57.9446688
21
37.7062504
0
LINE
8
DEFAULT_255_2_778
10
57.9446688
20
37.7062504
11
57.4445688
21
37.7062504
0
LINE
8
DEFAULT_255_2_778
10
57.4445688
20
37.7062504
11
57.4445688
21
36.4661504
0
LINE
8
DEFAULT_255_2_778
10
57.4445688
20
36.4661504
11
57.9446688
21
36.4661504
0
LINE
8
DEFAULT_255_2_778
10
57.9446688
20
39.0061504
11
57.9446688
21
40.2462504
0
LINE
8
DEFAULT_255_2_778
10
57.9446688
20
40.2462504
11
57.4445688
21
40.2462504
0
LINE
8
DEFAULT_255_2_778
10
57.4445688
20
40.2462504
11
57.4445688
21
39.0061504
0
LINE
8
DEFAULT_255_2_778
10
57.4445688
20
39.0061504
11
57.9446688
21
39.0061504
0
LINE
8
DEFAULT_255_2_778
10
57.9446688
20
41.5461504
11
57.9446688
21
42.7862504
0
LINE
8
DEFAULT_255_2_778
10
57.9446688
20
42.7862504
11
57.4445688
21
42.7862504
0
LINE
8
DEFAULT_255_2_778
10
57.4445688
20
42.7862504
11
57.4445688
21
41.5461504
0
LINE
8
DEFAULT_255_2_778
10
57.4445688
20
41.5461504
11
57.9446688
21
41.5461504
0
LINE
8
DEFAULT_255_2_778
10
60.4846688
20
23.7661504
11
60.4846688
21
25.0062504
0
LINE
8
DEFAULT_255_2_778
10
60.4846688
20
25.0062504
11
59.9845688
21
25.0062504
0
LINE
8
DEFAULT_255_2_778
10
59.9845688
20
25.0062504
11
59.9845688
21
23.7661504
0
LINE
8
DEFAULT_255_2_778
10
59.9845688
20
23.7661504
11
60.4846688
21
23.7661504
0
LINE
8
DEFAULT_255_2_778
10
60.4846688
20
26.3061504
11
60.4846688
21
27.5462504
0
LINE
8
DEFAULT_255_2_778
10
60.4846688
20
27.5462504
11
59.9845688
21
27.5462504
0
LINE
8
DEFAULT_255_2_778
10
59.9845688
20
27.5462504
11
59.9845688
21
26.3061504
0
LINE
8
DEFAULT_255_2_778
10
59.9845688
20
26.3061504
11
60.4846688
21
26.3061504
0
LINE
8
DEFAULT_255_2_778
10
60.4846688
20
28.8461504
11
60.4846688
21
30.0862504
0
LINE
8
DEFAULT_255_2_778
10
60.4846688
20
30.0862504
11
59.9845688
21
30.0862504
0
LINE
8
DEFAULT_255_2_778
10
59.9845688
20
30.0862504
11
59.9845688
21
28.8461504
0
LINE
8
DEFAULT_255_2_778
10
59.9845688
20
28.8461504
11
60.4846688
21
28.8461504
0
LINE
8
DEFAULT_255_2_778
10
60.4846688
20
31.3861504
11
60.4846688
21
32.6262504
0
LINE
8
DEFAULT_255_2_778
10
60.4846688
20
32.6262504
11
59.9845688
21
32.6262504
0
LINE
8
DEFAULT_255_2_778
10
59.9845688
20
32.6262504
11
59.9845688
21
31.3861504
0
LINE
8
DEFAULT_255_2_778
10
59.9845688
20
31.3861504
11
60.4846688
21
31.3861504
0
LINE
8
DEFAULT_255_2_778
10
57.9446688
20
23.7661504
11
57.9446688
21
25.0062504
0
LINE
8
DEFAULT_255_2_778
10
57.9446688
20
25.0062504
11
57.4445688
21
25.0062504
0
LINE
8
DEFAULT_255_2_778
10
57.4445688
20
25.0062504
11
57.4445688
21
23.7661504
0
LINE
8
DEFAULT_255_2_778
10
57.4445688
20
23.7661504
11
57.9446688
21
23.7661504
0
LINE
8
DEFAULT_255_2_778
10
57.9446688
20
26.3061504
11
57.9446688
21
27.5462504
0
LINE
8
DEFAULT_255_2_778
10
57.9446688
20
27.5462504
11
57.4445688
21
27.5462504
0
LINE
8
DEFAULT_255_2_778
10
57.4445688
20
27.5462504
11
57.4445688
21
26.3061504
0
LINE
8
DEFAULT_255_2_778
10
57.4445688
20
26.3061504
11
57.9446688
21
26.3061504
0
LINE
8
DEFAULT_255_2_778
10
57.9446688
20
28.8461504
11
57.9446688
21
30.0862504
0
LINE
8
DEFAULT_255_2_778
10
57.9446688
20
30.0862504
11
57.4445688
21
30.0862504
0
LINE
8
DEFAULT_255_2_778
10
57.4445688
20
30.0862504
11
57.4445688
21
28.8461504
0
LINE
8
DEFAULT_255_2_778
10
57.4445688
20
28.8461504
11
57.9446688
21
28.8461504
0
LINE
8
DEFAULT_255_2_778
10
57.9446688
20
31.3861504
11
57.9446688
21
32.6262504
0
LINE
8
DEFAULT_255_2_778
10
57.9446688
20
32.6262504
11
57.4445688
21
32.6262504
0
LINE
8
DEFAULT_255_2_778
10
57.4445688
20
32.6262504
11
57.4445688
21
31.3861504
0
LINE
8
DEFAULT_255_2_778
10
57.4445688
20
31.3861504
11
57.9446688
21
31.3861504
0
LINE
8
DEFAULT_255_2_778
10
60.4846688
20
13.6061504
11
60.4846688
21
14.8462504
0
LINE
8
DEFAULT_255_2_778
10
60.4846688
20
14.8462504
11
59.9845688
21
14.8462504
0
LINE
8
DEFAULT_255_2_778
10
59.9845688
20
14.8462504
11
59.9845688
21
13.6061504
0
LINE
8
DEFAULT_255_2_778
10
59.9845688
20
13.6061504
11
60.4846688
21
13.6061504
0
LINE
8
DEFAULT_255_2_778
10
60.4846688
20
16.1461504
11
60.4846688
21
17.3862504
0
LINE
8
DEFAULT_255_2_778
10
60.4846688
20
17.3862504
11
59.9845688
21
17.3862504
0
LINE
8
DEFAULT_255_2_778
10
59.9845688
20
17.3862504
11
59.9845688
21
16.1461504
0
LINE
8
DEFAULT_255_2_778
10
59.9845688
20
16.1461504
11
60.4846688
21
16.1461504
0
LINE
8
DEFAULT_255_2_778
10
60.4846688
20
18.6861504
11
60.4846688
21
19.9262504
0
LINE
8
DEFAULT_255_2_778
10
60.4846688
20
19.9262504
11
59.9845688
21
19.9262504
0
LINE
8
DEFAULT_255_2_778
10
59.9845688
20
19.9262504
11
59.9845688
21
18.6861504
0
LINE
8
DEFAULT_255_2_778
10
59.9845688
20
18.6861504
11
60.4846688
21
18.6861504
0
LINE
8
DEFAULT_255_2_778
10
60.4846688
20
21.2261504
11
60.4846688
21
22.4662504
0
LINE
8
DEFAULT_255_2_778
10
60.4846688
20
22.4662504
11
59.9845688
21
22.4662504
0
LINE
8
DEFAULT_255_2_778
10
59.9845688
20
22.4662504
11
59.9845688
21
21.2261504
0
LINE
8
DEFAULT_255_2_778
10
59.9845688
20
21.2261504
11
60.4846688
21
21.2261504
0
LINE
8
DEFAULT_255_2_778
10
57.9446688
20
13.6061504
11
57.9446688
21
14.8462504
0
LINE
8
DEFAULT_255_2_778
10
57.9446688
20
14.8462504
11
57.4445688
21
14.8462504
0
LINE
8
DEFAULT_255_2_778
10
57.4445688
20
14.8462504
11
57.4445688
21
13.6061504
0
LINE
8
DEFAULT_255_2_778
10
57.4445688
20
13.6061504
11
57.9446688
21
13.6061504
0
LINE
8
DEFAULT_255_2_778
10
57.9446688
20
16.1461504
11
57.9446688
21
17.3862504
0
LINE
8
DEFAULT_255_2_778
10
57.9446688
20
17.3862504
11
57.4445688
21
17.3862504
0
LINE
8
DEFAULT_255_2_778
10
57.4445688
20
17.3862504
11
57.4445688
21
16.1461504
0
LINE
8
DEFAULT_255_2_778
10
57.4445688
20
16.1461504
11
57.9446688
21
16.1461504
0
LINE
8
DEFAULT_255_2_778
10
57.9446688
20
18.6861504
11
57.9446688
21
19.9262504
0
LINE
8
DEFAULT_255_2_778
10
57.9446688
20
19.9262504
11
57.4445688
21
19.9262504
0
LINE
8
DEFAULT_255_2_778
10
57.4445688
20
19.9262504
11
57.4445688
21
18.6861504
0
LINE
8
DEFAULT_255_2_778
10
57.4445688
20
18.6861504
11
57.9446688
21
18.6861504
0
LINE
8
DEFAULT_255_2_778
10
57.9446688
20
21.2261504
11
57.9446688
21
22.4662504
0
LINE
8
DEFAULT_255_2_778
10
57.9446688
20
22.4662504
11
57.4445688
21
22.4662504
0
LINE
8
DEFAULT_255_2_778
10
57.4445688
20
22.4662504
11
57.4445688
21
21.2261504
0
LINE
8
DEFAULT_255_2_778
10
57.4445688
20
21.2261504
11
57.9446688
21
21.2261504
0
ARC
8
DEFAULT_255_2_778
10
49.8640241
20
87.085513
40
1.9085183
50
73.9679414
51
78.1313161
0
ARC
8
DEFAULT_255_2_778
10
49.948744
20
87.492472
40
1.4928352
50
78.1009857
51
83.496179
0
ARC
8
DEFAULT_255_2_778
10
49.9861985
20
87.8231078
40
1.1600846
50
83.4844477
51
89.8677814
0
ARC
8
DEFAULT_255_2_778
10
49.9784579
20
88.1826223
40
0.800635
50
89.2544603
51
108.6068012
0
ARC
8
DEFAULT_255_2_778
10
49.9366668
20
88.3388284
40
0.6393413
50
109.5240061
51
150.7546877
0
ARC
8
DEFAULT_255_2_778
10
50.2897155
20
88.1226173
40
1.0531428
50
149.8749271
51
163.6521761
0
ARC
8
DEFAULT_255_2_778
10
50.7319288
20
87.9807116
40
1.5174648
50
163.2104161
51
168.112167
0
ARC
8
DEFAULT_255_2_778
10
51.9074864
20
88.076267
40
2.669315
50
175.3362417
51
177.4867167
0
ARC
8
DEFAULT_255_2_778
10
51.4971203
20
88.0940999
40
2.2585616
50
177.4821711
51
179.9234524
0
ARC
8
DEFAULT_255_2_778
10
51.9920903
20
88.095262
40
2.7535301
50
179.9613934
51
179.9922639
0
ARC
8
DEFAULT_255_2_778
10
50.8294367
20
88.084913
40
1.5909125
50
179.6138919
51
188.8161142
0
ARC
8
DEFAULT_255_2_778
10
50.1533683
20
87.9752092
40
0.9060307
50
188.5131508
51
204.0335391
0
ARC
8
DEFAULT_255_2_778
10
49.8034484
20
87.8116023
40
0.5198599
50
203.2718223
51
262.7727918
0
ARC
8
DEFAULT_255_2_778
10
49.8699985
20
88.1296445
40
0.8441483
50
261.0070892
51
270.2450942
0
ARC
8
DEFAULT_255_2_778
10
49.842486
20
88.2504066
40
0.9654045
50
271.8474708
51
286.8983761
0
ARC
8
DEFAULT_255_2_778
10
49.9907851
20
87.807533
40
0.4987202
50
285.3858944
51
347.9423341
0
ARC
8
DEFAULT_255_2_778
10
49.6842011
20
87.8932784
40
0.8166925
50
346.552442
51
357.4894012
0
ARC
8
DEFAULT_255_2_778
10
49.8395475
20
87.8292939
40
0.6611641
50
2.4453902
51
22.9744222
0
ARC
8
DEFAULT_255_2_778
10
50.0532718
20
87.9103032
40
0.4328631
50
24.1442514
51
80.5567256
0
ARC
8
DEFAULT_255_2_778
10
49.9692772
20
87.6285972
40
0.7254583
50
77.6619847
51
82.4728321
0
ARC
8
DEFAULT_255_2_778
10
49.9767583
20
87.8166511
40
0.5383201
50
80.6399607
51
89.826331
0
ARC
8
DEFAULT_255_2_778
10
49.9756326
20
87.9364726
40
0.4185051
50
89.6224919
51
141.3238554
0
ARC
8
DEFAULT_255_2_778
10
50.3507795
20
88.2211095
40
0.7022502
50
180.0109365
51
181.8854983
0
ARC
8
DEFAULT_255_2_778
10
50.1146063
20
88.2344118
40
0.4662706
50
151.8779195
51
181.6513021
0
ARC
8
DEFAULT_255_2_778
10
50.0583665
20
88.2433649
40
0.41287
50
109.6683861
51
149.2940982
0
ARC
8
DEFAULT_255_2_778
10
50.1773368
20
87.9801268
40
0.701184
50
103.822841
51
111.5832413
0
ARC
8
DEFAULT_255_2_778
10
50.1350675
20
88.0240343
40
0.6491685
50
91.4854744
51
101.1250783
0
ARC
8
DEFAULT_255_2_778
10
50.1287773
20
88.1501597
40
0.5229312
50
90.0048838
51
91.1547449
0
ARC
8
DEFAULT_255_2_778
10
50.1392565
20
88.312235
40
0.3610093
50
58.5532025
51
91.6704666
0
ARC
8
DEFAULT_255_2_778
10
50.1605752
20
88.3595525
40
0.3095876
50
48.9443874
51
57.3504549
0
ARC
8
DEFAULT_255_2_778
10
64.1341132
20
87.6323917
40
13.8036693
50
175.2722616
51
176.0094997
0
ARC
8
DEFAULT_255_2_778
10
58.7131428
20
88.0827247
40
8.3640266
50
174.2561721
51
175.2859557
0
ARC
8
DEFAULT_255_2_778
10
49.8987497
20
87.8385762
40
0.2432809
50
111.9134384
51
181.9486096
0
ARC
8
DEFAULT_255_2_778
10
49.8734955
20
87.8785453
40
0.1969586
50
89.9668429
51
109.4362531
0
ARC
8
DEFAULT_255_2_778
10
49.8613546
20
87.8461884
40
0.2296427
50
0.75915
51
86.9409451
0
ARC
8
DEFAULT_255_2_778
10
49.8090232
20
87.8303362
40
0.2825861
50
359.9934543
51
3.8338761
0
ARC
8
DEFAULT_255_2_778
10
49.8479928
20
87.8220736
40
0.2437557
50
292.8002364
51
1.9349227
0
ARC
8
DEFAULT_255_2_778
10
49.8737264
20
87.7822477
40
0.1972438
50
269.9660404
51
290.3915651
0
ARC
8
DEFAULT_255_2_778
10
49.8858221
20
87.8142346
40
0.2295558
50
180.9115518
51
266.9503553
0
ARC
8
DEFAULT_255_2_778
10
49.9385443
20
87.8302732
40
0.2829349
50
179.9937857
51
183.9906743
0
LINE
8
DEFAULT_255_2_778
10
53.8180095
20
88.9555039
11
54.2437095
21
88.9555039
0
LINE
8
DEFAULT_255_2_778
10
54.2437095
20
88.9555039
11
54.2437095
21
87.9707039
0
ARC
8
DEFAULT_255_2_778
10
54.7224827
20
87.9583461
40
0.4789327
50
178.5214441
51
198.9037554
0
ARC
8
DEFAULT_255_2_778
10
54.4865331
20
87.880834
40
0.2306179
50
199.6767897
51
275.8177304
0
ARC
8
DEFAULT_255_2_778
10
54.5237065
20
87.9142883
40
0.2632462
50
266.9956961
51
307.018209
0
ARC
8
DEFAULT_255_2_778
10
54.50923
20
87.8981968
40
0.2599836
50
311.7058628
51
352.2652571
0
ARC
8
DEFAULT_255_2_778
10
54.19763
20
87.9658546
40
0.5783996
50
349.7776109
51
0.4803742
0
LINE
8
DEFAULT_255_2_778
10
54.7760095
20
87.9707039
11
54.7760095
21
88.9553039
0
LINE
8
DEFAULT_255_2_778
10
54.7760095
20
88.9553039
11
55.2285095
21
88.9553039
0
LINE
8
DEFAULT_255_2_778
10
55.2285095
20
88.9553039
11
55.2285095
21
87.8908039
0
ARC
8
DEFAULT_255_2_778
10
54.5619364
20
87.8780145
40
0.6666958
50
340.2668503
51
1.0991873
0
ARC
8
DEFAULT_255_2_778
10
54.7626304
20
87.8168356
40
0.4572441
50
285.4882995
51
338.9916121
0
ARC
8
DEFAULT_255_2_778
10
54.6061647
20
88.2650929
40
0.9315245
50
272.9054833
51
287.4003285
0
ARC
8
DEFAULT_255_2_778
10
54.5646769
20
88.7572837
40
1.4252809
50
269.9369895
51
273.5682297
0
ARC
8
DEFAULT_255_2_778
10
54.550558
20
88.7048114
40
1.3728649
50
259.471497
51
270.5238363
0
ARC
8
DEFAULT_255_2_778
10
54.4276469
20
88.0746531
40
0.7308792
50
239.8978869
51
259.9180549
0
ARC
8
DEFAULT_255_2_778
10
54.3172522
20
87.8660584
40
0.4951334
50
184.8948562
51
238.8432881
0
ARC
8
DEFAULT_255_2_778
10
54.6173513
20
87.9276209
40
0.8001892
50
182.6371319
51
187.4541637
0
LINE
8
DEFAULT_255_2_778
10
53.8180095
20
87.8908039
11
53.8180095
21
88.9553039
0
ARC
8
DEFAULT_255_2_778
10
51.3660059
20
88.1788457
40
0.6357016
50
171.0234189
51
179.7694271
0
ARC
8
DEFAULT_255_2_778
10
51.5116806
20
88.1568992
40
0.783017
50
162.495242
51
171.1004028
0
ARC
8
DEFAULT_255_2_778
10
51.5690242
20
88.1398389
40
0.8428371
50
155.8250425
51
162.5617147
0
ARC
8
DEFAULT_255_2_778
10
51.5616568
20
88.1444773
40
0.8342172
50
137.7348809
51
155.9084543
0
ARC
8
DEFAULT_255_2_778
10
51.5375893
20
88.164568
40
0.8028952
50
119.0518533
51
137.6407595
0
ARC
8
DEFAULT_255_2_778
10
51.5737925
20
88.0957952
40
0.8805971
50
104.1979614
51
118.9381144
0
ARC
8
DEFAULT_255_2_778
10
51.6228383
20
87.9017449
40
1.0807496
50
92.7420568
51
104.1954423
0
ARC
8
DEFAULT_255_2_778
10
51.6370197
20
87.7057879
40
1.2771697
50
89.9800012
51
92.9569693
0
ARC
8
DEFAULT_255_2_778
10
51.6359742
20
87.5510909
40
1.4318672
50
85.1365219
51
89.9403263
0
ARC
8
DEFAULT_255_2_778
10
51.6165927
20
87.3208017
40
1.6629704
50
80.9619524
51
85.1438474
0
ARC
8
DEFAULT_255_2_778
10
51.5743496
20
87.054189
40
1.9329089
50
77.2387282
51
80.9668047
0
ARC
8
DEFAULT_255_2_778
10
51.5053365
20
86.7485989
40
2.2461949
50
73.9185152
51
77.2436559
0
ARC
8
DEFAULT_255_2_778
10
51.4416816
20
86.5220159
40
2.4815447
50
72.9035327
51
73.9554662
0
ARC
8
DEFAULT_255_2_778
10
51.7037786
20
87.8093657
40
0.8441895
50
59.2813792
51
83.3954536
0
ARC
8
DEFAULT_255_2_778
10
51.7151948
20
87.895066
40
0.7577465
50
83.5076242
51
89.9486701
0
ARC
8
DEFAULT_255_2_778
10
51.6884414
20
88.149006
40
0.5045525
50
86.8833314
51
146.2387664
0
ARC
8
DEFAULT_255_2_778
10
51.7337628
20
88.1448427
40
0.5449777
50
148.5234533
51
168.4819103
0
ARC
8
DEFAULT_255_2_778
10
51.9445553
20
88.0965791
40
0.7611801
50
168.0904021
51
177.483227
0
ARC
8
DEFAULT_255_2_778
10
51.3906875
20
88.0861073
40
0.6663551
50
172.5156303
51
179.1446045
0
ARC
8
DEFAULT_255_2_778
10
51.4304093
20
88.084807
40
0.7060923
50
179.0872199
51
180.00124
0
ARC
8
DEFAULT_255_2_778
10
51.4788335
20
88.085997
40
0.7545174
50
180.091528
51
189.7803338
0
ARC
8
DEFAULT_255_2_778
10
51.5237536
20
88.0928195
40
0.7999441
50
189.715346
51
194.3432813
0
ARC
8
DEFAULT_255_2_778
10
51.5406027
20
88.0970289
40
0.8173106
50
194.336561
51
218.9486093
0
ARC
8
DEFAULT_255_2_778
10
51.5320748
20
88.0920349
40
0.8075404
50
219.0533991
51
240.7410489
0
ARC
8
DEFAULT_255_2_778
10
51.5803073
20
88.1812416
40
0.9089414
50
240.8369536
51
256.7103314
0
ARC
8
DEFAULT_255_2_778
10
51.632665
20
88.4012889
40
1.1351317
50
256.6915371
51
268.6641822
0
ARC
8
DEFAULT_255_2_778
10
51.6428287
20
88.5891569
40
1.3231984
50
268.4138454
51
270.0058389
0
ARC
8
DEFAULT_255_2_778
10
51.6413906
20
88.7190862
40
1.4531287
50
270.0620216
51
275.1162998
0
ARC
8
DEFAULT_255_2_778
10
51.6207334
20
88.9519009
40
1.6868581
50
275.1099495
51
279.5670987
0
ARC
8
DEFAULT_255_2_778
10
51.5755685
20
89.2211139
40
1.9598332
50
279.5610417
51
283.5002904
0
ARC
8
DEFAULT_255_2_778
10
51.5034967
20
89.5225685
40
2.2697834
50
283.4928609
51
286.9137554
0
ARC
8
DEFAULT_255_2_778
10
51.4461122
20
89.7172508
40
2.4727401
50
286.873507
51
287.0905945
0
ARC
8
DEFAULT_255_2_778
10
51.7056806
20
88.4379069
40
0.8438493
50
276.5901382
51
300.7242941
0
ARC
8
DEFAULT_255_2_778
10
51.7170402
20
88.3524819
40
0.7576867
50
270.0512561
51
276.4781745
0
ARC
8
DEFAULT_255_2_778
10
51.6902891
20
88.0986714
40
0.5046219
50
213.7654819
51
273.1158621
0
ARC
8
DEFAULT_255_2_778
10
51.7355207
20
88.1027722
40
0.5449363
50
191.5197401
51
211.4800894
0
ARC
8
DEFAULT_255_2_778
10
51.9462325
20
88.1510228
40
0.7610571
50
182.5167342
51
191.9110961
0
LINE
8
DEFAULT_255_2_778
10
50.3911095
20
88.9198039
11
50.3911095
21
88.9198039
0
LINE
8
DEFAULT_255_2_778
10
49.6556095
20
87.8303039
11
49.6556095
21
87.8303039
0
LINE
8
DEFAULT_255_2_778
10
53.8180095
20
88.9553039
11
53.8180095
21
88.9555039
0
LINE
8
DEFAULT_255_2_778
10
52.1712095
20
88.8939039
11
52.1350095
21
88.5351039
0
LINE
8
DEFAULT_255_2_778
10
52.1728095
20
87.3537039
11
52.1368095
21
87.7125039
0
LINE
8
DEFAULT_255_2_778
10
47.6770095
20
87.6712039
11
47.6770095
21
87.3548039
0
LINE
8
DEFAULT_255_2_778
10
47.6770095
20
87.3548039
11
46.5901095
21
87.3548039
0
LINE
8
DEFAULT_255_2_778
10
46.5901095
20
87.3548039
11
46.5901095
21
88.9555039
0
LINE
8
DEFAULT_255_2_778
10
46.5901095
20
88.9555039
11
47.0166095
21
88.9555039
0
LINE
8
DEFAULT_255_2_778
10
47.0166095
20
88.9555039
11
47.0166095
21
87.6712039
0
LINE
8
DEFAULT_255_2_778
10
47.0166095
20
87.6712039
11
47.6770095
21
87.6712039
0
ARC
8
DEFAULT_255_2_778
10
46.5041063
20
90.1923106
40
3.1886106
50
306.8530598
51
311.7766558
0
ARC
8
DEFAULT_255_2_778
10
47.2685306
20
89.341835
40
2.045092
50
311.679824
51
318.8540239
0
ARC
8
DEFAULT_255_2_778
10
47.8815777
20
88.8105611
40
1.2338827
50
318.700583
51
329.4800815
0
ARC
8
DEFAULT_255_2_778
10
48.3291486
20
88.5513918
40
0.7167169
50
329.1578093
51
347.6702432
0
ARC
8
DEFAULT_255_2_778
10
48.518769
20
88.5038742
40
0.521357
50
348.3219955
51
359.8782794
0
ARC
8
DEFAULT_255_2_778
10
48.5436528
20
88.5013528
40
0.4964741
50
0.1631669
51
26.9389164
0
ARC
8
DEFAULT_255_2_778
10
48.4709687
20
88.4701109
40
0.5754475
50
26.4334052
51
27.2126753
0
ARC
8
DEFAULT_255_2_778
10
48.5230709
20
88.4128778
40
0.5602899
50
34.8769019
51
80.8467996
0
ARC
8
DEFAULT_255_2_778
10
48.4529193
20
88.0994993
40
0.8810512
50
79.5845869
51
90.3134344
0
ARC
8
DEFAULT_255_2_778
10
48.4532817
20
87.7185842
40
1.2619637
50
90.2352835
51
97.9605908
0
ARC
8
DEFAULT_255_2_778
10
48.5215555
20
87.2139692
40
1.771173
50
97.8871827
51
103.3787261
0
ARC
8
DEFAULT_255_2_778
10
48.6717979
20
86.5779403
40
2.4247056
50
103.3550132
51
107.8087834
0
ARC
8
DEFAULT_255_2_778
10
48.8926747
20
85.9766764
40
2.7313075
50
107.2535997
51
110.1896328
0
ARC
8
DEFAULT_255_2_778
10
48.6077265
20
86.8990036
40
1.7659683
50
103.2501879
51
107.3002493
0
ARC
8
DEFAULT_255_2_778
10
48.4487312
20
87.5804387
40
1.0662328
50
97.5751474
51
103.3267496
0
ARC
8
DEFAULT_255_2_778
10
48.3905745
20
88.0201276
40
0.6227145
50
90.3397904
51
97.6039888
0
ARC
8
DEFAULT_255_2_778
10
48.3926439
20
88.3251868
40
0.3176966
50
74.5538115
51
91.0392871
0
ARC
8
DEFAULT_255_2_778
10
48.4454214
20
88.4983464
40
0.1368175
50
1.3608477
51
76.5446597
0
ARC
8
DEFAULT_255_2_778
10
48.3407641
20
88.4812704
40
0.2422903
50
359.9212197
51
4.8120946
0
ARC
8
DEFAULT_255_2_778
10
48.2472312
20
88.4830284
40
0.3358297
50
350.660318
51
359.6432241
0
ARC
8
DEFAULT_255_2_778
10
48.0654102
20
88.5119199
40
0.5199301
50
344.5918565
51
350.7703834
0
ARC
8
DEFAULT_255_2_778
10
47.9233997
20
88.5487078
40
0.6666145
50
343.5789525
51
344.7865822
0
ARC
8
DEFAULT_255_2_778
10
47.1955995
20
89.0582002
40
1.5350636
50
318.67613
51
332.956597
0
ARC
8
DEFAULT_255_2_778
10
46.5985636
20
89.5732421
40
2.3235327
50
309.8808308
51
318.859609
0
ARC
8
DEFAULT_255_2_778
10
46.0226395
20
90.2449505
40
3.2082863
50
305.7399486
51
310.0818808
0
LINE
8
DEFAULT_255_2_778
10
47.8966229
20
87.64086
11
47.8966229
21
87.33446
0
LINE
8
DEFAULT_255_2_778
10
47.8966229
20
87.33446
11
49.0624229
21
87.33446
0
ARC
8
DEFAULT_255_2_778
10
49.1032829
20
87.3505139
40
0.0439006
50
175.9558606
51
201.4499325
0
ARC
8
DEFAULT_255_2_778
10
50.6764944
20
87.4424714
40
1.6194425
50
180.762004
51
183.1454881
0
ARC
8
DEFAULT_255_2_778
10
56.636971
20
87.5573586
40
7.5810035
50
180.3271985
51
181.031125
0
ARC
8
DEFAULT_255_2_778
10
68.2546504
20
87.6331845
40
19.1989289
50
179.9770936
51
180.3554898
0
LINE
8
DEFAULT_255_2_778
10
49.0557229
20
87.64086
11
48.4162229
21
87.64086
0
LINE
8
DEFAULT_255_2_778
10
47.9302229
20
88.88646
11
47.9500229
21
88.54016
0
LINE
8
DEFAULT_255_2_778
10
48.4162229
20
87.64086
11
48.4165229
21
87.64086
0
ARC
8
DEFAULT_255_2_778
10
52.9886863
20
88.4199991
40
0.2163016
50
358.2626722
51
80.5916804
0
ARC
8
DEFAULT_255_2_778
10
52.8491429
20
87.9744084
40
0.6817981
50
75.135709
51
89.4900731
0
ARC
8
DEFAULT_255_2_778
10
52.8268642
20
87.5453955
40
1.1111458
50
88.5381632
51
90.0142218
0
LINE
8
DEFAULT_255_2_778
10
52.8265884
20
88.6565414
11
52.8265884
21
88.1969414
0
ARC
8
DEFAULT_255_2_778
10
52.8381707
20
89.0678111
40
0.8709467
50
269.2380327
51
280.7664426
0
ARC
8
DEFAULT_255_2_778
10
52.947083
20
88.533262
40
0.3255402
50
279.5099985
51
306.0215422
0
ARC
8
DEFAULT_255_2_778
10
53.0320663
20
88.4062754
40
0.1729583
50
307.9914408
51
2.275077
0
ARC
8
DEFAULT_255_2_778
10
52.959148
20
89.9196132
40
2.0510599
50
266.2944029
51
268.0594054
0
ARC
8
DEFAULT_255_2_778
10
52.9509047
20
89.6749341
40
1.806242
50
268.0579133
51
269.979019
0
ARC
8
DEFAULT_255_2_778
10
52.9613466
20
89.1347674
40
1.2661238
50
269.4975362
51
280.3326863
0
ARC
8
DEFAULT_255_2_778
10
53.0708489
20
88.5623378
40
0.6833552
50
279.9089633
51
299.3546531
0
ARC
8
DEFAULT_255_2_778
10
53.1747185
20
88.3628021
40
0.458579
50
300.2645533
51
354.8191692
0
ARC
8
DEFAULT_255_2_778
10
52.8541294
20
88.4252773
40
0.7842061
50
352.3875903
51
0.1856591
0
ARC
8
DEFAULT_255_2_778
10
52.6803647
20
88.4274598
40
0.9579666
50
0.0214483
51
2.403954
0
ARC
8
DEFAULT_255_2_778
10
53.1859293
20
88.4813637
40
0.4517676
50
358.2593896
51
31.0465275
0
ARC
8
DEFAULT_255_2_778
10
53.2072095
20
88.471545
40
0.4390278
50
33.5774891
51
68.230139
0
ARC
8
DEFAULT_255_2_778
10
53.0329457
20
88.0734766
40
0.8734527
50
67.2986078
51
82.1184745
0
ARC
8
DEFAULT_255_2_778
10
52.9169714
20
87.307815
40
1.6478144
50
81.7746852
51
90.3965903
0
ARC
8
DEFAULT_255_2_778
10
52.9061466
20
86.6265374
40
2.3290526
50
90.0142922
51
91.4622785
0
ARC
8
DEFAULT_255_2_778
10
52.9106466
20
86.4306829
40
2.5249581
50
91.4509445
51
91.9077816
0
LINE
8
DEFAULT_255_2_778
10
52.8265884
20
88.9542414
11
52.3939884
21
88.9542414
0
ARC
8
DEFAULT_255_2_778
10
56.9543043
20
88.4486106
40
0.2165869
50
358.2354538
51
80.5413841
0
ARC
8
DEFAULT_255_2_778
10
56.8149467
20
88.0040237
40
0.6810824
50
75.1155143
51
89.489219
0
ARC
8
DEFAULT_255_2_778
10
56.7926642
20
87.5761541
40
1.1092874
50
88.5353234
51
90.0142463
0
LINE
8
DEFAULT_255_2_778
10
56.7923884
20
88.6854414
11
56.7923884
21
88.2258414
0
ARC
8
DEFAULT_255_2_778
10
56.8039743
20
89.0975665
40
0.8718021
50
269.2385425
51
280.7585945
0
ARC
8
DEFAULT_255_2_778
10
56.912941
20
88.5623681
40
0.3257485
50
279.5017458
51
306.0002184
0
ARC
8
DEFAULT_255_2_778
10
56.9980952
20
88.4350919
40
0.172829
50
307.9633348
51
2.2713212
0
ARC
8
DEFAULT_255_2_778
10
56.924963
20
89.9486874
40
2.0515342
50
266.2948407
51
268.0596454
0
ARC
8
DEFAULT_255_2_778
10
56.9167196
20
89.7039663
40
1.8066743
50
268.0581427
51
269.9790184
0
ARC
8
DEFAULT_255_2_778
10
56.9271609
20
89.1636748
40
1.2664312
50
269.4976758
51
280.3315225
0
ARC
8
DEFAULT_255_2_778
10
57.0366596
20
88.5911578
40
0.6835776
50
279.9085679
51
299.3423971
0
ARC
8
DEFAULT_255_2_778
10
57.1405869
20
88.391452
40
0.4586229
50
300.2503308
51
354.8385959
0
ARC
8
DEFAULT_255_2_778
10
56.8199091
20
88.4538898
40
0.7843262
50
352.4026442
51
0.1850515
0
ARC
8
DEFAULT_255_2_778
10
56.6464853
20
88.4560742
40
0.957746
50
0.0208663
51
2.4036513
0
ARC
8
DEFAULT_255_2_778
10
57.1520099
20
88.5099584
40
0.4515869
50
358.2593622
51
31.0604025
0
ARC
8
DEFAULT_255_2_778
10
57.1730096
20
88.4999524
40
0.4391895
50
33.5928958
51
68.2423201
0
ARC
8
DEFAULT_255_2_778
10
56.9985739
20
88.1013154
40
0.8742036
50
67.3088976
51
82.1225135
0
ARC
8
DEFAULT_255_2_778
10
56.8825278
20
87.3347822
40
1.6494377
50
81.7788417
51
90.3963172
0
ARC
8
DEFAULT_255_2_778
10
56.871704
20
86.653733
40
2.3304475
50
90.0143906
51
91.4570146
0
ARC
8
DEFAULT_255_2_778
10
56.8759845
20
86.464045
40
2.5201832
50
91.4446451
51
91.9008852
0
LINE
8
DEFAULT_255_2_778
10
56.7923884
20
88.9828414
11
56.3597884
21
88.9828414
0
LINE
8
DEFAULT_255_2_778
10
53.2048884
20
88.4131414
11
53.2048884
21
88.4134414
0
LINE
8
DEFAULT_255_2_778
10
52.3939884
20
88.9539414
11
52.3939884
21
87.3320414
0
LINE
8
DEFAULT_255_2_778
10
52.3939884
20
87.3320414
11
52.8265884
21
87.3320414
0
LINE
8
DEFAULT_255_2_778
10
52.8265884
20
87.3320414
11
52.8265884
21
87.8728414
0
LINE
8
DEFAULT_255_2_778
10
52.3939884
20
88.9542414
11
52.3939884
21
88.9539414
0
LINE
8
DEFAULT_255_2_778
10
57.1707884
20
88.4419414
11
57.1707884
21
88.4419414
0
LINE
8
DEFAULT_255_2_778
10
56.3597884
20
88.9825414
11
56.3597884
21
87.3606414
0
LINE
8
DEFAULT_255_2_778
10
56.3597884
20
87.3606414
11
56.7923884
21
87.3606414
0
LINE
8
DEFAULT_255_2_778
10
56.7923884
20
87.3606414
11
56.7923884
21
87.9014414
0
LINE
8
DEFAULT_255_2_778
10
56.3597884
20
88.9828414
11
56.3597884
21
88.9825414
0
LINE
8
DEFAULT_255_2_778
10
55.4874884
20
88.0197414
11
55.4874884
21
88.3226414
0
LINE
8
DEFAULT_255_2_778
10
55.4874884
20
88.3226414
11
56.1086884
21
88.3226414
0
LINE
8
DEFAULT_255_2_778
10
56.1086884
20
88.3226414
11
56.1086884
21
88.0197414
0
LINE
8
DEFAULT_255_2_778
10
56.1086884
20
88.0197414
11
55.4874884
21
88.0197414
0
ARC
8
DEFAULT_255_2_778
10
13.7182495
20
20.5417899
40
0.4647248
50
268.9283869
51
296.3149448
0
ARC
8
DEFAULT_255_2_778
10
13.6621195
20
20.5759084
40
0.5213792
50
300.1848304
51
348.9016178
0
ARC
8
DEFAULT_255_2_778
10
13.1398061
20
20.739474
40
1.0670959
50
345.6802473
51
357.3621368
0
ARC
8
DEFAULT_255_2_778
10
12.9198132
20
20.756251
40
1.2876449
50
357.0669256
51
0.0131461
0
ARC
8
DEFAULT_255_2_778
10
13.7058718
20
20.9186261
40
0.4648015
50
88.9291842
51
116.3127006
0
ARC
8
DEFAULT_255_2_778
10
13.7619912
20
20.8844815
40
0.5214718
50
120.179821
51
168.8920897
0
ARC
8
DEFAULT_255_2_778
10
14.2837892
20
20.7209904
40
1.0666754
50
165.6729034
51
177.3595654
0
ARC
8
DEFAULT_255_2_778
10
14.5033013
20
20.7042376
40
1.2867433
50
177.0646812
51
180.0129682
0
ARC
8
DEFAULT_255_2_778
10
13.7045718
20
20.5418667
40
0.4648015
50
243.6872994
51
271.0708158
0
ARC
8
DEFAULT_255_2_778
10
13.7606912
20
20.5760113
40
0.5214718
50
191.1079103
51
239.820179
0
ARC
8
DEFAULT_255_2_778
10
14.2824892
20
20.7395024
40
1.0666754
50
182.6404346
51
194.3270966
0
ARC
8
DEFAULT_255_2_778
10
14.5020013
20
20.7562552
40
1.2867433
50
179.9870318
51
182.9353188
0
ARC
8
DEFAULT_255_2_778
10
13.7182495
20
20.9211029
40
0.4647248
50
63.6850552
51
91.0716131
0
ARC
8
DEFAULT_255_2_778
10
13.6621195
20
20.8869844
40
0.5213792
50
11.0983822
51
59.8151696
0
ARC
8
DEFAULT_255_2_778
10
13.1398061
20
20.7234188
40
1.0670959
50
2.6378632
51
14.3197527
0
ARC
8
DEFAULT_255_2_778
10
12.9198132
20
20.7066418
40
1.2876449
50
359.9868539
51
2.9330744
0
LINE
8
DEFAULT_255_2_778
10
13.7142581
20
21.6728464
11
13.7136749
21
21.6728797
0
ARC
8
DEFAULT_255_2_778
10
13.6639838
20
20.7982275
40
0.8760626
50
86.7483834
51
89.9968902
0
ARC
8
DEFAULT_255_2_778
10
13.6505793
20
20.8949378
40
0.7794682
50
89.0111473
51
145.1004393
0
ARC
8
DEFAULT_255_2_778
10
13.7360479
20
20.8497739
40
0.8754862
50
145.8765363
51
166.8320228
0
ARC
8
DEFAULT_255_2_778
10
14.0404765
20
20.7756966
40
1.1887888
50
166.6980995
51
180.3725931
0
ARC
8
DEFAULT_255_2_778
10
14.2810882
20
20.7680319
40
1.4293755
50
180.0026408
51
181.0617174
0
ARC
8
DEFAULT_255_2_778
10
13.71491
20
20.9120293
40
1.1246971
50
269.7120733
51
269.9978847
0
ARC
8
DEFAULT_255_2_778
10
13.752687
20
20.5872341
40
0.8007954
50
267.2931343
51
326.7517957
0
ARC
8
DEFAULT_255_2_778
10
13.6368466
20
20.6329979
40
0.9231091
50
328.3185336
51
347.2255999
0
ARC
8
DEFAULT_255_2_778
10
13.2177232
20
20.7320198
40
1.353759
50
347.0606487
51
359.42842
0
ARC
8
DEFAULT_255_2_778
10
12.9054073
20
20.7468059
40
1.6662475
50
359.0271383
51
359.3824292
0
ARC
8
DEFAULT_255_2_778
10
13.6830187
20
20.6974354
40
0.910625
50
270.0005084
51
271.9659471
0
ARC
8
DEFAULT_255_2_778
10
13.6668277
20
20.5879379
40
0.8012913
50
214.9145087
51
271.1583803
0
ARC
8
DEFAULT_255_2_778
10
13.7394475
20
20.6198803
40
0.8792568
50
192.8333141
51
213.9128074
0
ARC
8
DEFAULT_255_2_778
10
14.0430677
20
20.6922808
40
1.1913783
50
179.6420168
51
192.9849612
0
ARC
8
DEFAULT_255_2_778
10
14.2790662
20
20.6996688
40
1.4273536
50
178.9370964
51
179.9977654
0
ARC
8
DEFAULT_255_2_778
10
13.7152536
20
20.5374895
40
1.1374727
50
90.002006
51
90.3019996
0
ARC
8
DEFAULT_255_2_778
10
13.7547005
20
20.8743948
40
0.8015405
50
33.9573739
51
92.823737
0
ARC
8
DEFAULT_255_2_778
10
13.6508504
20
20.8377587
40
0.9085634
50
13.0693214
51
32.2153195
0
ARC
8
DEFAULT_255_2_778
10
13.2373965
20
20.7375044
40
1.3339846
50
0.9461712
51
13.2481348
0
ARC
8
DEFAULT_255_2_778
10
12.9158526
20
20.7207193
40
1.6558014
50
0.6168848
51
1.3431801
0
LINE
8
DEFAULT_255_2_778
10
15.6578581
20
21.6450464
11
15.6578581
21
21.3603464
0
LINE
8
DEFAULT_255_2_778
10
15.6578581
20
21.3603464
11
15.0776581
21
21.3603464
0
LINE
8
DEFAULT_255_2_778
10
15.0776581
20
21.3603464
11
15.0776581
21
20.9153464
0
LINE
8
DEFAULT_255_2_778
10
15.0776581
20
20.9153464
11
15.6295581
21
20.9153464
0
LINE
8
DEFAULT_255_2_778
10
15.6295581
20
20.9153464
11
15.6295581
21
20.6306464
0
LINE
8
DEFAULT_255_2_778
10
15.6295581
20
20.6306464
11
15.0776581
21
20.6306464
0
LINE
8
DEFAULT_255_2_778
10
15.0776581
20
20.6306464
11
15.0776581
21
19.8387464
0
LINE
8
DEFAULT_255_2_778
10
15.0776581
20
19.8387464
11
14.7501581
21
19.8387464
0
LINE
8
DEFAULT_255_2_778
10
14.7501581
20
19.8387464
11
14.7501581
21
21.6450464
0
LINE
8
DEFAULT_255_2_778
10
14.7501581
20
21.6450464
11
15.6578581
21
21.6450464
0
LINE
8
DEFAULT_255_2_778
10
16.8268581
20
21.6450464
11
16.8268581
21
21.3603464
0
LINE
8
DEFAULT_255_2_778
10
16.8268581
20
21.3603464
11
16.2465581
21
21.3603464
0
LINE
8
DEFAULT_255_2_778
10
16.2465581
20
21.3603464
11
16.2465581
21
20.9153464
0
LINE
8
DEFAULT_255_2_778
10
16.2465581
20
20.9153464
11
16.7985581
21
20.9153464
0
LINE
8
DEFAULT_255_2_778
10
16.7985581
20
20.9153464
11
16.7985581
21
20.6306464
0
LINE
8
DEFAULT_255_2_778
10
16.7985581
20
20.6306464
11
16.2465581
21
20.6306464
0
LINE
8
DEFAULT_255_2_778
10
16.2465581
20
20.6306464
11
16.2465581
21
19.8387464
0
LINE
8
DEFAULT_255_2_778
10
16.2465581
20
19.8387464
11
15.9190581
21
19.8387464
0
LINE
8
DEFAULT_255_2_778
10
15.9190581
20
19.8387464
11
15.9190581
21
21.6450464
0
LINE
8
DEFAULT_255_2_778
10
15.9190581
20
21.6450464
11
16.8268581
21
21.6450464
0
ARC
8
DEFAULT_255_2_778
10
39.8895314
20
35.0564175
40
0.5000969
50
89.9996485
51
180.0003515
0
ARC
8
DEFAULT_255_2_778
10
39.8895099
20
35.0564899
40
0.5000754
50
180.0086483
51
270.0028154
0
ARC
8
DEFAULT_255_2_778
10
39.8895314
20
25.7563175
40
0.5000969
50
89.9996485
51
180.0003515
0
ARC
8
DEFAULT_255_2_778
10
39.8895102
20
25.7563902
40
0.5000758
50
180.008676
51
270.0027763
0
ARC
8
DEFAULT_255_2_778
10
41.4905005
20
25.7563807
40
0.500066
50
92.6437682
51
180.0075862
0
ARC
8
DEFAULT_255_2_778
10
41.4904781
20
25.7563268
40
0.5000436
50
180.0014124
51
267.3586905
0
LINE
8
DEFAULT_255_2_778
10
43.0893345
20
35.5565144
11
43.0893345
21
34.6564144
0
LINE
8
DEFAULT_255_2_778
10
43.5894345
20
35.5565144
11
43.5894345
21
34.6564144
0
LINE
8
DEFAULT_255_2_778
10
44.6893345
20
34.6564144
11
44.6893345
21
35.5565144
0
LINE
8
DEFAULT_255_2_778
10
43.3894345
20
35.2565144
11
43.3894345
21
34.6564144
0
LINE
8
DEFAULT_255_2_778
10
41.4894345
20
34.5564144
11
41.4894345
21
35.5565144
0
LINE
8
DEFAULT_255_2_778
10
41.9895345
20
34.5564144
11
41.9895345
21
34.6564144
0
LINE
8
DEFAULT_255_2_778
10
45.1893345
20
35.5565144
11
39.8895345
21
35.5565144
0
LINE
8
DEFAULT_255_2_778
10
39.8895345
20
34.5564144
11
45.1893345
21
34.5564144
0
LINE
8
DEFAULT_255_2_778
10
43.5894345
20
35.2565144
11
43.0893345
21
35.2565144
0
LINE
8
DEFAULT_255_2_778
10
39.6894345
20
35.5091144
11
39.6894345
21
34.6564144
0
LINE
8
DEFAULT_255_2_778
10
39.6894345
20
34.6564144
11
45.1893345
21
34.6564144
0
LINE
8
DEFAULT_255_2_778
10
45.1893345
20
26.2564144
11
39.8895345
21
26.2564144
0
LINE
8
DEFAULT_255_2_778
10
39.8895345
20
25.2563144
11
45.1893345
21
25.2563144
0
LINE
8
DEFAULT_255_2_778
10
41.4894345
20
25.2563144
11
41.4894345
21
26.2564144
0
LINE
8
DEFAULT_255_2_778
10
43.0893345
20
26.2564144
11
43.0893345
21
25.2563144
0
LINE
8
DEFAULT_255_2_778
10
44.6893345
20
25.2563144
11
44.6893345
21
26.2564144
0
LINE
8
DEFAULT_255_2_778
10
39.6892345
20
26.2090144
11
39.6892345
21
25.3036144
0
LINE
8
DEFAULT_255_2_778
10
43.5891345
20
26.2564144
11
43.5891345
21
25.2563144
0
LINE
8
DEFAULT_255_2_778
10
43.3891345
20
26.2564144
11
43.3891345
21
25.4563144
0
LINE
8
DEFAULT_255_2_778
10
41.4891345
20
25.4563144
11
43.5891345
21
25.4563144
0
ARC
8
DEFAULT_255_2_778
10
27.3915034
20
1.8426516
40
0.6666002
50
83.6010865
51
89.9174138
0
ARC
8
DEFAULT_255_2_778
10
27.3886633
20
1.9841378
40
0.5251271
50
89.5852895
51
146.0034611
0
ARC
8
DEFAULT_255_2_778
10
27.5741364
20
1.8170378
40
0.7731152
50
143.4211851
51
143.758224
0
ARC
8
DEFAULT_255_2_778
10
27.8546626
20
1.5819064
40
1.0048491
50
154.0824879
51
168.2987249
0
ARC
8
DEFAULT_255_2_778
10
27.4254377
20
1.798807
40
0.5240449
50
122.9115703
51
154.9004933
0
ARC
8
DEFAULT_255_2_778
10
27.3996596
20
1.803537
40
0.506427
50
88.5362543
51
120.7534206
0
ARC
8
DEFAULT_255_2_778
10
27.3637865
20
2.0090885
40
0.304646
50
50.4169126
51
80.7805044
0
ARC
8
DEFAULT_255_2_778
10
27.3933481
20
2.0677588
40
0.2410346
50
359.0850234
51
46.9439128
0
ARC
8
DEFAULT_255_2_778
10
27.227336
20
2.0482846
40
0.4073157
50
359.9847672
51
2.198488
0
ARC
8
DEFAULT_255_2_778
10
27.1247158
20
2.0503472
40
0.5099404
50
351.9811912
51
359.7560871
0
ARC
8
DEFAULT_255_2_778
10
26.9841158
20
2.0677612
40
0.6515993
50
349.9898907
51
352.1895593
0
ARC
8
DEFAULT_255_2_778
10
26.8934123
20
2.0918135
40
0.9906466
50
352.0325198
51
356.6744451
0
ARC
8
DEFAULT_255_2_778
10
27.0781027
20
2.0802282
40
0.8055955
50
356.7350385
51
359.9579772
0
ARC
8
DEFAULT_255_2_778
10
27.3674574
20
2.0907723
40
0.5163608
50
358.7643638
51
20.6455272
0
ARC
8
DEFAULT_255_2_778
10
27.5276437
20
2.1413655
40
0.3487428
50
22.1465535
51
76.2957266
0
ARC
8
DEFAULT_255_2_778
10
27.4212732
20
1.8215768
40
0.6851832
50
73.9887553
51
86.2575718
0
LINE
8
DEFAULT_255_2_778
10
26.950596
20
2.2740989
11
26.995096
21
2.4695989
0
LINE
8
DEFAULT_255_2_778
10
26.995096
20
2.4695989
11
26.755096
21
2.4695989
0
LINE
8
DEFAULT_255_2_778
10
26.755096
20
2.4695989
11
26.470896
21
1.1016989
0
LINE
8
DEFAULT_255_2_778
10
26.470896
20
1.1016989
11
26.728596
21
1.1016989
0
LINE
8
DEFAULT_255_2_778
10
26.728596
20
1.1016989
11
26.870696
21
1.7856989
0
LINE
8
DEFAULT_255_2_778
10
27.625796
20
1.9544989
11
27.448296
21
1.1016989
0
LINE
8
DEFAULT_255_2_778
10
27.448296
20
1.1016989
11
27.696996
21
1.1016989
0
LINE
8
DEFAULT_255_2_778
10
27.696996
20
1.1016989
11
27.874496
21
1.9544989
0
LINE
8
DEFAULT_255_2_778
10
27.465996
20
2.5052989
11
27.465796
21
2.5050989
0
LINE
8
DEFAULT_255_2_778
10
37.038896
20
2.7394989
11
36.707396
21
1.3395989
0
LINE
8
DEFAULT_255_2_778
10
36.707396
20
1.3395989
11
36.457596
21
1.3395989
0
LINE
8
DEFAULT_255_2_778
10
36.457596
20
1.3395989
11
36.789096
21
2.7394989
0
LINE
8
DEFAULT_255_2_778
10
36.789096
20
2.7394989
11
37.038896
21
2.7394989
0
LINE
8
DEFAULT_255_2_778
10
24.102896
20
1.8824989
11
24.154796
21
2.1197989
0
LINE
8
DEFAULT_255_2_778
10
24.154796
20
2.1197989
11
24.641096
21
2.1197989
0
LINE
8
DEFAULT_255_2_778
10
24.641096
20
2.1197989
11
24.592096
21
1.8824989
0
LINE
8
DEFAULT_255_2_778
10
24.592096
20
1.8824989
11
24.102896
21
1.8824989
0
LINE
8
DEFAULT_255_2_778
10
28.670696
20
1.8684989
11
29.449296
21
2.4772989
0
LINE
8
DEFAULT_255_2_778
10
29.449296
20
2.4772989
11
29.077896
21
2.4772989
0
LINE
8
DEFAULT_255_2_778
10
29.077896
20
2.4772989
11
28.439196
21
1.9374989
0
LINE
8
DEFAULT_255_2_778
10
28.439196
20
1.9374989
11
28.433596
21
1.9374989
0
LINE
8
DEFAULT_255_2_778
10
28.433596
20
1.9374989
11
28.689496
21
3.1233989
0
LINE
8
DEFAULT_255_2_778
10
28.689496
20
3.1233989
11
28.436796
21
3.1233989
0
LINE
8
DEFAULT_255_2_778
10
28.436796
20
3.1233989
11
28.008096
21
1.1024989
0
LINE
8
DEFAULT_255_2_778
10
28.008096
20
1.1024989
11
28.261596
21
1.1024989
0
LINE
8
DEFAULT_255_2_778
10
28.261596
20
1.1024989
11
28.410096
21
1.8088989
0
LINE
8
DEFAULT_255_2_778
10
28.410096
20
1.8088989
11
28.907696
21
1.1024989
0
LINE
8
DEFAULT_255_2_778
10
28.907696
20
1.1024989
11
29.230496
21
1.1024989
0
LINE
8
DEFAULT_255_2_778
10
29.230496
20
1.1024989
11
28.670896
21
1.8681989
0
LINE
8
DEFAULT_255_2_778
10
24.921996
20
1.3392989
11
25.277096
21
2.9807989
0
LINE
8
DEFAULT_255_2_778
10
25.277096
20
2.9807989
11
25.004596
21
2.9807989
0
LINE
8
DEFAULT_255_2_778
10
25.004596
20
2.9807989
11
24.598496
21
1.1024989
0
LINE
8
DEFAULT_255_2_778
10
24.598496
20
1.1024989
11
25.650696
21
1.1024989
0
LINE
8
DEFAULT_255_2_778
10
25.650696
20
1.1024989
11
25.699696
21
1.3392989
0
LINE
8
DEFAULT_255_2_778
10
25.699696
20
1.3392989
11
24.921996
21
1.3392989
0
LINE
8
DEFAULT_255_2_778
10
32.377496
20
3.1254989
11
32.106296
21
2.7431989
0
LINE
8
DEFAULT_255_2_778
10
32.106296
20
2.7431989
11
31.340796
21
2.7431989
0
LINE
8
DEFAULT_255_2_778
10
31.340796
20
2.7431989
11
31.248196
21
2.3258989
0
LINE
8
DEFAULT_255_2_778
10
31.248196
20
2.3258989
11
32.044096
21
2.3258989
0
LINE
8
DEFAULT_255_2_778
10
32.044096
20
2.3258989
11
31.959996
21
1.9435989
0
LINE
8
DEFAULT_255_2_778
10
31.959996
20
1.9435989
11
31.167296
21
1.9435989
0
LINE
8
DEFAULT_255_2_778
10
31.167296
20
1.9435989
11
31.068296
21
1.4863989
0
LINE
8
DEFAULT_255_2_778
10
31.068296
20
1.4863989
11
31.945396
21
1.4863989
0
LINE
8
DEFAULT_255_2_778
10
31.945396
20
1.4863989
11
31.866796
21
1.1032989
0
LINE
8
DEFAULT_255_2_778
10
31.866796
20
1.1032989
11
30.530396
21
1.1032989
0
LINE
8
DEFAULT_255_2_778
10
30.530396
20
1.1032989
11
30.964896
21
3.1251989
0
LINE
8
DEFAULT_255_2_778
10
30.964896
20
3.1251989
11
32.377196
21
3.1251989
0
LINE
8
DEFAULT_255_2_778
10
30.657996
20
3.1254989
11
30.237796
21
1.1035989
0
LINE
8
DEFAULT_255_2_778
10
30.237796
20
1.1035989
11
29.835896
21
1.1035989
0
LINE
8
DEFAULT_255_2_778
10
29.835896
20
1.1035989
11
30.255996
21
3.1254989
0
LINE
8
DEFAULT_255_2_778
10
30.255996
20
3.1254989
11
30.657996
21
3.1254989
0
ARC
8
DEFAULT_255_2_778
10
23.5909778
20
1.8329869
40
0.946801
50
90.6661745
51
108.509189
0
ARC
8
DEFAULT_255_2_778
10
23.5028723
20
2.1163081
40
0.650197
50
109.0726548
51
161.6221645
0
ARC
8
DEFAULT_255_2_778
10
24.0125771
20
1.9118926
40
1.1988167
50
160.0309484
51
173.711473
0
ARC
8
DEFAULT_255_2_778
10
24.4525223
20
1.8465462
40
1.643358
50
173.1269984
51
174.7077136
0
ARC
8
DEFAULT_255_2_778
10
23.925271
20
2.0116713
40
1.109184
50
180.6998201
51
192.8098786
0
ARC
8
DEFAULT_255_2_778
10
23.4555146
20
1.900088
40
0.6263969
50
192.3842382
51
214.6617827
0
ARC
8
DEFAULT_255_2_778
10
23.344823
20
1.8386027
40
0.5005351
50
216.0791277
51
258.540821
0
ARC
8
DEFAULT_255_2_778
10
23.4365309
20
2.1980807
40
0.8712628
50
257.3266057
51
270.5308761
0
ARC
8
DEFAULT_255_2_778
10
23.4424774
20
2.5927383
40
1.2658847
50
270.0962337
51
274.8159597
0
ARC
8
DEFAULT_255_2_778
10
23.4133927
20
2.9401078
40
1.6144696
50
274.8095173
51
278.9375885
0
ARC
8
DEFAULT_255_2_778
10
23.3605744
20
3.2879222
40
1.9662676
50
278.8834178
51
281.128079
0
ARC
8
DEFAULT_255_2_778
10
26.8208637
20
0.6090876
40
3.1706618
50
166.3259904
51
168.1188852
0
ARC
8
DEFAULT_255_2_778
10
35.0571461
20
-1.1497074
40
11.592629
50
167.9932645
51
168.7459102
0
ARC
8
DEFAULT_255_2_778
10
74.5759337
20
-9.0627901
40
51.8958663
50
168.6924462
51
168.6955875
0
ARC
8
DEFAULT_255_2_778
10
23.3725975
20
2.6623205
40
1.5838884
50
274.6932455
51
281.4444713
0
ARC
8
DEFAULT_255_2_778
10
23.3957224
20
2.4044544
40
1.3249963
50
270.0474761
51
274.6089887
0
ARC
8
DEFAULT_255_2_778
10
23.3863688
20
2.114865
40
1.0354592
50
249.8069264
51
270.5783313
0
ARC
8
DEFAULT_255_2_778
10
23.3562299
20
2.0106512
40
0.9272792
50
233.0379275
51
249.3319711
0
ARC
8
DEFAULT_255_2_778
10
23.4242784
20
1.9070291
40
0.8930534
50
178.7451879
51
225.5306318
0
ARC
8
DEFAULT_255_2_778
10
23.7849882
20
1.9238834
40
1.2535518
50
172.6050854
51
179.8764741
0
ARC
8
DEFAULT_255_2_778
10
23.9766448
20
1.9018304
40
1.4464555
50
170.5136772
51
172.7159213
0
ARC
8
DEFAULT_255_2_778
10
24.0519799
20
1.8880509
40
1.5230318
50
159.5135913
51
170.4694744
0
ARC
8
DEFAULT_255_2_778
10
23.5613631
20
2.0755007
40
0.9978468
50
141.3573407
51
159.7367266
0
ARC
8
DEFAULT_255_2_778
10
23.4211254
20
2.1739769
40
0.8268875
50
103.3271065
51
140.6188437
0
ARC
8
DEFAULT_255_2_778
10
23.5351265
20
1.7529025
40
1.2629769
50
90.7077243
51
103.9563024
0
ARC
8
DEFAULT_255_2_778
10
23.5520809
20
1.40927
40
1.6068428
50
89.9950527
51
91.1608823
0
ARC
8
DEFAULT_255_2_778
10
23.5494129
20
1.1817822
40
1.8343327
50
85.1371444
51
89.9123319
0
ARC
8
DEFAULT_255_2_778
10
23.5128018
20
0.7449957
40
2.2726507
50
81.1667774
51
85.1509464
0
ARC
8
DEFAULT_255_2_778
10
23.4333875
20
0.2302833
40
2.7934531
50
77.8303391
51
81.1783917
0
ARC
8
DEFAULT_255_2_778
10
23.3523247
20
-0.1587835
40
3.1908666
50
76.858868
51
77.8802035
0
ARC
8
DEFAULT_255_2_778
10
23.7112401
20
2.0600633
40
0.7204187
50
64.2281789
51
85.2762101
0
ARC
8
DEFAULT_255_2_778
10
23.6682938
20
1.719539
40
1.0634255
50
84.4810727
51
90.1032786
0
ARC
8
DEFAULT_255_2_778
10
23.6676755
20
1.4820584
40
1.3009051
50
90.0571919
51
93.852515
0
LINE
8
DEFAULT_255_2_778
10
24.0777697
20
2.9485239
11
24.0244697
21
2.7088239
0
LINE
8
DEFAULT_255_2_778
10
23.5802697
20
2.7800239
11
23.5799697
21
2.7797239
0
ARC
8
DEFAULT_255_2_778
10
22.1609778
20
1.8329869
40
0.946801
50
90.6661745
51
108.509189
0
ARC
8
DEFAULT_255_2_778
10
22.0728723
20
2.1163081
40
0.650197
50
109.0726548
51
161.6221645
0
ARC
8
DEFAULT_255_2_778
10
22.5825771
20
1.9118926
40
1.1988167
50
160.0309484
51
173.711473
0
ARC
8
DEFAULT_255_2_778
10
23.0225223
20
1.8465462
40
1.643358
50
173.1269984
51
174.7077136
0
ARC
8
DEFAULT_255_2_778
10
22.495271
20
2.0116713
40
1.109184
50
180.6998201
51
192.8098786
0
ARC
8
DEFAULT_255_2_778
10
22.0255146
20
1.900088
40
0.6263969
50
192.3842382
51
214.6617827
0
ARC
8
DEFAULT_255_2_778
10
21.914823
20
1.8386027
40
0.5005351
50
216.0791277
51
258.540821
0
ARC
8
DEFAULT_255_2_778
10
22.0065309
20
2.1980807
40
0.8712628
50
257.3266057
51
270.5308761
0
ARC
8
DEFAULT_255_2_778
10
22.0124774
20
2.5927383
40
1.2658847
50
270.0962337
51
274.8159597
0
ARC
8
DEFAULT_255_2_778
10
21.9833927
20
2.9401078
40
1.6144696
50
274.8095173
51
278.9375885
0
ARC
8
DEFAULT_255_2_778
10
21.9305744
20
3.2879222
40
1.9662676
50
278.8834178
51
281.128079
0
ARC
8
DEFAULT_255_2_778
10
25.3908637
20
0.6090876
40
3.1706618
50
166.3259904
51
168.1188852
0
ARC
8
DEFAULT_255_2_778
10
33.6271461
20
-1.1497074
40
11.592629
50
167.9932645
51
168.7459102
0
ARC
8
DEFAULT_255_2_778
10
73.1459337
20
-9.0627901
40
51.8958663
50
168.6924462
51
168.6955875
0
ARC
8
DEFAULT_255_2_778
10
21.9425975
20
2.6623205
40
1.5838884
50
274.6932455
51
281.4444713
0
ARC
8
DEFAULT_255_2_778
10
21.9657224
20
2.4044544
40
1.3249963
50
270.0474761
51
274.6089887
0
ARC
8
DEFAULT_255_2_778
10
21.9563688
20
2.114865
40
1.0354592
50
249.8069264
51
270.5783313
0
ARC
8
DEFAULT_255_2_778
10
21.9262299
20
2.0106512
40
0.9272792
50
233.0379275
51
249.3319711
0
ARC
8
DEFAULT_255_2_778
10
21.9942784
20
1.9070291
40
0.8930534
50
178.7451879
51
225.5306318
0
ARC
8
DEFAULT_255_2_778
10
22.3549882
20
1.9238834
40
1.2535518
50
172.6050854
51
179.8764741
0
ARC
8
DEFAULT_255_2_778
10
22.5466448
20
1.9018304
40
1.4464555
50
170.5136772
51
172.7159213
0
ARC
8
DEFAULT_255_2_778
10
22.6219799
20
1.8880509
40
1.5230318
50
159.5135913
51
170.4694744
0
ARC
8
DEFAULT_255_2_778
10
22.1313631
20
2.0755007
40
0.9978468
50
141.3573407
51
159.7367266
0
ARC
8
DEFAULT_255_2_778
10
21.9911254
20
2.1739769
40
0.8268875
50
103.3271065
51
140.6188437
0
ARC
8
DEFAULT_255_2_778
10
22.1051265
20
1.7529025
40
1.2629769
50
90.7077243
51
103.9563024
0
ARC
8
DEFAULT_255_2_778
10
22.1220809
20
1.40927
40
1.6068428
50
89.9950527
51
91.1608823
0
ARC
8
DEFAULT_255_2_778
10
22.1194129
20
1.1817822
40
1.8343327
50
85.1371444
51
89.9123319
0
ARC
8
DEFAULT_255_2_778
10
22.0828018
20
0.7449957
40
2.2726507
50
81.1667774
51
85.1509464
0
ARC
8
DEFAULT_255_2_778
10
22.0033875
20
0.2302833
40
2.7934531
50
77.8303391
51
81.1783917
0
ARC
8
DEFAULT_255_2_778
10
21.9223247
20
-0.1587835
40
3.1908666
50
76.858868
51
77.8802035
0
ARC
8
DEFAULT_255_2_778
10
22.2812401
20
2.0600633
40
0.7204187
50
64.2281789
51
85.2762101
0
ARC
8
DEFAULT_255_2_778
10
22.2382938
20
1.719539
40
1.0634255
50
84.4810727
51
90.1032786
0
ARC
8
DEFAULT_255_2_778
10
22.2376755
20
1.4820584
40
1.3009051
50
90.0571919
51
93.852515
0
LINE
8
DEFAULT_255_2_778
10
22.6477697
20
2.9485239
11
22.5944697
21
2.7088239
0
LINE
8
DEFAULT_255_2_778
10
22.1502697
20
2.7800239
11
22.1499697
21
2.7797239
0
ARC
8
DEFAULT_255_2_778
10
41.6597761
20
2.2980959
40
0.4130131
50
236.8382417
51
257.6794691
0
ARC
8
DEFAULT_255_2_778
10
41.5202056
20
2.0891364
40
0.1617614
50
179.6605534
51
237.736791
0
ARC
8
DEFAULT_255_2_778
10
41.4645009
20
2.0655766
40
0.108851
50
96.9102883
51
166.9826934
0
ARC
8
DEFAULT_255_2_778
10
41.5127998
20
1.8806483
40
0.2993521
50
89.3094827
51
101.8350032
0
ARC
8
DEFAULT_255_2_778
10
41.5101144
20
1.5624731
40
0.6175377
50
80.5782823
51
89.4161215
0
ARC
8
DEFAULT_255_2_778
10
41.4183549
20
0.9837602
40
1.2034724
50
75.2942581
51
80.7788828
0
ARC
8
DEFAULT_255_2_778
10
41.2459787
20
0.3021779
40
1.9064964
50
73.0231651
51
75.4833941
0
ARC
8
DEFAULT_255_2_778
10
40.8062634
20
2.6075074
40
1.1068064
50
334.1887244
51
339.4474388
0
ARC
8
DEFAULT_255_2_778
10
38.7456714
20
3.3972159
40
3.3135218
50
339.1700974
51
341.6963524
0
ARC
8
DEFAULT_255_2_778
10
41.3510621
20
-0.0069084
40
2.4245147
50
77.1191065
51
80.6589719
0
ARC
8
DEFAULT_255_2_778
10
41.4562563
20
0.6370979
40
1.7719741
50
80.6353799
51
85.0605692
0
ARC
8
DEFAULT_255_2_778
10
41.4973714
20
1.1108733
40
1.2964183
50
85.0680448
51
89.8769397
0
ARC
8
DEFAULT_255_2_778
10
41.4911801
20
1.5824829
40
0.8248545
50
89.3765144
51
102.4053864
0
ARC
8
DEFAULT_255_2_778
10
41.4051537
20
1.9525424
40
0.4449772
50
101.8235012
51
127.7841614
0
ARC
8
DEFAULT_255_2_778
10
41.3741138
20
2.0124482
40
0.3788099
50
129.6255134
51
168.1719563
0
ARC
8
DEFAULT_255_2_778
10
41.3270763
20
2.0463533
40
0.3266709
50
172.3049398
51
179.8768626
0
ARC
8
DEFAULT_255_2_778
10
41.2619376
20
2.0481621
40
0.2615338
50
180.2424545
51
243.1079555
0
ARC
8
DEFAULT_255_2_778
10
41.4768358
20
2.3934668
40
0.6676413
50
240.062204
51
255.528975
0
ARC
8
DEFAULT_255_2_778
10
41.6007858
20
2.8023625
40
1.0946837
50
254.5952653
51
257.2207612
0
ARC
8
DEFAULT_255_2_778
10
41.3281488
20
1.6352582
40
0.1041042
50
32.2747598
51
72.9647679
0
ARC
8
DEFAULT_255_2_778
10
41.3682302
20
1.6663251
40
0.0538465
50
359.6700041
51
27.0917048
0
ARC
8
DEFAULT_255_2_778
10
41.3371397
20
1.6686929
40
0.0849783
50
331.5383231
51
358.1941483
0
ARC
8
DEFAULT_255_2_778
10
41.3139918
20
1.7147161
40
0.1306201
50
280.9461767
51
318.5176801
0
ARC
8
DEFAULT_255_2_778
10
41.2188827
20
2.0751426
40
0.5031674
50
271.2005215
51
283.7870817
0
ARC
8
DEFAULT_255_2_778
10
41.1917176
20
2.5545399
40
0.9831777
50
269.9517715
51
272.1979705
0
ARC
8
DEFAULT_255_2_778
10
41.1934908
20
2.9537861
40
1.3824261
50
266.8826536
51
269.8922071
0
ARC
8
DEFAULT_255_2_778
10
41.2132578
20
3.368107
40
1.7972111
50
266.1296253
51
266.9717108
0
ARC
8
DEFAULT_255_2_778
10
41.2093837
20
2.1943463
40
0.6303869
50
243.909649
51
259.2634843
0
ARC
8
DEFAULT_255_2_778
10
42.9057419
20
0.7824769
40
2.1471644
50
156.8040706
51
163.8561771
0
ARC
8
DEFAULT_255_2_778
10
41.4355511
20
4.0895667
40
2.7740429
50
257.6714901
51
260.7044822
0
ARC
8
DEFAULT_255_2_778
10
41.3201545
20
3.3775924
40
2.0527787
50
260.6731791
51
264.6876956
0
ARC
8
DEFAULT_255_2_778
10
41.2665435
20
2.791348
40
1.464089
50
264.6526166
51
269.8419817
0
ARC
8
DEFAULT_255_2_778
10
41.2710182
20
2.2420247
40
0.9147997
50
269.4668317
51
280.921854
0
ARC
8
DEFAULT_255_2_778
10
41.3552831
20
1.8281625
40
0.4924873
50
280.4187875
51
302.001277
0
ARC
8
DEFAULT_255_2_778
10
41.4250802
20
1.7043159
40
0.3505319
50
303.0540738
51
347.4577775
0
ARC
8
DEFAULT_255_2_778
10
41.3849727
20
1.6604279
40
0.383631
50
355.1802615
51
359.9252833
0
ARC
8
DEFAULT_255_2_778
10
41.5484913
20
1.6722712
40
0.2204579
50
356.7902848
51
76.9234788
0
ARC
8
DEFAULT_255_2_778
10
41.4699084
20
1.4851469
40
0.4218985
50
72.2727803
51
76.0458641
0
ARC
8
DEFAULT_255_2_778
10
42.9421988
20
3.256031
40
1.9154767
50
276.8899016
51
280.1436771
0
ARC
8
DEFAULT_255_2_778
10
42.993921
20
2.8239905
40
1.4803515
50
272.8837116
51
276.9084669
0
ARC
8
DEFAULT_255_2_778
10
43.0095803
20
2.5357769
40
1.1917157
50
270.0387922
51
272.8289156
0
ARC
8
DEFAULT_255_2_778
10
43.0003372
20
2.1401431
40
0.7961451
50
256.4422655
51
270.7232793
0
ARC
8
DEFAULT_255_2_778
10
42.9052314
20
1.7706685
40
0.4147121
50
225.2857086
51
257.2493383
0
ARC
8
DEFAULT_255_2_778
10
42.9103662
20
1.7528081
40
0.4059564
50
189.5479205
51
222.9965535
0
ARC
8
DEFAULT_255_2_778
10
43.2089776
20
1.8182296
40
0.7114408
50
179.5894106
51
190.7547354
0
ARC
8
DEFAULT_255_2_778
10
43.4312848
20
1.8231406
40
0.9337297
50
178.3396628
51
179.9885089
0
ARC
8
DEFAULT_255_2_778
10
43.2787074
20
1.8018894
40
0.7822531
50
160.1633868
51
176.459646
0
ARC
8
DEFAULT_255_2_778
10
43.0028943
20
1.9020733
40
0.4888097
50
102.2143706
51
160.2390182
0
ARC
8
DEFAULT_255_2_778
10
43.1237942
20
1.4796531
40
0.9276934
50
90.2280357
51
103.9928721
0
ARC
8
DEFAULT_255_2_778
10
43.1386653
20
1.1479526
40
1.2595233
50
89.9969228
51
90.8444718
0
ARC
8
DEFAULT_255_2_778
10
43.1358183
20
0.9293283
40
1.4781504
50
85.0780545
51
89.8870247
0
ARC
8
DEFAULT_255_2_778
10
43.0997302
20
0.4972083
40
1.9117737
50
81.5012819
51
85.1116272
0
ARC
8
DEFAULT_255_2_778
10
43.0252238
20
-0.0041103
40
2.4185986
50
78.4242671
51
81.5107654
0
ARC
8
DEFAULT_255_2_778
10
51.5313293
20
-0.6485072
40
8.5683108
50
159.4063338
51
160.7802502
0
ARC
8
DEFAULT_255_2_778
10
48.5358152
20
0.4025533
40
5.3937607
50
160.8479983
51
161.4711415
0
ARC
8
DEFAULT_255_2_778
10
43.04008
20
1.020296
40
1.1608034
50
70.8095329
51
76.3676215
0
ARC
8
DEFAULT_255_2_778
10
43.132254
20
1.4045295
40
0.7656705
50
76.2940419
51
83.9366063
0
ARC
8
DEFAULT_255_2_778
10
43.1574604
20
1.6271043
40
0.5416805
50
84.101094
51
89.873972
0
ARC
8
DEFAULT_255_2_778
10
43.149139
20
1.8465762
40
0.3223475
50
88.3088937
51
117.218752
0
ARC
8
DEFAULT_255_2_778
10
43.1365798
20
1.898866
40
0.2704042
50
119.9209702
51
162.8388131
0
ARC
8
DEFAULT_255_2_778
10
43.3770227
20
1.807069
40
0.5274942
50
161.0175427
51
173.3784513
0
ARC
8
DEFAULT_255_2_778
10
43.2310531
20
1.8588905
40
0.3781133
50
178.6354481
51
199.2442646
0
ARC
8
DEFAULT_255_2_778
10
43.0670788
20
1.8055097
40
0.2057398
50
200.2600482
51
268.5564648
0
ARC
8
DEFAULT_255_2_778
10
43.1036988
20
2.0080466
40
0.4103462
50
264.1530038
51
270.1290076
0
ARC
8
DEFAULT_255_2_778
10
43.10081
20
2.1965509
40
0.5988616
50
270.3647855
51
278.923446
0
ARC
8
DEFAULT_255_2_778
10
43.0471594
20
2.5493537
40
0.9557176
50
278.8201101
51
284.7967715
0
ARC
8
DEFAULT_255_2_778
10
42.9657586
20
2.8737226
40
1.2901253
50
284.6129286
51
286.5265485
0
ARC
8
DEFAULT_255_2_778
10
39.1171085
20
2.351926
40
4.2758483
50
348.0307845
51
350.3734522
0
ARC
8
DEFAULT_255_2_778
10
35.6842766
20
3.0604936
40
7.7810173
50
347.4556594
51
348.1689169
0
ARC
8
DEFAULT_255_2_778
10
35.901841
20
2.3304212
40
0.8284159
50
277.5807915
51
291.3952711
0
ARC
8
DEFAULT_255_2_778
10
35.9541203
20
1.9922746
40
0.4863814
50
270.1445231
51
276.7311116
0
ARC
8
DEFAULT_255_2_778
10
35.88891
20
2.0602324
40
0.5583047
50
271.1989584
51
276.8342715
0
ARC
8
DEFAULT_255_2_778
10
35.8921163
20
1.9648807
40
0.4629082
50
270.0045947
51
271.0491438
0
ARC
8
DEFAULT_255_2_778
10
35.8807586
20
1.7717994
40
0.2700674
50
240.8082279
51
272.418172
0
ARC
8
DEFAULT_255_2_778
10
35.8616464
20
1.7065407
40
0.2043373
50
184.7849366
51
236.5579417
0
ARC
8
DEFAULT_255_2_778
10
36.0879289
20
1.7524134
40
0.4344873
50
179.712347
51
188.3262246
0
LINE
8
DEFAULT_255_2_778
10
35.6534471
20
1.7545948
11
36.3464471
21
1.7545948
0
ARC
8
DEFAULT_255_2_778
10
35.2213391
20
2.0110089
40
1.1539568
50
347.1614671
51
351.953071
0
ARC
8
DEFAULT_255_2_778
10
35.5441594
20
1.9659778
40
0.8280116
50
351.9114141
51
358.1574883
0
ARC
8
DEFAULT_255_2_778
10
35.7012833
20
1.958893
40
0.6707442
50
358.3308267
51
359.9884319
0
ARC
8
DEFAULT_255_2_778
10
35.9325887
20
1.9689852
40
0.4395577
50
358.6667257
51
21.3822201
0
ARC
8
DEFAULT_255_2_778
10
36.0678676
20
2.0121035
40
0.298011
50
23.1456457
51
77.7278025
0
ARC
8
DEFAULT_255_2_778
10
35.9749064
20
1.7056429
40
0.6177627
50
75.3438031
51
88.5028221
0
ARC
8
DEFAULT_255_2_778
10
36.0263972
20
1.6365811
40
0.687523
50
92.9472543
51
116.110419
0
ARC
8
DEFAULT_255_2_778
10
35.9764208
20
1.7733186
40
0.5429609
50
117.7254073
51
161.5120199
0
ARC
8
DEFAULT_255_2_778
10
36.3528191
20
1.6211966
40
0.9484994
50
160.006931
51
171.9150431
0
ARC
8
DEFAULT_255_2_778
10
36.3135092
20
1.7355088
40
0.8999645
50
178.7848116
51
179.9933102
0
ARC
8
DEFAULT_255_2_778
10
35.9991237
20
1.7232196
40
0.5857102
50
178.7874656
51
198.5322161
0
ARC
8
DEFAULT_255_2_778
10
35.7559696
20
1.6464493
40
0.3307949
50
199.3106678
51
265.538629
0
ARC
8
DEFAULT_255_2_778
10
35.8231066
20
1.9428356
40
0.6330281
50
261.5639618
51
267.5319641
0
ARC
8
DEFAULT_255_2_778
10
35.9102582
20
3.1121987
40
1.8054328
50
266.3667069
51
268.9317521
0
ARC
8
DEFAULT_255_2_778
10
35.9018047
20
2.7442539
40
1.4373952
50
268.9952221
51
269.9905847
0
ARC
8
DEFAULT_255_2_778
10
35.9106744
20
2.2043528
40
0.8975402
50
269.4187003
51
278.3039678
0
ARC
8
DEFAULT_255_2_778
10
35.9983365
20
1.6420606
40
0.3285294
50
277.3387673
51
296.8319918
0
ARC
8
DEFAULT_255_2_778
10
36.0710477
20
1.487357
40
0.1577395
50
298.6291122
51
308.3165031
0
ARC
8
DEFAULT_255_2_778
10
42.5130797
20
0.3125461
40
6.4307068
50
168.822847
51
170.5932516
0
LINE
8
DEFAULT_255_2_778
10
35.6889471
20
1.9144948
11
36.1154471
21
1.9144948
0
ARC
8
DEFAULT_255_2_778
10
35.6603998
20
1.9567979
40
0.4570094
50
354.6888065
51
359.8525696
0
ARC
8
DEFAULT_255_2_778
10
35.9085399
20
1.9666539
40
0.2091589
50
356.9765635
51
30.0186146
0
ARC
8
DEFAULT_255_2_778
10
35.982307
20
1.9980385
40
0.1299504
50
34.3124454
51
86.1435352
0
ARC
8
DEFAULT_255_2_778
10
35.9385787
20
1.8196544
40
0.3124769
50
80.3335997
51
89.7891234
0
ARC
8
DEFAULT_255_2_778
10
35.9402552
20
1.8951051
40
0.2370246
50
90.1272551
51
154.9987338
0
ARC
8
DEFAULT_255_2_778
10
36.179632
20
1.7432964
40
0.5194095
50
150.9785987
51
160.7553806
0
LINE
8
DEFAULT_255_2_778
10
37.9500471
20
2.7393948
11
38.2143471
21
2.7393948
0
ARC
8
DEFAULT_255_2_778
10
112.4143209
20
-15.475271
40
76.402946
50
166.2077166
51
166.4194157
0
ARC
8
DEFAULT_255_2_778
10
154.9074719
20
-25.7518866
40
120.1210959
50
166.4139996
51
166.5313919
0
ARC
8
DEFAULT_255_2_778
10
210.3986408
20
-39.039064
40
177.1808796
50
166.5323109
51
166.6512357
0
ARC
8
DEFAULT_255_2_778
10
290.428475
20
-58.0347133
40
259.4342019
50
166.6500615
51
166.7390026
0
ARC
8
DEFAULT_255_2_778
10
354.2420738
20
-73.087018
40
324.9990334
50
166.7367258
51
166.7622419
0
LINE
8
DEFAULT_255_2_778
10
37.8788471
20
1.3352948
11
37.6288471
21
1.3352948
0
ARC
8
DEFAULT_255_2_778
10
39.5433215
20
0.9733955
40
1.9483796
50
164.484209
51
169.2955052
0
ARC
8
DEFAULT_255_2_778
10
37.3375005
20
1.7121227
40
0.3939487
50
268.5813225
51
326.4837648
0
ARC
8
DEFAULT_255_2_778
10
37.405052
20
1.7433546
40
0.4320323
50
233.2323007
51
259.6923729
0
ARC
8
DEFAULT_255_2_778
10
37.3554337
20
1.6531152
40
0.3303524
50
183.0798946
51
230.7570657
0
ARC
8
DEFAULT_255_2_778
10
37.5838914
20
1.6905928
40
0.5610576
50
179.896496
51
185.6489796
0
ARC
8
DEFAULT_255_2_778
10
37.725404
20
1.6904156
40
0.7025702
50
174.9136091
51
179.9028927
0
ARC
8
DEFAULT_255_2_778
10
37.8251919
20
1.6828251
40
0.802639
50
174.3536789
51
175.005435
0
ARC
8
DEFAULT_255_2_778
10
38.0081489
20
1.6571847
40
0.9872596
50
159.5554365
51
173.9175174
0
ARC
8
DEFAULT_255_2_778
10
37.5629311
20
1.8310525
40
0.5094074
50
128.0245826
51
160.3879
0
ARC
8
DEFAULT_255_2_778
10
37.5137662
20
1.8774707
40
0.4426722
50
110.0573523
51
126.7125665
0
ARC
8
DEFAULT_255_2_778
10
37.550589
20
1.838449
40
0.4924129
50
97.4314331
51
112.5256479
0
ARC
8
DEFAULT_255_2_778
10
37.5339198
20
1.9432164
40
0.3863809
50
90.0573939
51
96.9897376
0
ARC
8
DEFAULT_255_2_778
10
37.5298288
20
1.959212
40
0.3704038
50
46.2801322
51
89.4270416
0
ARC
8
DEFAULT_255_2_778
10
37.4076427
20
1.8055041
40
0.5662234
50
42.4939085
51
48.0942919
0
ARC
8
DEFAULT_255_2_778
10
2.2118961
20
10.5293389
40
36.5770648
50
346.817795
51
347.2244148
0
ARC
8
DEFAULT_255_2_778
10
-20.4996351
20
15.6847072
40
59.866364
50
347.2191774
51
347.5119008
0
ARC
8
DEFAULT_255_2_778
10
37.6285091
20
1.7790695
40
0.3866674
50
126.1123941
51
155.6827542
0
ARC
8
DEFAULT_255_2_778
10
37.5544694
20
1.8782893
40
0.2628779
50
103.4319997
51
125.8210542
0
ARC
8
DEFAULT_255_2_778
10
37.5377352
20
1.939852
40
0.1991218
50
90.1686481
51
102.8634296
0
ARC
8
DEFAULT_255_2_778
10
37.5379947
20
1.9688634
40
0.1701116
50
65.1262163
51
90.2848121
0
ARC
8
DEFAULT_255_2_778
10
37.5152075
20
1.9434544
40
0.202994
50
4.506408
51
62.3065347
0
ARC
8
DEFAULT_255_2_778
10
37.4016659
20
1.915886
40
0.3188914
50
359.918922
51
7.8434032
0
ARC
8
DEFAULT_255_2_778
10
37.3369748
20
1.9178791
40
0.38359
50
341.1116879
51
359.6348914
0
ARC
8
DEFAULT_255_2_778
10
37.2926909
20
1.9308852
40
0.4297045
50
334.9721314
51
341.3823669
0
ARC
8
DEFAULT_255_2_778
10
37.3297475
20
1.9083275
40
0.3866136
50
306.084527
51
335.6779371
0
ARC
8
DEFAULT_255_2_778
10
37.4036174
20
1.8091962
40
0.2629964
50
283.3905683
51
305.7987573
0
ARC
8
DEFAULT_255_2_778
10
37.4203298
20
1.7475796
40
0.1991944
50
270.1677819
51
282.8186239
0
ARC
8
DEFAULT_255_2_778
10
37.4200681
20
1.7185776
40
0.1701937
50
245.1877996
51
270.2844667
0
ARC
8
DEFAULT_255_2_778
10
37.4429447
20
1.7436857
40
0.2028421
50
184.7292595
51
242.2974457
0
ARC
8
DEFAULT_255_2_778
10
37.5563827
20
1.7715278
40
0.3187208
50
179.9148474
51
188.0378725
0
ARC
8
DEFAULT_255_2_778
10
37.621134
20
1.7695872
40
0.3834794
50
161.1656855
51
179.6392712
0
ARC
8
DEFAULT_255_2_778
10
37.6650196
20
1.7567311
40
0.4291704
50
154.9722394
51
161.432692
0
ARC
8
DEFAULT_255_2_778
10
39.1550202
20
1.8330166
40
0.4987248
50
271.6346715
51
305.9801014
0
ARC
8
DEFAULT_255_2_778
10
39.1440609
20
1.8190822
40
0.4941818
50
307.9578619
51
336.0652628
0
ARC
8
DEFAULT_255_2_778
10
39.0418693
20
1.7966261
40
0.5817867
50
342.1811867
51
350.9619685
0
ARC
8
DEFAULT_255_2_778
10
39.2178092
20
1.767925
40
0.4035231
50
351.0622651
51
359.7763511
0
ARC
8
DEFAULT_255_2_778
10
39.3640164
20
1.7727536
40
0.2573925
50
358.5743768
51
69.6395338
0
ARC
8
DEFAULT_255_2_778
10
39.228399
20
1.5138757
40
0.5485352
50
65.7640865
51
75.6072203
0
ARC
8
DEFAULT_255_2_778
10
39.3542552
20
2.4769503
40
0.431883
50
271.3920441
51
300.5803095
0
ARC
8
DEFAULT_255_2_778
10
39.3771339
20
2.4029605
40
0.3569958
50
303.4616547
51
347.7797027
0
ARC
8
DEFAULT_255_2_778
10
39.1403278
20
2.4811753
40
0.6055642
50
345.2888774
51
350.650238
0
ARC
8
DEFAULT_255_2_778
10
39.3025178
20
2.4526852
40
0.440904
50
350.8792196
51
357.9901673
0
ARC
8
DEFAULT_255_2_778
10
39.3717255
20
2.44921
40
0.3716185
50
358.1514087
51
359.9895235
0
ARC
8
DEFAULT_255_2_778
10
39.4946184
20
2.458264
40
0.2488926
50
357.8996476
51
74.0720827
0
ARC
8
DEFAULT_255_2_778
10
39.3422154
20
2.0792092
40
0.6565971
50
70.3583561
51
85.2395981
0
ARC
8
DEFAULT_255_2_778
10
39.2882466
20
1.6296449
40
1.1092117
50
84.3886243
51
87.876485
0
LINE
8
DEFAULT_255_2_778
10
38.3876471
20
1.3344948
11
39.1692471
21
1.3344948
0
ARC
8
DEFAULT_255_2_778
10
39.1549924
20
2.4509726
40
0.2817528
50
267.4683741
51
297.5256047
0
ARC
8
DEFAULT_255_2_778
10
39.2048955
20
2.3405016
40
0.1608681
50
299.9480083
51
339.7774428
0
ARC
8
DEFAULT_255_2_778
10
39.1507811
20
2.3479231
40
0.2145336
50
342.9148539
51
356.570732
0
ARC
8
DEFAULT_255_2_778
10
39.2160442
20
2.3420638
40
0.1490495
50
357.3184462
51
359.9796767
0
ARC
8
DEFAULT_255_2_778
10
39.2599237
20
2.3428225
40
0.1051731
50
359.5578866
51
85.4982528
0
ARC
8
DEFAULT_255_2_778
10
39.2010139
20
2.1531088
40
0.3021226
50
77.1552573
51
84.2187046
0
ARC
8
DEFAULT_255_2_778
10
39.0370426
20
1.917019
40
0.3163711
50
267.7364479
51
295.7039601
0
ARC
8
DEFAULT_255_2_778
10
39.0927467
20
1.7875103
40
0.1756194
50
297.6548579
51
339.878375
0
ARC
8
DEFAULT_255_2_778
10
39.0303743
20
1.7968907
40
0.2377486
50
342.9281738
51
355.8792829
0
ARC
8
DEFAULT_255_2_778
10
39.1029036
20
1.7897528
40
0.1649051
50
356.5420898
51
359.9670339
0
ARC
8
DEFAULT_255_2_778
10
39.1536814
20
1.7908903
40
0.1141339
50
359.3813469
51
84.4521987
0
ARC
8
DEFAULT_255_2_778
10
39.0888861
20
1.5880506
40
0.3253976
50
76.52412
51
84.2216637
0
ARC
8
DEFAULT_255_2_778
10
40.2678362
20
1.8442591
40
0.5535221
50
99.594101
51
117.9327486
0
ARC
8
DEFAULT_255_2_778
10
40.3720569
20
1.2847313
40
1.1226344
50
90.0172317
51
100.0793677
0
ARC
8
DEFAULT_255_2_778
10
40.3863772
20
0.8275953
40
1.5798384
50
89.998164
51
90.5316053
0
ARC
8
DEFAULT_255_2_778
10
40.3841533
20
0.5638976
40
1.8435375
50
86.7889455
51
89.9293095
0
ARC
8
DEFAULT_255_2_778
10
40.4374055
20
1.490889
40
0.9150193
50
86.8148066
51
86.8668374
0
ARC
8
DEFAULT_255_2_778
10
40.4232315
20
1.7961699
40
0.6117893
50
66.7305587
51
83.8995895
0
ARC
8
DEFAULT_255_2_778
10
40.5478779
20
2.0754346
40
0.3060271
50
357.5666061
51
67.5135887
0
ARC
8
DEFAULT_255_2_778
10
40.3492625
20
2.0522082
40
0.5044704
50
359.996972
51
1.1623262
0
ARC
8
DEFAULT_255_2_778
10
40.2557364
20
2.0540879
40
0.5979995
50
352.7224135
51
359.8173374
0
ARC
8
DEFAULT_255_2_778
10
40.1071423
20
2.0711819
40
0.7475643
50
350.0876212
51
352.8655152
0
ARC
8
DEFAULT_255_2_778
10
17.6219934
20
7.1423925
40
23.7966278
50
346.8805357
51
347.3782285
0
ARC
8
DEFAULT_255_2_778
10
27.4433547
20
4.8486995
40
13.710988
50
346.0905472
51
346.8995542
0
ARC
8
DEFAULT_255_2_778
10
34.3817543
20
3.1255002
40
6.5618094
50
344.7537691
51
346.1321129
0
ARC
8
DEFAULT_255_2_778
10
37.7745195
20
2.202939
40
3.0458507
50
343.335602
51
344.7143309
0
LINE
8
DEFAULT_255_2_778
10
40.6924471
20
1.3294948
11
40.3993471
21
1.3294948
0
ARC
8
DEFAULT_255_2_778
10
38.4044671
20
1.6718144
40
2.0240378
50
350.2629306
51
353.1663943
0
ARC
8
DEFAULT_255_2_778
10
40.0266686
20
1.479279
40
0.390456
50
352.894597
51
358.8576674
0
ARC
8
DEFAULT_255_2_778
10
40.0924827
20
1.6920802
40
0.3924284
50
268.7253047
51
325.7985891
0
ARC
8
DEFAULT_255_2_778
10
40.0657342
20
1.9182535
40
0.618767
50
269.9919497
51
271.6686995
0
ARC
8
DEFAULT_255_2_778
10
40.0668212
20
2.0062233
40
0.7067379
50
264.5377701
51
269.9048274
0
ARC
8
DEFAULT_255_2_778
10
40.0097823
20
1.6808412
40
0.378285
50
242.8691522
51
268.4495743
0
ARC
8
DEFAULT_255_2_778
10
39.9578281
20
1.5537903
40
0.2418048
50
180.9250531
51
240.0955625
0
ARC
8
DEFAULT_255_2_778
10
40.1752129
20
1.5893005
40
0.4608467
50
179.9123919
51
184.9062254
0
ARC
8
DEFAULT_255_2_778
10
40.2716816
20
1.5895523
40
0.5573149
50
176.6010143
51
179.9534453
0
ARC
8
DEFAULT_255_2_778
10
40.0987304
20
1.5618145
40
0.3881713
50
106.0568735
51
170.9915042
0
ARC
8
DEFAULT_255_2_778
10
40.2697211
20
1.1170809
40
0.8638376
50
94.6993013
51
108.7979159
0
ARC
8
DEFAULT_255_2_778
10
40.3312704
20
0.5444691
40
1.4396394
50
89.845565
51
95.273624
0
ARC
8
DEFAULT_255_2_778
10
40.3336176
20
0.0851633
40
1.8989405
50
87.2707226
51
89.9537402
0
ARC
8
DEFAULT_255_2_778
10
40.318115
20
-0.2609728
40
2.2454222
50
85.6546231
51
87.2961583
0
ARC
8
DEFAULT_255_2_778
10
40.231073
20
2.0055472
40
0.2586459
50
353.8849173
51
359.8662164
0
ARC
8
DEFAULT_255_2_778
10
40.3497714
20
2.011846
40
0.1401167
50
357.1762312
51
90.3481804
0
ARC
8
DEFAULT_255_2_778
10
40.2946604
20
1.7733907
40
0.3824382
50
81.8434739
51
87.6042156
0
ARC
8
DEFAULT_255_2_778
10
40.2765022
20
1.4513826
40
0.7049396
50
87.2236965
51
89.9874809
0
ARC
8
DEFAULT_255_2_778
10
40.2703641
20
1.568698
40
0.5876578
50
89.3865138
51
120.3934746
0
ARC
8
DEFAULT_255_2_778
10
69.8672908
20
-1.8235514
40
30.1474567
50
172.3158001
51
172.5687862
0
ARC
8
DEFAULT_255_2_778
10
50.4826835
20
0.7941927
40
10.5868951
50
171.9041477
51
172.3280576
0
ARC
8
DEFAULT_255_2_778
10
42.4844865
20
1.936004
40
2.5076116
50
170.8839933
51
171.9966698
0
ARC
8
DEFAULT_255_2_778
10
40.3816648
20
0.1806239
40
1.6213298
50
87.4872335
51
89.301315
0
ARC
8
DEFAULT_255_2_778
10
40.3850307
20
0.4002926
40
1.4016366
50
89.3293978
51
89.9958584
0
ARC
8
DEFAULT_255_2_778
10
40.3751052
20
0.9162701
40
0.8857157
50
89.3513667
51
99.0422151
0
ARC
8
DEFAULT_255_2_778
10
40.2801528
20
1.4749476
40
0.319114
50
97.970349
51
119.5445123
0
ARC
8
DEFAULT_255_2_778
10
40.1797943
20
1.6485655
40
0.1185964
50
118.7240419
51
180.8852548
0
ARC
8
DEFAULT_255_2_778
10
40.2214071
20
1.6469261
40
0.1601952
50
180.0689831
51
185.4918288
0
ARC
8
DEFAULT_255_2_778
10
40.1813169
20
1.6714695
40
0.1258537
50
198.4715841
51
276.2655288
0
ARC
8
DEFAULT_255_2_778
10
40.1984003
20
1.8158226
40
0.2694758
50
269.2880997
51
270.0020605
0
ARC
8
DEFAULT_255_2_778
10
40.1956326
20
1.9061962
40
0.3598602
50
270.4422157
51
279.7453954
0
ARC
8
DEFAULT_255_2_778
10
40.1719002
20
2.0656746
40
0.5210669
50
279.348986
51
279.4605444
0
ARC
8
DEFAULT_255_2_778
10
40.1806363
20
1.8133435
40
0.2727184
50
286.3805319
51
357.2785659
0
LINE
8
DEFAULT_255_2_778
10
41.5716471
20
1.8945948
11
41.5716471
21
1.8945948
0
LINE
8
DEFAULT_255_2_778
10
43.2795471
20
1.3704948
11
43.2795471
21
1.3704948
0
LINE
8
DEFAULT_255_2_778
10
35.3052471
20
2.3006948
11
35.0759471
21
1.3394948
0
LINE
8
DEFAULT_255_2_778
10
35.0759471
20
1.3394948
11
34.8264471
21
1.3394948
0
LINE
8
DEFAULT_255_2_778
10
34.8264471
20
1.3394948
11
35.0552471
21
2.3006948
0
LINE
8
DEFAULT_255_2_778
10
35.0552471
20
2.3006948
11
35.3052471
21
2.3006948
0
LINE
8
DEFAULT_255_2_778
10
35.4066471
20
2.7152948
11
35.3489471
21
2.4761948
0
LINE
8
DEFAULT_255_2_778
10
35.3489471
20
2.4761948
11
35.0986471
21
2.4761948
0
LINE
8
DEFAULT_255_2_778
10
35.0986471
20
2.4761948
11
35.1563471
21
2.7152948
0
LINE
8
DEFAULT_255_2_778
10
35.1563471
20
2.7152948
11
35.4066471
21
2.7152948
0
LINE
8
DEFAULT_255_2_778
10
36.2043471
20
1.5590948
11
36.2040471
21
1.5590948
0
LINE
8
DEFAULT_255_2_778
10
35.6892471
20
1.9144948
11
35.6889471
21
1.9144948
0
LINE
8
DEFAULT_255_2_778
10
37.9503471
20
2.7393948
11
37.9500471
21
2.7393948
0
LINE
8
DEFAULT_255_2_778
10
37.2761471
20
1.9382948
11
37.2761471
21
1.9382948
0
LINE
8
DEFAULT_255_2_778
10
39.3293471
20
2.7380948
11
38.7253471
21
2.7380948
0
LINE
8
DEFAULT_255_2_778
10
38.7253471
20
2.7380948
11
38.3876471
21
1.3344948
0
LINE
8
DEFAULT_255_2_778
10
39.1692471
20
1.3344948
11
39.1692471
21
1.3344948
0
LINE
8
DEFAULT_255_2_778
10
39.2314471
20
2.4536948
11
39.0449471
21
2.4536948
0
LINE
8
DEFAULT_255_2_778
10
39.0449471
20
2.4536948
11
38.9737471
21
2.1694948
0
LINE
8
DEFAULT_255_2_778
10
38.9737471
20
2.1694948
11
39.1512471
21
2.1694948
0
LINE
8
DEFAULT_255_2_778
10
39.1216471
20
1.9117948
11
38.9176471
21
1.9117948
0
LINE
8
DEFAULT_255_2_778
10
38.9176471
20
1.9117948
11
38.8398471
21
1.6008948
0
LINE
8
DEFAULT_255_2_778
10
38.8398471
20
1.6008948
11
39.0340471
21
1.6008948
0
LINE
8
DEFAULT_255_2_778
10
40.0085471
20
2.3332948
11
40.0085471
21
2.3332948
0
LINE
8
DEFAULT_255_2_778
10
40.4530471
20
1.8003948
11
40.4527471
21
1.8003948
0
LINE
8
DEFAULT_255_2_778
10
41.8553471
20
1.3389948
11
42.1000471
21
2.3829948
0
LINE
8
DEFAULT_255_2_778
10
42.1000471
20
2.3829948
11
42.4649471
21
2.3829948
0
LINE
8
DEFAULT_255_2_778
10
42.4649471
20
2.3829948
11
42.2207471
21
1.3389948
0
LINE
8
DEFAULT_255_2_778
10
42.2207471
20
1.3389948
11
41.8553471
21
1.3389948
0
LINE
8
DEFAULT_255_2_778
10
42.5686471
20
2.8190948
11
42.5048471
21
2.5539948
0
LINE
8
DEFAULT_255_2_778
10
42.5048471
20
2.5539948
11
42.1400471
21
2.5539948
0
LINE
8
DEFAULT_255_2_778
10
42.1400471
20
2.5539948
11
42.2032471
21
2.8190948
0
LINE
8
DEFAULT_255_2_778
10
42.2032471
20
2.8190948
11
42.5686471
21
2.8190948
0
LINE
8
DEFAULT_255_2_778
10
26.5277471
20
3.1190948
11
26.1517471
21
2.5856948
0
LINE
8
DEFAULT_255_2_778
10
26.1517471
20
2.5856948
11
26.4052471
21
2.5856948
0
LINE
8
DEFAULT_255_2_778
10
26.4052471
20
2.5856948
11
26.7804471
21
3.1190948
0
LINE
8
DEFAULT_255_2_778
10
26.7804471
20
3.1190948
11
26.5277471
21
3.1190948
0
LINE
8
DEFAULT_255_2_778
10
26.0988471
20
1.1026948
11
26.3898471
21
2.4771948
0
LINE
8
DEFAULT_255_2_778
10
26.3898471
20
2.4771948
11
26.1366471
21
2.4771948
0
LINE
8
DEFAULT_255_2_778
10
26.1366471
20
2.4771948
11
25.8456471
21
1.1026948
0
LINE
8
DEFAULT_255_2_778
10
25.8456471
20
1.1026948
11
26.0988471
21
1.1026948
0
LINE
8
DEFAULT_255_2_778
10
34.5317052
20
1.1014448
11
34.9680052
21
3.1559448
0
LINE
8
DEFAULT_255_2_778
10
34.9680052
20
3.1559448
11
32.9812052
21
3.1559448
0
LINE
8
DEFAULT_255_2_778
10
32.9812052
20
3.1559448
11
32.5452052
21
1.1014448
0
LINE
8
DEFAULT_255_2_778
10
32.5452052
20
1.1014448
11
34.5317052
21
1.1014448
0
LINE
8
DEFAULT_255_2_778
10
34.2647052
20
2.6656448
11
34.2147052
21
2.4603448
0
LINE
8
DEFAULT_255_2_778
10
34.2147052
20
2.4603448
11
33.7594052
21
2.4603448
0
LINE
8
DEFAULT_255_2_778
10
33.7594052
20
2.4603448
11
33.6824052
21
2.1391448
0
LINE
8
DEFAULT_255_2_778
10
33.6824052
20
2.1391448
11
34.1174052
21
2.1391448
0
LINE
8
DEFAULT_255_2_778
10
34.1174052
20
2.1391448
11
34.0711052
21
1.9343448
0
LINE
8
DEFAULT_255_2_778
10
34.0711052
20
1.9343448
11
33.6342052
21
1.9343448
0
LINE
8
DEFAULT_255_2_778
10
33.6342052
20
1.9343448
11
33.5014052
21
1.3633448
0
LINE
8
DEFAULT_255_2_778
10
33.5014052
20
1.3633448
11
33.2400052
21
1.3633448
0
LINE
8
DEFAULT_255_2_778
10
33.2400052
20
1.3633448
11
33.5461052
21
2.6659448
0
LINE
8
DEFAULT_255_2_778
10
33.5461052
20
2.6659448
11
34.2647052
21
2.6656448
0
ARC
8
DEFAULT_255_2_778
10
22.6899032
20
18.8770612
40
0.4999688
50
90.0193439
51
179.9806366
0
ARC
8
DEFAULT_255_2_778
10
22.690167
20
15.6770337
40
0.5003037
50
224.9733492
51
269.9504521
0
ARC
8
DEFAULT_255_2_778
10
22.6894756
20
15.6766469
40
0.4995412
50
179.9879027
51
224.9980214
0
ARC
8
DEFAULT_255_2_778
10
22.3682287
20
15.6768468
40
0.1782944
50
179.9089574
51
180.0303467
0
LINE
8
DEFAULT_255_2_778
10
22.6897344
20
19.3770301
11
26.3896344
21
19.3770301
0
LINE
8
DEFAULT_255_2_778
10
26.3896344
20
19.3770301
11
26.3896344
21
15.1767301
0
LINE
8
DEFAULT_255_2_778
10
26.3896344
20
15.1767301
11
22.6897344
21
15.1767301
0
LINE
8
DEFAULT_255_2_778
10
22.1899344
20
15.6771301
11
22.1899344
21
18.8772301
0
ARC
8
DEFAULT_255_2_778
10
22.9648137
20
18.1742511
40
1.7492701
50
359.5881436
51
8.496448
0
ARC
8
DEFAULT_255_2_778
10
23.7700249
20
18.2996747
40
0.9343787
50
8.1850257
51
23.0897122
0
ARC
8
DEFAULT_255_2_778
10
24.2051207
20
18.5018192
40
0.45512
50
21.1608489
51
85.7151284
0
ARC
8
DEFAULT_255_2_778
10
24.1703455
20
18.2836751
40
0.6755029
50
84.1560151
51
90.0938905
0
ARC
8
DEFAULT_255_2_778
10
24.1560138
20
18.3435395
40
0.6157796
50
88.7693973
51
112.4756199
0
ARC
8
DEFAULT_255_2_778
10
24.1157663
20
18.4798691
40
0.4746537
50
114.2777668
51
160.3133645
0
ARC
8
DEFAULT_255_2_778
10
24.5421601
20
18.3029484
40
0.9360058
50
158.9091292
51
173.9882602
0
ARC
8
DEFAULT_255_2_778
10
25.1960581
20
18.2193372
40
1.5951317
50
173.4614207
51
180.2248607
0
ARC
8
DEFAULT_255_2_778
10
25.5822264
20
18.2005081
40
1.9813277
50
179.6365316
51
187.8122009
0
ARC
8
DEFAULT_255_2_778
10
24.6929426
20
18.0734953
40
1.0830443
50
187.5499743
51
200.8648324
0
ARC
8
DEFAULT_255_2_778
10
24.2086992
20
17.8818369
40
0.5623331
50
200.1903385
51
227.5525311
0
ARC
8
DEFAULT_255_2_778
10
24.1425631
20
17.8366597
40
0.4847069
50
229.717518
51
269.3636525
0
ARC
8
DEFAULT_255_2_778
10
24.1690142
20
18.0697208
40
0.7184438
50
267.4603902
51
270.0178944
0
ARC
8
DEFAULT_255_2_778
10
24.183448
20
17.8659967
40
0.5149158
50
268.4186858
51
298.8890382
0
ARC
8
DEFAULT_255_2_778
10
24.183289
20
17.8248614
40
0.4793942
50
301.2815413
51
337.6640047
0
ARC
8
DEFAULT_255_2_778
10
23.7708488
20
18.0125338
40
0.9323643
50
336.6285502
51
351.1879477
0
ARC
8
DEFAULT_255_2_778
10
23.01182
20
18.1399215
40
1.7019757
50
350.8645807
51
359.3841597
0
ARC
8
DEFAULT_255_2_778
10
22.3928228
20
18.1614154
40
2.3212157
50
359.0178645
51
0.0064577
0
ARC
8
DEFAULT_255_2_778
10
24.1633702
20
18.5413314
40
0.1351802
50
92.5573437
51
158.761814
0
ARC
8
DEFAULT_255_2_778
10
24.4906131
20
18.3686387
40
0.5045413
50
153.9387314
51
170.0100382
0
ARC
8
DEFAULT_255_2_778
10
25.3198406
20
18.2057125
40
1.3495621
50
169.3050434
51
177.2147414
0
ARC
8
DEFAULT_255_2_778
10
26.5477129
20
18.1287702
40
2.57978
50
176.8330544
51
180.1197809
0
ARC
8
DEFAULT_255_2_778
10
25.8028511
20
18.1114739
40
1.8349511
50
179.628327
51
185.9119957
0
ARC
8
DEFAULT_255_2_778
10
24.7367914
20
17.9954384
40
0.7626303
50
185.490265
51
197.1520522
0
ARC
8
DEFAULT_255_2_778
10
24.2407432
20
17.8346923
40
0.241349
50
195.4168305
51
224.8360694
0
ARC
8
DEFAULT_255_2_778
10
24.1466762
20
17.7478655
40
0.1135232
50
227.2359421
51
270.6135774
0
ARC
8
DEFAULT_255_2_778
10
24.1478295
20
17.772263
40
0.1379143
50
270.0259099
51
273.9536248
0
ARC
8
DEFAULT_255_2_778
10
24.1524015
20
17.7781986
40
0.1436065
50
271.9701721
51
340.3447296
0
ARC
8
DEFAULT_255_2_778
10
23.8127334
20
17.9462623
40
0.5218733
50
335.5060427
51
351.6420869
0
ARC
8
DEFAULT_255_2_778
10
22.9982102
20
18.0834658
40
1.3478008
50
350.9044993
51
358.6445199
0
ARC
8
DEFAULT_255_2_778
10
22.102234
20
18.1220048
40
2.2445049
50
358.2020396
51
0.035029
0
ARC
8
DEFAULT_255_2_778
10
21.5252292
20
18.1847355
40
2.8221764
50
358.7542042
51
359.8241554
0
ARC
8
DEFAULT_255_2_778
10
21.7667972
20
18.1834004
40
2.5806056
50
359.8373358
51
359.9996979
0
ARC
8
DEFAULT_255_2_778
10
22.5634857
20
18.1948048
40
1.7839536
50
359.6332821
51
6.0060975
0
ARC
8
DEFAULT_255_2_778
10
23.5786742
20
18.3070509
40
0.762612
50
5.5999039
51
17.2974589
0
ARC
8
DEFAULT_255_2_778
10
24.0623568
20
18.4649704
40
0.2539453
50
15.7262913
51
44.3171649
0
ARC
8
DEFAULT_255_2_778
10
24.1589051
20
18.5527809
40
0.1236061
50
46.4612815
51
90.7261372
0
LINE
8
DEFAULT_255_2_778
10
24.9217386
20
16.852277
11
24.4904386
21
15.532777
0
LINE
8
DEFAULT_255_2_778
10
24.4904386
20
15.532777
11
24.1838386
21
15.532777
0
LINE
8
DEFAULT_255_2_778
10
24.1838386
20
15.532777
11
23.7530386
21
16.852277
0
LINE
8
DEFAULT_255_2_778
10
23.7530386
20
16.852277
11
23.7483386
21
16.848077
0
LINE
8
DEFAULT_255_2_778
10
23.7483386
20
16.848077
11
23.7483386
21
15.532777
0
LINE
8
DEFAULT_255_2_778
10
23.7483386
20
15.532777
11
23.4411386
21
15.532777
0
LINE
8
DEFAULT_255_2_778
10
23.4411386
20
15.532777
11
23.4411386
21
17.132477
0
LINE
8
DEFAULT_255_2_778
10
23.4411386
20
17.132477
11
23.9541386
21
17.132477
0
LINE
8
DEFAULT_255_2_778
10
23.9541386
20
17.132477
11
24.3351386
21
15.919877
0
LINE
8
DEFAULT_255_2_778
10
24.3351386
20
15.919877
11
24.3396386
21
15.919877
0
LINE
8
DEFAULT_255_2_778
10
24.3396386
20
15.919877
11
24.7195386
21
17.132477
0
LINE
8
DEFAULT_255_2_778
10
24.7195386
20
17.132477
11
25.2336386
21
17.132477
0
LINE
8
DEFAULT_255_2_778
10
25.2336386
20
17.132477
11
25.2336386
21
15.532777
0
LINE
8
DEFAULT_255_2_778
10
25.2336386
20
15.532777
11
24.9264386
21
15.532777
0
LINE
8
DEFAULT_255_2_778
10
24.9264386
20
15.532777
11
24.9264386
21
16.852277
0
LINE
8
DEFAULT_255_2_778
10
24.9264386
20
16.852277
11
24.9219386
21
16.852277
0
LINE
8
DEFAULT_255_2_778
10
22.6669386
20
18.556177
11
23.1342386
21
18.931677
0
LINE
8
DEFAULT_255_2_778
10
23.1342386
20
18.931677
11
23.4183386
21
18.931677
0
LINE
8
DEFAULT_255_2_778
10
23.4183386
20
18.931677
11
23.4183386
21
17.331977
0
LINE
8
DEFAULT_255_2_778
10
23.4183386
20
17.331977
11
23.0976386
21
17.331977
0
LINE
8
DEFAULT_255_2_778
10
23.0976386
20
17.331977
11
23.0976386
21
18.567377
0
LINE
8
DEFAULT_255_2_778
10
23.0976386
20
18.567377
11
22.8270386
21
18.347177
0
LINE
8
DEFAULT_255_2_778
10
22.8270386
20
18.347177
11
22.6672386
21
18.555977
0
LINE
8
DEFAULT_255_2_778
10
24.7140386
20
18.161677
11
24.7140386
21
18.161677
0
LINE
8
DEFAULT_255_2_778
10
24.1573386
20
18.676377
11
24.1573386
21
18.676377
0
ARC
8
DEFAULT_255_2_778
10
24.2510241
20
18.1743105
40
1.7492701
50
359.5881436
51
8.496448
0
ARC
8
DEFAULT_255_2_778
10
25.0562353
20
18.2997341
40
0.9343787
50
8.1850257
51
23.0897122
0
ARC
8
DEFAULT_255_2_778
10
25.4913311
20
18.5018786
40
0.45512
50
21.1608489
51
85.7151284
0
ARC
8
DEFAULT_255_2_778
10
25.4565559
20
18.2837345
40
0.6755029
50
84.1560151
51
90.0938905
0
ARC
8
DEFAULT_255_2_778
10
25.4422242
20
18.3435989
40
0.6157796
50
88.7693973
51
112.4756199
0
ARC
8
DEFAULT_255_2_778
10
25.4019767
20
18.4799285
40
0.4746537
50
114.2777668
51
160.3133645
0
ARC
8
DEFAULT_255_2_778
10
25.8283705
20
18.3030078
40
0.9360058
50
158.9091292
51
173.9882602
0
ARC
8
DEFAULT_255_2_778
10
26.4822684
20
18.2193966
40
1.5951317
50
173.4614207
51
180.2248607
0
ARC
8
DEFAULT_255_2_778
10
26.8684368
20
18.2005675
40
1.9813277
50
179.6365316
51
187.8122009
0
ARC
8
DEFAULT_255_2_778
10
25.979153
20
18.0735547
40
1.0830443
50
187.5499743
51
200.8648324
0
ARC
8
DEFAULT_255_2_778
10
25.4949096
20
17.8818963
40
0.5623331
50
200.1903385
51
227.5525311
0
ARC
8
DEFAULT_255_2_778
10
25.4287735
20
17.8367191
40
0.4847069
50
229.717518
51
269.3636525
0
ARC
8
DEFAULT_255_2_778
10
25.4552246
20
18.0697802
40
0.7184438
50
267.4603902
51
270.0178944
0
ARC
8
DEFAULT_255_2_778
10
25.4696584
20
17.8660561
40
0.5149158
50
268.4186858
51
298.8890382
0
ARC
8
DEFAULT_255_2_778
10
25.4694994
20
17.8249208
40
0.4793942
50
301.2815413
51
337.6640047
0
ARC
8
DEFAULT_255_2_778
10
25.0570592
20
18.0125932
40
0.9323643
50
336.6285502
51
351.1879477
0
ARC
8
DEFAULT_255_2_778
10
24.2980304
20
18.1399809
40
1.7019757
50
350.8645807
51
359.3841597
0
ARC
8
DEFAULT_255_2_778
10
23.6790332
20
18.1614748
40
2.3212157
50
359.0178645
51
0.0064577
0
ARC
8
DEFAULT_255_2_778
10
25.4496011
20
18.541389
40
0.135183
50
92.5659899
51
158.7826741
0
ARC
8
DEFAULT_255_2_778
10
25.7772898
20
18.3685472
40
0.505006
50
153.9513552
51
170.0157054
0
ARC
8
DEFAULT_255_2_778
10
26.6074765
20
18.2055194
40
1.3509875
50
169.3107209
51
177.2162943
0
ARC
8
DEFAULT_255_2_778
10
27.836709
20
18.1285328
40
2.5825657
50
176.8347611
51
180.1197215
0
ARC
8
DEFAULT_255_2_778
10
27.0883465
20
18.1112352
40
1.8342362
50
179.6282411
51
185.9143035
0
ARC
8
DEFAULT_255_2_778
10
26.0227543
20
17.9952063
40
0.762381
50
185.4925564
51
197.1582299
0
ARC
8
DEFAULT_255_2_778
10
25.5269369
20
17.834476
40
0.2413238
50
195.4236055
51
224.8486297
0
ARC
8
DEFAULT_255_2_778
10
25.4329514
20
17.747697
40
0.1135906
50
227.2493352
51
270.6149159
0
ARC
8
DEFAULT_255_2_778
10
25.4341092
20
17.7720394
40
0.1379264
50
270.0254493
51
273.9244463
0
ARC
8
DEFAULT_255_2_778
10
25.4386308
20
17.77803
40
0.1436778
50
271.9616481
51
340.3243879
0
ARC
8
DEFAULT_255_2_778
10
25.0992524
20
17.9460311
40
0.521659
50
335.4941859
51
351.6375894
0
ARC
8
DEFAULT_255_2_778
10
24.2852099
20
18.0832282
40
1.3471114
50
350.8996761
51
358.6436985
0
ARC
8
DEFAULT_255_2_778
10
23.3901679
20
18.1217642
40
2.2428817
50
358.2007378
51
0.0350543
0
ARC
8
DEFAULT_255_2_778
10
22.8111437
20
18.1844775
40
2.8225719
50
358.7547302
51
359.8246237
0
ARC
8
DEFAULT_255_2_778
10
23.0527786
20
18.1831649
40
2.5809343
50
359.8373436
51
359.9997013
0
ARC
8
DEFAULT_255_2_778
10
23.8486197
20
18.1945748
40
1.7851298
50
359.6333545
51
6.0057763
0
ARC
8
DEFAULT_255_2_778
10
24.8644616
20
18.3068872
40
0.7631316
50
5.5996072
51
17.2961475
0
ARC
8
DEFAULT_255_2_778
10
25.3484904
20
18.4649062
40
0.254105
50
15.725127
51
44.314565
0
ARC
8
DEFAULT_255_2_778
10
25.4451153
20
18.5527798
40
0.1236667
50
46.4587895
51
90.7256982
0
LINE
8
DEFAULT_255_2_778
10
26.000249
20
18.1617364
11
26.000249
21
18.1617364
0
LINE
8
DEFAULT_255_2_778
10
25.443549
20
18.6764364
11
25.443549
21
18.6764364
0
ARC
8
DEFAULT_255_2_778
10
30.0406212
20
21.3566726
40
0.7511767
50
187.773424
51
220.18486
0
ARC
8
DEFAULT_255_2_778
10
30.0401953
20
21.3558178
40
0.7491571
50
319.7702401
51
352.2714691
0
LINE
8
DEFAULT_255_2_778
10
40.3657473
20
4.6161714
11
40.9893473
21
4.2560714
0
LINE
8
DEFAULT_255_2_778
10
40.9893473
20
4.2560714
11
41.2893473
21
4.2560714
0
LINE
8
DEFAULT_255_2_778
10
41.2893473
20
4.2560714
11
41.2893473
21
4.5812714
0
LINE
8
DEFAULT_255_2_778
10
41.2893473
20
4.5812714
11
40.9893473
21
4.5812714
0
LINE
8
DEFAULT_255_2_778
10
40.9893473
20
4.5812714
11
40.9893473
21
4.2560714
0
LINE
8
DEFAULT_255_2_778
10
41.4494473
20
4.6161714
11
41.2893473
21
4.2560714
0
LINE
8
DEFAULT_255_2_778
10
32.5393473
20
4.2359714
11
32.5393473
21
4.6159714
0
LINE
8
DEFAULT_255_2_778
10
34.0392473
20
4.6159714
11
34.0392473
21
4.2359714
0
LINE
8
DEFAULT_255_2_778
10
36.2893473
20
4.6159714
11
36.2893473
21
4.2359714
0
LINE
8
DEFAULT_255_2_778
10
37.5891473
20
4.6159714
11
37.5891473
21
4.2359714
0
LINE
8
DEFAULT_255_2_778
10
38.7890473
20
4.2359714
11
38.7890473
21
4.6159714
0
LINE
8
DEFAULT_255_2_778
10
29.2889473
20
20.8758714
11
29.2889473
21
21.2558714
0
LINE
8
DEFAULT_255_2_778
10
30.7888473
20
20.8758714
11
30.7888473
21
21.2558714
0
LINE
8
DEFAULT_255_2_778
10
35.2889473
20
21.2558714
11
35.2889473
21
20.8758714
0
LINE
8
DEFAULT_255_2_778
10
35.7389473
20
20.8758714
11
35.7389473
21
21.2558714
0
LINE
8
DEFAULT_255_2_778
10
37.9889473
20
6.7458714
11
37.9889473
21
18.7457714
0
LINE
8
DEFAULT_255_2_778
10
37.9889473
20
18.7457714
11
29.4895473
21
18.7457714
0
LINE
8
DEFAULT_255_2_778
10
29.4895473
20
18.7457714
11
29.4895473
21
6.7458714
0
LINE
8
DEFAULT_255_2_778
10
29.4895473
20
6.7458714
11
37.9889473
21
6.7458714
0
LINE
8
DEFAULT_255_2_778
10
37.9889473
20
9.7459714
11
39.6889473
21
9.7459714
0
LINE
8
DEFAULT_255_2_778
10
39.6889473
20
9.7459714
11
39.6889473
21
15.7458714
0
LINE
8
DEFAULT_255_2_778
10
39.6889473
20
15.7458714
11
37.9889473
21
15.7458714
0
LINE
8
DEFAULT_255_2_778
10
39.6889473
20
10.7457714
11
40.9888473
21
10.7457714
0
LINE
8
DEFAULT_255_2_778
10
40.9888473
20
10.7457714
11
40.9888473
21
14.7457714
0
LINE
8
DEFAULT_255_2_778
10
40.9888473
20
14.7457714
11
39.6889473
21
14.7457714
0
LINE
8
DEFAULT_255_2_778
10
41.9889473
20
4.2357714
11
41.9889473
21
21.2558714
0
LINE
8
DEFAULT_255_2_778
10
41.9889473
20
21.2558714
11
27.0288473
21
21.2558714
0
LINE
8
DEFAULT_255_2_778
10
27.0288473
20
21.2558714
11
27.0288473
21
4.2357714
0
LINE
8
DEFAULT_255_2_778
10
27.0288473
20
4.2357714
11
41.9889473
21
4.2357714
0
LINE
8
DEFAULT_255_2_778
10
41.4888473
20
19.5556714
11
41.9889473
21
19.5556714
0
LINE
8
DEFAULT_255_2_778
10
41.4888473
20
20.5557714
11
41.9889473
21
20.5557714
0
LINE
8
DEFAULT_255_2_778
10
27.0288473
20
5.6737714
11
27.6488473
21
5.6737714
0
LINE
8
DEFAULT_255_2_778
10
27.0288473
20
9.1558714
11
27.6488473
21
9.1558714
0
LINE
8
DEFAULT_255_2_778
10
41.4888473
20
4.8558714
11
41.9889473
21
4.8558714
0
LINE
8
DEFAULT_255_2_778
10
41.4888473
20
5.8560714
11
41.9889473
21
5.8560714
0
LINE
8
DEFAULT_255_2_778
10
40.9409473
20
4.6156714
11
40.9888473
21
4.5812714
0
LINE
8
DEFAULT_255_2_778
10
27.6456473
20
18.0120714
11
27.0204473
21
17.8019714
0
LINE
8
DEFAULT_255_2_778
10
41.2888473
20
4.5812714
11
41.3013473
21
4.6159714
0
LINE
8
DEFAULT_255_2_778
10
38.7888473
20
4.4561714
11
38.9488473
21
4.6161714
0
LINE
8
DEFAULT_255_2_778
10
41.4888473
20
4.2362714
11
41.4888473
21
4.5632714
0
LINE
8
DEFAULT_255_2_778
10
41.3388473
20
4.3687714
11
41.3388473
21
4.2362714
0
LINE
8
DEFAULT_255_2_778
10
40.4887473
20
10.7463714
11
40.4887473
21
14.7462714
0
LINE
8
DEFAULT_255_2_778
10
35.2886473
20
20.9811714
11
34.5885473
21
20.9811714
0
LINE
8
DEFAULT_255_2_778
10
34.5885473
20
20.9811714
11
34.5885473
21
21.2312714
0
LINE
8
DEFAULT_255_2_778
10
34.5885473
20
21.2312714
11
35.2886473
21
21.2312714
0
LINE
8
DEFAULT_255_2_778
10
41.4886473
20
20.8761714
11
27.6485473
21
20.8761714
0
LINE
8
DEFAULT_255_2_778
10
27.6485473
20
20.8761714
11
27.6485473
21
4.6161714
0
LINE
8
DEFAULT_255_2_778
10
27.6485473
20
4.6161714
11
41.4886473
21
4.6161714
0
LINE
8
DEFAULT_255_2_778
10
41.4886473
20
4.6161714
11
41.4886473
21
21.2560714
0
LINE
8
DEFAULT_255_2_778
10
39.9887473
20
16.3761714
11
39.9887473
21
19.3762714
0
LINE
8
DEFAULT_255_2_778
10
39.9887473
20
19.3762714
11
38.4887473
21
19.3762714
0
LINE
8
DEFAULT_255_2_778
10
38.4887473
20
19.3762714
11
38.4887473
21
16.3761714
0
LINE
8
DEFAULT_255_2_778
10
38.4887473
20
16.3761714
11
39.9887473
21
16.3761714
0
LINE
8
DEFAULT_255_2_778
10
27.1886473
20
9.1561714
11
27.1886473
21
10.3560714
0
LINE
8
DEFAULT_255_2_778
10
27.1886473
20
10.3560714
11
27.6488473
21
10.3560714
0
LINE
8
DEFAULT_255_2_778
10
39.9887473
20
9.1159714
11
39.9887473
21
6.1158714
0
LINE
8
DEFAULT_255_2_778
10
39.9887473
20
6.1158714
11
38.4887473
21
6.1158714
0
LINE
8
DEFAULT_255_2_778
10
38.4887473
20
6.1158714
11
38.4887473
21
9.1159714
0
LINE
8
DEFAULT_255_2_778
10
38.4887473
20
9.1159714
11
39.9887473
21
9.1159714
0
LINE
8
DEFAULT_255_2_778
10
27.5387473
20
4.2359714
11
27.5387473
21
4.6738714
0
LINE
8
DEFAULT_255_2_778
10
27.5387473
20
4.6738714
11
27.6488473
21
4.6738714
0
LINE
8
DEFAULT_255_2_778
10
32.5388473
20
4.3918714
11
27.5395473
21
4.3918714
0
LINE
8
DEFAULT_255_2_778
10
9.7952473
20
33.4832714
11
9.7952473
21
34.9514714
0
LINE
8
DEFAULT_255_2_778
10
9.7952473
20
34.9514714
11
11.0665473
21
34.2177714
0
LINE
8
DEFAULT_255_2_778
10
11.0665473
20
34.2177714
11
9.7952473
21
33.4832714
0
LINE
8
DEFAULT_255_2_778
10
9.5692539
20
10.0819437
11
10.0862539
21
10.0819437
0
ARC
8
DEFAULT_255_2_778
10
10.0990761
20
11.1643923
40
1.0825245
50
269.3213319
51
284.4046063
0
ARC
8
DEFAULT_255_2_778
10
10.2210958
20
10.7265521
40
0.6281623
50
283.5596572
51
341.4282169
0
ARC
8
DEFAULT_255_2_778
10
9.780564
20
10.8956537
40
1.0997928
50
340.3867629
51
355.0815955
0
ARC
8
DEFAULT_255_2_778
10
9.3239062
20
10.9519914
40
1.5596917
50
354.4578952
51
357.1390505
0
ARC
8
DEFAULT_255_2_778
10
8.7523123
20
11.0366326
40
2.1355322
50
355.636248
51
357.9849806
0
ARC
8
DEFAULT_255_2_778
10
9.0049903
20
11.0274211
40
1.8826867
50
357.9947578
51
359.9814723
0
ARC
8
DEFAULT_255_2_778
10
9.5172244
20
11.0384642
40
1.3705021
50
359.5128684
51
11.1867237
0
ARC
8
DEFAULT_255_2_778
10
10.0679593
20
11.1523914
40
0.8081433
50
10.8381797
51
31.5521036
0
ARC
8
DEFAULT_255_2_778
10
10.2162848
20
11.2285029
40
0.6420451
50
32.6904503
51
74.7596581
0
ARC
8
DEFAULT_255_2_778
10
10.0771253
20
10.7893612
40
1.1024844
50
73.7810774
51
87.9467556
0
ARC
8
DEFAULT_255_2_778
10
10.046446
20
10.3587837
40
1.5339602
50
87.3777806
51
89.9959727
0
LINE
8
DEFAULT_255_2_778
10
10.0465539
20
11.8927437
11
9.5695539
21
11.8927437
0
LINE
8
DEFAULT_255_2_778
10
9.5695539
20
11.8927437
11
9.5695539
21
10.0819437
0
ARC
8
DEFAULT_255_2_778
10
9.6511389
20
11.0238005
40
0.9122514
50
359.4876913
51
13.8518968
0
ARC
8
DEFAULT_255_2_778
10
10.0712498
20
11.1343166
40
0.4779466
50
13.0460336
51
45.3933193
0
ARC
8
DEFAULT_255_2_778
10
10.086663
20
11.1230262
40
0.4755369
50
47.6713408
51
80.5999572
0
ARC
8
DEFAULT_255_2_778
10
10.011135
20
10.7737384
40
0.8326534
50
79.398025
51
90.4011304
0
ARC
8
DEFAULT_255_2_778
10
10.0064615
20
10.4566973
40
1.1496748
50
90.0576084
51
93.6680599
0
ARC
8
DEFAULT_255_2_778
10
10.0175354
20
10.2701343
40
1.3365644
50
93.6301468
51
95.5894758
0
LINE
8
DEFAULT_255_2_778
10
9.8873539
20
11.6003437
11
9.8873539
21
10.3459437
0
ARC
8
DEFAULT_255_2_778
10
9.9603806
20
11.7024745
40
1.3584949
50
266.9185439
51
269.1785471
0
ARC
8
DEFAULT_255_2_778
10
9.9583269
20
11.5921729
40
1.2481752
50
269.2002201
51
269.997161
0
ARC
8
DEFAULT_255_2_778
10
9.9696443
20
11.2377476
40
0.8938224
50
269.2705468
51
284.0947314
0
ARC
8
DEFAULT_255_2_778
10
10.0794741
20
10.8337719
40
0.4753321
50
283.1129273
51
321.0117077
0
ARC
8
DEFAULT_255_2_778
10
10.0203802
20
10.8573186
40
0.5364112
50
323.0284744
51
350.1330543
0
ARC
8
DEFAULT_255_2_778
10
9.6260895
20
10.9400218
40
0.9391449
50
349.2841546
51
0.4342399
0
ARC
8
DEFAULT_255_2_778
10
9.2898191
20
10.9466103
40
1.2753884
50
0.0237701
51
2.3170107
0
ARC
8
DEFAULT_255_2_778
10
9.1764679
20
10.9425125
40
1.3888127
50
2.2968737
51
3.0184427
0
ARC
8
DEFAULT_255_2_778
10
8.7186555
20
11.3601257
40
0.18422
50
356.6135235
51
80.0340631
0
ARC
8
DEFAULT_255_2_778
10
8.6208972
20
11.0280109
40
0.5296654
50
75.8324577
51
91.0205339
0
ARC
8
DEFAULT_255_2_778
10
8.6132707
20
10.6034458
40
0.954148
50
90.1085209
51
94.0943137
0
ARC
8
DEFAULT_255_2_778
10
8.6286813
20
10.3639312
40
1.1941529
50
94.0113207
51
95.5710019
0
LINE
8
DEFAULT_255_2_778
10
8.5127539
20
11.5524437
11
8.5127539
21
11.1458437
0
ARC
8
DEFAULT_255_2_778
10
8.6374749
20
12.2030237
40
1.0645116
50
263.2716166
51
267.1321731
0
ARC
8
DEFAULT_255_2_778
10
8.6242985
20
11.9575177
40
0.8186542
50
267.193534
51
269.9526233
0
ARC
8
DEFAULT_255_2_778
10
8.6340063
20
11.6045021
40
0.4657541
50
268.7223999
51
286.4864539
0
ARC
8
DEFAULT_255_2_778
10
8.7201047
20
11.3350051
40
0.183004
50
284.5830383
51
4.4624193
0
ARC
8
DEFAULT_255_2_778
10
8.5470159
20
10.0682359
40
0.7283296
50
90.0302033
51
92.1687537
0
ARC
8
DEFAULT_255_2_778
10
8.5577563
20
10.4036719
40
0.3930508
50
71.9081495
51
91.6218309
0
ARC
8
DEFAULT_255_2_778
10
8.6365336
20
10.6378209
40
0.1460307
50
27.7627576
51
72.7594381
0
ARC
8
DEFAULT_255_2_778
10
8.9170264
20
10.7669162
40
0.2275512
50
23.0865102
51
66.9134898
0
ARC
8
DEFAULT_255_2_778
10
8.9042439
20
11.3393996
40
0.3772111
50
285.6899721
51
353.944811
0
ARC
8
DEFAULT_255_2_778
10
8.5590138
20
11.4159108
40
0.7296651
50
350.8284661
51
0.308146
0
ARC
8
DEFAULT_255_2_778
10
8.3743352
20
11.4197804
40
0.9143332
50
0.0034254
51
0.9063676
0
ARC
8
DEFAULT_255_2_778
10
8.7629129
20
11.4249409
40
0.5257233
50
1.0139186
51
26.0561813
0
ARC
8
DEFAULT_255_2_778
10
8.8766761
20
11.4638609
40
0.4067037
50
28.1707484
51
74.7315263
0
ARC
8
DEFAULT_255_2_778
10
8.7429583
20
11.0605643
40
0.8312909
50
73.1603557
51
88.1618995
0
ARC
8
DEFAULT_255_2_778
10
8.7128982
20
10.6385266
40
1.2541843
50
87.4077499
51
90.0332618
0
ARC
8
DEFAULT_255_2_778
10
8.7124577
20
10.4736778
40
1.419033
50
90.0116126
51
91.470026
0
LINE
8
DEFAULT_255_2_778
10
8.6760539
20
11.8922437
11
8.1296539
21
11.8922437
0
LINE
8
DEFAULT_255_2_778
10
9.5695539
20
10.0819437
11
9.5692539
21
10.0819437
0
LINE
8
DEFAULT_255_2_778
10
10.5633539
20
11.0156437
11
10.5633539
21
11.0156437
0
LINE
8
DEFAULT_255_2_778
10
8.9025539
20
11.3492437
11
8.9025539
21
11.3492437
0
LINE
8
DEFAULT_255_2_778
10
8.1291539
20
11.8922437
11
8.1291539
21
10.0750437
0
LINE
8
DEFAULT_255_2_778
10
8.1291539
20
10.0750437
11
8.5194539
21
10.0750437
0
LINE
8
DEFAULT_255_2_778
10
8.5194539
20
10.0750437
11
8.5194539
21
10.7960437
0
LINE
8
DEFAULT_255_2_778
10
8.7657539
20
10.7058437
11
8.9520539
21
10.0824437
0
LINE
8
DEFAULT_255_2_778
10
8.9520539
20
10.0824437
11
9.3544539
21
10.0750437
0
LINE
8
DEFAULT_255_2_778
10
9.3544539
20
10.0750437
11
9.1263539
21
10.8561437
0
LINE
8
DEFAULT_255_2_778
10
8.1296539
20
11.8922437
11
8.1291539
21
11.8922437
0
ARC
8
DEFAULT_255_2_778
10
9.5593909
20
30.8287347
40
1.0971294
50
65.0599944
51
72.7583827
0
ARC
8
DEFAULT_255_2_778
10
9.6880427
20
31.2503229
40
0.6563566
50
72.5760348
51
84.4534809
0
ARC
8
DEFAULT_255_2_778
10
9.710393
20
31.4402118
40
0.4652127
50
84.9328439
51
89.932506
0
ARC
8
DEFAULT_255_2_778
10
9.69944
20
31.6012343
40
0.3044074
50
87.8347592
51
142.2598088
0
ARC
8
DEFAULT_255_2_778
10
9.7506117
20
31.6457613
40
0.3245131
50
154.0906995
51
167.5410634
0
ARC
8
DEFAULT_255_2_778
10
9.6494613
20
31.669347
40
0.2206596
50
167.8547665
51
179.7479897
0
ARC
8
DEFAULT_255_2_778
10
9.6240822
20
31.6743032
40
0.195319
50
181.1692515
51
237.130019
0
ARC
8
DEFAULT_255_2_778
10
9.810977
20
31.9207882
40
0.5043109
50
234.4935406
51
250.4427863
0
ARC
8
DEFAULT_255_2_778
10
9.9522507
20
32.274249
40
0.8847946
50
249.4841588
51
253.2811235
0
ARC
8
DEFAULT_255_2_778
10
9.3429118
20
30.4191745
40
1.0683209
50
58.9540181
51
70.6028482
0
ARC
8
DEFAULT_255_2_778
10
9.5864923
20
30.8154197
40
0.6032311
50
38.204917
51
59.3657223
0
ARC
8
DEFAULT_255_2_778
10
9.7050058
20
30.9171591
40
0.4472288
50
359.0674768
51
37.353002
0
ARC
8
DEFAULT_255_2_778
10
9.5199889
20
30.9129999
40
0.6321944
50
348.6673944
51
359.7172847
0
ARC
8
DEFAULT_255_2_778
10
9.2873242
20
30.9584782
40
0.8692602
50
340.8627394
51
348.7417461
0
ARC
8
DEFAULT_255_2_778
10
9.1455555
20
31.0037713
40
1.0180494
50
340.8409771
51
341.0702053
0
ARC
8
DEFAULT_255_2_778
10
9.3982029
20
31.0284944
40
0.7946476
50
318.1407321
51
333.1556323
0
ARC
8
DEFAULT_255_2_778
10
9.6007788
20
30.8427353
40
0.519824
50
268.8049615
51
318.4902719
0
ARC
8
DEFAULT_255_2_778
10
9.5949583
20
31.1054649
40
0.7824565
50
257.7035505
51
269.6323426
0
ARC
8
DEFAULT_255_2_778
10
9.66655
20
31.445738
40
1.1301731
50
249.9249067
51
257.8312342
0
ARC
8
DEFAULT_255_2_778
10
9.8302604
20
31.8970967
40
1.6103031
50
243.8208624
51
249.9663807
0
ARC
8
DEFAULT_255_2_778
10
10.0516408
20
32.3616883
40
2.1249143
50
243.9122676
51
243.9906549
0
ARC
8
DEFAULT_255_2_778
10
-11.3208365
20
32.8815696
40
20.5818053
50
353.2242621
51
354.0830482
0
ARC
8
DEFAULT_255_2_778
10
9.7018113
20
31.8324605
40
1.2056218
50
242.8316469
51
250.4199323
0
ARC
8
DEFAULT_255_2_778
10
9.546966
20
31.3908611
40
0.737669
50
250.2568798
51
261.7793677
0
ARC
8
DEFAULT_255_2_778
10
9.5112403
20
31.1654939
40
0.509519
50
262.1318373
51
269.8487572
0
ARC
8
DEFAULT_255_2_778
10
9.5191282
20
31.0018128
40
0.3459592
50
268.4707119
51
319.6580054
0
ARC
8
DEFAULT_255_2_778
10
9.5426864
20
30.9037829
40
0.2711455
50
332.3270708
51
347.7268943
0
ARC
8
DEFAULT_255_2_778
10
9.6202898
20
30.8853705
40
0.1914076
50
348.174508
51
359.8156122
0
ARC
8
DEFAULT_255_2_778
10
9.621602
20
30.879181
40
0.1901759
50
1.6794078
51
53.0466712
0
ARC
8
DEFAULT_255_2_778
10
9.4236656
20
30.6508836
40
0.4920518
50
50.6085861
51
66.3766487
0
ARC
8
DEFAULT_255_2_778
10
9.22568
20
30.2311103
40
0.9560761
50
65.5866737
51
71.6472442
0
ARC
8
DEFAULT_255_2_778
10
9.715327
20
31.9022579
40
0.7866471
50
238.6449418
51
256.1273201
0
ARC
8
DEFAULT_255_2_778
10
9.533185
20
31.6098054
40
0.4421417
50
182.6508445
51
239.0812794
0
ARC
8
DEFAULT_255_2_778
10
10.1913246
20
31.6147713
40
1.1001018
50
180.0073866
51
181.3237764
0
ARC
8
DEFAULT_255_2_778
10
9.8804725
20
31.6243371
40
0.7893095
50
165.7005515
51
180.7046932
0
ARC
8
DEFAULT_255_2_778
10
9.5395334
20
31.7202156
40
0.4353392
50
106.9876321
51
166.8455858
0
ARC
8
DEFAULT_255_2_778
10
9.6514393
20
31.3978182
40
0.7764707
50
92.5873057
51
107.9343977
0
ARC
8
DEFAULT_255_2_778
10
9.6815272
20
31.0317106
40
1.1436435
50
89.9528125
51
93.2651894
0
ARC
8
DEFAULT_255_2_778
10
9.6800092
20
30.7523804
40
1.4229756
50
85.4999148
51
89.9009521
0
ARC
8
DEFAULT_255_2_778
10
9.6457665
20
30.3161846
40
1.8605135
50
81.5803831
51
85.502596
0
ARC
8
DEFAULT_255_2_778
10
9.566703
20
29.7755315
40
2.4069164
50
78.5261869
51
81.6030463
0
ARC
8
DEFAULT_255_2_778
10
9.4974437
20
29.4200314
40
2.7690905
50
78.185106
51
78.5849681
0
LINE
8
DEFAULT_255_2_778
10
10.0644164
20
32.1304565
11
10.0302164
21
31.8327565
0
LINE
8
DEFAULT_255_2_778
10
10.4043174
20
30.3601427
11
10.9213174
21
30.3601427
0
ARC
8
DEFAULT_255_2_778
10
10.9341825
20
31.4579127
40
1.0978454
50
269.328561
51
284.1967884
0
ARC
8
DEFAULT_255_2_778
10
11.0609801
20
31.0019536
40
0.6248129
50
283.1788842
51
341.1356311
0
ARC
8
DEFAULT_255_2_778
10
10.6429667
20
31.1624746
40
1.072405
50
340.2410602
51
355.0192218
0
ARC
8
DEFAULT_255_2_778
10
10.2037145
20
31.2171954
40
1.5148384
50
354.3997582
51
357.1033114
0
ARC
8
DEFAULT_255_2_778
10
9.6492021
20
31.3009685
40
2.0736225
50
355.5656482
51
357.9517765
0
ARC
8
DEFAULT_255_2_778
10
9.8952947
20
31.2918418
40
1.8273609
50
357.96198
51
359.9809551
0
ARC
8
DEFAULT_255_2_778
10
10.3977222
20
31.3030419
40
1.3249859
50
359.4894068
51
11.5678903
0
ARC
8
DEFAULT_255_2_778
10
10.933405
20
31.4179903
40
0.7771509
50
11.1849775
51
33.2013521
0
ARC
8
DEFAULT_255_2_778
10
11.0554749
20
31.4803731
40
0.6410162
50
34.5104321
51
74.3977991
0
ARC
8
DEFAULT_255_2_778
10
10.9140696
20
31.0382107
40
1.1050529
50
73.5022139
51
87.8793439
0
ARC
8
DEFAULT_255_2_778
10
10.8815767
20
30.5921448
40
1.5520978
50
87.2900061
51
89.9984972
0
LINE
8
DEFAULT_255_2_778
10
10.8816174
20
32.1442427
11
10.4046174
21
32.1442427
0
LINE
8
DEFAULT_255_2_778
10
10.4046174
20
32.1442427
11
10.4046174
21
30.3601427
0
ARC
8
DEFAULT_255_2_778
10
10.5148369
20
31.2884828
40
0.8835198
50
359.4591369
51
14.1935825
0
ARC
8
DEFAULT_255_2_778
10
10.9230818
20
31.3994205
40
0.4605958
50
13.2668125
51
48.8012162
0
ARC
8
DEFAULT_255_2_778
10
10.917803
20
31.3639624
40
0.4911351
50
51.0630708
51
81.1828114
0
ARC
8
DEFAULT_255_2_778
10
10.8457764
20
31.0091834
40
0.8529272
50
80.0545835
51
90.3614587
0
ARC
8
DEFAULT_255_2_778
10
10.8415599
20
30.694947
40
1.1671473
50
90.0571546
51
93.6172253
0
ARC
8
DEFAULT_255_2_778
10
10.8526914
20
30.505116
40
1.3573027
50
93.5806203
51
95.5119737
0
LINE
8
DEFAULT_255_2_778
10
10.7223174
20
31.8561427
11
10.7223174
21
30.6202427
0
ARC
8
DEFAULT_255_2_778
10
10.7954883
20
31.9977397
40
1.379439
50
266.9593758
51
269.1889198
0
ARC
8
DEFAULT_255_2_778
10
10.7933991
20
31.8832085
40
1.2648898
50
269.2101092
51
269.9978531
0
ARC
8
DEFAULT_255_2_778
10
10.8047598
20
31.5247168
40
0.9064699
50
269.2789046
51
283.8891989
0
ARC
8
DEFAULT_255_2_778
10
10.9135043
20
31.1151022
40
0.4827824
50
283.0300467
51
317.6775195
0
ARC
8
DEFAULT_255_2_778
10
10.8802372
20
31.119602
40
0.5107648
50
319.8174295
51
349.6443117
0
ARC
8
DEFAULT_255_2_778
10
10.4960078
20
31.2049177
40
0.9041938
50
348.7027928
51
0.4718813
0
ARC
8
DEFAULT_255_2_778
10
10.162669
20
31.2118429
40
1.237502
50
0.0241486
51
2.3522144
0
ARC
8
DEFAULT_255_2_778
10
10.0527538
20
31.2078099
40
1.3474902
50
2.3317379
51
3.0643209
0
LINE
8
DEFAULT_255_2_778
10
10.4046174
20
30.3601427
11
10.4043174
21
30.3601427
0
LINE
8
DEFAULT_255_2_778
10
11.3983174
20
31.2798427
11
11.3983174
21
31.2801427
0
ARC
8
DEFAULT_255_2_778
10
13.9074909
20
12.6100347
40
1.0971294
50
65.0599944
51
72.7583827
0
ARC
8
DEFAULT_255_2_778
10
14.0361427
20
13.0316229
40
0.6563566
50
72.5760348
51
84.4534809
0
ARC
8
DEFAULT_255_2_778
10
14.058493
20
13.2215118
40
0.4652127
50
84.9328439
51
89.932506
0
ARC
8
DEFAULT_255_2_778
10
14.04754
20
13.3825343
40
0.3044074
50
87.8347592
51
142.2598088
0
ARC
8
DEFAULT_255_2_778
10
14.0987117
20
13.4270613
40
0.3245131
50
154.0906995
51
167.5410634
0
ARC
8
DEFAULT_255_2_778
10
13.9975613
20
13.450647
40
0.2206596
50
167.8547665
51
179.7479897
0
ARC
8
DEFAULT_255_2_778
10
13.9721822
20
13.4556032
40
0.195319
50
181.1692515
51
237.130019
0
ARC
8
DEFAULT_255_2_778
10
14.159077
20
13.7020882
40
0.5043109
50
234.4935406
51
250.4427863
0
ARC
8
DEFAULT_255_2_778
10
14.3003507
20
14.055549
40
0.8847946
50
249.4841588
51
253.2811235
0
ARC
8
DEFAULT_255_2_778
10
13.6910118
20
12.2004745
40
1.0683209
50
58.9540181
51
70.6028482
0
ARC
8
DEFAULT_255_2_778
10
13.9345923
20
12.5967197
40
0.6032311
50
38.204917
51
59.3657223
0
ARC
8
DEFAULT_255_2_778
10
14.0531058
20
12.6984591
40
0.4472288
50
359.0674768
51
37.353002
0
ARC
8
DEFAULT_255_2_778
10
13.8680889
20
12.6942999
40
0.6321944
50
348.6673944
51
359.7172847
0
ARC
8
DEFAULT_255_2_778
10
13.6354242
20
12.7397782
40
0.8692602
50
340.8627394
51
348.7417461
0
ARC
8
DEFAULT_255_2_778
10
13.4936555
20
12.7850713
40
1.0180494
50
340.8409771
51
341.0702053
0
ARC
8
DEFAULT_255_2_778
10
13.7463029
20
12.8097944
40
0.7946476
50
318.1407321
51
333.1556323
0
ARC
8
DEFAULT_255_2_778
10
13.9488788
20
12.6240353
40
0.519824
50
268.8049615
51
318.4902719
0
ARC
8
DEFAULT_255_2_778
10
13.9430583
20
12.8867649
40
0.7824565
50
257.7035505
51
269.6323426
0
ARC
8
DEFAULT_255_2_778
10
14.01465
20
13.227038
40
1.1301731
50
249.9249067
51
257.8312342
0
ARC
8
DEFAULT_255_2_778
10
14.1783604
20
13.6783967
40
1.6103031
50
243.8208624
51
249.9663807
0
ARC
8
DEFAULT_255_2_778
10
14.3997408
20
14.1429883
40
2.1249143
50
243.9122676
51
243.9906549
0
ARC
8
DEFAULT_255_2_778
10
-6.9727365
20
14.6628696
40
20.5818053
50
353.2242621
51
354.0830482
0
ARC
8
DEFAULT_255_2_778
10
14.0499113
20
13.6137605
40
1.2056218
50
242.8316469
51
250.4199323
0
ARC
8
DEFAULT_255_2_778
10
13.895066
20
13.1721611
40
0.737669
50
250.2568798
51
261.7793677
0
ARC
8
DEFAULT_255_2_778
10
13.8593403
20
12.9467939
40
0.509519
50
262.1318373
51
269.8487572
0
ARC
8
DEFAULT_255_2_778
10
13.8672282
20
12.7831128
40
0.3459592
50
268.4707119
51
319.6580054
0
ARC
8
DEFAULT_255_2_778
10
13.8907864
20
12.6850829
40
0.2711455
50
332.3270708
51
347.7268943
0
ARC
8
DEFAULT_255_2_778
10
13.9683898
20
12.6666705
40
0.1914076
50
348.174508
51
359.8156122
0
ARC
8
DEFAULT_255_2_778
10
13.969702
20
12.660481
40
0.1901759
50
1.6794078
51
53.0466712
0
ARC
8
DEFAULT_255_2_778
10
13.7717656
20
12.4321836
40
0.4920518
50
50.6085861
51
66.3766487
0
ARC
8
DEFAULT_255_2_778
10
13.57378
20
12.0124103
40
0.9560761
50
65.5866737
51
71.6472442
0
ARC
8
DEFAULT_255_2_778
10
14.063427
20
13.6835579
40
0.7866471
50
238.6449418
51
256.1273201
0
ARC
8
DEFAULT_255_2_778
10
13.881285
20
13.3911054
40
0.4421417
50
182.6508445
51
239.0812794
0
ARC
8
DEFAULT_255_2_778
10
14.5394246
20
13.3960713
40
1.1001018
50
180.0073866
51
181.3237764
0
ARC
8
DEFAULT_255_2_778
10
14.2285725
20
13.4056371
40
0.7893095
50
165.7005515
51
180.7046932
0
ARC
8
DEFAULT_255_2_778
10
13.8876334
20
13.5015156
40
0.4353392
50
106.9876321
51
166.8455858
0
ARC
8
DEFAULT_255_2_778
10
13.9995393
20
13.1791182
40
0.7764707
50
92.5873057
51
107.9343977
0
ARC
8
DEFAULT_255_2_778
10
14.0296272
20
12.8130106
40
1.1436435
50
89.9528125
51
93.2651894
0
ARC
8
DEFAULT_255_2_778
10
14.0281092
20
12.5336804
40
1.4229756
50
85.4999148
51
89.9009521
0
ARC
8
DEFAULT_255_2_778
10
13.9938665
20
12.0974846
40
1.8605135
50
81.5803831
51
85.502596
0
ARC
8
DEFAULT_255_2_778
10
13.914803
20
11.5568315
40
2.4069164
50
78.5261869
51
81.6030463
0
ARC
8
DEFAULT_255_2_778
10
13.8455437
20
11.2013314
40
2.7690905
50
78.185106
51
78.5849681
0
LINE
8
DEFAULT_255_2_778
10
14.4125164
20
13.9117565
11
14.3783164
21
13.6140565
0
LINE
8
DEFAULT_255_2_778
10
14.7525174
20
12.1414427
11
15.2695174
21
12.1414427
0
ARC
8
DEFAULT_255_2_778
10
15.2823825
20
13.2392127
40
1.0978454
50
269.328561
51
284.1967884
0
ARC
8
DEFAULT_255_2_778
10
15.4091801
20
12.7832536
40
0.6248129
50
283.1788842
51
341.1356311
0
ARC
8
DEFAULT_255_2_778
10
14.9911667
20
12.9437746
40
1.072405
50
340.2410602
51
355.0192218
0
ARC
8
DEFAULT_255_2_778
10
14.5519145
20
12.9984954
40
1.5148384
50
354.3997582
51
357.1033114
0
ARC
8
DEFAULT_255_2_778
10
13.9974021
20
13.0822685
40
2.0736225
50
355.5656482
51
357.9517765
0
ARC
8
DEFAULT_255_2_778
10
14.2434947
20
13.0731418
40
1.8273609
50
357.96198
51
359.9809551
0
ARC
8
DEFAULT_255_2_778
10
14.7459222
20
13.0843419
40
1.3249859
50
359.4894068
51
11.5678903
0
ARC
8
DEFAULT_255_2_778
10
15.281605
20
13.1992903
40
0.7771509
50
11.1849775
51
33.2013521
0
ARC
8
DEFAULT_255_2_778
10
15.4036749
20
13.2616731
40
0.6410162
50
34.5104321
51
74.3977991
0
ARC
8
DEFAULT_255_2_778
10
15.2622696
20
12.8195107
40
1.1050529
50
73.5022139
51
87.8793439
0
ARC
8
DEFAULT_255_2_778
10
15.2297767
20
12.3734448
40
1.5520978
50
87.2900061
51
89.9984972
0
LINE
8
DEFAULT_255_2_778
10
15.2298174
20
13.9255427
11
14.7528174
21
13.9255427
0
LINE
8
DEFAULT_255_2_778
10
14.7528174
20
13.9255427
11
14.7528174
21
12.1414427
0
ARC
8
DEFAULT_255_2_778
10
14.8630369
20
13.0697828
40
0.8835198
50
359.4591369
51
14.1935825
0
ARC
8
DEFAULT_255_2_778
10
15.2712818
20
13.1807205
40
0.4605958
50
13.2668125
51
48.8012162
0
ARC
8
DEFAULT_255_2_778
10
15.266003
20
13.1452624
40
0.4911351
50
51.0630708
51
81.1828114
0
ARC
8
DEFAULT_255_2_778
10
15.1939764
20
12.7904834
40
0.8529272
50
80.0545835
51
90.3614587
0
ARC
8
DEFAULT_255_2_778
10
15.1897599
20
12.476247
40
1.1671473
50
90.0571546
51
93.6172253
0
ARC
8
DEFAULT_255_2_778
10
15.2008914
20
12.286416
40
1.3573027
50
93.5806203
51
95.5119737
0
LINE
8
DEFAULT_255_2_778
10
15.0705174
20
13.6374427
11
15.0705174
21
12.4015427
0
ARC
8
DEFAULT_255_2_778
10
15.1436883
20
13.7790397
40
1.379439
50
266.9593758
51
269.1889198
0
ARC
8
DEFAULT_255_2_778
10
15.1415991
20
13.6645085
40
1.2648898
50
269.2101092
51
269.9978531
0
ARC
8
DEFAULT_255_2_778
10
15.1529598
20
13.3060168
40
0.9064699
50
269.2789046
51
283.8891989
0
ARC
8
DEFAULT_255_2_778
10
15.2617043
20
12.8964022
40
0.4827824
50
283.0300467
51
317.6775195
0
ARC
8
DEFAULT_255_2_778
10
15.2284372
20
12.900902
40
0.5107648
50
319.8174295
51
349.6443117
0
ARC
8
DEFAULT_255_2_778
10
14.8442078
20
12.9862177
40
0.9041938
50
348.7027928
51
0.4718813
0
ARC
8
DEFAULT_255_2_778
10
14.510869
20
12.9931429
40
1.237502
50
0.0241486
51
2.3522144
0
ARC
8
DEFAULT_255_2_778
10
14.4009538
20
12.9891099
40
1.3474902
50
2.3317379
51
3.0643209
0
LINE
8
DEFAULT_255_2_778
10
14.7528174
20
12.1414427
11
14.7525174
21
12.1414427
0
LINE
8
DEFAULT_255_2_778
10
15.7465174
20
13.0611427
11
15.7465174
21
13.0614427
0
ARC
8
DEFAULT_255_2_778
10
13.5896081
20
11.5564679
40
0.2499634
50
89.9915849
51
180.0083989
0
ARC
8
DEFAULT_255_2_778
10
13.5896934
20
11.5563796
40
0.2500486
50
179.9881701
51
269.9888704
0
ARC
8
DEFAULT_255_2_778
10
16.0896963
20
11.5563799
40
0.2500487
50
270.0111263
51
0.0117598
0
ARC
8
DEFAULT_255_2_778
10
16.0897815
20
11.5564679
40
0.2499634
50
359.991593
51
90.0083955
0
LINE
8
DEFAULT_255_2_778
10
13.5896448
20
11.3063312
11
16.0897448
21
11.3063312
0
LINE
8
DEFAULT_255_2_778
10
16.0897448
20
11.8064312
11
13.5896448
21
11.8064312
0
ARC
8
DEFAULT_255_2_778
10
13.5896081
20
10.2565679
40
0.2499634
50
89.9915849
51
180.0083989
0
ARC
8
DEFAULT_255_2_778
10
13.5896934
20
10.2564796
40
0.2500486
50
179.9881701
51
269.9888704
0
ARC
8
DEFAULT_255_2_778
10
16.0896963
20
10.2564799
40
0.2500487
50
270.0111263
51
0.0117598
0
ARC
8
DEFAULT_255_2_778
10
16.0897815
20
10.2565679
40
0.2499634
50
359.991593
51
90.0083955
0
LINE
8
DEFAULT_255_2_778
10
13.5896448
20
10.0064312
11
16.0897448
21
10.0064312
0
LINE
8
DEFAULT_255_2_778
10
16.0897448
20
10.5065312
11
13.5896448
21
10.5065312
0
ARC
8
DEFAULT_255_2_778
10
13.5896081
20
8.9564679
40
0.2499634
50
89.9915849
51
180.0083989
0
ARC
8
DEFAULT_255_2_778
10
13.5896934
20
8.9563796
40
0.2500486
50
179.9881701
51
269.9888704
0
ARC
8
DEFAULT_255_2_778
10
16.0896963
20
8.9563799
40
0.2500487
50
270.0111263
51
0.0117598
0
ARC
8
DEFAULT_255_2_778
10
16.0897815
20
8.9564679
40
0.2499634
50
359.991593
51
90.0083955
0
LINE
8
DEFAULT_255_2_778
10
13.5896448
20
8.7063312
11
16.0897448
21
8.7063312
0
LINE
8
DEFAULT_255_2_778
10
16.0897448
20
9.2064312
11
13.5896448
21
9.2064312
0
ARC
8
DEFAULT_255_2_778
10
13.5896081
20
7.6565679
40
0.2499634
50
89.9915849
51
180.0083989
0
ARC
8
DEFAULT_255_2_778
10
13.5896934
20
7.6564796
40
0.2500486
50
179.9881701
51
269.9888704
0
ARC
8
DEFAULT_255_2_778
10
16.0896963
20
7.6564799
40
0.2500487
50
270.0111263
51
0.0117598
0
ARC
8
DEFAULT_255_2_778
10
16.0897815
20
7.6565679
40
0.2499634
50
359.991593
51
90.0083955
0
LINE
8
DEFAULT_255_2_778
10
13.5896448
20
7.4064312
11
16.0897448
21
7.4064312
0
LINE
8
DEFAULT_255_2_778
10
16.0897448
20
7.9065312
11
13.5896448
21
7.9065312
0
ARC
8
DEFAULT_255_2_778
10
13.5896081
20
6.3563679
40
0.2499634
50
89.9915849
51
180.0083989
0
ARC
8
DEFAULT_255_2_778
10
13.5896934
20
6.3562796
40
0.2500486
50
179.9881701
51
269.9888704
0
ARC
8
DEFAULT_255_2_778
10
16.0896963
20
6.3562799
40
0.2500487
50
270.0111263
51
0.0117598
0
ARC
8
DEFAULT_255_2_778
10
16.0897815
20
6.3563679
40
0.2499634
50
359.991593
51
90.0083955
0
LINE
8
DEFAULT_255_2_778
10
13.5896448
20
6.1062312
11
16.0897448
21
6.1062312
0
LINE
8
DEFAULT_255_2_778
10
16.0897448
20
6.6063312
11
13.5896448
21
6.6063312
0
ARC
8
DEFAULT_255_2_778
10
13.5896081
20
5.0564679
40
0.2499634
50
89.9915849
51
180.0083989
0
ARC
8
DEFAULT_255_2_778
10
13.5896934
20
5.0563796
40
0.2500486
50
179.9881701
51
269.9888704
0
ARC
8
DEFAULT_255_2_778
10
16.0896963
20
5.0563799
40
0.2500487
50
270.0111263
51
0.0117598
0
ARC
8
DEFAULT_255_2_778
10
16.0897815
20
5.0564679
40
0.2499634
50
359.991593
51
90.0083955
0
LINE
8
DEFAULT_255_2_778
10
13.5896448
20
4.8063312
11
16.0897448
21
4.8063312
0
LINE
8
DEFAULT_255_2_778
10
16.0897448
20
5.3064312
11
13.5896448
21
5.3064312
0
ARC
8
DEFAULT_255_2_778
10
13.5896081
20
3.7565679
40
0.2499634
50
89.9915849
51
180.0083989
0
ARC
8
DEFAULT_255_2_778
10
13.5896934
20
3.7564796
40
0.2500486
50
179.9881701
51
269.9888704
0
ARC
8
DEFAULT_255_2_778
10
16.0896963
20
3.7564799
40
0.2500487
50
270.0111263
51
0.0117598
0
ARC
8
DEFAULT_255_2_778
10
16.0897815
20
3.7565679
40
0.2499634
50
359.991593
51
90.0083955
0
LINE
8
DEFAULT_255_2_778
10
13.5896448
20
3.5064312
11
16.0897448
21
3.5064312
0
LINE
8
DEFAULT_255_2_778
10
16.0897448
20
4.0065312
11
13.5896448
21
4.0065312
0
LINE
8
DEFAULT_255_2_778
10
16.3397448
20
32.9562552
11
16.3397448
21
35.9563552
0
LINE
8
DEFAULT_255_2_778
10
16.3397448
20
35.9563552
11
13.3396448
21
35.9563552
0
LINE
8
DEFAULT_255_2_778
10
13.3396448
20
35.9563552
11
13.3396448
21
32.9562552
0
LINE
8
DEFAULT_255_2_778
10
13.3396448
20
32.9562552
11
16.3397448
21
32.9562552
0
ARC
8
DEFAULT_255_2_778
10
16.3470836
20
36.0482723
40
0.3927841
50
0.0268274
51
89.9439669
0
ARC
8
DEFAULT_255_2_778
10
16.3470835
20
30.5489403
40
0.3927843
50
270.056058
51
359.9731373
0
ARC
8
DEFAULT_255_2_778
10
13.3477519
20
30.5489403
40
0.3927843
50
180.0268554
51
269.9439596
0
ARC
8
DEFAULT_255_2_778
10
13.347752
20
36.048272
40
0.3927843
50
90.0560455
51
179.9731321
0
LINE
8
DEFAULT_255_2_778
10
16.7398678
20
36.0484562
11
16.7398678
21
30.5487562
0
LINE
8
DEFAULT_255_2_778
10
16.3474678
20
30.1561562
11
13.3473678
21
30.1561562
0
LINE
8
DEFAULT_255_2_778
10
12.9549678
20
30.5487562
11
12.9549678
21
36.0484562
0
LINE
8
DEFAULT_255_2_778
10
13.3473678
20
36.4410562
11
16.3474678
21
36.4410562
0
ARC
8
DEFAULT_255_2_778
10
16.3552881
20
36.0483402
40
0.5845901
50
0.0040184
51
2.8113762
0
ARC
8
DEFAULT_255_2_778
10
16.3428191
20
36.0475782
40
0.5970814
50
2.8257183
51
22.7921512
0
ARC
8
DEFAULT_255_2_778
10
16.346163
20
36.0464086
40
0.5944565
50
23.0209357
51
45.0720651
0
ARC
8
DEFAULT_255_2_778
10
16.3434174
20
36.0447196
40
0.5975917
50
45.0000521
51
66.9204955
0
ARC
8
DEFAULT_255_2_778
10
16.3465907
20
36.0448083
40
0.5962731
50
67.197673
51
89.9435508
0
ARC
8
DEFAULT_255_2_778
10
13.3479656
20
36.0448083
40
0.5962731
50
90.0564492
51
112.802327
0
ARC
8
DEFAULT_255_2_778
10
13.348373
20
36.0484842
40
0.5930451
50
112.9762375
51
135.0749966
0
ARC
8
DEFAULT_255_2_778
10
13.3496167
20
36.0458055
40
0.5958182
50
134.9770759
51
156.9716974
0
ARC
8
DEFAULT_255_2_778
10
13.3517372
20
36.0475782
40
0.5970814
50
157.2078488
51
177.1742817
0
ARC
8
DEFAULT_255_2_778
10
13.3392683
20
36.0483402
40
0.5845901
50
177.1886238
51
179.9959816
0
ARC
8
DEFAULT_255_2_778
10
13.3388693
20
30.5488359
40
0.5841911
50
180.0053675
51
183.26041
0
ARC
8
DEFAULT_255_2_778
10
13.3511128
20
30.5495549
40
0.5964557
50
183.2624814
51
202.8039504
0
ARC
8
DEFAULT_255_2_778
10
13.3486689
20
30.5508169
40
0.5946957
50
203.00729
51
225.0439446
0
ARC
8
DEFAULT_255_2_778
10
13.3505968
20
30.5516405
40
0.5966412
50
224.9688114
51
246.9381905
0
ARC
8
DEFAULT_255_2_778
10
13.3479656
20
30.552354
40
0.5962731
50
247.197673
51
269.9435508
0
ARC
8
DEFAULT_255_2_778
10
16.34689
20
30.5518619
40
0.5957811
50
270.0565677
51
292.8118685
0
ARC
8
DEFAULT_255_2_778
10
16.3469816
20
30.5474639
40
0.5916937
50
292.9688061
51
315.1241972
0
ARC
8
DEFAULT_255_2_778
10
16.3460164
20
30.5511555
40
0.5949856
50
314.9378606
51
336.9691361
0
ARC
8
DEFAULT_255_2_778
10
16.3442769
20
30.5491462
40
0.5958057
50
337.212413
51
356.7733307
0
ARC
8
DEFAULT_255_2_778
10
16.3526608
20
30.5488324
40
0.5874174
50
356.7578585
51
359.9950037
0
LINE
8
DEFAULT_255_2_778
10
16.3471782
20
36.6410812
11
13.3473782
21
36.6410812
0
LINE
8
DEFAULT_255_2_778
10
12.7546782
20
36.0483812
11
12.7546782
21
30.5487812
0
LINE
8
DEFAULT_255_2_778
10
13.3473782
20
29.9560812
11
16.3474782
21
29.9560812
0
LINE
8
DEFAULT_255_2_778
10
16.9400782
20
30.5487812
11
16.9400782
21
36.0483812
0
LINE
8
DEFAULT_255_2_778
10
15.8897011
20
35.5064989
11
15.8897011
21
33.4064989
0
LINE
8
DEFAULT_255_2_778
10
15.8897011
20
33.4064989
11
13.7897011
21
33.4064989
0
LINE
8
DEFAULT_255_2_778
10
13.7897011
20
33.4064989
11
13.7897011
21
35.5064989
0
LINE
8
DEFAULT_255_2_778
10
13.7897011
20
35.5064989
11
15.8897011
21
35.5064989
0
ARC
8
DEFAULT_255_2_778
10
13.8553909
20
31.1565347
40
1.0971294
50
65.0599944
51
72.7583827
0
ARC
8
DEFAULT_255_2_778
10
13.9840427
20
31.5781229
40
0.6563566
50
72.5760348
51
84.4534809
0
ARC
8
DEFAULT_255_2_778
10
14.006393
20
31.7680118
40
0.4652127
50
84.9328439
51
89.932506
0
ARC
8
DEFAULT_255_2_778
10
13.99544
20
31.9290343
40
0.3044074
50
87.8347592
51
142.2598088
0
ARC
8
DEFAULT_255_2_778
10
14.0466117
20
31.9735613
40
0.3245131
50
154.0906995
51
167.5410634
0
ARC
8
DEFAULT_255_2_778
10
13.9454613
20
31.997147
40
0.2206596
50
167.8547665
51
179.7479897
0
ARC
8
DEFAULT_255_2_778
10
13.9200822
20
32.0021032
40
0.195319
50
181.1692515
51
237.130019
0
ARC
8
DEFAULT_255_2_778
10
14.106977
20
32.2485882
40
0.5043109
50
234.4935406
51
250.4427863
0
ARC
8
DEFAULT_255_2_778
10
14.2482507
20
32.602049
40
0.8847946
50
249.4841588
51
253.2811235
0
ARC
8
DEFAULT_255_2_778
10
13.6389118
20
30.7469745
40
1.0683209
50
58.9540181
51
70.6028482
0
ARC
8
DEFAULT_255_2_778
10
13.8824923
20
31.1432197
40
0.6032311
50
38.204917
51
59.3657223
0
ARC
8
DEFAULT_255_2_778
10
14.0010058
20
31.2449591
40
0.4472288
50
359.0674768
51
37.353002
0
ARC
8
DEFAULT_255_2_778
10
13.8159889
20
31.2407999
40
0.6321944
50
348.6673944
51
359.7172847
0
ARC
8
DEFAULT_255_2_778
10
13.5833242
20
31.2862782
40
0.8692602
50
340.8627394
51
348.7417461
0
ARC
8
DEFAULT_255_2_778
10
13.4415555
20
31.3315713
40
1.0180494
50
340.8409771
51
341.0702053
0
ARC
8
DEFAULT_255_2_778
10
13.6942029
20
31.3562944
40
0.7946476
50
318.1407321
51
333.1556323
0
ARC
8
DEFAULT_255_2_778
10
13.8967788
20
31.1705353
40
0.519824
50
268.8049615
51
318.4902719
0
ARC
8
DEFAULT_255_2_778
10
13.8909583
20
31.4332649
40
0.7824565
50
257.7035505
51
269.6323426
0
ARC
8
DEFAULT_255_2_778
10
13.96255
20
31.773538
40
1.1301731
50
249.9249067
51
257.8312342
0
ARC
8
DEFAULT_255_2_778
10
14.1262604
20
32.2248967
40
1.6103031
50
243.8208624
51
249.9663807
0
ARC
8
DEFAULT_255_2_778
10
14.3476408
20
32.6894883
40
2.1249143
50
243.9122676
51
243.9906549
0
ARC
8
DEFAULT_255_2_778
10
-7.0248365
20
33.2093696
40
20.5818053
50
353.2242621
51
354.0830482
0
ARC
8
DEFAULT_255_2_778
10
13.9978113
20
32.1602605
40
1.2056218
50
242.8316469
51
250.4199323
0
ARC
8
DEFAULT_255_2_778
10
13.842966
20
31.7186611
40
0.737669
50
250.2568798
51
261.7793677
0
ARC
8
DEFAULT_255_2_778
10
13.8072403
20
31.4932939
40
0.509519
50
262.1318373
51
269.8487572
0
ARC
8
DEFAULT_255_2_778
10
13.8151282
20
31.3296128
40
0.3459592
50
268.4707119
51
319.6580054
0
ARC
8
DEFAULT_255_2_778
10
13.8386864
20
31.2315829
40
0.2711455
50
332.3270708
51
347.7268943
0
ARC
8
DEFAULT_255_2_778
10
13.9162898
20
31.2131705
40
0.1914076
50
348.174508
51
359.8156122
0
ARC
8
DEFAULT_255_2_778
10
13.917602
20
31.206981
40
0.1901759
50
1.6794078
51
53.0466712
0
ARC
8
DEFAULT_255_2_778
10
13.7196656
20
30.9786836
40
0.4920518
50
50.6085861
51
66.3766487
0
ARC
8
DEFAULT_255_2_778
10
13.52168
20
30.5589103
40
0.9560761
50
65.5866737
51
71.6472442
0
ARC
8
DEFAULT_255_2_778
10
14.011327
20
32.2300579
40
0.7866471
50
238.6449418
51
256.1273201
0
ARC
8
DEFAULT_255_2_778
10
13.829185
20
31.9376054
40
0.4421417
50
182.6508445
51
239.0812794
0
ARC
8
DEFAULT_255_2_778
10
14.4873246
20
31.9425713
40
1.1001018
50
180.0073866
51
181.3237764
0
ARC
8
DEFAULT_255_2_778
10
14.1764725
20
31.9521371
40
0.7893095
50
165.7005515
51
180.7046932
0
ARC
8
DEFAULT_255_2_778
10
13.8355334
20
32.0480156
40
0.4353392
50
106.9876321
51
166.8455858
0
ARC
8
DEFAULT_255_2_778
10
13.9474393
20
31.7256182
40
0.7764707
50
92.5873057
51
107.9343977
0
ARC
8
DEFAULT_255_2_778
10
13.9775272
20
31.3595106
40
1.1436435
50
89.9528125
51
93.2651894
0
ARC
8
DEFAULT_255_2_778
10
13.9760092
20
31.0801804
40
1.4229756
50
85.4999148
51
89.9009521
0
ARC
8
DEFAULT_255_2_778
10
13.9417665
20
30.6439846
40
1.8605135
50
81.5803831
51
85.502596
0
ARC
8
DEFAULT_255_2_778
10
13.862703
20
30.1033315
40
2.4069164
50
78.5261869
51
81.6030463
0
ARC
8
DEFAULT_255_2_778
10
13.7934437
20
29.7478314
40
2.7690905
50
78.185106
51
78.5849681
0
LINE
8
DEFAULT_255_2_778
10
14.3604164
20
32.4582565
11
14.3262164
21
32.1605565
0
LINE
8
DEFAULT_255_2_778
10
14.7004174
20
30.6879427
11
15.2174174
21
30.6879427
0
ARC
8
DEFAULT_255_2_778
10
15.2302825
20
31.7857127
40
1.0978454
50
269.328561
51
284.1967884
0
ARC
8
DEFAULT_255_2_778
10
15.3570801
20
31.3297536
40
0.6248129
50
283.1788842
51
341.1356311
0
ARC
8
DEFAULT_255_2_778
10
14.9390667
20
31.4902746
40
1.072405
50
340.2410602
51
355.0192218
0
ARC
8
DEFAULT_255_2_778
10
14.4998145
20
31.5449954
40
1.5148384
50
354.3997582
51
357.1033114
0
ARC
8
DEFAULT_255_2_778
10
13.9453021
20
31.6287685
40
2.0736225
50
355.5656482
51
357.9517765
0
ARC
8
DEFAULT_255_2_778
10
14.1913947
20
31.6196418
40
1.8273609
50
357.96198
51
359.9809551
0
ARC
8
DEFAULT_255_2_778
10
14.6938222
20
31.6308419
40
1.3249859
50
359.4894068
51
11.5678903
0
ARC
8
DEFAULT_255_2_778
10
15.229505
20
31.7457903
40
0.7771509
50
11.1849775
51
33.2013521
0
ARC
8
DEFAULT_255_2_778
10
15.3515749
20
31.8081731
40
0.6410162
50
34.5104321
51
74.3977991
0
ARC
8
DEFAULT_255_2_778
10
15.2101696
20
31.3660107
40
1.1050529
50
73.5022139
51
87.8793439
0
ARC
8
DEFAULT_255_2_778
10
15.1776767
20
30.9199448
40
1.5520978
50
87.2900061
51
89.9984972
0
LINE
8
DEFAULT_255_2_778
10
15.1777174
20
32.4720427
11
14.7007174
21
32.4720427
0
LINE
8
DEFAULT_255_2_778
10
14.7007174
20
32.4720427
11
14.7007174
21
30.6879427
0
ARC
8
DEFAULT_255_2_778
10
14.8109369
20
31.6162828
40
0.8835198
50
359.4591369
51
14.1935825
0
ARC
8
DEFAULT_255_2_778
10
15.2191818
20
31.7272205
40
0.4605958
50
13.2668125
51
48.8012162
0
ARC
8
DEFAULT_255_2_778
10
15.213903
20
31.6917624
40
0.4911351
50
51.0630708
51
81.1828114
0
ARC
8
DEFAULT_255_2_778
10
15.1418764
20
31.3369834
40
0.8529272
50
80.0545835
51
90.3614587
0
ARC
8
DEFAULT_255_2_778
10
15.1376599
20
31.022747
40
1.1671473
50
90.0571546
51
93.6172253
0
ARC
8
DEFAULT_255_2_778
10
15.1487914
20
30.832916
40
1.3573027
50
93.5806203
51
95.5119737
0
LINE
8
DEFAULT_255_2_778
10
15.0184174
20
32.1839427
11
15.0184174
21
30.9480427
0
ARC
8
DEFAULT_255_2_778
10
15.0915883
20
32.3255397
40
1.379439
50
266.9593758
51
269.1889198
0
ARC
8
DEFAULT_255_2_778
10
15.0894991
20
32.2110085
40
1.2648898
50
269.2101092
51
269.9978531
0
ARC
8
DEFAULT_255_2_778
10
15.1008598
20
31.8525168
40
0.9064699
50
269.2789046
51
283.8891989
0
ARC
8
DEFAULT_255_2_778
10
15.2096043
20
31.4429022
40
0.4827824
50
283.0300467
51
317.6775195
0
ARC
8
DEFAULT_255_2_778
10
15.1763372
20
31.447402
40
0.5107648
50
319.8174295
51
349.6443117
0
ARC
8
DEFAULT_255_2_778
10
14.7921078
20
31.5327177
40
0.9041938
50
348.7027928
51
0.4718813
0
ARC
8
DEFAULT_255_2_778
10
14.458769
20
31.5396429
40
1.237502
50
0.0241486
51
2.3522144
0
ARC
8
DEFAULT_255_2_778
10
14.3488538
20
31.5356099
40
1.3474902
50
2.3317379
51
3.0643209
0
LINE
8
DEFAULT_255_2_778
10
14.7007174
20
30.6879427
11
14.7004174
21
30.6879427
0
LINE
8
DEFAULT_255_2_778
10
15.6944174
20
31.6076427
11
15.6944174
21
31.6079427
0
ARC
8
DEFAULT_255_2_778
10
22.6899032
20
9.8168612
40
0.4999688
50
90.0193439
51
179.9806366
0
ARC
8
DEFAULT_255_2_778
10
22.690167
20
6.6168337
40
0.5003037
50
224.9733492
51
269.9504521
0
ARC
8
DEFAULT_255_2_778
10
22.6894756
20
6.6164469
40
0.4995412
50
179.9879027
51
224.9980214
0
ARC
8
DEFAULT_255_2_778
10
22.3682287
20
6.6166468
40
0.1782944
50
179.9089574
51
180.0303467
0
LINE
8
DEFAULT_255_2_778
10
22.6897344
20
10.3168301
11
26.3896344
21
10.3168301
0
LINE
8
DEFAULT_255_2_778
10
26.3896344
20
10.3168301
11
26.3896344
21
6.1165301
0
LINE
8
DEFAULT_255_2_778
10
26.3896344
20
6.1165301
11
22.6897344
21
6.1165301
0
LINE
8
DEFAULT_255_2_778
10
22.1899344
20
6.6169301
11
22.1899344
21
9.8170301
0
LINE
8
DEFAULT_255_2_778
10
24.4283266
20
6.4690591
11
24.8836266
21
6.4690591
0
ARC
8
DEFAULT_255_2_778
10
24.8965018
20
7.4032056
40
0.9342352
50
269.2103484
51
285.6632544
0
ARC
8
DEFAULT_255_2_778
10
25.000041
20
7.0422114
40
0.5586972
50
285.4343574
51
345.4515883
0
ARC
8
DEFAULT_255_2_778
10
24.496034
20
7.209011
40
1.089001
50
343.6179296
51
357.7922335
0
ARC
8
DEFAULT_255_2_778
10
23.7149327
20
7.3097783
40
1.8747342
50
355.6339794
51
358.1188682
0
ARC
8
DEFAULT_255_2_778
10
23.9371324
20
7.3020323
40
1.6524001
50
358.1344008
51
359.9837723
0
ARC
8
DEFAULT_255_2_778
10
24.402618
20
7.3131301
40
1.1869707
50
359.4417011
51
12.0376
0
ARC
8
DEFAULT_255_2_778
10
24.902636
20
7.425586
40
0.6745187
50
11.5531996
51
35.8577761
0
ARC
8
DEFAULT_255_2_778
10
24.9922444
20
7.4705906
40
0.5757538
50
37.4517367
51
75.6952398
0
ARC
8
DEFAULT_255_2_778
10
24.8681305
20
7.0467291
40
1.0172581
50
74.8200361
51
89.4180989
0
ARC
8
DEFAULT_255_2_778
10
24.8483464
20
6.6673169
40
1.3969424
50
88.7647191
51
89.9844057
0
LINE
8
DEFAULT_255_2_778
10
24.8487266
20
8.0642591
11
24.4283266
21
8.0642591
0
LINE
8
DEFAULT_255_2_778
10
24.4283266
20
8.0642591
11
24.4283266
21
6.4690591
0
ARC
8
DEFAULT_255_2_778
10
24.518891
20
7.3003085
40
0.7851832
50
359.368833
51
15.0266425
0
ARC
8
DEFAULT_255_2_778
10
24.8986423
20
7.4130567
40
0.3893253
50
13.4907096
51
79.3465316
0
ARC
8
DEFAULT_255_2_778
10
24.8187727
20
7.1008648
40
0.7112052
50
77.6723498
51
90.530796
0
ARC
8
DEFAULT_255_2_778
10
24.8134221
20
6.7886885
40
1.0233518
50
90.06931
51
94.0029836
0
ARC
8
DEFAULT_255_2_778
10
24.8239181
20
6.6227133
40
1.1896553
50
93.9492348
51
95.5662003
0
LINE
8
DEFAULT_255_2_778
10
24.7085266
20
7.8067591
11
24.7085266
21
6.7018591
0
ARC
8
DEFAULT_255_2_778
10
24.7724088
20
7.8839157
40
1.1837815
50
266.9065591
51
269.5648493
0
ARC
8
DEFAULT_255_2_778
10
24.7710862
20
7.7889673
40
1.0888259
50
269.5964957
51
269.9977738
0
ARC
8
DEFAULT_255_2_778
10
24.7824483
20
7.4697985
40
0.7697415
50
269.1510849
51
285.3222864
0
ARC
8
DEFAULT_255_2_778
10
24.8842578
20
7.1233528
40
0.4087611
50
284.3911028
51
348.8923892
0
ARC
8
DEFAULT_255_2_778
10
24.5142346
20
7.2229205
40
0.7914756
50
346.9796964
51
0.6230619
0
ARC
8
DEFAULT_255_2_778
10
24.1698159
20
7.2308861
40
1.1358477
50
0.0323409
51
2.6916852
0
ARC
8
DEFAULT_255_2_778
10
24.0726061
20
7.2269904
40
1.2331331
50
2.6603808
51
3.0200763
0
ARC
8
DEFAULT_255_2_778
10
23.6760594
20
7.594054
40
0.1650858
50
357.0503999
51
83.5000183
0
ARC
8
DEFAULT_255_2_778
10
23.5904417
20
7.2765336
40
0.4927123
50
77.7781594
51
90.7794718
0
ARC
8
DEFAULT_255_2_778
10
23.5856017
20
6.9138536
40
0.8553488
50
90.1247759
51
94.3762838
0
ARC
8
DEFAULT_255_2_778
10
23.5997598
20
6.7031968
40
1.0664737
50
94.2711153
51
95.5008781
0
LINE
8
DEFAULT_255_2_778
10
23.4975266
20
7.7647591
11
23.4975266
21
7.4064591
0
ARC
8
DEFAULT_255_2_778
10
23.6056299
20
8.3245957
40
0.9244789
50
263.2847914
51
267.5564135
0
ARC
8
DEFAULT_255_2_778
10
23.5953081
20
8.1113581
40
0.7109962
50
267.654799
51
269.9674843
0
ARC
8
DEFAULT_255_2_778
10
23.6051499
20
7.7995312
40
0.3993006
50
268.5297351
51
287.808478
0
ARC
8
DEFAULT_255_2_778
10
23.68106
20
7.572926
40
0.160365
50
286.7477614
51
4.5182848
0
ARC
8
DEFAULT_255_2_778
10
23.5281902
20
6.4572862
40
0.6414434
50
90.0309709
51
92.1946385
0
ARC
8
DEFAULT_255_2_778
10
23.5389903
20
6.767444
40
0.331473
50
70.073911
51
91.9271146
0
ARC
8
DEFAULT_255_2_778
10
23.6092842
20
6.96133
40
0.1252377
50
27.3458104
51
70.077482
0
ARC
8
DEFAULT_255_2_778
10
23.8540936
20
7.0730261
40
0.1998403
50
23.015331
51
66.984669
0
ARC
8
DEFAULT_255_2_778
10
23.8404075
20
7.579915
40
0.3357547
50
285.8708907
51
356.5465338
0
ARC
8
DEFAULT_255_2_778
10
23.5157026
20
7.6449568
40
0.6653365
50
352.6369438
51
0.2028543
0
ARC
8
DEFAULT_255_2_778
10
23.3774855
20
7.6472729
40
0.8035494
50
0.0028163
51
0.940264
0
ARC
8
DEFAULT_255_2_778
10
23.7311322
20
7.6545628
40
0.449833
50
0.7510478
51
28.8013119
0
ARC
8
DEFAULT_255_2_778
10
23.8135103
20
7.6808063
40
0.3653834
50
31.4194651
51
75.7213142
0
ARC
8
DEFAULT_255_2_778
10
23.6918172
20
7.2835389
40
0.7806475
50
74.2567574
51
89.8754516
0
ARC
8
DEFAULT_255_2_778
10
23.6730996
20
6.9053577
40
1.1590067
50
88.9907493
51
90.0045901
0
ARC
8
DEFAULT_255_2_778
10
23.6732573
20
6.8146148
40
1.2497496
50
90.0114865
51
91.4594629
0
LINE
8
DEFAULT_255_2_778
10
23.6414266
20
8.0639591
11
23.1599266
21
8.0639591
0
ARC
8
DEFAULT_255_2_778
10
23.6527934
20
8.7259454
40
1.076487
50
68.0301907
51
75.5392843
0
ARC
8
DEFAULT_255_2_778
10
23.7596712
20
9.1490039
40
0.6401459
50
75.3466073
51
87.0871125
0
ARC
8
DEFAULT_255_2_778
10
23.772751
20
9.3196122
40
0.4691139
50
87.6236637
51
89.9841192
0
ARC
8
DEFAULT_255_2_778
10
23.7651778
20
9.4626347
40
0.3261824
50
88.6467513
51
116.9519903
0
ARC
8
DEFAULT_255_2_778
10
23.7454486
20
9.5136435
40
0.2718279
50
118.1183329
51
137.8787069
0
ARC
8
DEFAULT_255_2_778
10
23.7443116
20
9.5829304
40
0.2301516
50
150.5867203
51
166.5089295
0
ARC
8
DEFAULT_255_2_778
10
23.6666891
20
9.6030017
40
0.1499951
50
167.0469973
51
179.7396451
0
ARC
8
DEFAULT_255_2_778
10
23.6607479
20
9.6088575
40
0.1441455
50
182.0571449
51
239.0354539
0
ARC
8
DEFAULT_255_2_778
10
23.8296321
20
9.8427773
40
0.4323132
50
235.7916536
51
251.8519829
0
ARC
8
DEFAULT_255_2_778
10
23.9733536
20
10.2327196
40
0.847758
50
250.8303443
51
255.4744976
0
ARC
8
DEFAULT_255_2_778
10
23.4582049
20
8.416665
40
1.0403504
50
62.3613638
51
73.094844
0
ARC
8
DEFAULT_255_2_778
10
23.694642
20
8.8591873
40
0.5386583
50
43.5545502
51
62.8053735
0
ARC
8
DEFAULT_255_2_778
10
23.8502482
20
9.0077668
40
0.32351
50
359.4797238
51
43.4733292
0
ARC
8
DEFAULT_255_2_778
10
23.7342752
20
9.0078507
40
0.43948
50
346.086827
51
359.6060682
0
ARC
8
DEFAULT_255_2_778
10
23.552754
20
9.0508977
40
0.626029
50
337.9581453
51
346.2573298
0
ARC
8
DEFAULT_255_2_778
10
23.6157802
20
9.1156694
40
0.5978044
50
308.3817495
51
329.9105272
0
ARC
8
DEFAULT_255_2_778
10
23.6790787
20
9.0523151
40
0.5089435
50
270.2672928
51
307.2240834
0
ARC
8
DEFAULT_255_2_778
10
23.6631637
20
9.2181797
40
0.6750504
50
269.9952381
51
271.5525102
0
ARC
8
DEFAULT_255_2_778
10
23.668004
20
9.3674066
40
0.8242918
50
258.819474
51
269.659658
0
ARC
8
DEFAULT_255_2_778
10
23.737155
20
9.7287548
40
1.1921926
50
251.4919501
51
258.9265061
0
ARC
8
DEFAULT_255_2_778
10
23.8754541
20
10.1512717
40
1.6367605
50
246.916528
51
251.5961532
0
ARC
8
DEFAULT_255_2_778
10
9.3769005
20
10.5426423
40
13.9860843
50
352.204326
51
353.200927
0
ARC
8
DEFAULT_255_2_778
10
23.7360858
20
9.9443818
40
1.1578549
50
245.9719822
51
253.8144284
0
ARC
8
DEFAULT_255_2_778
10
23.610165
20
9.5036821
40
0.6995252
50
253.657577
51
265.4125754
0
ARC
8
DEFAULT_255_2_778
10
23.5906665
20
9.3136272
40
0.5085372
50
265.8897759
51
269.9551239
0
ARC
8
DEFAULT_255_2_778
10
23.5979971
20
9.163081
40
0.3580743
50
268.7632087
51
298.5194911
0
ARC
8
DEFAULT_255_2_778
10
23.6098504
20
9.1298712
40
0.3232808
50
299.4839053
51
314.9704346
0
ARC
8
DEFAULT_255_2_778
10
23.6741745
20
9.0012605
40
0.192266
50
328.624789
51
347.0136648
0
ARC
8
DEFAULT_255_2_778
10
23.7346102
20
8.9855849
40
0.1298644
50
347.7609195
51
359.8204044
0
ARC
8
DEFAULT_255_2_778
10
23.7246047
20
8.9788364
40
0.1400128
50
2.5959435
51
56.0568717
0
ARC
8
DEFAULT_255_2_778
10
23.5416015
20
8.7488362
40
0.4336342
50
52.9644821
51
68.9761355
0
ARC
8
DEFAULT_255_2_778
10
23.3482993
20
8.2880442
40
0.9332227
50
68.0476711
51
73.9874669
0
ARC
8
DEFAULT_255_2_778
10
23.767949
20
9.9498654
40
0.7818214
50
242.517049
51
258.0245297
0
ARC
8
DEFAULT_255_2_778
10
23.553448
20
9.5677876
40
0.3441565
50
184.6547001
51
244.8436295
0
ARC
8
DEFAULT_255_2_778
10
23.9598218
20
9.5598206
40
0.749661
50
180.0079365
51
181.525817
0
ARC
8
DEFAULT_255_2_778
10
23.7263395
20
9.5697421
40
0.5162762
50
159.8523968
51
181.1126718
0
ARC
8
DEFAULT_255_2_778
10
23.5785331
20
9.6148638
40
0.3620735
50
106.7754206
51
158.4993198
0
ARC
8
DEFAULT_255_2_778
10
23.7058212
20
9.2682436
40
0.7310068
50
93.5578209
51
108.4866379
0
ARC
8
DEFAULT_255_2_778
10
23.7453051
20
8.8502903
40
1.1506835
50
89.9102919
51
94.2286127
0
ARC
8
DEFAULT_255_2_778
10
23.7441461
20
8.4811009
40
1.5198743
50
85.5525712
51
89.8883917
0
ARC
8
DEFAULT_255_2_778
10
23.7077325
20
7.9971459
40
2.005196
50
82.3751687
51
85.5875456
0
ARC
8
DEFAULT_255_2_778
10
23.6330379
20
7.4357494
40
2.5715397
50
79.6639529
51
82.3853127
0
LINE
8
DEFAULT_255_2_778
10
24.3973266
20
8.5179591
11
24.8648266
21
8.5179591
0
ARC
8
DEFAULT_255_2_778
10
24.8775159
20
9.5997898
40
1.0819051
50
269.327981
51
283.4147326
0
ARC
8
DEFAULT_255_2_778
10
24.9983969
20
9.1239809
40
0.5910776
50
282.7171544
51
313.5494451
0
ARC
8
DEFAULT_255_2_778
10
24.9897519
20
9.1032524
40
0.5823729
50
315.571375
51
347.7256232
0
ARC
8
DEFAULT_255_2_778
10
24.611627
20
9.204831
40
0.9736319
50
346.6151158
51
357.1169124
0
ARC
8
DEFAULT_255_2_778
10
24.0687044
20
9.2859191
40
1.5208935
50
355.0943311
51
358.0379387
0
ARC
8
DEFAULT_255_2_778
10
24.250738
20
9.2791235
40
1.3387341
50
358.0618723
51
359.984862
0
ARC
8
DEFAULT_255_2_778
10
24.6394165
20
9.2906882
40
0.9501303
50
359.2812623
51
14.7484583
0
ARC
8
DEFAULT_255_2_778
10
25.0268932
20
9.4002598
40
0.5475747
50
13.9825765
51
72.8115276
0
ARC
8
DEFAULT_255_2_778
10
24.8775638
20
8.9878418
40
0.9859215
50
71.6036029
51
86.2721392
0
ARC
8
DEFAULT_255_2_778
10
24.8305258
20
8.4972517
40
1.4786083
50
85.6892739
51
90.0619703
0
LINE
8
DEFAULT_255_2_778
10
24.8289266
20
9.9758591
11
24.3973266
21
9.9758591
0
LINE
8
DEFAULT_255_2_778
10
24.3973266
20
9.9758591
11
24.3973266
21
8.5179591
0
ARC
8
DEFAULT_255_2_778
10
24.6658156
20
9.2786689
40
0.6303754
50
359.1810611
51
18.1390868
0
ARC
8
DEFAULT_255_2_778
10
24.9049488
20
9.352507
40
0.3801626
50
18.7840726
51
80.8081871
0
ARC
8
DEFAULT_255_2_778
10
24.7995234
20
8.9461635
40
0.7990891
50
77.999073
51
90.5682446
0
ARC
8
DEFAULT_255_2_778
10
24.7926379
20
8.5780637
40
1.16715
50
90.0510284
51
93.2668405
0
ARC
8
DEFAULT_255_2_778
10
24.8026104
20
8.3896284
40
1.3558477
50
93.2337968
51
94.9793785
0
LINE
8
DEFAULT_255_2_778
10
24.6849266
20
9.7403591
11
24.6849266
21
8.7304591
0
ARC
8
DEFAULT_255_2_778
10
24.7510271
20
10.1089524
40
1.3800772
50
267.2546978
51
269.2677804
0
ARC
8
DEFAULT_255_2_778
10
24.7491742
20
9.9973505
40
1.2684607
50
269.2870473
51
269.9967319
0
ARC
8
DEFAULT_255_2_778
10
24.76031
20
9.6214476
40
0.8926281
50
269.2805561
51
283.1186715
0
ARC
8
DEFAULT_255_2_778
10
24.8664244
20
9.1937074
40
0.4520099
50
282.3249661
51
312.2335676
0
ARC
8
DEFAULT_255_2_778
10
24.8810979
20
9.1514337
40
0.4112218
50
314.6795658
51
352.5175794
0
ARC
8
DEFAULT_255_2_778
10
24.5869671
20
9.2107058
40
0.710861
50
350.8678517
51
0.28567
0
ARC
8
DEFAULT_255_2_778
10
24.3738751
20
9.2136492
40
0.9239441
50
0.0372623
51
3.0350572
0
ARC
8
DEFAULT_255_2_778
10
24.2910508
20
9.2098513
40
1.0068535
50
3.001328
51
3.4054144
0
LINE
8
DEFAULT_255_2_778
10
24.4283266
20
6.4690591
11
24.4283266
21
6.4690591
0
LINE
8
DEFAULT_255_2_778
10
25.3040266
20
7.2919591
11
25.3040266
21
7.2916591
0
LINE
8
DEFAULT_255_2_778
10
23.8409266
20
7.5855591
11
23.8409266
21
7.5855591
0
LINE
8
DEFAULT_255_2_778
10
23.1596266
20
8.0639591
11
23.1596266
21
6.4632591
0
LINE
8
DEFAULT_255_2_778
10
23.1596266
20
6.4632591
11
23.5036266
21
6.4632591
0
LINE
8
DEFAULT_255_2_778
10
23.5036266
20
6.4632591
11
23.5036266
21
7.0982591
0
LINE
8
DEFAULT_255_2_778
10
23.7205266
20
7.0188591
11
23.8846266
21
6.4698591
0
LINE
8
DEFAULT_255_2_778
10
23.8846266
20
6.4698591
11
24.2391266
21
6.4632591
0
LINE
8
DEFAULT_255_2_778
10
24.2391266
20
6.4632591
11
24.0380266
21
7.1511591
0
LINE
8
DEFAULT_255_2_778
10
23.1599266
20
8.0639591
11
23.1596266
21
8.0639591
0
LINE
8
DEFAULT_255_2_778
10
24.0944266
20
9.9655591
11
24.0634266
21
9.7313591
0
LINE
8
DEFAULT_255_2_778
10
24.3973266
20
8.5179591
11
24.3973266
21
8.5179591
0
LINE
8
DEFAULT_255_2_778
10
25.2961266
20
9.2696591
11
25.2961266
21
9.2696591
0
ARC
8
DEFAULT_255_2_778
10
46.7677516
20
1.9517844
40
0.1781603
50
179.9089574
51
180.0303467
0
ARC
8
DEFAULT_255_2_778
10
47.089075
20
1.9516603
40
0.4994836
50
179.9965861
51
225.0007596
0
ARC
8
DEFAULT_255_2_778
10
47.0896494
20
1.9516497
40
0.4998823
50
224.9533512
51
269.9704498
0
ARC
8
DEFAULT_255_2_778
10
51.889434
20
1.9516491
40
0.4998817
50
270.029524
51
315.0466824
0
ARC
8
DEFAULT_255_2_778
10
51.8900082
20
1.9516603
40
0.4994834
50
314.9992404
51
0.0034139
0
ARC
8
DEFAULT_255_2_778
10
52.2113316
20
1.9517844
40
0.1781602
50
359.9696533
51
0.0910426
0
ARC
8
DEFAULT_255_2_778
10
51.9416863
20
75.0567799
40
0.4478053
50
0.0239973
51
2.3538348
0
ARC
8
DEFAULT_255_2_778
10
51.8411127
20
75.0517388
40
0.5485018
50
2.4485071
51
7.1982339
0
ARC
8
DEFAULT_255_2_778
10
51.9021896
20
75.0558551
40
0.487244
50
8.00014
51
9.3214429
0
ARC
8
DEFAULT_255_2_778
10
51.9132718
20
75.057873
40
0.4759813
50
9.2978227
51
14.7386458
0
ARC
8
DEFAULT_255_2_778
10
51.9032382
20
75.0712707
40
0.4798081
50
37.185803
51
52.6256209
0
ARC
8
DEFAULT_255_2_778
10
51.88918
20
75.0565559
40
0.5000116
50
359.9898688
51
89.9986732
0
ARC
8
DEFAULT_255_2_778
10
47.0896671
20
75.0564921
40
0.5000754
50
90.0086483
51
180.0028154
0
ARC
8
DEFAULT_255_2_778
10
12.7898447
20
18.4567981
40
0.5003531
50
180.026411
51
246.8693795
0
ARC
8
DEFAULT_255_2_778
10
16.8894884
20
18.4565903
40
0.5001032
50
293.1241882
51
359.9973828
0
ARC
8
DEFAULT_255_2_778
10
0.6896885
20
36.9064706
40
0.5000969
50
89.9996485
51
180.0003515
0
ARC
8
DEFAULT_255_2_778
10
0.6896674
20
1.9066432
40
0.5000757
50
180.008676
51
270.0027763
0
ARC
8
DEFAULT_255_2_778
10
21.2064238
20
5.425023
40
5.7335712
50
234.6235065
51
244.4749078
0
ARC
8
DEFAULT_255_2_778
10
19.0011325
20
-0.0449109
40
0.1110527
50
15.0191425
51
29.4960979
0
ARC
8
DEFAULT_255_2_778
10
17.585624
20
37.7114339
40
0.3043676
50
359.9875079
51
3.3010028
0
ARC
8
DEFAULT_255_2_778
10
17.6433262
20
37.7175675
40
0.2464239
50
2.6497555
51
24.7070551
0
ARC
8
DEFAULT_255_2_778
10
17.6816863
20
37.7309888
40
0.2060014
50
25.77544
51
41.4918526
0
ARC
8
DEFAULT_255_2_778
10
17.6716048
20
37.7187175
40
0.221697
50
42.1412408
51
56.6783248
0
ARC
8
DEFAULT_255_2_778
10
17.6308204
20
37.6480475
40
0.3031905
50
57.5745624
51
78.803623
0
ARC
8
DEFAULT_255_2_778
10
17.5833406
20
37.4428692
40
0.5137271
50
78.0523207
51
89.9440652
0
ARC
8
DEFAULT_255_2_778
10
17.5838617
20
37.4524301
40
0.504166
50
90.0022201
51
90.6102949
0
ARC
8
DEFAULT_255_2_778
10
6.4334753
20
37.46949
40
0.9839801
50
205.5327777
51
214.9030015
0
ARC
8
DEFAULT_255_2_778
10
6.0095515
20
37.2924411
40
0.5240164
50
192.6182541
51
200.017384
0
ARC
8
DEFAULT_255_2_778
10
5.7467445
20
37.2288954
40
0.2537167
50
186.0874363
51
191.5794959
0
ARC
8
DEFAULT_255_2_778
10
5.6537075
20
37.2181953
40
0.1600717
50
181.5134814
51
185.8105649
0
ARC
8
DEFAULT_255_2_778
10
5.9900885
20
38.4066706
40
0.5000969
50
89.9996485
51
180.0003515
0
ARC
8
DEFAULT_255_2_778
10
5.9895673
20
0.4066433
40
0.5000758
50
179.9972237
51
269.991324
0
ARC
8
DEFAULT_255_2_778
10
5.6994352
20
1.590724
40
0.2064288
50
167.5101857
51
177.5724418
0
ARC
8
DEFAULT_255_2_778
10
6.1066243
20
1.4938082
40
0.6249756
50
153.9808208
51
166.9086802
0
ARC
8
DEFAULT_255_2_778
10
6.502462
20
1.3013758
40
1.0651091
50
145.37541
51
154.0192313
0
ARC
8
DEFAULT_255_2_778
10
44.6892947
20
36.9564706
40
0.5000969
50
359.9996485
51
90.0003515
0
ARC
8
DEFAULT_255_2_778
10
46.2892885
20
0.2566644
40
0.5000969
50
179.9996485
51
270.0003515
0
ARC
8
DEFAULT_255_2_778
10
42.6894845
20
39.3065057
40
0.0497382
50
269.8929909
51
330.3067475
0
ARC
8
DEFAULT_255_2_778
10
42.6890848
20
39.3063083
40
0.0495418
50
209.5602455
51
270.3547914
0
ARC
8
DEFAULT_255_2_778
10
45.439493
20
71.5566673
40
0.0498986
50
359.8854034
51
60.1997083
0
ARC
8
DEFAULT_255_2_778
10
45.4398507
20
71.5562608
40
0.0495418
50
299.5602609
51
0.3547494
0
ARC
8
DEFAULT_255_2_778
10
28.0258325
20
20.5571356
40
2.6995319
50
89.9987452
51
131.9971849
0
ARC
8
DEFAULT_255_2_778
10
23.107166
20
22.8557739
40
2.2995064
50
270.0031284
51
311.9985064
0
ARC
8
DEFAULT_255_2_778
10
4.8897845
20
39.3065057
40
0.0497382
50
269.8929909
51
330.3067475
0
ARC
8
DEFAULT_255_2_778
10
4.8893849
20
39.3063084
40
0.0495419
50
209.5602813
51
270.3546933
0
ARC
8
DEFAULT_255_2_778
10
45.439493
20
41.0565673
40
0.0498986
50
359.8854034
51
60.1997083
0
ARC
8
DEFAULT_255_2_778
10
45.439851
20
41.0561606
40
0.0495415
50
299.5600688
51
0.354905
0
ARC
8
DEFAULT_255_2_778
10
44.6895947
20
89.0563706
40
0.5000969
50
359.9996485
51
90.0003515
0
ARC
8
DEFAULT_255_2_778
10
0.8896885
20
89.0563706
40
0.5000969
50
89.9996485
51
180.0003515
0
ARC
8
DEFAULT_255_2_778
10
0.8896885
20
40.0563644
40
0.5000969
50
179.9996485
51
270.0003515
0
ARC
8
DEFAULT_255_2_778
10
44.6895947
20
40.0563644
40
0.5000969
50
269.9996485
51
0.0003515
0
ARC
8
DEFAULT_255_2_778
10
44.6895947
20
89.2563706
40
0.5000969
50
359.9996485
51
90.0003515
0
ARC
8
DEFAULT_255_2_778
10
69.4894947
20
89.2563706
40
0.5000969
50
359.9996485
51
90.0003515
0
ARC
8
DEFAULT_255_2_778
10
46.0896086
20
89.2564951
40
0.499917
50
135.0198236
51
180.0146271
0
ARC
8
DEFAULT_255_2_778
10
46.0898557
20
89.2560882
40
0.5003794
50
90.0416861
51
135.006862
0
ARC
8
DEFAULT_255_2_778
10
17.57841
20
37.3279535
40
0.628414
50
88.2083617
51
90.0107997
0
ARC
8
DEFAULT_255_2_778
10
17.5848721
20
37.4526256
40
0.5036073
50
78.0216795
51
88.4997388
0
ARC
8
DEFAULT_255_2_778
10
17.6749221
20
37.7228346
40
0.2158524
50
41.8570638
51
56.8074094
0
ARC
8
DEFAULT_255_2_778
10
17.6829226
20
37.731222
40
0.2042989
50
25.7776439
51
41.6022868
0
ARC
8
DEFAULT_255_2_778
10
17.6777889
20
37.7283844
40
0.2101562
50
10.5513549
51
25.8656141
0
ARC
8
DEFAULT_255_2_778
10
17.5737802
20
37.7088365
40
0.3159858
50
4.4692703
51
10.5824745
0
ARC
8
DEFAULT_255_2_778
10
17.6000494
20
37.7108154
40
0.2896423
50
0.0498703
51
4.4839342
0
ARC
8
DEFAULT_255_2_778
10
17.6380121
20
21.3579222
40
0.2516856
50
339.521246
51
359.60054
0
ARC
8
DEFAULT_255_2_778
10
17.5763645
20
21.3814823
40
0.3176802
50
323.5781939
51
339.4305131
0
ARC
8
DEFAULT_255_2_778
10
17.4516546
20
21.4716829
40
0.471587
50
313.0857037
51
323.7558098
0
ARC
8
DEFAULT_255_2_778
10
17.33457
20
21.5978975
40
0.6437455
50
305.215909
51
313.0229104
0
ARC
8
DEFAULT_255_2_778
10
17.165066
20
21.8398651
40
0.9391756
50
294.4434199
51
305.151818
0
ARC
8
DEFAULT_255_2_778
10
17.0127292
20
22.170518
40
1.3032297
50
286.8086148
51
294.5252165
0
ARC
8
DEFAULT_255_2_778
10
39.3897162
20
38.456092
40
0.5000754
50
0.0086483
51
90.0028154
0
ARC
8
DEFAULT_255_2_778
10
16.889516
20
21.456392
40
0.5000756
50
359.9971984
51
89.9913379
0
ARC
8
DEFAULT_255_2_778
10
12.7895885
20
21.4563706
40
0.5000969
50
89.9996485
51
180.0003515
0
ARC
8
DEFAULT_255_2_778
10
23.1654971
20
22.8563532
40
1.9999857
50
269.9998436
51
309.8031451
0
ARC
8
DEFAULT_255_2_778
10
27.9757569
20
20.3556617
40
3.0007058
50
90.0031569
51
129.7996128
0
ARC
8
DEFAULT_255_2_778
10
44.6892947
20
22.7562706
40
0.5000969
50
359.9996485
51
90.0003515
0
ARC
8
DEFAULT_255_2_778
10
44.6893158
20
0.2564432
40
0.5000758
50
269.9972237
51
359.991324
0
ARC
8
DEFAULT_255_2_778
10
17.2972716
20
20.2755205
40
0.5721527
50
13.807162
51
20.2409487
0
ARC
8
DEFAULT_255_2_778
10
69.689516
20
89.2563919
40
0.5000756
50
359.9972098
51
89.9913379
0
ARC
8
DEFAULT_255_2_778
10
0.6896235
20
89.2564067
40
0.5000608
50
89.992198
51
135.0219613
0
ARC
8
DEFAULT_255_2_778
10
0.6895086
20
89.2564948
40
0.4999172
50
135.0197991
51
180.0145925
0
ARC
8
DEFAULT_255_2_778
10
0.6896674
20
0.2564432
40
0.5000758
50
180.008676
51
270.0027763
0
ARC
8
DEFAULT_255_2_778
10
69.6895372
20
0.2564218
40
0.5000543
50
270.0062367
51
359.9937747
0
LINE
8
DEFAULT_255_2_778
10
47.0893916
20
1.4517675
11
51.8896916
21
1.4517675
0
LINE
8
DEFAULT_255_2_778
10
52.3894916
20
1.9520675
11
52.3891916
21
1.9565675
0
LINE
8
DEFAULT_255_2_778
10
52.3891916
20
1.9565675
11
52.3891916
21
75.0564675
0
LINE
8
DEFAULT_255_2_778
10
52.3891916
20
75.0564675
11
52.3894916
21
75.0569675
0
LINE
8
DEFAULT_255_2_778
10
52.3852916
20
75.1204675
11
52.3846916
21
75.1236675
0
LINE
8
DEFAULT_255_2_778
10
52.3735916
20
75.1789675
11
52.3693916
21
75.1940675
0
LINE
8
DEFAULT_255_2_778
10
52.3693916
20
75.1940675
11
52.3547916
21
75.2366675
0
LINE
8
DEFAULT_255_2_778
10
52.3547916
20
75.2366675
11
52.3458916
21
75.2586675
0
LINE
8
DEFAULT_255_2_778
10
52.3458916
20
75.2586675
11
52.3259916
21
75.2988675
0
LINE
8
DEFAULT_255_2_778
10
52.3259916
20
75.2988675
11
52.3182916
21
75.3123675
0
LINE
8
DEFAULT_255_2_778
10
52.3182916
20
75.3123675
11
52.2862916
21
75.3602675
0
LINE
8
DEFAULT_255_2_778
10
52.2862916
20
75.3602675
11
52.2854916
21
75.3612675
0
LINE
8
DEFAULT_255_2_778
10
52.1944916
20
75.4525675
11
52.1920916
21
75.4543675
0
LINE
8
DEFAULT_255_2_778
10
52.1920916
20
75.4543675
11
52.1465916
21
75.4848675
0
LINE
8
DEFAULT_255_2_778
10
52.1465916
20
75.4848675
11
52.1299916
21
75.4943675
0
LINE
8
DEFAULT_255_2_778
10
52.1299916
20
75.4943675
11
52.0944916
21
75.5118675
0
LINE
8
DEFAULT_255_2_778
10
52.0944916
20
75.5118675
11
52.0653916
21
75.5237675
0
LINE
8
DEFAULT_255_2_778
10
52.0653916
20
75.5237675
11
52.0317916
21
75.5350675
0
LINE
8
DEFAULT_255_2_778
10
52.0317916
20
75.5350675
11
52.0076916
21
75.5417675
0
LINE
8
DEFAULT_255_2_778
10
52.0076916
20
75.5417675
11
51.9597916
21
75.5512675
0
LINE
8
DEFAULT_255_2_778
10
51.9597916
20
75.5512675
11
51.9510916
21
75.5525675
0
LINE
8
DEFAULT_255_2_778
10
51.9510916
20
75.5525675
11
51.8893916
21
75.5565675
0
LINE
8
DEFAULT_255_2_778
10
51.8891916
20
75.5565675
11
47.0895916
21
75.5565675
0
LINE
8
DEFAULT_255_2_778
10
46.5895916
20
75.6565675
11
46.5895916
21
1.2565675
0
LINE
8
DEFAULT_255_2_778
10
46.5895916
20
1.2565675
11
52.5894916
21
1.2565675
0
LINE
8
DEFAULT_255_2_778
10
52.5894916
20
1.2565675
11
52.5894916
21
75.6565675
0
LINE
8
DEFAULT_255_2_778
10
26.5896916
20
39.5565675
11
26.5896916
21
39.1564675
0
LINE
8
DEFAULT_255_2_778
10
27.2897916
20
39.5565675
11
27.2897916
21
39.1564675
0
LINE
8
DEFAULT_255_2_778
10
30.4396916
20
39.1564675
11
30.4396916
21
39.5565675
0
LINE
8
DEFAULT_255_2_778
10
31.5895916
20
39.1564675
11
31.5895916
21
39.5565675
0
LINE
8
DEFAULT_255_2_778
10
32.2895916
20
39.1564675
11
32.2895916
21
39.5565675
0
LINE
8
DEFAULT_255_2_778
10
2.1895916
20
37.5565675
11
2.1895916
21
37.4065675
0
LINE
8
DEFAULT_255_2_778
10
3.7894916
20
37.5565675
11
3.7894916
21
37.4065675
0
LINE
8
DEFAULT_255_2_778
10
5.3894916
20
37.5565675
11
5.3894916
21
37.4065675
0
LINE
8
DEFAULT_255_2_778
10
2.1895916
20
1.2565675
11
2.1895916
21
1.4065675
0
LINE
8
DEFAULT_255_2_778
10
3.7894916
20
1.2565675
11
3.7894916
21
1.4065675
0
LINE
8
DEFAULT_255_2_778
10
4.2895916
20
1.2565675
11
4.2895916
21
1.4065675
0
LINE
8
DEFAULT_255_2_778
10
0.6896916
20
37.4065675
11
5.4896916
21
37.4065675
0
LINE
8
DEFAULT_255_2_778
10
0.1895916
20
37.5565675
11
5.4894916
21
37.5565675
0
LINE
8
DEFAULT_255_2_778
10
0.1895916
20
1.2565675
11
5.4894916
21
1.2565675
0
LINE
8
DEFAULT_255_2_778
10
5.4894916
20
1.4065675
11
0.6896916
21
1.4065675
0
LINE
8
DEFAULT_255_2_778
10
19.1104916
20
-0.0433325
11
19.1083916
21
-0.0161325
0
LINE
8
DEFAULT_255_2_778
10
19.0977916
20
0.0097675
11
19.0813916
21
0.0338675
0
LINE
8
DEFAULT_255_2_778
10
19.0813916
20
0.0338675
11
19.0614916
21
0.0560675
0
LINE
8
DEFAULT_255_2_778
10
19.0614916
20
0.0560675
11
19.0151916
21
0.0965675
0
LINE
8
DEFAULT_255_2_778
10
19.0151916
20
0.0965675
11
18.9638916
21
0.1328675
0
LINE
8
DEFAULT_255_2_778
10
18.9638916
20
0.1328675
11
18.9096916
21
0.1664675
0
LINE
8
DEFAULT_255_2_778
10
18.9096916
20
0.1664675
11
18.8535916
21
0.1979675
0
LINE
8
DEFAULT_255_2_778
10
18.8535916
20
0.1979675
11
18.7376916
21
0.2563675
0
LINE
8
DEFAULT_255_2_778
10
5.5455916
20
37.0453675
11
5.5171916
21
37.1130675
0
LINE
8
DEFAULT_255_2_778
10
5.4936916
20
37.2139675
11
5.4923916
21
37.2406675
0
LINE
8
DEFAULT_255_2_778
10
5.4923916
20
37.2406675
11
5.4899916
21
37.3083675
0
LINE
8
DEFAULT_255_2_778
10
5.4899916
20
37.3083675
11
5.4899916
21
38.4066675
0
LINE
8
DEFAULT_255_2_778
10
5.9900916
20
38.9067675
11
12.2900916
21
38.9067675
0
LINE
8
DEFAULT_255_2_778
10
12.2900916
20
38.9067675
11
12.2900916
21
-0.0934325
0
LINE
8
DEFAULT_255_2_778
10
12.2900916
20
-0.0934325
11
5.9894916
21
-0.0934325
0
LINE
8
DEFAULT_255_2_778
10
5.4894916
20
0.4066675
11
5.4894916
21
1.5049675
0
LINE
8
DEFAULT_255_2_778
10
5.4894916
20
1.5049675
11
5.4896916
21
1.5255675
0
LINE
8
DEFAULT_255_2_778
10
5.4896916
20
1.5255675
11
5.4931916
21
1.5994675
0
LINE
8
DEFAULT_255_2_778
10
45.7891916
20
75.6565675
11
45.7891916
21
0.2566675
0
LINE
8
DEFAULT_255_2_778
10
42.8893916
20
39.5565675
11
42.7326916
21
39.2818675
0
LINE
8
DEFAULT_255_2_778
10
42.6459916
20
39.2818675
11
42.4892916
21
39.5565675
0
LINE
8
DEFAULT_255_2_778
10
38.1895916
20
38.9564675
11
38.1895916
21
39.1564675
0
LINE
8
DEFAULT_255_2_778
10
45.1896916
20
71.7565675
11
45.4642916
21
71.5999675
0
LINE
8
DEFAULT_255_2_778
10
45.4642916
20
71.5131675
11
45.1896916
21
71.3565675
0
LINE
8
DEFAULT_255_2_778
10
45.1896916
20
39.1564675
11
45.1896916
21
23.2566675
0
LINE
8
DEFAULT_255_2_778
10
45.1896916
20
23.2566675
11
28.0258916
21
23.2566675
0
LINE
8
DEFAULT_255_2_778
10
26.2195916
20
22.5633675
11
24.6457916
21
21.1468675
0
LINE
8
DEFAULT_255_2_778
10
23.1072916
20
20.5562675
11
17.3895916
21
20.5562675
0
LINE
8
DEFAULT_255_2_778
10
18.7894916
20
39.1562675
11
18.7894916
21
38.9564675
0
LINE
8
DEFAULT_255_2_778
10
40.6895916
20
39.1564675
11
40.6895916
21
37.6565675
0
LINE
8
DEFAULT_255_2_778
10
5.0896916
20
39.5565675
11
4.9329916
21
39.2818675
0
LINE
8
DEFAULT_255_2_778
10
4.8462916
20
39.2818675
11
4.6895916
21
39.5565675
0
LINE
8
DEFAULT_255_2_778
10
45.1896916
20
41.2564675
11
45.4642916
21
41.0998675
0
LINE
8
DEFAULT_255_2_778
10
45.4642916
20
41.0130675
11
45.1896916
21
40.8564675
0
LINE
8
DEFAULT_255_2_778
10
44.6895916
20
89.5564675
11
0.8896916
21
89.5564675
0
LINE
8
DEFAULT_255_2_778
10
0.3895916
20
89.0563675
11
0.3895916
21
40.0563675
0
LINE
8
DEFAULT_255_2_778
10
0.8896916
20
39.5562675
11
44.6895916
21
39.5562675
0
LINE
8
DEFAULT_255_2_778
10
45.1896916
20
40.0563675
11
45.1896916
21
89.2563675
0
LINE
8
DEFAULT_255_2_778
10
4.1895916
20
38.6564675
11
4.6895916
21
39.1564675
0
LINE
8
DEFAULT_255_2_778
10
4.6895916
20
39.1564675
11
4.6895916
21
37.5565675
0
LINE
8
DEFAULT_255_2_778
10
45.5896916
20
75.7565675
11
69.9895916
21
75.7565675
0
LINE
8
DEFAULT_255_2_778
10
69.9895916
20
75.7565675
11
69.9895916
21
89.2563675
0
LINE
8
DEFAULT_255_2_778
10
45.5894916
20
75.6565675
11
70.1893916
21
75.6565675
0
LINE
8
DEFAULT_255_2_778
10
4.1895916
20
0.2563675
11
4.6895916
21
-0.2436325
0
LINE
8
DEFAULT_255_2_778
10
4.6895916
20
-0.2436325
11
4.6895916
21
1.2562675
0
LINE
8
DEFAULT_255_2_778
10
0.6896916
20
38.6564675
11
0.1895916
21
39.1564675
0
LINE
8
DEFAULT_255_2_778
10
0.1895916
20
39.1564675
11
45.5896916
21
39.1564675
0
LINE
8
DEFAULT_255_2_778
10
45.5896916
20
39.1564675
11
45.5896916
21
89.2563675
0
LINE
8
DEFAULT_255_2_778
10
17.3895916
20
37.9563675
11
17.5782916
21
37.9563675
0
LINE
8
DEFAULT_255_2_778
10
17.6893916
20
37.9452675
11
17.7430916
21
37.9290675
0
LINE
8
DEFAULT_255_2_778
10
17.7430916
20
37.9290675
11
17.7930916
21
37.9034675
0
LINE
8
DEFAULT_255_2_778
10
17.8896916
20
37.7110675
11
17.8896916
21
21.3561675
0
LINE
8
DEFAULT_255_2_778
10
45.1896916
20
37.6560675
11
39.8897916
21
37.6560675
0
LINE
8
DEFAULT_255_2_778
10
44.6898916
20
37.6560675
11
44.6898916
21
37.4559675
0
LINE
8
DEFAULT_255_2_778
10
44.6898916
20
37.4559675
11
39.8897916
21
37.4559675
0
LINE
8
DEFAULT_255_2_778
10
39.8897916
20
37.4559675
11
39.8897916
21
38.4561675
0
LINE
8
DEFAULT_255_2_778
10
39.3896916
20
38.9561675
11
17.3895916
21
38.9561675
0
LINE
8
DEFAULT_255_2_778
10
17.3895916
20
38.9561675
11
17.3895916
21
-0.2436325
0
LINE
8
DEFAULT_255_2_778
10
16.8895916
20
21.9564675
11
12.7895916
21
21.9564675
0
LINE
8
DEFAULT_255_2_778
10
17.3895916
20
20.8563675
11
23.1654916
21
20.8563675
0
LINE
8
DEFAULT_255_2_778
10
24.4457916
20
21.3198675
11
26.0549916
21
22.6610675
0
LINE
8
DEFAULT_255_2_778
10
27.9755916
20
23.3563675
11
44.6892916
21
23.3563675
0
LINE
8
DEFAULT_255_2_778
10
44.6892916
20
23.3563675
11
44.6892916
21
23.2563675
0
LINE
8
DEFAULT_255_2_778
10
45.1893916
20
22.7562675
11
45.1893916
21
0.2563675
0
LINE
8
DEFAULT_255_2_778
10
17.0892916
20
16.8563675
11
17.3893916
21
16.8563675
0
LINE
8
DEFAULT_255_2_778
10
17.0892916
20
5.9562675
11
17.3893916
21
5.9562675
0
LINE
8
DEFAULT_255_2_778
10
17.7671916
20
20.5562675
11
17.7787916
21
20.5538675
0
LINE
8
DEFAULT_255_2_778
10
17.7787916
20
20.5538675
11
17.7904916
21
20.5467675
0
LINE
8
DEFAULT_255_2_778
10
17.7904916
20
20.5467675
11
17.8018916
21
20.5351675
0
LINE
8
DEFAULT_255_2_778
10
17.8018916
20
20.5351675
11
17.8129916
21
20.5189675
0
LINE
8
DEFAULT_255_2_778
10
17.8129916
20
20.5189675
11
17.8237916
21
20.4983675
0
LINE
8
DEFAULT_255_2_778
10
17.8237916
20
20.4983675
11
17.8340916
21
20.4734675
0
LINE
8
DEFAULT_255_2_778
10
17.8528916
20
20.4120675
11
17.8684916
21
20.3366675
0
LINE
8
DEFAULT_255_2_778
10
17.8684916
20
20.3366675
11
17.8801916
21
20.2498675
0
LINE
8
DEFAULT_255_2_778
10
17.8801916
20
20.2498675
11
17.8872916
21
20.1551675
0
LINE
8
DEFAULT_255_2_778
10
17.8872916
20
20.1551675
11
17.8896916
21
20.0562675
0
LINE
8
DEFAULT_255_2_778
10
17.8896916
20
20.0562675
11
17.8896916
21
0.7561675
0
LINE
8
DEFAULT_255_2_778
10
17.8896916
20
0.7561675
11
17.3895916
21
0.7561675
0
LINE
8
DEFAULT_255_2_778
10
69.6895916
20
89.7564675
11
0.6896916
21
89.7564675
0
LINE
8
DEFAULT_255_2_778
10
0.1895916
20
89.2563675
11
0.1895916
21
0.2563675
0
LINE
8
DEFAULT_255_2_778
10
0.6896916
20
-0.2436325
11
69.6895916
21
-0.2436325
0
LINE
8
DEFAULT_255_2_778
10
70.1895916
20
0.2563675
11
70.1895916
21
89.2563675
0
ENDSEC
0
EOF