0
SECTION
2
HEADER
9
$MEASUREMENT
70
1
0
ENDSEC
0
SECTION
2
TABLES
0
TABLE
2
LTYPE
0
LTYPE
72
65
70
64
2
CONTINUOUS
3
______
73
0
40
0
0
ENDTAB
0
TABLE
2
LAYER
0
LAYER
2
DEFAULT_255_2_778
70
0
62
255
6
CONTINUOUS
0
ENDTAB
0
ENDSEC
0
SECTION
2
ENTITIES
0
ARC
8
DEFAULT_255_2_778
10
51.290268
20
10.4059725
40
0.5000758
50
180.008676
51
270.0027763
0
ARC
8
DEFAULT_255_2_778
10
81.3236379
20
10.405951
40
0.5000542
50
270.0062229
51
359.9937886
0
ARC
8
DEFAULT_255_2_778
10
81.3236167
20
48.9893213
40
0.5000755
50
359.9971846
51
89.9913517
0
ARC
8
DEFAULT_255_2_778
10
51.2902891
20
48.9892998
40
0.5000969
50
89.9996485
51
180.0003515
0
LINE
8
DEFAULT_255_2_778
10
48.8198922
20
82.7559968
11
42.8198922
21
82.7559968
0
LINE
8
DEFAULT_255_2_778
10
42.8198922
20
82.7559968
11
42.8198922
21
85.7560968
0
LINE
8
DEFAULT_255_2_778
10
42.8198922
20
85.7560968
11
48.8198922
21
85.7560968
0
LINE
8
DEFAULT_255_2_778
10
48.8198922
20
85.7560968
11
48.8198922
21
82.7559968
0
LINE
8
DEFAULT_255_2_778
10
48.8198922
20
6.7559968
11
42.8198922
21
6.7559968
0
LINE
8
DEFAULT_255_2_778
10
42.8198922
20
6.7559968
11
42.8198922
21
3.7558968
0
LINE
8
DEFAULT_255_2_778
10
42.8198922
20
3.7558968
11
48.8198922
21
3.7558968
0
LINE
8
DEFAULT_255_2_778
10
48.8198922
20
3.7558968
11
48.8198922
21
6.7559968
0
LINE
8
DEFAULT_255_2_778
10
51.2902922
20
9.9058968
11
81.3236922
21
9.9058968
0
LINE
8
DEFAULT_255_2_778
10
81.8236922
20
10.4058968
11
81.8236922
21
48.9892968
0
LINE
8
DEFAULT_255_2_778
10
81.3236922
20
49.4893968
11
51.2902922
21
49.4893968
0
LINE
8
DEFAULT_255_2_778
10
50.7901922
20
48.9892968
11
50.7901922
21
10.4058968
0
ARC
8
DEFAULT_255_2_778
10
81.8161466
20
82.7574486
40
0.9962403
50
138.3561595
51
180.0837306
0
ARC
8
DEFAULT_255_2_778
10
81.8187384
20
82.7584578
40
0.9975096
50
91.7301295
51
138.4984071
0
ARC
8
DEFAULT_255_2_778
10
81.8198976
20
82.737237
40
1.0187558
50
89.9994546
51
91.7592604
0
ARC
8
DEFAULT_255_2_778
10
81.8213632
20
82.7597534
40
0.9962403
50
48.3561595
51
90.0837306
0
ARC
8
DEFAULT_255_2_778
10
81.8223725
20
82.7571616
40
0.9975096
50
1.7301295
51
48.4984071
0
ARC
8
DEFAULT_255_2_778
10
81.8011517
20
82.7560024
40
1.0187558
50
359.9994546
51
1.7592604
0
ARC
8
DEFAULT_255_2_778
10
81.8236681
20
82.7545368
40
0.9962403
50
318.3561595
51
0.0837306
0
ARC
8
DEFAULT_255_2_778
10
81.8210762
20
82.7535275
40
0.9975096
50
271.7301295
51
318.4984071
0
ARC
8
DEFAULT_255_2_778
10
81.819917
20
82.7747483
40
1.0187558
50
269.9994546
51
271.7592604
0
ARC
8
DEFAULT_255_2_778
10
81.8184514
20
82.7522319
40
0.9962403
50
228.3561595
51
270.0837306
0
ARC
8
DEFAULT_255_2_778
10
81.8174422
20
82.7548238
40
0.9975096
50
181.7301295
51
228.4984071
0
ARC
8
DEFAULT_255_2_778
10
81.838663
20
82.755983
40
1.0187558
50
179.9994546
51
181.7592604
0
LINE
8
DEFAULT_255_2_778
10
80.8199073
20
82.7559927
11
80.8199073
21
82.7559927
0
ARC
8
DEFAULT_255_2_778
10
19.8160466
20
84.7574486
40
0.9962403
50
138.3561595
51
180.0837306
0
ARC
8
DEFAULT_255_2_778
10
19.8186384
20
84.7584578
40
0.9975096
50
91.7301295
51
138.4984071
0
ARC
8
DEFAULT_255_2_778
10
19.8197976
20
84.737237
40
1.0187558
50
89.9994546
51
91.7592604
0
ARC
8
DEFAULT_255_2_778
10
19.8212632
20
84.7597534
40
0.9962403
50
48.3561595
51
90.0837306
0
ARC
8
DEFAULT_255_2_778
10
19.8222725
20
84.7571616
40
0.9975096
50
1.7301295
51
48.4984071
0
ARC
8
DEFAULT_255_2_778
10
19.8010517
20
84.7560024
40
1.0187558
50
359.9994546
51
1.7592604
0
ARC
8
DEFAULT_255_2_778
10
19.8235681
20
84.7545368
40
0.9962403
50
318.3561595
51
0.0837306
0
ARC
8
DEFAULT_255_2_778
10
19.8209762
20
84.7535275
40
0.9975096
50
271.7301295
51
318.4984071
0
ARC
8
DEFAULT_255_2_778
10
19.819817
20
84.7747483
40
1.0187558
50
269.9994546
51
271.7592604
0
ARC
8
DEFAULT_255_2_778
10
19.8183514
20
84.7522319
40
0.9962403
50
228.3561595
51
270.0837306
0
ARC
8
DEFAULT_255_2_778
10
19.8173422
20
84.7548238
40
0.9975096
50
181.7301295
51
228.4984071
0
ARC
8
DEFAULT_255_2_778
10
19.838563
20
84.755983
40
1.0187558
50
179.9994546
51
181.7592604
0
LINE
8
DEFAULT_255_2_778
10
18.8198073
20
84.7559927
11
18.8198073
21
84.7559927
0
ARC
8
DEFAULT_255_2_778
10
19.8160466
20
4.7574486
40
0.9962403
50
138.3561595
51
180.0837306
0
ARC
8
DEFAULT_255_2_778
10
19.8186384
20
4.7584578
40
0.9975096
50
91.7301295
51
138.4984071
0
ARC
8
DEFAULT_255_2_778
10
19.8197976
20
4.737237
40
1.0187558
50
89.9994546
51
91.7592604
0
ARC
8
DEFAULT_255_2_778
10
19.8212632
20
4.7597534
40
0.9962403
50
48.3561595
51
90.0837306
0
ARC
8
DEFAULT_255_2_778
10
19.8222725
20
4.7571616
40
0.9975096
50
1.7301295
51
48.4984071
0
ARC
8
DEFAULT_255_2_778
10
19.8010517
20
4.7560024
40
1.0187558
50
359.9994546
51
1.7592604
0
ARC
8
DEFAULT_255_2_778
10
19.8235681
20
4.7545368
40
0.9962403
50
318.3561595
51
0.0837306
0
ARC
8
DEFAULT_255_2_778
10
19.8209762
20
4.7535275
40
0.9975096
50
271.7301295
51
318.4984071
0
ARC
8
DEFAULT_255_2_778
10
19.819817
20
4.7747483
40
1.0187558
50
269.9994546
51
271.7592604
0
ARC
8
DEFAULT_255_2_778
10
19.8183514
20
4.7522319
40
0.9962403
50
228.3561595
51
270.0837306
0
ARC
8
DEFAULT_255_2_778
10
19.8173422
20
4.7548238
40
0.9975096
50
181.7301295
51
228.4984071
0
ARC
8
DEFAULT_255_2_778
10
19.838563
20
4.755983
40
1.0187558
50
179.9994546
51
181.7592604
0
LINE
8
DEFAULT_255_2_778
10
18.8198073
20
4.7559927
11
18.8198073
21
4.7559927
0
ARC
8
DEFAULT_255_2_778
10
81.8161466
20
6.7574486
40
0.9962403
50
138.3561595
51
180.0837306
0
ARC
8
DEFAULT_255_2_778
10
81.8187384
20
6.7584578
40
0.9975096
50
91.7301295
51
138.4984071
0
ARC
8
DEFAULT_255_2_778
10
81.8198976
20
6.737237
40
1.0187558
50
89.9994546
51
91.7592604
0
ARC
8
DEFAULT_255_2_778
10
81.8213632
20
6.7597534
40
0.9962403
50
48.3561595
51
90.0837306
0
ARC
8
DEFAULT_255_2_778
10
81.8223725
20
6.7571616
40
0.9975096
50
1.7301295
51
48.4984071
0
ARC
8
DEFAULT_255_2_778
10
81.8011517
20
6.7560024
40
1.0187558
50
359.9994546
51
1.7592604
0
ARC
8
DEFAULT_255_2_778
10
81.8236681
20
6.7545368
40
0.9962403
50
318.3561595
51
0.0837306
0
ARC
8
DEFAULT_255_2_778
10
81.8210762
20
6.7535275
40
0.9975096
50
271.7301295
51
318.4984071
0
ARC
8
DEFAULT_255_2_778
10
81.819917
20
6.7747483
40
1.0187558
50
269.9994546
51
271.7592604
0
ARC
8
DEFAULT_255_2_778
10
81.8184514
20
6.7522319
40
0.9962403
50
228.3561595
51
270.0837306
0
ARC
8
DEFAULT_255_2_778
10
81.8174422
20
6.7548238
40
0.9975096
50
181.7301295
51
228.4984071
0
ARC
8
DEFAULT_255_2_778
10
81.838663
20
6.755983
40
1.0187558
50
179.9994546
51
181.7592604
0
LINE
8
DEFAULT_255_2_778
10
80.8199073
20
6.7559927
11
80.8199073
21
6.7559927
0
LINE
8
DEFAULT_255_2_778
10
10.8198752
20
39.5061817
11
8.8198752
21
41.0060817
0
LINE
8
DEFAULT_255_2_778
10
8.8198752
20
41.0060817
11
8.8198752
21
47.0060817
0
LINE
8
DEFAULT_255_2_778
10
8.8198752
20
47.0060817
11
10.8198752
21
48.5059817
0
LINE
8
DEFAULT_255_2_778
10
8.8198752
20
41.5058817
11
3.8197752
21
41.5058817
0
LINE
8
DEFAULT_255_2_778
10
3.8197752
20
41.5058817
11
3.8197752
21
39.5058817
0
LINE
8
DEFAULT_255_2_778
10
3.8197752
20
39.5058817
11
2.4523752
21
39.5058817
0
LINE
8
DEFAULT_255_2_778
10
2.4523752
20
39.5058817
11
0.2277752
21
45.5621817
0
LINE
8
DEFAULT_255_2_778
10
0.2277752
20
45.5621817
11
1.4599752
21
46.4863817
0
LINE
8
DEFAULT_255_2_778
10
1.4599752
20
46.4863817
11
3.8197752
21
44.5062817
0
LINE
8
DEFAULT_255_2_778
10
3.8197752
20
44.5062817
11
10.8198752
21
49.7563817
0
LINE
8
DEFAULT_255_2_778
10
12.8197752
20
17.7560817
11
8.8198752
21
14.7559817
0
LINE
8
DEFAULT_255_2_778
10
8.8198752
20
14.7559817
11
8.8198752
21
8.7559817
0
LINE
8
DEFAULT_255_2_778
10
8.8198752
20
8.7559817
11
12.8197752
21
5.7558817
0
LINE
8
DEFAULT_255_2_778
10
8.8198752
20
14.2558817
11
3.8197752
21
14.2558817
0
LINE
8
DEFAULT_255_2_778
10
3.8197752
20
14.2558817
11
3.8197752
21
16.2558817
0
LINE
8
DEFAULT_255_2_778
10
3.8197752
20
16.2558817
11
2.4523752
21
16.2558817
0
LINE
8
DEFAULT_255_2_778
10
2.4523752
20
16.2558817
11
0.2277752
21
10.2000817
0
LINE
8
DEFAULT_255_2_778
10
0.2277752
20
10.2000817
11
1.4599752
21
9.2758817
0
LINE
8
DEFAULT_255_2_778
10
1.4599752
20
9.2758817
11
3.8197752
21
11.2560817
0
LINE
8
DEFAULT_255_2_778
10
3.8197752
20
11.2560817
11
12.8197752
21
4.5059817
0
ARC
8
DEFAULT_255_2_778
10
23.5197766
20
34.0561494
40
0.3001307
50
270.0058576
51
359.975051
0
ARC
8
DEFAULT_255_2_778
10
22.1200167
20
34.0561282
40
0.3001094
50
180.0208901
51
269.9791099
0
LINE
8
DEFAULT_255_2_778
10
23.5198073
20
33.7560187
11
22.1199073
21
33.7560187
0
ARC
8
DEFAULT_255_2_778
10
23.5197765
20
29.4560879
40
0.3001308
50
0.024976
51
89.9941233
0
ARC
8
DEFAULT_255_2_778
10
22.1200167
20
29.4561093
40
0.3001094
50
90.0208901
51
179.9791099
0
LINE
8
DEFAULT_255_2_778
10
23.5198073
20
29.7562187
11
22.1199073
21
29.7562187
0
ARC
8
DEFAULT_255_2_778
10
23.5197766
20
60.0562494
40
0.3001307
50
270.0058576
51
359.975051
0
ARC
8
DEFAULT_255_2_778
10
22.1200167
20
60.0562282
40
0.3001094
50
180.0208901
51
269.9791099
0
LINE
8
DEFAULT_255_2_778
10
23.5198073
20
59.7561187
11
22.1199073
21
59.7561187
0
ARC
8
DEFAULT_255_2_778
10
23.5197765
20
55.4559879
40
0.3001308
50
0.024976
51
89.9941233
0
ARC
8
DEFAULT_255_2_778
10
22.1200167
20
55.4560093
40
0.3001094
50
90.0208901
51
179.9791099
0
LINE
8
DEFAULT_255_2_778
10
23.5198073
20
55.7561187
11
22.1199073
21
55.7561187
0
ARC
8
DEFAULT_255_2_778
10
22.8161966
20
10.7548894
40
0.9963226
50
179.9183951
51
221.6458612
0
ARC
8
DEFAULT_255_2_778
10
22.8188587
20
10.7538699
40
0.9976376
50
221.5005114
51
268.267068
0
ARC
8
DEFAULT_255_2_778
10
22.8199653
20
10.7749676
40
1.0187592
50
268.2407388
51
270.0005446
0
ARC
8
DEFAULT_255_2_778
10
22.8214354
20
10.7525265
40
0.9963191
50
269.916016
51
311.6459452
0
ARC
8
DEFAULT_255_2_778
10
22.8224163
20
10.755154
40
0.9976339
50
311.5035703
51
358.2692494
0
ARC
8
DEFAULT_255_2_778
10
22.8013159
20
10.7562987
40
1.0187593
50
358.2407389
51
0.0005447
0
ARC
8
DEFAULT_255_2_778
10
22.81998
20
78.7561555
40
1.000095
50
359.9973023
51
44.9982952
0
ARC
8
DEFAULT_255_2_778
10
22.8199921
20
78.756041
40
1.0001674
50
45.0034224
51
90.0009797
0
ARC
8
DEFAULT_255_2_778
10
22.8201021
20
78.7556929
40
1.0005155
50
90.0072757
51
134.9883214
0
ARC
8
DEFAULT_255_2_778
10
22.8203901
20
78.7559814
40
1.0005151
50
135.0116647
51
179.9927292
0
LINE
8
DEFAULT_255_2_778
10
23.820075
20
10.7563084
11
23.820075
21
78.7561084
0
LINE
8
DEFAULT_255_2_778
10
21.819875
20
78.7561084
11
21.819875
21
10.7563084
0
ARC
8
DEFAULT_255_2_778
10
27.5197766
20
34.0561494
40
0.3001307
50
270.0058576
51
359.975051
0
ARC
8
DEFAULT_255_2_778
10
26.1200167
20
34.0561282
40
0.3001094
50
180.0208901
51
269.9791099
0
LINE
8
DEFAULT_255_2_778
10
27.5198073
20
33.7560187
11
26.1199073
21
33.7560187
0
ARC
8
DEFAULT_255_2_778
10
27.5197765
20
29.4560879
40
0.3001308
50
0.024976
51
89.9941233
0
ARC
8
DEFAULT_255_2_778
10
26.1200167
20
29.4561093
40
0.3001094
50
90.0208901
51
179.9791099
0
LINE
8
DEFAULT_255_2_778
10
27.5198073
20
29.7562187
11
26.1199073
21
29.7562187
0
ARC
8
DEFAULT_255_2_778
10
27.5197766
20
60.0562494
40
0.3001307
50
270.0058576
51
359.975051
0
ARC
8
DEFAULT_255_2_778
10
26.1200167
20
60.0562282
40
0.3001094
50
180.0208901
51
269.9791099
0
LINE
8
DEFAULT_255_2_778
10
27.5198073
20
59.7561187
11
26.1199073
21
59.7561187
0
ARC
8
DEFAULT_255_2_778
10
27.5197765
20
55.4559879
40
0.3001308
50
0.024976
51
89.9941233
0
ARC
8
DEFAULT_255_2_778
10
26.1200167
20
55.4560093
40
0.3001094
50
90.0208901
51
179.9791099
0
LINE
8
DEFAULT_255_2_778
10
27.5198073
20
55.7561187
11
26.1199073
21
55.7561187
0
ARC
8
DEFAULT_255_2_778
10
26.8161966
20
10.7548894
40
0.9963226
50
179.9183951
51
221.6458612
0
ARC
8
DEFAULT_255_2_778
10
26.8188587
20
10.7538699
40
0.9976376
50
221.5005114
51
268.267068
0
ARC
8
DEFAULT_255_2_778
10
26.8199653
20
10.7749676
40
1.0187592
50
268.2407388
51
270.0005446
0
ARC
8
DEFAULT_255_2_778
10
26.8214354
20
10.7525265
40
0.9963191
50
269.916016
51
311.6459452
0
ARC
8
DEFAULT_255_2_778
10
26.8224163
20
10.755154
40
0.9976339
50
311.5035703
51
358.2692494
0
ARC
8
DEFAULT_255_2_778
10
26.8013159
20
10.7562987
40
1.0187593
50
358.2407389
51
0.0005447
0
ARC
8
DEFAULT_255_2_778
10
26.81998
20
78.7561555
40
1.000095
50
359.9973023
51
44.9982952
0
ARC
8
DEFAULT_255_2_778
10
26.8199921
20
78.756041
40
1.0001674
50
45.0034224
51
90.0009797
0
ARC
8
DEFAULT_255_2_778
10
26.8201021
20
78.7556929
40
1.0005155
50
90.0072757
51
134.9883214
0
ARC
8
DEFAULT_255_2_778
10
26.8203901
20
78.7559814
40
1.0005151
50
135.0116647
51
179.9927292
0
LINE
8
DEFAULT_255_2_778
10
27.820075
20
10.7563084
11
27.820075
21
78.7561084
0
LINE
8
DEFAULT_255_2_778
10
25.819875
20
78.7561084
11
25.819875
21
10.7563084
0
ARC
8
DEFAULT_255_2_778
10
31.5197766
20
34.0561494
40
0.3001307
50
270.0058576
51
359.975051
0
ARC
8
DEFAULT_255_2_778
10
30.1200167
20
34.0561282
40
0.3001094
50
180.0208901
51
269.9791099
0
LINE
8
DEFAULT_255_2_778
10
31.5198073
20
33.7560187
11
30.1199073
21
33.7560187
0
ARC
8
DEFAULT_255_2_778
10
31.5197765
20
29.4560879
40
0.3001308
50
0.024976
51
89.9941233
0
ARC
8
DEFAULT_255_2_778
10
30.1200167
20
29.4561093
40
0.3001094
50
90.0208901
51
179.9791099
0
LINE
8
DEFAULT_255_2_778
10
31.5198073
20
29.7562187
11
30.1199073
21
29.7562187
0
ARC
8
DEFAULT_255_2_778
10
31.5197766
20
60.0562494
40
0.3001307
50
270.0058576
51
359.975051
0
ARC
8
DEFAULT_255_2_778
10
30.1200167
20
60.0562282
40
0.3001094
50
180.0208901
51
269.9791099
0
LINE
8
DEFAULT_255_2_778
10
31.5198073
20
59.7561187
11
30.1199073
21
59.7561187
0
ARC
8
DEFAULT_255_2_778
10
31.5197765
20
55.4559879
40
0.3001308
50
0.024976
51
89.9941233
0
ARC
8
DEFAULT_255_2_778
10
30.1200167
20
55.4560093
40
0.3001094
50
90.0208901
51
179.9791099
0
LINE
8
DEFAULT_255_2_778
10
31.5198073
20
55.7561187
11
30.1199073
21
55.7561187
0
ARC
8
DEFAULT_255_2_778
10
30.8161966
20
10.7548894
40
0.9963226
50
179.9183951
51
221.6458612
0
ARC
8
DEFAULT_255_2_778
10
30.8188587
20
10.7538699
40
0.9976376
50
221.5005114
51
268.267068
0
ARC
8
DEFAULT_255_2_778
10
30.8199653
20
10.7749676
40
1.0187592
50
268.2407388
51
270.0005446
0
ARC
8
DEFAULT_255_2_778
10
30.8214354
20
10.7525265
40
0.9963191
50
269.916016
51
311.6459452
0
ARC
8
DEFAULT_255_2_778
10
30.8224163
20
10.755154
40
0.9976339
50
311.5035703
51
358.2692494
0
ARC
8
DEFAULT_255_2_778
10
30.8013159
20
10.7562987
40
1.0187593
50
358.2407389
51
0.0005447
0
ARC
8
DEFAULT_255_2_778
10
30.81998
20
78.7561555
40
1.000095
50
359.9973023
51
44.9982952
0
ARC
8
DEFAULT_255_2_778
10
30.8199921
20
78.756041
40
1.0001674
50
45.0034224
51
90.0009797
0
ARC
8
DEFAULT_255_2_778
10
30.8201021
20
78.7556929
40
1.0005155
50
90.0072757
51
134.9883214
0
ARC
8
DEFAULT_255_2_778
10
30.8203901
20
78.7559814
40
1.0005151
50
135.0116647
51
179.9927292
0
LINE
8
DEFAULT_255_2_778
10
31.820075
20
10.7563084
11
31.820075
21
78.7561084
0
LINE
8
DEFAULT_255_2_778
10
29.819875
20
78.7561084
11
29.819875
21
10.7563084
0
ARC
8
DEFAULT_255_2_778
10
43.5196766
20
34.0561494
40
0.3001307
50
270.0058576
51
359.975051
0
ARC
8
DEFAULT_255_2_778
10
42.1199167
20
34.0561282
40
0.3001094
50
180.0208901
51
269.9791099
0
LINE
8
DEFAULT_255_2_778
10
43.5197073
20
33.7560187
11
42.1198073
21
33.7560187
0
ARC
8
DEFAULT_255_2_778
10
43.5196765
20
29.4560879
40
0.3001308
50
0.024976
51
89.9941233
0
ARC
8
DEFAULT_255_2_778
10
42.1199167
20
29.4561093
40
0.3001094
50
90.0208901
51
179.9791099
0
LINE
8
DEFAULT_255_2_778
10
43.5197073
20
29.7562187
11
42.1198073
21
29.7562187
0
ARC
8
DEFAULT_255_2_778
10
43.5196766
20
60.0562494
40
0.3001307
50
270.0058576
51
359.975051
0
ARC
8
DEFAULT_255_2_778
10
42.1199167
20
60.0562282
40
0.3001094
50
180.0208901
51
269.9791099
0
LINE
8
DEFAULT_255_2_778
10
43.5197073
20
59.7561187
11
42.1198073
21
59.7561187
0
ARC
8
DEFAULT_255_2_778
10
43.5196765
20
55.4559879
40
0.3001308
50
0.024976
51
89.9941233
0
ARC
8
DEFAULT_255_2_778
10
42.1199167
20
55.4560093
40
0.3001094
50
90.0208901
51
179.9791099
0
LINE
8
DEFAULT_255_2_778
10
43.5197073
20
55.7561187
11
42.1198073
21
55.7561187
0
ARC
8
DEFAULT_255_2_778
10
42.8160966
20
10.7548894
40
0.9963226
50
179.9183951
51
221.6458612
0
ARC
8
DEFAULT_255_2_778
10
42.8187587
20
10.7538699
40
0.9976376
50
221.5005114
51
268.267068
0
ARC
8
DEFAULT_255_2_778
10
42.8198653
20
10.7749676
40
1.0187592
50
268.2407388
51
270.0005446
0
ARC
8
DEFAULT_255_2_778
10
42.8213354
20
10.7525265
40
0.9963191
50
269.916016
51
311.6459452
0
ARC
8
DEFAULT_255_2_778
10
42.8223163
20
10.755154
40
0.9976339
50
311.5035703
51
358.2692494
0
ARC
8
DEFAULT_255_2_778
10
42.8012159
20
10.7562987
40
1.0187593
50
358.2407389
51
0.0005447
0
ARC
8
DEFAULT_255_2_778
10
42.81988
20
78.7561555
40
1.000095
50
359.9973023
51
44.9982952
0
ARC
8
DEFAULT_255_2_778
10
42.8198921
20
78.756041
40
1.0001674
50
45.0034224
51
90.0009797
0
ARC
8
DEFAULT_255_2_778
10
42.8200021
20
78.7556929
40
1.0005155
50
90.0072757
51
134.9883214
0
ARC
8
DEFAULT_255_2_778
10
42.8202901
20
78.7559814
40
1.0005151
50
135.0116647
51
179.9927292
0
LINE
8
DEFAULT_255_2_778
10
43.819975
20
10.7563084
11
43.819975
21
78.7561084
0
LINE
8
DEFAULT_255_2_778
10
41.819775
20
78.7561084
11
41.819775
21
10.7563084
0
ARC
8
DEFAULT_255_2_778
10
47.5195766
20
34.0561494
40
0.3001307
50
270.0058576
51
359.975051
0
ARC
8
DEFAULT_255_2_778
10
46.1198167
20
34.0561282
40
0.3001094
50
180.0208901
51
269.9791099
0
LINE
8
DEFAULT_255_2_778
10
47.5196073
20
33.7560187
11
46.1197073
21
33.7560187
0
ARC
8
DEFAULT_255_2_778
10
47.5195765
20
29.4560879
40
0.3001308
50
0.024976
51
89.9941233
0
ARC
8
DEFAULT_255_2_778
10
46.1198167
20
29.4561093
40
0.3001094
50
90.0208901
51
179.9791099
0
LINE
8
DEFAULT_255_2_778
10
47.5196073
20
29.7562187
11
46.1197073
21
29.7562187
0
ARC
8
DEFAULT_255_2_778
10
47.5195766
20
60.0562494
40
0.3001307
50
270.0058576
51
359.975051
0
ARC
8
DEFAULT_255_2_778
10
46.1198167
20
60.0562282
40
0.3001094
50
180.0208901
51
269.9791099
0
LINE
8
DEFAULT_255_2_778
10
47.5196073
20
59.7561187
11
46.1197073
21
59.7561187
0
ARC
8
DEFAULT_255_2_778
10
47.5195765
20
55.4559879
40
0.3001308
50
0.024976
51
89.9941233
0
ARC
8
DEFAULT_255_2_778
10
46.1198167
20
55.4560093
40
0.3001094
50
90.0208901
51
179.9791099
0
LINE
8
DEFAULT_255_2_778
10
47.5196073
20
55.7561187
11
46.1197073
21
55.7561187
0
ARC
8
DEFAULT_255_2_778
10
46.8160966
20
10.7548894
40
0.9963226
50
179.9183951
51
221.6458612
0
ARC
8
DEFAULT_255_2_778
10
46.8187587
20
10.7538699
40
0.9976376
50
221.5005114
51
268.267068
0
ARC
8
DEFAULT_255_2_778
10
46.8198653
20
10.7749676
40
1.0187592
50
268.2407388
51
270.0005446
0
ARC
8
DEFAULT_255_2_778
10
46.8213354
20
10.7525265
40
0.9963191
50
269.916016
51
311.6459452
0
ARC
8
DEFAULT_255_2_778
10
46.8223163
20
10.755154
40
0.9976339
50
311.5035703
51
358.2692494
0
ARC
8
DEFAULT_255_2_778
10
46.8012159
20
10.7562987
40
1.0187593
50
358.2407389
51
0.0005447
0
ARC
8
DEFAULT_255_2_778
10
46.81988
20
78.7561555
40
1.000095
50
359.9973023
51
44.9982952
0
ARC
8
DEFAULT_255_2_778
10
46.8198921
20
78.756041
40
1.0001674
50
45.0034224
51
90.0009797
0
ARC
8
DEFAULT_255_2_778
10
46.8200021
20
78.7556929
40
1.0005155
50
90.0072757
51
134.9883214
0
ARC
8
DEFAULT_255_2_778
10
46.8202901
20
78.7559814
40
1.0005151
50
135.0116647
51
179.9927292
0
LINE
8
DEFAULT_255_2_778
10
47.819975
20
10.7563084
11
47.819975
21
78.7561084
0
LINE
8
DEFAULT_255_2_778
10
45.819775
20
78.7561084
11
45.819775
21
10.7563084
0
ARC
8
DEFAULT_255_2_778
10
11.3199782
20
53.0560383
40
0.5000969
50
89.9996485
51
180.0003515
0
ARC
8
DEFAULT_255_2_778
10
11.3199782
20
24.5559321
40
0.5000969
50
179.9996485
51
270.0003515
0
ARC
8
DEFAULT_255_2_778
10
13.8185577
20
0.7525159
40
0.9962817
50
228.352397
51
270.0818679
0
ARC
8
DEFAULT_255_2_778
10
13.817662
20
0.7552809
40
0.9977557
50
181.7308645
51
228.4963478
0
ARC
8
DEFAULT_255_2_778
10
13.839005
20
0.7564255
40
1.0191238
50
179.9994553
51
181.7589451
0
ARC
8
DEFAULT_255_2_778
10
13.8199763
20
88.7560823
40
1.000095
50
135.0017048
51
180.0026977
0
ARC
8
DEFAULT_255_2_778
10
13.8201085
20
88.7556193
40
1.0005159
50
90.0072863
51
134.9883116
0
LINE
8
DEFAULT_255_2_778
10
72.8199813
20
51.7561352
11
72.8199813
21
79.7562352
0
LINE
8
DEFAULT_255_2_778
10
72.8199813
20
79.7562352
11
59.8198813
21
79.7562352
0
LINE
8
DEFAULT_255_2_778
10
59.8198813
20
79.7562352
11
59.8198813
21
77.7562352
0
LINE
8
DEFAULT_255_2_778
10
59.8198813
20
77.7562352
11
55.8199813
21
77.7562352
0
LINE
8
DEFAULT_255_2_778
10
55.8199813
20
77.7562352
11
55.8199813
21
70.7561352
0
LINE
8
DEFAULT_255_2_778
10
55.8199813
20
70.7561352
11
53.8199813
21
70.7561352
0
LINE
8
DEFAULT_255_2_778
10
53.8199813
20
70.7561352
11
53.8199813
21
60.7562352
0
LINE
8
DEFAULT_255_2_778
10
53.8199813
20
60.7562352
11
55.8199813
21
60.7562352
0
LINE
8
DEFAULT_255_2_778
10
55.8199813
20
60.7562352
11
55.8199813
21
53.7561352
0
LINE
8
DEFAULT_255_2_778
10
55.8199813
20
53.7561352
11
59.8198813
21
53.7561352
0
LINE
8
DEFAULT_255_2_778
10
59.8198813
20
53.7561352
11
59.8198813
21
51.7561352
0
LINE
8
DEFAULT_255_2_778
10
59.8198813
20
51.7561352
11
72.8199813
21
51.7561352
0
LINE
8
DEFAULT_255_2_778
10
56.8200813
20
76.7561352
11
56.8200813
21
54.7560352
0
LINE
8
DEFAULT_255_2_778
10
56.8200813
20
54.7560352
11
60.8200813
21
54.7560352
0
LINE
8
DEFAULT_255_2_778
10
60.8200813
20
54.7560352
11
60.8200813
21
52.7560352
0
LINE
8
DEFAULT_255_2_778
10
60.8200813
20
52.7560352
11
71.8200813
21
52.7560352
0
LINE
8
DEFAULT_255_2_778
10
71.8200813
20
52.7560352
11
71.8200813
21
78.7560352
0
LINE
8
DEFAULT_255_2_778
10
71.8200813
20
78.7560352
11
60.8200813
21
78.7560352
0
LINE
8
DEFAULT_255_2_778
10
60.8200813
20
78.7560352
11
60.8200813
21
76.7561352
0
LINE
8
DEFAULT_255_2_778
10
60.8200813
20
76.7561352
11
56.8200813
21
76.7561352
0
LINE
8
DEFAULT_255_2_778
10
37.8197813
20
89.7561352
11
37.8197813
21
-0.2437648
0
LINE
8
DEFAULT_255_2_778
10
12.8198813
20
53.5561352
11
11.3199813
21
53.5561352
0
LINE
8
DEFAULT_255_2_778
10
10.8198813
20
53.0560352
11
10.8198813
21
24.5559352
0
LINE
8
DEFAULT_255_2_778
10
11.3199813
20
24.0558352
11
12.8198813
21
24.0558352
0
LINE
8
DEFAULT_255_2_778
10
17.8199813
20
89.7561352
11
17.8199813
21
54.7562352
0
LINE
8
DEFAULT_255_2_778
10
17.8199813
20
54.7562352
11
12.8198813
21
54.7562352
0
LINE
8
DEFAULT_255_2_778
10
86.8198813
20
-0.2437648
11
13.8199813
21
-0.2437648
0
LINE
8
DEFAULT_255_2_778
10
12.8198813
20
0.7564352
11
12.8198813
21
88.7560352
0
LINE
8
DEFAULT_255_2_778
10
13.8199813
20
89.7561352
11
86.8200813
21
89.7561352
0
LINE
8
DEFAULT_255_2_778
10
86.8200813
20
89.7561352
11
86.8200813
21
62.7562352
0
LINE
8
DEFAULT_255_2_778
10
86.8200813
20
62.7562352
11
83.8199813
21
62.7562352
0
LINE
8
DEFAULT_255_2_778
10
83.8199813
20
62.7562352
11
83.8199813
21
26.7562352
0
LINE
8
DEFAULT_255_2_778
10
83.8199813
20
26.7562352
11
85.3199813
21
26.7562352
0
LINE
8
DEFAULT_255_2_778
10
85.3199813
20
26.7562352
11
86.8198813
21
24.7562352
0
LINE
8
DEFAULT_255_2_778
10
86.8198813
20
24.7562352
11
86.8198813
21
-0.2167648
0
ENDSEC
0
EOF