0
SECTION
2
HEADER
9
$MEASUREMENT
70
1
0
ENDSEC
0
SECTION
2
TABLES
0
TABLE
2
LTYPE
0
LTYPE
72
65
70
64
2
CONTINUOUS
3
______
73
0
40
0
0
ENDTAB
0
TABLE
2
LAYER
0
LAYER
2
DEFAULT_255_2_778
70
0
62
255
6
CONTINUOUS
0
ENDTAB
0
ENDSEC
0
SECTION
2
ENTITIES
0
LINE
8
DEFAULT_255_2_778
10
17.7958991
20
69.6563304
11
13.1958991
21
69.6563304
0
LINE
8
DEFAULT_255_2_778
10
13.1958991
20
9.4564304
11
13.1958991
21
7.8565304
0
LINE
8
DEFAULT_255_2_778
10
13.1958991
20
7.8565304
11
17.7958991
21
7.8565304
0
LINE
8
DEFAULT_255_2_778
10
11.8959991
20
7.7565304
11
11.8959991
21
9.1564304
0
LINE
8
DEFAULT_255_2_778
10
17.7955991
20
7.5564304
11
17.5955991
21
7.7565304
0
LINE
8
DEFAULT_255_2_778
10
17.5955991
20
7.7565304
11
5.5956991
21
7.7565304
0
LINE
8
DEFAULT_255_2_778
10
5.5956991
20
7.7565304
11
5.5956991
21
9.1564304
0
LINE
8
DEFAULT_255_2_778
10
17.7958991
20
69.9563304
11
17.5958991
21
69.7563304
0
LINE
8
DEFAULT_255_2_778
10
17.5958991
20
69.7563304
11
13.1958991
21
69.7563304
0
LINE
8
DEFAULT_255_2_778
10
13.1958991
20
69.7563304
11
13.1958991
21
50.0464304
0
LINE
8
DEFAULT_255_2_778
10
15.7959
20
7.7565062
11
15.7959
21
7.8565062
0
ARC
8
DEFAULT_255_2_778
10
9.3457961
20
51.5717211
40
0.0999086
50
179.9475899
51
270.0524387
0
ARC
8
DEFAULT_255_2_778
10
9.345979
20
51.5717209
40
0.0999085
50
269.9475208
51
0.0525079
0
ARC
8
DEFAULT_255_2_778
10
9.3459789
20
51.5719039
40
0.0999087
50
359.9475815
51
90.0524017
0
ARC
8
DEFAULT_255_2_778
10
9.3457959
20
51.571904
40
0.0999086
50
89.9474433
51
180.052459
0
LINE
8
DEFAULT_255_2_778
10
4.7458335
20
9.4564713
11
4.7458335
21
9.1564713
0
LINE
8
DEFAULT_255_2_778
10
4.7458335
20
9.1564713
11
11.9959335
21
9.1564713
0
LINE
8
DEFAULT_255_2_778
10
11.9959335
20
9.1564713
11
11.9959335
21
9.4564713
0
LINE
8
DEFAULT_255_2_778
10
4.7458335
20
48.3465713
11
4.7458335
21
48.6465713
0
LINE
8
DEFAULT_255_2_778
10
4.7458335
20
48.6465713
11
11.9959335
21
48.6465713
0
LINE
8
DEFAULT_255_2_778
10
11.9959335
20
48.6465713
11
11.9959335
21
48.3465713
0
LINE
8
DEFAULT_255_2_778
10
5.5956335
20
48.6465713
11
5.5956335
21
50.0464713
0
LINE
8
DEFAULT_255_2_778
10
5.5956335
20
50.0464713
11
13.1955335
21
50.0464713
0
LINE
8
DEFAULT_255_2_778
10
13.1955335
20
50.0464713
11
13.1955335
21
48.3465713
0
LINE
8
DEFAULT_255_2_778
10
11.9959335
20
8.2563713
11
11.9959335
21
9.1564713
0
LINE
8
DEFAULT_255_2_778
10
11.9959335
20
48.6465713
11
11.9959335
21
50.0464713
0
LINE
8
DEFAULT_255_2_778
10
3.5694781
20
70.7088219
11
3.8647781
21
70.1378219
0
LINE
8
DEFAULT_255_2_778
10
3.8647781
20
70.1378219
11
4.1616781
21
70.7088219
0
LINE
8
DEFAULT_255_2_778
10
4.1616781
20
70.7088219
11
4.3319781
21
70.7088219
0
LINE
8
DEFAULT_255_2_778
10
4.3319781
20
70.7088219
11
3.9398781
21
69.9955219
0
LINE
8
DEFAULT_255_2_778
10
3.9398781
20
69.9955219
11
3.9398781
21
69.5714219
0
LINE
8
DEFAULT_255_2_778
10
3.9398781
20
69.5714219
11
3.7898781
21
69.5714219
0
LINE
8
DEFAULT_255_2_778
10
3.7898781
20
69.5714219
11
3.7898781
21
69.9955219
0
LINE
8
DEFAULT_255_2_778
10
3.7898781
20
69.9955219
11
3.3977781
21
70.7088219
0
LINE
8
DEFAULT_255_2_778
10
3.3977781
20
70.7088219
11
3.5697781
21
70.7088219
0
LINE
8
DEFAULT_255_2_778
10
3.5697781
20
70.7088219
11
3.5694781
21
70.7088219
0
LINE
8
DEFAULT_255_2_778
10
5.051399
20
70.7088219
11
5.051399
21
69.9534219
0
LINE
8
DEFAULT_255_2_778
10
5.051399
20
69.9534219
11
5.209099
21
69.9534219
0
LINE
8
DEFAULT_255_2_778
10
5.209099
20
69.9534219
11
5.209099
21
69.8354219
0
LINE
8
DEFAULT_255_2_778
10
5.209099
20
69.8354219
11
5.051399
21
69.8354219
0
LINE
8
DEFAULT_255_2_778
10
5.051399
20
69.8354219
11
5.051399
21
69.5714219
0
LINE
8
DEFAULT_255_2_778
10
5.051399
20
69.5714219
11
4.906199
21
69.5714219
0
LINE
8
DEFAULT_255_2_778
10
4.906199
20
69.5714219
11
4.906199
21
69.8354219
0
LINE
8
DEFAULT_255_2_778
10
4.906199
20
69.8354219
11
4.388099
21
69.8354219
0
LINE
8
DEFAULT_255_2_778
10
4.388099
20
69.8354219
11
4.388099
21
69.9206219
0
LINE
8
DEFAULT_255_2_778
10
4.388099
20
69.9206219
11
4.897399
21
70.7088219
0
LINE
8
DEFAULT_255_2_778
10
4.897399
20
70.7088219
11
5.051399
21
70.7088219
0
LINE
8
DEFAULT_255_2_778
10
5.051399
20
70.7088219
11
5.051399
21
70.7088219
0
LINE
8
DEFAULT_255_2_778
10
4.888999
20
70.4799219
11
4.552099
21
69.9534219
0
LINE
8
DEFAULT_255_2_778
10
4.552099
20
69.9534219
11
4.906199
21
69.9534219
0
LINE
8
DEFAULT_255_2_778
10
4.906199
20
69.9534219
11
4.906199
21
70.5112219
0
LINE
8
DEFAULT_255_2_778
10
4.906199
20
70.5112219
11
4.888999
21
70.4799219
0
LINE
8
DEFAULT_255_2_778
10
4.888999
20
70.4799219
11
4.888999
21
70.4799219
0
LINE
8
DEFAULT_255_2_778
10
5.8575563
20
70.7088375
11
5.3834563
21
69.4737375
0
LINE
8
DEFAULT_255_2_778
10
5.3834563
20
69.4737375
11
5.2593563
21
69.4737375
0
LINE
8
DEFAULT_255_2_778
10
5.2593563
20
69.4737375
11
5.7342563
21
70.7088375
0
LINE
8
DEFAULT_255_2_778
10
5.7342563
20
70.7088375
11
5.8578563
21
70.7088375
0
LINE
8
DEFAULT_255_2_778
10
5.8578563
20
70.7088375
11
5.8575563
21
70.7088375
0
ARC
8
DEFAULT_255_2_778
10
6.532645
20
70.1866217
40
0.4002284
50
88.9951929
51
124.1200081
0
ARC
8
DEFAULT_255_2_778
10
6.5003204
20
70.2502012
40
0.3295816
50
125.667951
51
134.1234459
0
ARC
8
DEFAULT_255_2_778
10
6.5524045
20
70.2102139
40
0.3946629
50
135.5098198
51
173.1807264
0
ARC
8
DEFAULT_255_2_778
10
6.7885096
20
70.1584041
40
0.6356808
50
171.0703594
51
174.9836033
0
ARC
8
DEFAULT_255_2_778
10
6.3859202
20
70.0088634
40
0.3086727
50
87.280888
51
138.3530014
0
ARC
8
DEFAULT_255_2_778
10
6.4120685
20
70.0228245
40
0.2945888
50
40.0523262
51
92.2382114
0
ARC
8
DEFAULT_255_2_778
10
6.3278396
20
69.9618799
40
0.3983509
50
358.9874834
51
38.9663613
0
ARC
8
DEFAULT_255_2_778
10
6.1214632
20
69.9420437
40
0.6048004
50
359.9947758
51
1.2124229
0
ARC
8
DEFAULT_255_2_778
10
6.2917973
20
69.928218
40
0.4346844
50
330.4946426
51
1.8154021
0
ARC
8
DEFAULT_255_2_778
10
6.3789474
20
69.8891068
40
0.3396906
50
317.7678422
51
328.9961641
0
ARC
8
DEFAULT_255_2_778
10
6.38838
20
69.8844601
40
0.3295958
50
267.4582929
51
317.2638032
0
ARC
8
DEFAULT_255_2_778
10
6.3653897
20
69.8797874
40
0.3247069
50
217.841048
51
271.477762
0
ARC
8
DEFAULT_255_2_778
10
6.4856645
20
69.9735224
40
0.4771938
50
181.6448628
51
217.8697043
0
ARC
8
DEFAULT_255_2_778
10
6.7310844
20
70.0032492
40
0.723721
50
179.9652211
51
183.4398956
0
ARC
8
DEFAULT_255_2_778
10
7.0816474
20
70.0718709
40
1.0743576
50
167.2173433
51
180.6710367
0
ARC
8
DEFAULT_255_2_778
10
6.5939908
20
70.1876324
40
0.573196
50
142.1696026
51
167.7168281
0
ARC
8
DEFAULT_255_2_778
10
6.4927852
20
70.2477606
40
0.4566154
50
95.9735501
51
140.339679
0
ARC
8
DEFAULT_255_2_778
10
6.5492235
20
69.9600929
40
0.7490529
50
90.7083194
51
97.977598
0
ARC
8
DEFAULT_255_2_778
10
6.3757946
20
69.9662037
40
0.2308858
50
89.8339952
51
126.1288642
0
ARC
8
DEFAULT_255_2_778
10
6.3716895
20
69.9605183
40
0.2331528
50
124.4900713
51
159.8096942
0
ARC
8
DEFAULT_255_2_778
10
6.5565663
20
69.9747936
40
0.4039119
50
178.156321
51
206.3597131
0
ARC
8
DEFAULT_255_2_778
10
6.4426059
20
69.9277206
40
0.2810262
50
208.0767452
51
216.3153845
0
ARC
8
DEFAULT_255_2_778
10
6.3747872
20
69.86457
40
0.1892842
50
213.0685544
51
269.6901508
0
ARC
8
DEFAULT_255_2_778
10
6.3813955
20
69.8586444
40
0.1835147
50
267.6165249
51
322.641831
0
ARC
8
DEFAULT_255_2_778
10
6.2845302
20
69.9216275
40
0.2988537
50
324.3128744
51
2.6531357
0
LINE
8
DEFAULT_255_2_778
10
6.5830635
20
69.9354612
11
6.5830636
21
69.9356885
0
ARC
8
DEFAULT_255_2_778
10
6.284369
20
69.949668
40
0.2990215
50
357.3203954
51
35.6523885
0
ARC
8
DEFAULT_255_2_778
10
6.3491602
20
69.9860684
40
0.2253066
50
37.734775
51
38.0993138
0
ARC
8
DEFAULT_255_2_778
10
6.3814991
20
70.0161056
40
0.1813614
50
36.9355088
51
91.6858531
0
LINE
8
DEFAULT_255_2_778
10
6.5404636
20
70.7095885
11
6.5661636
21
70.7095885
0
LINE
8
DEFAULT_255_2_778
10
6.5661636
20
70.7095885
11
6.5661636
21
70.5867885
0
LINE
8
DEFAULT_255_2_778
10
6.5661636
20
70.5867885
11
6.5396636
21
70.5867885
0
LINE
8
DEFAULT_255_2_778
10
6.0073636
20
70.0036885
11
6.0073636
21
70.0592885
0
LINE
8
DEFAULT_255_2_778
10
6.5399636
20
70.7090885
11
6.5404636
21
70.7095885
0
LINE
8
DEFAULT_255_2_778
10
6.1528636
20
70.0409885
11
6.1528636
21
69.9877885
0
LINE
8
DEFAULT_255_2_778
10
6.3761636
20
70.1973885
11
6.3764636
21
70.1970885
0
LINE
8
DEFAULT_255_2_778
10
7.8088781
20
70.7088219
11
8.1041781
21
70.1378219
0
LINE
8
DEFAULT_255_2_778
10
8.1041781
20
70.1378219
11
8.4010781
21
70.7088219
0
LINE
8
DEFAULT_255_2_778
10
8.4010781
20
70.7088219
11
8.5713781
21
70.7088219
0
LINE
8
DEFAULT_255_2_778
10
8.5713781
20
70.7088219
11
8.1792781
21
69.9955219
0
LINE
8
DEFAULT_255_2_778
10
8.1792781
20
69.9955219
11
8.1792781
21
69.5714219
0
LINE
8
DEFAULT_255_2_778
10
8.1792781
20
69.5714219
11
8.0292781
21
69.5714219
0
LINE
8
DEFAULT_255_2_778
10
8.0292781
20
69.5714219
11
8.0292781
21
69.9955219
0
LINE
8
DEFAULT_255_2_778
10
8.0292781
20
69.9955219
11
7.6371781
21
70.7088219
0
LINE
8
DEFAULT_255_2_778
10
7.6371781
20
70.7088219
11
7.8091781
21
70.7088219
0
LINE
8
DEFAULT_255_2_778
10
7.8091781
20
70.7088219
11
7.8088781
21
70.7088219
0
ARC
8
DEFAULT_255_2_778
10
9.0772508
20
69.9465275
40
0.3678506
50
89.0452551
51
119.9901635
0
ARC
8
DEFAULT_255_2_778
10
9.0978385
20
70.0009512
40
0.3137092
50
42.1879038
51
92.64159
0
ARC
8
DEFAULT_255_2_778
10
9.038764
20
69.9657035
40
0.3813923
50
1.8159444
51
40.1510289
0
ARC
8
DEFAULT_255_2_778
10
8.7997142
20
69.9344019
40
0.6217662
50
359.9470322
51
4.0014178
0
ARC
8
DEFAULT_255_2_778
10
8.9880707
20
69.9204145
40
0.433617
50
332.431674
51
1.7725398
0
ARC
8
DEFAULT_255_2_778
10
9.0933478
20
69.8750915
40
0.3194318
50
316.8987707
51
330.8986394
0
ARC
8
DEFAULT_255_2_778
10
9.0865414
20
69.8928888
40
0.3366657
50
269.7279463
51
315.4786078
0
ARC
8
DEFAULT_255_2_778
10
9.0615554
20
70.1031379
40
0.5474109
50
269.9816654
51
272.4486339
0
ARC
8
DEFAULT_255_2_778
10
9.0461346
20
69.9142745
40
0.3588714
50
229.9840991
51
272.4347833
0
ARC
8
DEFAULT_255_2_778
10
9.0398871
20
69.8858451
40
0.3333544
50
182.6165266
51
227.6639266
0
ARC
8
DEFAULT_255_2_778
10
9.0725884
20
69.8885819
40
0.2296112
50
184.4849263
51
226.0669866
0
ARC
8
DEFAULT_255_2_778
10
9.0513576
20
69.8904178
40
0.2168365
50
230.4478069
51
272.7286325
0
ARC
8
DEFAULT_255_2_778
10
9.0710974
20
69.8686403
40
0.1950407
50
267.2325065
51
319.7142911
0
ARC
8
DEFAULT_255_2_778
10
9.0025077
20
69.9097764
40
0.2742684
50
322.4248308
51
0.1015646
0
ARC
8
DEFAULT_255_2_778
10
8.7954812
20
69.9323086
40
0.4817992
50
357.3773607
51
0.0259752
0
ARC
8
DEFAULT_255_2_778
10
9.0140129
20
69.9453185
40
0.2635779
50
357.2183479
51
40.2513038
0
ARC
8
DEFAULT_255_2_778
10
9.0585509
20
69.9732175
40
0.2116914
50
42.2775552
51
92.3745308
0
ARC
8
DEFAULT_255_2_778
10
9.0368599
20
69.9423132
40
0.2427579
50
86.9491068
51
122.8381089
0
ARC
8
DEFAULT_255_2_778
10
8.9991916
20
70.0157793
40
0.1608136
50
125.757045
51
127.4615075
0
LINE
8
DEFAULT_255_2_778
10
8.8627802
20
70.1119271
11
8.7470802
21
70.1415271
0
LINE
8
DEFAULT_255_2_778
10
8.7470802
20
70.1415271
11
8.8050802
21
70.7088271
0
LINE
8
DEFAULT_255_2_778
10
8.8050802
20
70.7088271
11
9.3878802
21
70.7088271
0
LINE
8
DEFAULT_255_2_778
10
9.3878802
20
70.7088271
11
9.3878802
21
70.5752271
0
LINE
8
DEFAULT_255_2_778
10
9.3878802
20
70.5752271
11
8.9277802
21
70.5752271
0
LINE
8
DEFAULT_255_2_778
10
8.9277802
20
70.5752271
11
8.8933802
21
70.2651271
0
LINE
8
DEFAULT_255_2_778
10
8.7068802
20
69.8706271
11
8.8436802
21
69.8706271
0
LINE
8
DEFAULT_255_2_778
10
8.9013802
20
70.1434271
11
8.8629802
21
70.1122271
0
LINE
8
DEFAULT_255_2_778
10
8.8629802
20
70.1122271
11
8.8627802
21
70.1119271
0
LINE
8
DEFAULT_255_2_778
10
10.0969563
20
70.7088375
11
9.6228563
21
69.4737375
0
LINE
8
DEFAULT_255_2_778
10
9.6228563
20
69.4737375
11
9.4987563
21
69.4737375
0
LINE
8
DEFAULT_255_2_778
10
9.4987563
20
69.4737375
11
9.9736563
21
70.7088375
0
LINE
8
DEFAULT_255_2_778
10
9.9736563
20
70.7088375
11
10.0972563
21
70.7088375
0
LINE
8
DEFAULT_255_2_778
10
10.0972563
20
70.7088375
11
10.0969563
21
70.7088375
0
LINE
8
DEFAULT_255_2_778
10
10.9730604
20
70.7088219
11
10.9730604
21
70.6276219
0
LINE
8
DEFAULT_255_2_778
10
10.9730604
20
70.6276219
11
10.5018604
21
69.5714219
0
LINE
8
DEFAULT_255_2_778
10
10.5018604
20
69.5714219
11
10.3501604
21
69.5714219
0
LINE
8
DEFAULT_255_2_778
10
10.3501604
20
69.5714219
11
10.8198604
21
70.5900219
0
LINE
8
DEFAULT_255_2_778
10
10.8198604
20
70.5900219
11
10.2041604
21
70.5900219
0
LINE
8
DEFAULT_255_2_778
10
10.2041604
20
70.5900219
11
10.2041604
21
70.7088219
0
LINE
8
DEFAULT_255_2_778
10
10.2041604
20
70.7088219
11
10.9730604
21
70.7088219
0
LINE
8
DEFAULT_255_2_778
10
10.9730604
20
70.7088219
11
10.9730604
21
70.7088219
0
LINE
8
DEFAULT_255_2_778
10
7.8088781
20
74.6090219
11
8.1041781
21
74.0380219
0
LINE
8
DEFAULT_255_2_778
10
8.1041781
20
74.0380219
11
8.4010781
21
74.6090219
0
LINE
8
DEFAULT_255_2_778
10
8.4010781
20
74.6090219
11
8.5713781
21
74.6090219
0
LINE
8
DEFAULT_255_2_778
10
8.5713781
20
74.6090219
11
8.1792781
21
73.8957219
0
LINE
8
DEFAULT_255_2_778
10
8.1792781
20
73.8957219
11
8.1792781
21
73.4716219
0
LINE
8
DEFAULT_255_2_778
10
8.1792781
20
73.4716219
11
8.0292781
21
73.4716219
0
LINE
8
DEFAULT_255_2_778
10
8.0292781
20
73.4716219
11
8.0292781
21
73.8957219
0
LINE
8
DEFAULT_255_2_778
10
8.0292781
20
73.8957219
11
7.6371781
21
74.6090219
0
LINE
8
DEFAULT_255_2_778
10
7.6371781
20
74.6090219
11
7.8091781
21
74.6090219
0
LINE
8
DEFAULT_255_2_778
10
7.8091781
20
74.6090219
11
7.8088781
21
74.6090219
0
LINE
8
DEFAULT_255_2_778
10
9.1559865
20
74.6146
11
9.1559865
21
73.4716
0
LINE
8
DEFAULT_255_2_778
10
9.1559865
20
73.4716
11
9.0106865
21
73.4716
0
LINE
8
DEFAULT_255_2_778
10
9.0106865
20
73.4716
11
9.0106865
21
74.4349
0
LINE
8
DEFAULT_255_2_778
10
9.0106865
20
74.4349
11
8.7193865
21
74.3278
0
LINE
8
DEFAULT_255_2_778
10
8.7193865
20
74.3278
11
8.7193865
21
74.459
0
LINE
8
DEFAULT_255_2_778
10
8.7193865
20
74.459
11
9.1334865
21
74.6146
0
LINE
8
DEFAULT_255_2_778
10
9.1334865
20
74.6146
11
9.1561865
21
74.6146
0
LINE
8
DEFAULT_255_2_778
10
9.1561865
20
74.6146
11
9.1559865
21
74.6146
0
LINE
8
DEFAULT_255_2_778
10
10.0969563
20
74.6090375
11
9.6228563
21
73.3739375
0
LINE
8
DEFAULT_255_2_778
10
9.6228563
20
73.3739375
11
9.4987563
21
73.3739375
0
LINE
8
DEFAULT_255_2_778
10
9.4987563
20
73.3739375
11
9.9736563
21
74.6090375
0
LINE
8
DEFAULT_255_2_778
10
9.9736563
20
74.6090375
11
10.0972563
21
74.6090375
0
LINE
8
DEFAULT_255_2_778
10
10.0972563
20
74.6090375
11
10.0969563
21
74.6090375
0
ARC
8
DEFAULT_255_2_778
10
10.5666828
20
74.3487382
40
0.2383662
50
267.6972384
51
309.4075215
0
ARC
8
DEFAULT_255_2_778
10
10.5962196
20
74.2976177
40
0.1803742
50
312.4683604
51
2.6205322
0
ARC
8
DEFAULT_255_2_778
10
10.5584229
20
74.3187498
40
0.2183628
50
356.6171168
51
34.5482712
0
ARC
8
DEFAULT_255_2_778
10
10.6015236
20
74.3249892
40
0.1803605
50
40.6921951
51
91.2272563
0
ARC
8
DEFAULT_255_2_778
10
10.5774747
20
74.1393524
40
0.3665123
50
86.8427952
51
90.0421275
0
ARC
8
DEFAULT_255_2_778
10
10.5668357
20
74.2989232
40
0.207201
50
87.1314037
51
132.1811
0
ARC
8
DEFAULT_255_2_778
10
10.5592205
20
74.318827
40
0.1874974
50
134.5414
51
182.5256546
0
ARC
8
DEFAULT_255_2_778
10
10.5174676
20
74.3169258
40
0.2901321
50
131.1882945
51
181.2563306
0
ARC
8
DEFAULT_255_2_778
10
10.564201
20
74.2646969
40
0.3602134
50
87.8833476
51
131.3115136
0
ARC
8
DEFAULT_255_2_778
10
10.5909311
20
74.2302491
40
0.3946439
50
61.5512999
51
91.9495962
0
ARC
8
DEFAULT_255_2_778
10
10.6354393
20
74.3303042
40
0.2855962
50
47.0849935
51
59.839794
0
ARC
8
DEFAULT_255_2_778
10
10.6170181
20
74.3220829
40
0.3042625
50
358.1150128
51
45.5984869
0
ARC
8
DEFAULT_255_2_778
10
10.4281664
20
74.3027069
40
0.4930387
50
359.9950806
51
1.0886956
0
ARC
8
DEFAULT_255_2_778
10
10.6725414
20
74.306138
40
0.248688
50
323.7152022
51
359.1997274
0
ARC
8
DEFAULT_255_2_778
10
10.6346677
20
74.324933
40
0.2904312
50
291.6897145
51
325.1482478
0
ARC
8
DEFAULT_255_2_778
10
10.6649649
20
73.7856791
40
0.2801852
50
37.5824056
51
74.0402478
0
ARC
8
DEFAULT_255_2_778
10
10.6643943
20
73.7970823
40
0.2738434
50
358.2175642
51
35.6184615
0
ARC
8
DEFAULT_255_2_778
10
10.6285084
20
73.7739885
40
0.3099397
50
312.5513077
51
2.6955407
0
ARC
8
DEFAULT_255_2_778
10
10.5953039
20
73.8278409
40
0.372258
50
268.1049399
51
310.7106628
0
ARC
8
DEFAULT_255_2_778
10
10.5780349
20
74.0197238
40
0.5639591
50
269.9969797
51
270.5037912
0
ARC
8
DEFAULT_255_2_778
10
10.5632804
20
73.8498849
40
0.3943953
50
235.0953409
51
272.1396436
0
ARC
8
DEFAULT_255_2_778
10
10.5355145
20
73.7950395
40
0.3336394
50
229.1767643
51
233.616205
0
ARC
8
DEFAULT_255_2_778
10
10.5045501
20
73.7609885
40
0.2876321
50
177.9326634
51
229.41014
0
ARC
8
DEFAULT_255_2_778
10
10.5478596
20
73.7631109
40
0.185638
50
177.4517345
51
226.809965
0
ARC
8
DEFAULT_255_2_778
10
10.5665147
20
73.7961278
40
0.2226599
50
229.1255351
51
272.9580981
0
ARC
8
DEFAULT_255_2_778
10
10.5914104
20
73.7991712
40
0.2258049
50
266.5965684
51
307.5930408
0
ARC
8
DEFAULT_255_2_778
10
10.6230043
20
73.744818
40
0.1636654
50
310.4383336
51
314.6899404
0
ARC
8
DEFAULT_255_2_778
10
10.5829117
20
73.7716534
40
0.2111589
50
317.303912
51
3.8045797
0
ARC
8
DEFAULT_255_2_778
10
10.6023165
20
73.797678
40
0.1916656
50
356.406403
51
47.0926663
0
ARC
8
DEFAULT_255_2_778
10
10.5782814
20
73.743306
40
0.2486132
50
51.5710886
51
89.2414068
0
ARC
8
DEFAULT_255_2_778
10
10.5509017
20
73.5260607
40
0.4668452
50
86.2330164
51
89.2386212
0
LINE
8
DEFAULT_255_2_778
10
10.4486052
20
73.9925646
11
10.4486052
21
74.1105646
0
LINE
8
DEFAULT_255_2_778
10
10.4486052
20
74.1105646
11
10.5571052
21
74.1105646
0
LINE
8
DEFAULT_255_2_778
10
10.3719052
20
74.3105646
11
10.2274052
21
74.3105646
0
LINE
8
DEFAULT_255_2_778
10
10.2171052
20
73.7713646
11
10.3624052
21
73.7713646
0
LINE
8
DEFAULT_255_2_778
10
10.5571052
20
73.9928646
11
10.4486052
21
73.9928646
0
LINE
8
DEFAULT_255_2_778
10
10.4486052
20
73.9928646
11
10.4486052
21
73.9925646
0
LINE
8
DEFAULT_255_2_778
10
3.5694781
20
74.6090219
11
3.8647781
21
74.0380219
0
LINE
8
DEFAULT_255_2_778
10
3.8647781
20
74.0380219
11
4.1616781
21
74.6090219
0
LINE
8
DEFAULT_255_2_778
10
4.1616781
20
74.6090219
11
4.3319781
21
74.6090219
0
LINE
8
DEFAULT_255_2_778
10
4.3319781
20
74.6090219
11
3.9398781
21
73.8957219
0
LINE
8
DEFAULT_255_2_778
10
3.9398781
20
73.8957219
11
3.9398781
21
73.4716219
0
LINE
8
DEFAULT_255_2_778
10
3.9398781
20
73.4716219
11
3.7898781
21
73.4716219
0
LINE
8
DEFAULT_255_2_778
10
3.7898781
20
73.4716219
11
3.7898781
21
73.8957219
0
LINE
8
DEFAULT_255_2_778
10
3.7898781
20
73.8957219
11
3.3977781
21
74.6090219
0
LINE
8
DEFAULT_255_2_778
10
3.3977781
20
74.6090219
11
3.5697781
21
74.6090219
0
LINE
8
DEFAULT_255_2_778
10
3.5697781
20
74.6090219
11
3.5694781
21
74.6090219
0
ARC
8
DEFAULT_255_2_778
10
4.1297144
20
73.9441395
40
1.0248887
50
348.9599816
51
0.6928247
0
ARC
8
DEFAULT_255_2_778
10
4.6907351
20
73.8288063
40
0.4522016
50
326.5019417
51
349.6906274
0
ARC
8
DEFAULT_255_2_778
10
4.826539
20
73.7547636
40
0.2983818
50
269.6746931
51
323.965112
0
ARC
8
DEFAULT_255_2_778
10
4.7969141
20
73.9730093
40
0.5173772
50
269.968335
51
273.0946457
0
ARC
8
DEFAULT_255_2_778
10
4.7828612
20
73.8067429
40
0.3513804
50
237.9683085
51
272.2453912
0
ARC
8
DEFAULT_255_2_778
10
4.7500914
20
73.7364844
40
0.2746015
50
215.677109
51
235.9891777
0
ARC
8
DEFAULT_255_2_778
10
4.905491
20
73.8351053
40
0.4584731
50
189.9758066
51
214.3622695
0
ARC
8
DEFAULT_255_2_778
10
5.4099447
20
73.940645
40
0.9737237
50
180.2184654
51
190.9500636
0
ARC
8
DEFAULT_255_2_778
10
5.4329118
20
74.142153
40
0.9967598
50
168.7512073
51
180.708238
0
ARC
8
DEFAULT_255_2_778
10
4.8900101
20
74.255662
40
0.4421787
50
146.0926208
51
169.4541479
0
ARC
8
DEFAULT_255_2_778
10
4.7628703
20
74.3249495
40
0.2983101
50
90.3434709
51
143.5140674
0
ARC
8
DEFAULT_255_2_778
10
4.794611
20
74.1023547
40
0.5219777
50
89.9542153
51
93.6829006
0
ARC
8
DEFAULT_255_2_778
10
4.8084123
20
74.2575714
40
0.367005
50
60.5898352
51
92.0899681
0
ARC
8
DEFAULT_255_2_778
10
4.8496781
20
74.3487224
40
0.2674822
50
36.2353857
51
58.7017609
0
ARC
8
DEFAULT_255_2_778
10
4.7087836
20
74.259683
40
0.4339102
50
10.2839172
51
34.72137
0
ARC
8
DEFAULT_255_2_778
10
4.170252
20
74.1456575
40
0.9842778
50
359.8937528
51
11.2183522
0
ARC
8
DEFAULT_255_2_778
10
4.183708
20
74.1664894
40
0.8265081
50
359.1641344
51
10.7645033
0
ARC
8
DEFAULT_255_2_778
10
4.6845033
20
74.2638677
40
0.3163447
50
10.3787531
51
29.9774528
0
ARC
8
DEFAULT_255_2_778
10
4.807399
20
74.3286505
40
0.1775993
50
31.6842263
51
93.9295413
0
ARC
8
DEFAULT_255_2_778
10
4.7831472
20
74.3311974
40
0.1750523
50
86.0426764
51
148.6647913
0
ARC
8
DEFAULT_255_2_778
10
4.9533553
20
74.2443909
40
0.3658593
50
150.9159356
51
173.3121892
0
ARC
8
DEFAULT_255_2_778
10
5.4594632
20
74.1632694
40
0.8782371
50
171.90102
51
179.8719443
0
ARC
8
DEFAULT_255_2_778
10
5.4011865
20
73.9222701
40
0.8200428
50
179.1781584
51
191.0324885
0
ARC
8
DEFAULT_255_2_778
10
4.9233995
20
73.8274544
40
0.3329455
50
190.7517404
51
209.8509498
0
ARC
8
DEFAULT_255_2_778
10
4.7877813
20
73.7509419
40
0.1772406
50
210.2202047
51
272.9258057
0
ARC
8
DEFAULT_255_2_778
10
4.8071686
20
73.7481385
40
0.1745129
50
266.603032
51
328.4138866
0
ARC
8
DEFAULT_255_2_778
10
4.646987
20
73.833522
40
0.3558615
50
330.2119154
51
352.7567583
0
ARC
8
DEFAULT_255_2_778
10
4.1192414
20
73.9226438
40
0.8909007
50
351.3500202
51
359.6776993
0
LINE
8
DEFAULT_255_2_778
10
5.1545281
20
74.1441323
11
5.1545281
21
73.9565323
0
LINE
8
DEFAULT_255_2_778
10
4.4362281
20
73.9369323
11
4.4362281
21
74.1298323
0
LINE
8
DEFAULT_255_2_778
10
5.1545281
20
74.1438323
11
5.1545281
21
74.1441323
0
LINE
8
DEFAULT_255_2_778
10
5.0101281
20
73.9176323
11
5.0101281
21
74.1544323
0
LINE
8
DEFAULT_255_2_778
10
4.5812281
20
74.1652323
11
4.5812281
21
73.9340323
0
LINE
8
DEFAULT_255_2_778
10
5.0101281
20
73.9176323
11
5.0101281
21
73.9176323
0
LINE
8
DEFAULT_255_2_778
10
5.8575563
20
74.6090375
11
5.3834563
21
73.3739375
0
LINE
8
DEFAULT_255_2_778
10
5.3834563
20
73.3739375
11
5.2593563
21
73.3739375
0
LINE
8
DEFAULT_255_2_778
10
5.2593563
20
73.3739375
11
5.7342563
21
74.6090375
0
LINE
8
DEFAULT_255_2_778
10
5.7342563
20
74.6090375
11
5.8578563
21
74.6090375
0
LINE
8
DEFAULT_255_2_778
10
5.8578563
20
74.6090375
11
5.8575563
21
74.6090375
0
ARC
8
DEFAULT_255_2_778
10
5.418463
20
74.8872593
40
1.3089815
50
318.1066296
51
324.2635474
0
ARC
8
DEFAULT_255_2_778
10
6.073427
20
74.4140792
40
0.5009772
50
324.4407366
51
331.4424834
0
ARC
8
DEFAULT_255_2_778
10
6.2761315
20
74.3042352
40
0.2704247
50
331.3532966
51
359.7788906
0
ARC
8
DEFAULT_255_2_778
10
6.3430911
20
74.3110192
40
0.2036136
50
357.7968401
51
42.7727786
0
ARC
8
DEFAULT_255_2_778
10
6.3572249
20
74.3180873
40
0.1884904
50
44.1133549
51
92.5452931
0
ARC
8
DEFAULT_255_2_778
10
6.3355051
20
74.2838881
40
0.2229036
50
86.5666508
51
133.7180238
0
ARC
8
DEFAULT_255_2_778
10
6.3554278
20
74.2882283
40
0.2341828
50
137.9787701
51
183.3872909
0
ARC
8
DEFAULT_255_2_778
10
6.3126676
20
74.2879672
40
0.3357879
50
134.2747268
51
182.3170464
0
ARC
8
DEFAULT_255_2_778
10
6.3264025
20
74.2577147
40
0.3672106
50
89.359196
51
132.5136406
0
ARC
8
DEFAULT_255_2_778
10
6.3487541
20
74.0503489
40
0.5748429
50
89.9900279
51
91.8188013
0
ARC
8
DEFAULT_255_2_778
10
6.3622413
20
74.2299043
40
0.395514
50
61.1951992
51
91.9396843
0
ARC
8
DEFAULT_255_2_778
10
6.4050353
20
74.3255174
40
0.2912383
50
48.0417413
51
59.508966
0
ARC
8
DEFAULT_255_2_778
10
6.4082159
20
74.3326856
40
0.2837919
50
357.5777809
51
47.5516517
0
ARC
8
DEFAULT_255_2_778
10
6.3085517
20
74.3334705
40
0.3834155
50
331.2594151
51
358.0900352
0
ARC
8
DEFAULT_255_2_778
10
5.8392583
20
74.5730194
40
0.9102146
50
319.7427535
51
332.2426664
0
ARC
8
DEFAULT_255_2_778
10
5.3500187
20
74.9628697
40
1.5356207
50
317.2552041
51
320.43833
0
LINE
8
DEFAULT_255_2_778
10
6.7444542
20
73.5895917
11
6.7444542
21
73.4715917
0
LINE
8
DEFAULT_255_2_778
10
6.7444542
20
73.4715917
11
5.9991542
21
73.4715917
0
LINE
8
DEFAULT_255_2_778
10
5.9991542
20
73.4715917
11
5.9991542
21
73.5755917
0
LINE
8
DEFAULT_255_2_778
10
5.9991542
20
73.5755917
11
6.3928542
21
74.0131917
0
LINE
8
DEFAULT_255_2_778
10
6.1216542
20
74.2743917
11
5.9771542
21
74.2743917
0
LINE
8
DEFAULT_255_2_778
10
6.4777542
20
73.9205917
11
6.1729542
21
73.5901917
0
LINE
8
DEFAULT_255_2_778
10
6.1729542
20
73.5901917
11
6.7439542
21
73.5901917
0
LINE
8
DEFAULT_255_2_778
10
6.7439542
20
73.5901917
11
6.7444542
21
73.5895917
0
ARC
8
DEFAULT_255_2_778
10
7.2625469
20
80.1370483
40
0.4935446
50
66.4314784
51
91.5085028
0
ARC
8
DEFAULT_255_2_778
10
7.3197252
20
80.2867401
40
0.3335603
50
48.1538184
51
65.1525502
0
ARC
8
DEFAULT_255_2_778
10
7.3249426
20
80.2957505
40
0.3233742
50
357.6909429
51
47.7773903
0
ARC
8
DEFAULT_255_2_778
10
7.3080944
20
80.2683856
40
0.3402619
50
324.435059
51
2.4147576
0
ARC
8
DEFAULT_255_2_778
10
7.3594374
20
80.2427152
40
0.2837082
50
310.7295976
51
322.6210909
0
ARC
8
DEFAULT_255_2_778
10
7.305153
20
80.3218505
40
0.3792421
50
275.9181466
51
309.1433088
0
ARC
8
DEFAULT_255_2_778
10
7.2508288
20
80.6327098
40
0.6943939
50
269.7628105
51
277.7322841
0
ARC
8
DEFAULT_255_2_778
10
7.2623284
20
80.3626377
40
0.3018863
50
267.5748161
51
298.2111292
0
ARC
8
DEFAULT_255_2_778
10
7.3087732
20
80.2595125
40
0.1892175
50
300.5803041
51
311.41989
0
ARC
8
DEFAULT_255_2_778
10
7.2913685
20
80.2678622
40
0.20713
50
313.5025989
51
3.7535188
0
ARC
8
DEFAULT_255_2_778
10
7.2846438
20
80.2911322
40
0.2136312
50
357.3948054
51
45.6598493
0
ARC
8
DEFAULT_255_2_778
10
7.2665535
20
80.2543529
40
0.2529019
50
48.553581
51
91.8579098
0
LINE
8
DEFAULT_255_2_778
10
7.2479542
20
79.9383219
11
6.9799542
21
79.9383219
0
LINE
8
DEFAULT_255_2_778
10
6.9799542
20
79.9383219
11
6.9799542
21
79.4930219
0
LINE
8
DEFAULT_255_2_778
10
6.9799542
20
79.4930219
11
6.8299542
21
79.4930219
0
LINE
8
DEFAULT_255_2_778
10
6.8299542
20
79.4930219
11
6.8299542
21
80.6304219
0
LINE
8
DEFAULT_255_2_778
10
6.8299542
20
80.6304219
11
7.2495542
21
80.6304219
0
LINE
8
DEFAULT_255_2_778
10
7.2479542
20
79.9383219
11
7.2479542
21
79.9383219
0
LINE
8
DEFAULT_255_2_778
10
6.9799542
20
80.5071219
11
6.9799542
21
80.0610219
0
LINE
8
DEFAULT_255_2_778
10
6.9799542
20
80.0610219
11
7.2495542
21
80.0610219
0
LINE
8
DEFAULT_255_2_778
10
7.2583542
20
80.5071219
11
6.9802542
21
80.5071219
0
LINE
8
DEFAULT_255_2_778
10
6.9802542
20
80.5071219
11
6.9799542
21
80.5071219
0
ARC
8
DEFAULT_255_2_778
10
7.9914699
20
80.0113987
40
0.722975
50
339.3697911
51
1.0567461
0
ARC
8
DEFAULT_255_2_778
10
8.1545783
20
79.9603295
40
0.5524174
50
335.692085
51
338.3663156
0
ARC
8
DEFAULT_255_2_778
10
8.2648556
20
79.9004145
40
0.4273523
50
303.1781879
51
336.9268085
0
ARC
8
DEFAULT_255_2_778
10
8.2677893
20
79.9150448
40
0.438117
50
268.7487088
51
301.8099033
0
ARC
8
DEFAULT_255_2_778
10
8.2504251
20
79.9113184
40
0.4343561
50
237.9331633
51
271.0285314
0
ARC
8
DEFAULT_255_2_778
10
8.2568773
20
79.9096495
40
0.4364136
50
204.0735741
51
237.0989544
0
ARC
8
DEFAULT_255_2_778
10
8.4746068
20
80.0077475
40
0.675221
50
179.407295
51
204.1373648
0
ARC
8
DEFAULT_255_2_778
10
8.4931388
20
80.1104776
40
0.693853
50
156.5646866
51
181.1351106
0
ARC
8
DEFAULT_255_2_778
10
8.2578049
20
80.2140817
40
0.4367296
50
123.3170293
51
156.7565362
0
ARC
8
DEFAULT_255_2_778
10
8.2490425
20
80.2123878
40
0.4334108
50
88.9979671
51
122.2259745
0
ARC
8
DEFAULT_255_2_778
10
8.2654768
20
80.2056251
40
0.4401962
50
58.1722474
51
91.1526238
0
ARC
8
DEFAULT_255_2_778
10
8.2652169
20
80.2214605
40
0.426965
50
23.0063102
51
57.0218899
0
ARC
8
DEFAULT_255_2_778
10
8.0183785
20
80.1141285
40
0.6961231
50
359.8200718
51
23.1974694
0
ARC
8
DEFAULT_255_2_778
10
7.7500969
20
80.0964767
40
0.9645251
50
359.9973614
51
0.9187506
0
ARC
8
DEFAULT_255_2_778
10
7.8852845
20
80.1106855
40
0.6799497
50
358.9590025
51
15.8354219
0
ARC
8
DEFAULT_255_2_778
10
8.1914322
20
80.1948587
40
0.3624607
50
16.2402945
51
36.2004388
0
ARC
8
DEFAULT_255_2_778
10
8.268561
20
80.2493641
40
0.2680342
50
36.5359965
51
92.5529698
0
ARC
8
DEFAULT_255_2_778
10
8.2466833
20
80.2521363
40
0.2651823
50
87.8521336
51
143.7523707
0
ARC
8
DEFAULT_255_2_778
10
8.3793778
20
80.1616577
40
0.4257296
50
144.4913781
51
173.4728737
0
ARC
8
DEFAULT_255_2_778
10
8.7122045
20
80.1032803
40
0.7633015
50
171.9590218
51
179.5982603
0
ARC
8
DEFAULT_255_2_778
10
8.5839115
20
80.0124497
40
0.6351143
50
178.8648139
51
197.9049789
0
ARC
8
DEFAULT_255_2_778
10
8.3362851
20
79.9377444
40
0.3765474
50
198.6723329
51
215.9404262
0
ARC
8
DEFAULT_255_2_778
10
8.2488496
20
79.871125
40
0.2666682
50
215.3780865
51
272.0786249
0
ARC
8
DEFAULT_255_2_778
10
8.2713103
20
79.8691834
40
0.2648601
50
267.2324817
51
323.1746752
0
ARC
8
DEFAULT_255_2_778
10
8.1445739
20
79.9498121
40
0.4147926
50
324.75267
51
352.6447218
0
ARC
8
DEFAULT_255_2_778
10
7.7673414
20
80.0194018
40
0.7980992
50
351.1568258
51
359.6073371
0
LINE
8
DEFAULT_255_2_778
10
8.7143219
20
80.0967323
11
8.7143219
21
80.0247323
0
LINE
8
DEFAULT_255_2_778
10
7.7994219
20
80.0147323
11
7.7994219
21
80.0967323
0
LINE
8
DEFAULT_255_2_778
10
8.7146219
20
80.0964323
11
8.7143219
21
80.0967323
0
LINE
8
DEFAULT_255_2_778
10
8.5651219
20
80.0139323
11
8.5651219
21
80.0983323
0
LINE
8
DEFAULT_255_2_778
10
7.9489219
20
80.1086323
11
7.9489219
21
80.0250323
0
LINE
8
DEFAULT_255_2_778
10
8.5654219
20
80.0139323
11
8.5651219
21
80.0139323
0
LINE
8
DEFAULT_255_2_778
10
9.0051219
20
80.6304323
11
9.1848219
21
79.8514323
0
LINE
8
DEFAULT_255_2_778
10
9.1848219
20
79.8514323
11
9.2067219
21
79.7014323
0
LINE
8
DEFAULT_255_2_778
10
9.2067219
20
79.7014323
11
9.2387219
21
79.8366323
0
LINE
8
DEFAULT_255_2_778
10
9.2387219
20
79.8366323
11
9.4636219
21
80.6304323
0
LINE
8
DEFAULT_255_2_778
10
9.4636219
20
80.6304323
11
9.5901219
21
80.6304323
0
LINE
8
DEFAULT_255_2_778
10
9.5901219
20
80.6304323
11
9.8097219
21
79.8366323
0
LINE
8
DEFAULT_255_2_778
10
9.8097219
20
79.8366323
11
9.8409219
21
79.6990323
0
LINE
8
DEFAULT_255_2_778
10
9.8409219
20
79.6990323
11
9.8653219
21
79.8522323
0
LINE
8
DEFAULT_255_2_778
10
9.8653219
20
79.8522323
11
10.0417219
21
80.6304323
0
LINE
8
DEFAULT_255_2_778
10
10.0417219
20
80.6304323
11
10.1926219
21
80.6304323
0
LINE
8
DEFAULT_255_2_778
10
10.1926219
20
80.6304323
11
9.9169219
21
79.4929323
0
LINE
8
DEFAULT_255_2_778
10
9.9169219
20
79.4929323
11
9.7801219
21
79.4929323
0
LINE
8
DEFAULT_255_2_778
10
9.7801219
20
79.4929323
11
9.5456219
21
80.3219323
0
LINE
8
DEFAULT_255_2_778
10
9.5456219
20
80.3219323
11
9.5277219
21
80.4086323
0
LINE
8
DEFAULT_255_2_778
10
9.5277219
20
80.4086323
11
9.5097219
21
80.3219323
0
LINE
8
DEFAULT_255_2_778
10
9.5097219
20
80.3219323
11
9.2668219
21
79.4929323
0
LINE
8
DEFAULT_255_2_778
10
9.2668219
20
79.4929323
11
9.1300219
21
79.4929323
0
LINE
8
DEFAULT_255_2_778
10
9.1300219
20
79.4929323
11
8.8551219
21
80.6304323
0
LINE
8
DEFAULT_255_2_778
10
8.8551219
20
80.6304323
11
9.0051219
21
80.6304323
0
LINE
8
DEFAULT_255_2_778
10
9.0051219
20
80.6304323
11
9.0051219
21
80.6304323
0
LINE
8
DEFAULT_255_2_778
10
11.0019219
20
80.1414323
11
11.0019219
21
80.0186323
0
LINE
8
DEFAULT_255_2_778
10
11.0019219
20
80.0186323
11
10.5090219
21
80.0186323
0
LINE
8
DEFAULT_255_2_778
10
10.5090219
20
80.0186323
11
10.5090219
21
79.6154323
0
LINE
8
DEFAULT_255_2_778
10
10.5090219
20
79.6154323
11
11.0816219
21
79.6154323
0
LINE
8
DEFAULT_255_2_778
10
11.0816219
20
79.6154323
11
11.0816219
21
79.4926323
0
LINE
8
DEFAULT_255_2_778
10
11.0816219
20
79.4926323
11
10.3590219
21
79.4926323
0
LINE
8
DEFAULT_255_2_778
10
10.3590219
20
79.4926323
11
10.3590219
21
80.6301323
0
LINE
8
DEFAULT_255_2_778
10
10.3590219
20
80.6301323
11
11.0739219
21
80.6301323
0
LINE
8
DEFAULT_255_2_778
10
11.0739219
20
80.6301323
11
11.0739219
21
80.5065323
0
LINE
8
DEFAULT_255_2_778
10
11.0739219
20
80.5065323
11
10.5090219
21
80.5065323
0
LINE
8
DEFAULT_255_2_778
10
10.5090219
20
80.5065323
11
10.5090219
21
80.1409323
0
LINE
8
DEFAULT_255_2_778
10
10.5090219
20
80.1409323
11
11.0019219
21
80.1409323
0
LINE
8
DEFAULT_255_2_778
10
11.0019219
20
80.1409323
11
11.0019219
21
80.1414323
0
ARC
8
DEFAULT_255_2_778
10
11.6567213
20
80.0689749
40
0.5616229
50
70.6132575
51
91.2961062
0
ARC
8
DEFAULT_255_2_778
10
11.7290472
20
80.2898958
40
0.3292601
50
50.1981872
51
69.7243396
0
ARC
8
DEFAULT_255_2_778
10
11.7368189
20
80.3138847
40
0.3059993
50
359.4922734
51
48.4405702
0
ARC
8
DEFAULT_255_2_778
10
11.5292808
20
80.2882398
40
0.5140371
50
359.9793096
51
2.557053
0
ARC
8
DEFAULT_255_2_778
10
11.7373924
20
80.2815102
40
0.3059953
50
324.2780522
51
1.2254063
0
ARC
8
DEFAULT_255_2_778
10
11.7104264
20
80.3085957
40
0.3437586
50
289.6490038
51
323.237024
0
ARC
8
DEFAULT_255_2_778
10
11.6624029
20
80.3357331
40
0.2602338
50
267.0075926
51
309.126015
0
ARC
8
DEFAULT_255_2_778
10
11.6973796
20
80.2805516
40
0.1955061
50
311.3795449
51
2.3752403
0
ARC
8
DEFAULT_255_2_778
10
11.6880978
20
80.3019631
40
0.2050522
50
356.2785899
51
46.3182048
0
ARC
8
DEFAULT_255_2_778
10
11.6726116
20
80.2586162
40
0.2478052
50
50.6548591
51
89.0213017
0
ARC
8
DEFAULT_255_2_778
10
11.6453211
20
80.0454477
40
0.4620144
50
86.0876758
51
89.6655811
0
LINE
8
DEFAULT_255_2_778
10
11.9324177
20
79.4930542
11
11.6855177
21
79.9531542
0
LINE
8
DEFAULT_255_2_778
10
11.6855177
20
79.9531542
11
11.4183177
21
79.9531542
0
LINE
8
DEFAULT_255_2_778
10
11.4183177
20
79.9531542
11
11.4183177
21
79.4930542
0
LINE
8
DEFAULT_255_2_778
10
11.4183177
20
79.4930542
11
11.2675177
21
79.4930542
0
LINE
8
DEFAULT_255_2_778
10
11.2675177
20
79.4930542
11
11.2675177
21
80.6304542
0
LINE
8
DEFAULT_255_2_778
10
11.2675177
20
80.6304542
11
11.6440177
21
80.6304542
0
LINE
8
DEFAULT_255_2_778
10
11.8260177
20
79.9848542
11
12.0933177
21
79.5020542
0
LINE
8
DEFAULT_255_2_778
10
12.0933177
20
79.5020542
11
12.0933177
21
79.4927542
0
LINE
8
DEFAULT_255_2_778
10
12.0933177
20
79.4927542
11
11.9324177
21
79.4927542
0
LINE
8
DEFAULT_255_2_778
10
11.9324177
20
79.4927542
11
11.9324177
21
79.4930542
0
LINE
8
DEFAULT_255_2_778
10
11.4183177
20
80.5071542
11
11.4183177
21
80.0758542
0
LINE
8
DEFAULT_255_2_778
10
11.4183177
20
80.0758542
11
11.6488177
21
80.0758542
0
LINE
8
DEFAULT_255_2_778
10
11.6480177
20
80.5074542
11
11.4183177
21
80.5074542
0
LINE
8
DEFAULT_255_2_778
10
11.4183177
20
80.5074542
11
11.4183177
21
80.5071542
0
LINE
8
DEFAULT_255_2_778
10
8.1367073
20
64.3062219
11
8.1367073
21
64.1834219
0
LINE
8
DEFAULT_255_2_778
10
8.1367073
20
64.1834219
11
7.6594073
21
64.1834219
0
LINE
8
DEFAULT_255_2_778
10
7.6594073
20
64.1834219
11
7.6594073
21
63.6810219
0
LINE
8
DEFAULT_255_2_778
10
7.6594073
20
63.6810219
11
7.5094073
21
63.6810219
0
LINE
8
DEFAULT_255_2_778
10
7.5094073
20
63.6810219
11
7.5094073
21
64.8184219
0
LINE
8
DEFAULT_255_2_778
10
7.5094073
20
64.8184219
11
8.2140073
21
64.8184219
0
LINE
8
DEFAULT_255_2_778
10
8.2140073
20
64.8184219
11
8.2140073
21
64.6948219
0
LINE
8
DEFAULT_255_2_778
10
8.2140073
20
64.6948219
11
7.6594073
21
64.6948219
0
LINE
8
DEFAULT_255_2_778
10
7.6594073
20
64.6948219
11
7.6594073
21
64.3059219
0
LINE
8
DEFAULT_255_2_778
10
7.6594073
20
64.3059219
11
8.1367073
21
64.3059219
0
LINE
8
DEFAULT_255_2_778
10
8.1367073
20
64.3059219
11
8.1367073
21
64.3062219
0
ARC
8
DEFAULT_255_2_778
10
8.8265469
20
64.3252483
40
0.4935446
50
66.4314784
51
91.5085028
0
ARC
8
DEFAULT_255_2_778
10
8.8837252
20
64.4749401
40
0.3335603
50
48.1538184
51
65.1525502
0
ARC
8
DEFAULT_255_2_778
10
8.8889426
20
64.4839505
40
0.3233742
50
357.6909429
51
47.7773903
0
ARC
8
DEFAULT_255_2_778
10
8.8720944
20
64.4565856
40
0.3402619
50
324.435059
51
2.4147576
0
ARC
8
DEFAULT_255_2_778
10
8.9234374
20
64.4309152
40
0.2837082
50
310.7295976
51
322.6210909
0
ARC
8
DEFAULT_255_2_778
10
8.869153
20
64.5100505
40
0.3792421
50
275.9181466
51
309.1433088
0
ARC
8
DEFAULT_255_2_778
10
8.8148288
20
64.8209098
40
0.6943939
50
269.7628105
51
277.7322841
0
ARC
8
DEFAULT_255_2_778
10
8.8263284
20
64.5508377
40
0.3018863
50
267.5748161
51
298.2111292
0
ARC
8
DEFAULT_255_2_778
10
8.8727732
20
64.4477125
40
0.1892175
50
300.5803041
51
311.41989
0
ARC
8
DEFAULT_255_2_778
10
8.8553685
20
64.4560622
40
0.20713
50
313.5025989
51
3.7535188
0
ARC
8
DEFAULT_255_2_778
10
8.8486438
20
64.4793322
40
0.2136312
50
357.3948054
51
45.6598493
0
ARC
8
DEFAULT_255_2_778
10
8.8305535
20
64.4425529
40
0.2529019
50
48.553581
51
91.8579098
0
LINE
8
DEFAULT_255_2_778
10
8.8119542
20
64.1265219
11
8.5439542
21
64.1265219
0
LINE
8
DEFAULT_255_2_778
10
8.5439542
20
64.1265219
11
8.5439542
21
63.6812219
0
LINE
8
DEFAULT_255_2_778
10
8.5439542
20
63.6812219
11
8.3939542
21
63.6812219
0
LINE
8
DEFAULT_255_2_778
10
8.3939542
20
63.6812219
11
8.3939542
21
64.8186219
0
LINE
8
DEFAULT_255_2_778
10
8.3939542
20
64.8186219
11
8.8135542
21
64.8186219
0
LINE
8
DEFAULT_255_2_778
10
8.8119542
20
64.1265219
11
8.8119542
21
64.1265219
0
LINE
8
DEFAULT_255_2_778
10
8.5439542
20
64.6953219
11
8.5439542
21
64.2492219
0
LINE
8
DEFAULT_255_2_778
10
8.5439542
20
64.2492219
11
8.8135542
21
64.2492219
0
LINE
8
DEFAULT_255_2_778
10
8.8223542
20
64.6953219
11
8.5442542
21
64.6953219
0
LINE
8
DEFAULT_255_2_778
10
8.5442542
20
64.6953219
11
8.5439542
21
64.6953219
0
ARC
8
DEFAULT_255_2_778
10
10.1878213
20
64.2571749
40
0.5616229
50
70.6132575
51
91.2961062
0
ARC
8
DEFAULT_255_2_778
10
10.2601472
20
64.4780958
40
0.3292601
50
50.1981872
51
69.7243396
0
ARC
8
DEFAULT_255_2_778
10
10.2679189
20
64.5020847
40
0.3059993
50
359.4922734
51
48.4405702
0
ARC
8
DEFAULT_255_2_778
10
10.0603808
20
64.4764398
40
0.5140371
50
359.9793096
51
2.557053
0
ARC
8
DEFAULT_255_2_778
10
10.2684924
20
64.4697102
40
0.3059953
50
324.2780522
51
1.2254063
0
ARC
8
DEFAULT_255_2_778
10
10.2415264
20
64.4967957
40
0.3437586
50
289.6490038
51
323.237024
0
ARC
8
DEFAULT_255_2_778
10
10.1935029
20
64.5239331
40
0.2602338
50
267.0075926
51
309.126015
0
ARC
8
DEFAULT_255_2_778
10
10.2284796
20
64.4687516
40
0.1955061
50
311.3795449
51
2.3752403
0
ARC
8
DEFAULT_255_2_778
10
10.2191978
20
64.4901631
40
0.2050522
50
356.2785899
51
46.3182048
0
ARC
8
DEFAULT_255_2_778
10
10.2037116
20
64.4468162
40
0.2478052
50
50.6548591
51
89.0213017
0
ARC
8
DEFAULT_255_2_778
10
10.1764211
20
64.2336477
40
0.4620144
50
86.0876758
51
89.6655811
0
LINE
8
DEFAULT_255_2_778
10
10.4635177
20
63.6812542
11
10.2166177
21
64.1413542
0
LINE
8
DEFAULT_255_2_778
10
10.2166177
20
64.1413542
11
9.9494177
21
64.1413542
0
LINE
8
DEFAULT_255_2_778
10
9.9494177
20
64.1413542
11
9.9494177
21
63.6812542
0
LINE
8
DEFAULT_255_2_778
10
9.9494177
20
63.6812542
11
9.7986177
21
63.6812542
0
LINE
8
DEFAULT_255_2_778
10
9.7986177
20
63.6812542
11
9.7986177
21
64.8186542
0
LINE
8
DEFAULT_255_2_778
10
9.7986177
20
64.8186542
11
10.1751177
21
64.8186542
0
LINE
8
DEFAULT_255_2_778
10
10.3571177
20
64.1730542
11
10.6244177
21
63.6902542
0
LINE
8
DEFAULT_255_2_778
10
10.6244177
20
63.6902542
11
10.6244177
21
63.6809542
0
LINE
8
DEFAULT_255_2_778
10
10.6244177
20
63.6809542
11
10.4635177
21
63.6809542
0
LINE
8
DEFAULT_255_2_778
10
10.4635177
20
63.6809542
11
10.4635177
21
63.6812542
0
LINE
8
DEFAULT_255_2_778
10
9.9494177
20
64.6953542
11
9.9494177
21
64.2640542
0
LINE
8
DEFAULT_255_2_778
10
9.9494177
20
64.2640542
11
10.1799177
21
64.2640542
0
LINE
8
DEFAULT_255_2_778
10
10.1791177
20
64.6956542
11
9.9494177
21
64.6956542
0
LINE
8
DEFAULT_255_2_778
10
9.9494177
20
64.6956542
11
9.9494177
21
64.6953542
0
ARC
8
DEFAULT_255_2_778
10
11.2170469
20
64.3252483
40
0.4935446
50
66.4314784
51
91.5085028
0
ARC
8
DEFAULT_255_2_778
10
11.2742252
20
64.4749401
40
0.3335603
50
48.1538184
51
65.1525502
0
ARC
8
DEFAULT_255_2_778
10
11.2794426
20
64.4839505
40
0.3233742
50
357.6909429
51
47.7773903
0
ARC
8
DEFAULT_255_2_778
10
11.2625944
20
64.4565856
40
0.3402619
50
324.435059
51
2.4147576
0
ARC
8
DEFAULT_255_2_778
10
11.3139374
20
64.4309152
40
0.2837082
50
310.7295976
51
322.6210909
0
ARC
8
DEFAULT_255_2_778
10
11.259653
20
64.5100505
40
0.3792421
50
275.9181466
51
309.1433088
0
ARC
8
DEFAULT_255_2_778
10
11.2053288
20
64.8209098
40
0.6943939
50
269.7628105
51
277.7322841
0
ARC
8
DEFAULT_255_2_778
10
11.2168284
20
64.5508377
40
0.3018863
50
267.5748161
51
298.2111292
0
ARC
8
DEFAULT_255_2_778
10
11.2632732
20
64.4477125
40
0.1892175
50
300.5803041
51
311.41989
0
ARC
8
DEFAULT_255_2_778
10
11.2458685
20
64.4560622
40
0.20713
50
313.5025989
51
3.7535188
0
ARC
8
DEFAULT_255_2_778
10
11.2391438
20
64.4793322
40
0.2136312
50
357.3948054
51
45.6598493
0
ARC
8
DEFAULT_255_2_778
10
11.2210535
20
64.4425529
40
0.2529019
50
48.553581
51
91.8579098
0
LINE
8
DEFAULT_255_2_778
10
11.2024542
20
64.1265219
11
10.9344542
21
64.1265219
0
LINE
8
DEFAULT_255_2_778
10
10.9344542
20
64.1265219
11
10.9344542
21
63.6812219
0
LINE
8
DEFAULT_255_2_778
10
10.9344542
20
63.6812219
11
10.7844542
21
63.6812219
0
LINE
8
DEFAULT_255_2_778
10
10.7844542
20
63.6812219
11
10.7844542
21
64.8186219
0
LINE
8
DEFAULT_255_2_778
10
10.7844542
20
64.8186219
11
11.2040542
21
64.8186219
0
LINE
8
DEFAULT_255_2_778
10
11.2024542
20
64.1265219
11
11.2024542
21
64.1265219
0
LINE
8
DEFAULT_255_2_778
10
10.9344542
20
64.6953219
11
10.9344542
21
64.2492219
0
LINE
8
DEFAULT_255_2_778
10
10.9344542
20
64.2492219
11
11.2040542
21
64.2492219
0
LINE
8
DEFAULT_255_2_778
10
11.2128542
20
64.6953219
11
10.9347542
21
64.6953219
0
LINE
8
DEFAULT_255_2_778
10
10.9347542
20
64.6953219
11
10.9344542
21
64.6953219
0
ARC
8
DEFAULT_255_2_778
10
6.9027446
20
51.8607426
40
0.4930961
50
66.4080654
51
91.5092459
0
ARC
8
DEFAULT_255_2_778
10
6.9598148
20
52.0100326
40
0.3335266
50
48.1224842
51
65.1283783
0
ARC
8
DEFAULT_255_2_778
10
6.9654561
20
52.0190316
40
0.3230655
50
357.682484
51
47.8020305
0
ARC
8
DEFAULT_255_2_778
10
6.9480313
20
51.9916538
40
0.3405271
50
324.4497115
51
2.4091142
0
ARC
8
DEFAULT_255_2_778
10
6.9992444
20
51.9660773
40
0.2841307
50
310.7616767
51
322.6411711
0
ARC
8
DEFAULT_255_2_778
10
6.9453561
20
52.0449963
40
0.3792421
50
275.9181466
51
309.1433088
0
ARC
8
DEFAULT_255_2_778
10
6.891032
20
52.3558556
40
0.6943939
50
269.7628105
51
277.7322841
0
ARC
8
DEFAULT_255_2_778
10
6.9025316
20
52.0858836
40
0.3018863
50
267.5748161
51
298.2111292
0
ARC
8
DEFAULT_255_2_778
10
6.9489764
20
51.9827583
40
0.1892175
50
300.5803041
51
311.41989
0
ARC
8
DEFAULT_255_2_778
10
6.9317646
20
51.9910325
40
0.2069424
50
313.4782344
51
3.7778833
0
ARC
8
DEFAULT_255_2_778
10
6.9251738
20
52.0144129
40
0.2133063
50
357.3814341
51
45.6973046
0
ARC
8
DEFAULT_255_2_778
10
6.9067415
20
51.977856
40
0.2526443
50
48.4973677
51
91.8563601
0
ARC
8
DEFAULT_255_2_778
10
8.9441482
20
52.7002815
40
1.013304
50
243.7588568
51
254.6409479
0
ARC
8
DEFAULT_255_2_778
10
8.6980452
20
52.2021376
40
0.4576841
50
228.497128
51
243.8196417
0
ARC
8
DEFAULT_255_2_778
10
8.567444
20
52.0545681
40
0.2606221
50
179.0547253
51
228.5019983
0
ARC
8
DEFAULT_255_2_778
10
8.5819531
20
52.0629792
40
0.2751265
50
127.5287113
51
180.8562554
0
ARC
8
DEFAULT_255_2_778
10
8.6677794
20
51.9558922
40
0.4123432
50
90.7926494
51
127.9221479
0
ARC
8
DEFAULT_255_2_778
10
8.6934882
20
51.7293572
40
0.6396107
50
89.9758866
51
92.8150858
0
ARC
8
DEFAULT_255_2_778
10
8.7021567
20
51.9020084
40
0.4670348
50
64.5629144
51
91.0304856
0
ARC
8
DEFAULT_255_2_778
10
8.7560588
20
52.0135829
40
0.3431254
50
32.6830497
51
64.6886924
0
ARC
8
DEFAULT_255_2_778
10
8.7746998
20
52.0266831
40
0.3203633
50
359.6574323
51
32.5113462
0
ARC
8
DEFAULT_255_2_778
10
8.7374679
20
52.0354996
40
0.2070677
50
357.0291435
51
47.0115099
0
ARC
8
DEFAULT_255_2_778
10
8.7163263
20
51.9909193
40
0.2545317
50
50.3747203
51
90.2067604
0
ARC
8
DEFAULT_255_2_778
10
8.6936904
20
51.7910312
40
0.4549366
50
87.2638237
51
90.0293473
0
ARC
8
DEFAULT_255_2_778
10
8.6806626
20
51.952188
40
0.2940582
50
87.5062122
51
118.7047627
0
ARC
8
DEFAULT_255_2_778
10
8.6364614
20
52.0497637
40
0.1874192
50
121.1806012
51
128.2398656
0
ARC
8
DEFAULT_255_2_778
10
8.6207318
20
52.068917
40
0.1626405
50
128.0639082
51
182.5899203
0
ARC
8
DEFAULT_255_2_778
10
8.6043537
20
52.0613639
40
0.1460965
50
179.9200959
51
233.4048899
0
ARC
8
DEFAULT_255_2_778
10
8.7541476
20
52.2584049
40
0.3936049
50
232.9976565
51
250.4579246
0
ARC
8
DEFAULT_255_2_778
10
8.9930102
20
52.8570859
40
1.0379962
50
249.0863887
51
254.6396985
0
ARC
8
DEFAULT_255_2_778
10
8.4149899
20
50.7351489
40
1.1612635
50
66.1835851
51
74.8717343
0
ARC
8
DEFAULT_255_2_778
10
8.6465113
20
51.2717692
40
0.5768704
50
59.4120945
51
65.6983645
0
ARC
8
DEFAULT_255_2_778
10
8.7748089
20
51.4744046
40
0.337226
50
32.6152474
51
60.6579067
0
ARC
8
DEFAULT_255_2_778
10
8.8111654
20
51.5124262
40
0.286379
50
358.5876536
51
30.1275964
0
ARC
8
DEFAULT_255_2_778
10
8.8318612
20
51.4975751
40
0.2657104
50
306.4585681
51
1.6805867
0
ARC
8
DEFAULT_255_2_778
10
8.7418449
20
51.6239816
40
0.4208777
50
273.5434097
51
306.0886881
0
ARC
8
DEFAULT_255_2_778
10
8.7026057
20
51.9022343
40
0.7013677
50
269.8980237
51
275.3382092
0
ARC
8
DEFAULT_255_2_778
10
8.697172
20
51.7360339
40
0.5351825
50
246.3585426
51
270.4480861
0
ARC
8
DEFAULT_255_2_778
10
8.6232934
20
51.5859615
40
0.3681554
50
216.1342756
51
247.5254223
0
ARC
8
DEFAULT_255_2_778
10
8.5709172
20
51.5420348
40
0.299987
50
179.2297184
51
215.2572684
0
ARC
8
DEFAULT_255_2_778
10
8.6175613
20
51.5383871
40
0.1959545
50
177.7536812
51
232.3840384
0
ARC
8
DEFAULT_255_2_778
10
8.6808737
20
51.6342686
40
0.3106606
50
233.928247
51
270.7035891
0
ARC
8
DEFAULT_255_2_778
10
8.7012538
20
51.8435843
40
0.5202168
50
268.175222
51
270.0114091
0
ARC
8
DEFAULT_255_2_778
10
8.7137815
20
51.6653982
40
0.3422561
50
267.9196628
51
293.5861326
0
ARC
8
DEFAULT_255_2_778
10
8.7678204
20
51.5239404
40
0.1911243
50
295.7080732
51
307.2314195
0
ARC
8
DEFAULT_255_2_778
10
8.7894541
20
51.497905
40
0.1573125
50
306.6951534
51
2.1357775
0
ARC
8
DEFAULT_255_2_778
10
8.7920328
20
51.5117876
40
0.1548324
50
357.0309174
51
51.6232548
0
ARC
8
DEFAULT_255_2_778
10
8.6537872
20
51.3085964
40
0.4003447
50
54.1672647
51
69.7720283
0
ARC
8
DEFAULT_255_2_778
10
8.3410398
20
50.5340435
40
1.2355274
50
68.5823764
51
74.2815375
0
ARC
8
DEFAULT_255_2_778
10
10.0173544
20
51.8375582
40
0.5162122
50
60.7537281
51
91.1429725
0
ARC
8
DEFAULT_255_2_778
10
10.0489214
20
51.903351
40
0.4434075
50
26.4955573
51
60.1591936
0
ARC
8
DEFAULT_255_2_778
10
9.9018962
20
51.8317801
40
0.6069223
50
359.1869289
51
26.3503287
0
ARC
8
DEFAULT_255_2_778
10
9.8998097
20
51.736822
40
0.6090983
50
333.8488578
51
1.2742976
0
ARC
8
DEFAULT_255_2_778
10
10.0552132
20
51.6637884
40
0.4374237
50
299.3115124
51
333.464392
0
ARC
8
DEFAULT_255_2_778
10
10.0070807
20
51.7660557
40
0.550221
50
269.3727621
51
298.4684708
0
ARC
8
DEFAULT_255_2_778
10
10.0081437
20
51.7040885
40
0.3654081
50
267.7279556
51
304.9383236
0
ARC
8
DEFAULT_255_2_778
10
10.0340136
20
51.6512155
40
0.3073828
50
306.6297143
51
318.2831755
0
ARC
8
DEFAULT_255_2_778
10
9.9668027
20
51.6985538
40
0.3891666
50
319.6657929
51
354.2625766
0
ARC
8
DEFAULT_255_2_778
10
9.6670745
20
51.7509629
40
0.6929878
50
352.4282038
51
0.2153656
0
ARC
8
DEFAULT_255_2_778
10
9.8031779
20
51.8325453
40
0.5570215
50
358.7061424
51
20.1024016
0
ARC
8
DEFAULT_255_2_778
10
10.0065065
20
51.9009457
40
0.3426172
50
21.0473583
51
39.9763778
0
ARC
8
DEFAULT_255_2_778
10
10.0278753
20
51.9087367
40
0.3213304
50
41.3599317
51
91.6446368
0
ARC
8
DEFAULT_255_2_778
10
10.0059228
20
51.7123005
40
0.5177906
50
88.5912027
51
89.4539581
0
LINE
8
DEFAULT_255_2_778
10
6.8881574
20
51.6614677
11
6.6201574
21
51.6614677
0
LINE
8
DEFAULT_255_2_778
10
6.6201574
20
51.6614677
11
6.6201574
21
51.2161677
0
LINE
8
DEFAULT_255_2_778
10
6.6201574
20
51.2161677
11
6.4701574
21
51.2161677
0
LINE
8
DEFAULT_255_2_778
10
6.4701574
20
51.2161677
11
6.4701574
21
52.3536677
0
LINE
8
DEFAULT_255_2_778
10
6.4701574
20
52.3536677
11
6.8897574
21
52.3536677
0
LINE
8
DEFAULT_255_2_778
10
6.8881574
20
51.6614677
11
6.8881574
21
51.6614677
0
LINE
8
DEFAULT_255_2_778
10
6.6201574
20
52.2303677
11
6.6201574
21
51.7842677
0
LINE
8
DEFAULT_255_2_778
10
6.6201574
20
51.7842677
11
6.8897574
21
51.7842677
0
LINE
8
DEFAULT_255_2_778
10
6.8985574
20
52.2303677
11
6.6204574
21
52.2303677
0
LINE
8
DEFAULT_255_2_778
10
6.6204574
20
52.2303677
11
6.6201574
21
52.2303677
0
LINE
8
DEFAULT_255_2_778
10
7.6303574
20
52.3536677
11
7.6303574
21
51.3386677
0
LINE
8
DEFAULT_255_2_778
10
7.6303574
20
51.3386677
11
8.1693574
21
51.3386677
0
LINE
8
DEFAULT_255_2_778
10
8.1693574
20
51.3386677
11
8.1693574
21
51.2158677
0
LINE
8
DEFAULT_255_2_778
10
8.1693574
20
51.2158677
11
7.4795574
21
51.2158677
0
LINE
8
DEFAULT_255_2_778
10
7.4795574
20
51.2158677
11
7.4795574
21
52.3533677
0
LINE
8
DEFAULT_255_2_778
10
7.4795574
20
52.3533677
11
7.6303574
21
52.3533677
0
LINE
8
DEFAULT_255_2_778
10
7.6303574
20
52.3533677
11
7.6303574
21
52.3536677
0
LINE
8
DEFAULT_255_2_778
10
9.0950574
20
52.0247677
11
8.9442574
21
52.0247677
0
LINE
8
DEFAULT_255_2_778
10
8.2709574
20
51.5460677
11
8.4217574
21
51.5460677
0
LINE
8
DEFAULT_255_2_778
10
8.6757574
20
51.7233677
11
8.6757574
21
51.7231677
0
LINE
8
DEFAULT_255_2_778
10
10.0007574
20
51.2161677
11
9.6858574
21
51.2161677
0
LINE
8
DEFAULT_255_2_778
10
9.6858574
20
51.2161677
11
9.6858574
21
52.3536677
0
LINE
8
DEFAULT_255_2_778
10
9.6858574
20
52.3536677
11
10.0070574
21
52.3536677
0
LINE
8
DEFAULT_255_2_778
10
10.5087574
20
51.8231677
11
10.5087574
21
51.7503677
0
LINE
8
DEFAULT_255_2_778
10
10.0010574
20
51.2158677
11
10.0007574
21
51.2161677
0
LINE
8
DEFAULT_255_2_778
10
10.0108574
20
52.2303677
11
9.8359574
21
52.2303677
0
LINE
8
DEFAULT_255_2_778
10
9.8359574
20
52.2303677
11
9.8359574
21
51.3389677
0
LINE
8
DEFAULT_255_2_778
10
9.8359574
20
51.3389677
11
9.9936574
21
51.3389677
0
LINE
8
DEFAULT_255_2_778
10
10.3600574
20
51.7535677
11
10.3600574
21
51.8199677
0
LINE
8
DEFAULT_255_2_778
10
10.0108574
20
52.2300677
11
10.0108574
21
52.2303677
0
LINE
8
DEFAULT_255_2_778
10
10.8958574
20
52.3536677
11
10.8958574
21
51.2161677
0
LINE
8
DEFAULT_255_2_778
10
10.8958574
20
51.2161677
11
10.7458574
21
51.2161677
0
LINE
8
DEFAULT_255_2_778
10
10.7458574
20
51.2161677
11
10.7458574
21
52.3536677
0
LINE
8
DEFAULT_255_2_778
10
10.7458574
20
52.3536677
11
10.8958574
21
52.3536677
0
LINE
8
DEFAULT_255_2_778
10
10.8958574
20
52.3536677
11
10.8958574
21
52.3536677
0
ARC
8
DEFAULT_255_2_778
10
11.5586213
20
51.7920749
40
0.5616229
50
70.6132575
51
91.2961062
0
ARC
8
DEFAULT_255_2_778
10
11.6309472
20
52.0129958
40
0.3292601
50
50.1981872
51
69.7243396
0
ARC
8
DEFAULT_255_2_778
10
11.6387189
20
52.0369847
40
0.3059993
50
359.4922734
51
48.4405702
0
ARC
8
DEFAULT_255_2_778
10
11.4311808
20
52.0113398
40
0.5140371
50
359.9793096
51
2.557053
0
ARC
8
DEFAULT_255_2_778
10
11.6392924
20
52.0046102
40
0.3059953
50
324.2780522
51
1.2254063
0
ARC
8
DEFAULT_255_2_778
10
11.6123264
20
52.0316957
40
0.3437586
50
289.6490038
51
323.237024
0
ARC
8
DEFAULT_255_2_778
10
11.5643029
20
52.0588331
40
0.2602338
50
267.0075926
51
309.126015
0
ARC
8
DEFAULT_255_2_778
10
11.5992796
20
52.0036516
40
0.1955061
50
311.3795449
51
2.3752403
0
ARC
8
DEFAULT_255_2_778
10
11.5899978
20
52.0250631
40
0.2050522
50
356.2785899
51
46.3182048
0
ARC
8
DEFAULT_255_2_778
10
11.5745116
20
51.9817162
40
0.2478052
50
50.6548591
51
89.0213017
0
ARC
8
DEFAULT_255_2_778
10
11.5472211
20
51.7685477
40
0.4620144
50
86.0876758
51
89.6655811
0
LINE
8
DEFAULT_255_2_778
10
11.8343177
20
51.2161542
11
11.5874177
21
51.6762542
0
LINE
8
DEFAULT_255_2_778
10
11.5874177
20
51.6762542
11
11.3202177
21
51.6762542
0
LINE
8
DEFAULT_255_2_778
10
11.3202177
20
51.6762542
11
11.3202177
21
51.2161542
0
LINE
8
DEFAULT_255_2_778
10
11.3202177
20
51.2161542
11
11.1694177
21
51.2161542
0
LINE
8
DEFAULT_255_2_778
10
11.1694177
20
51.2161542
11
11.1694177
21
52.3535542
0
LINE
8
DEFAULT_255_2_778
10
11.1694177
20
52.3535542
11
11.5459177
21
52.3535542
0
LINE
8
DEFAULT_255_2_778
10
11.7279177
20
51.7079542
11
11.9952177
21
51.2251542
0
LINE
8
DEFAULT_255_2_778
10
11.9952177
20
51.2251542
11
11.9952177
21
51.2158542
0
LINE
8
DEFAULT_255_2_778
10
11.9952177
20
51.2158542
11
11.8343177
21
51.2158542
0
LINE
8
DEFAULT_255_2_778
10
11.8343177
20
51.2158542
11
11.8343177
21
51.2161542
0
LINE
8
DEFAULT_255_2_778
10
11.3202177
20
52.2302542
11
11.3202177
21
51.7989542
0
LINE
8
DEFAULT_255_2_778
10
11.3202177
20
51.7989542
11
11.5507177
21
51.7989542
0
LINE
8
DEFAULT_255_2_778
10
11.5499177
20
52.2305542
11
11.3202177
21
52.2305542
0
LINE
8
DEFAULT_255_2_778
10
11.3202177
20
52.2305542
11
11.3202177
21
52.2302542
0
ARC
8
DEFAULT_255_2_778
10
9.3457961
20
63.9198211
40
0.0999086
50
179.9475899
51
270.0524387
0
ARC
8
DEFAULT_255_2_778
10
9.345979
20
63.9198209
40
0.0999085
50
269.9475208
51
0.0525079
0
ARC
8
DEFAULT_255_2_778
10
9.3459789
20
63.9200039
40
0.0999087
50
359.9475815
51
90.0524017
0
ARC
8
DEFAULT_255_2_778
10
9.3457959
20
63.920004
40
0.0999086
50
89.9474433
51
180.052459
0
ARC
8
DEFAULT_255_2_778
10
5.2930466
20
75.7585889
40
0.897262
50
136.3553735
51
180.145367
0
ARC
8
DEFAULT_255_2_778
10
5.2934801
20
75.7593014
40
0.8970843
50
90.6208726
51
136.4074087
0
ARC
8
DEFAULT_255_2_778
10
5.2958779
20
75.7292154
40
0.927197
50
89.999408
51
90.748893
0
ARC
8
DEFAULT_255_2_778
10
5.2982953
20
75.7591982
40
0.8972175
50
46.6984764
51
90.1537573
0
ARC
8
DEFAULT_255_2_778
10
5.2988682
20
75.7588413
40
0.8970845
50
0.8061688
51
46.7407367
0
ARC
8
DEFAULT_255_2_778
10
5.2661561
20
75.7563028
40
0.9298314
50
0.0005966
51
0.9342169
0
ARC
8
DEFAULT_255_2_778
10
5.2987455
20
75.7538776
40
0.8972453
50
316.7025253
51
0.155484
0
ARC
8
DEFAULT_255_2_778
10
5.2984686
20
75.7532963
40
0.8970484
50
270.8030542
51
316.7416762
0
ARC
8
DEFAULT_255_2_778
10
5.2958778
20
75.7863992
40
0.9301866
50
270.0005962
51
270.9340436
0
ARC
8
DEFAULT_255_2_778
10
5.2934961
20
75.7534685
40
0.8972592
50
226.5307528
51
270.1527091
0
ARC
8
DEFAULT_255_2_778
10
5.2928566
20
75.7537642
40
0.8970342
50
180.8015346
51
226.5733925
0
ARC
8
DEFAULT_255_2_778
10
5.3250372
20
75.7563222
40
0.9292497
50
180.0006025
51
180.9314852
0
LINE
8
DEFAULT_255_2_778
10
4.3957875
20
75.7563125
11
4.3957875
21
75.7563125
0
ARC
8
DEFAULT_255_2_778
10
5.2930466
20
79.7584889
40
0.897262
50
136.3553735
51
180.145367
0
ARC
8
DEFAULT_255_2_778
10
5.2934801
20
79.7592014
40
0.8970843
50
90.6208726
51
136.4074087
0
ARC
8
DEFAULT_255_2_778
10
5.2958779
20
79.7291154
40
0.927197
50
89.999408
51
90.748893
0
ARC
8
DEFAULT_255_2_778
10
5.2982953
20
79.7590982
40
0.8972175
50
46.6984764
51
90.1537573
0
ARC
8
DEFAULT_255_2_778
10
5.2988682
20
79.7587413
40
0.8970845
50
0.8061688
51
46.7407367
0
ARC
8
DEFAULT_255_2_778
10
5.2661561
20
79.7562028
40
0.9298314
50
0.0005966
51
0.9342169
0
ARC
8
DEFAULT_255_2_778
10
5.2987455
20
79.7537776
40
0.8972453
50
316.7025253
51
0.155484
0
ARC
8
DEFAULT_255_2_778
10
5.2984686
20
79.7531963
40
0.8970484
50
270.8030542
51
316.7416762
0
ARC
8
DEFAULT_255_2_778
10
5.2958778
20
79.7862992
40
0.9301866
50
270.0005962
51
270.9340436
0
ARC
8
DEFAULT_255_2_778
10
5.2934961
20
79.7533685
40
0.8972592
50
226.5307528
51
270.1527091
0
ARC
8
DEFAULT_255_2_778
10
5.2928566
20
79.7536642
40
0.8970342
50
180.8015346
51
226.5733925
0
ARC
8
DEFAULT_255_2_778
10
5.3250372
20
79.7562222
40
0.9292497
50
180.0006025
51
180.9314852
0
LINE
8
DEFAULT_255_2_778
10
4.3957875
20
79.7562125
11
4.3957875
21
79.7562125
0
ARC
8
DEFAULT_255_2_778
10
9.2930466
20
71.7585889
40
0.897262
50
136.3553735
51
180.145367
0
ARC
8
DEFAULT_255_2_778
10
9.2934801
20
71.7593014
40
0.8970843
50
90.6208726
51
136.4074087
0
ARC
8
DEFAULT_255_2_778
10
9.2958779
20
71.7292154
40
0.927197
50
89.999408
51
90.748893
0
ARC
8
DEFAULT_255_2_778
10
9.2982953
20
71.7591982
40
0.8972175
50
46.6984764
51
90.1537573
0
ARC
8
DEFAULT_255_2_778
10
9.2988682
20
71.7588413
40
0.8970845
50
0.8061688
51
46.7407367
0
ARC
8
DEFAULT_255_2_778
10
9.2661561
20
71.7563028
40
0.9298314
50
0.0005966
51
0.9342169
0
ARC
8
DEFAULT_255_2_778
10
9.2987455
20
71.7538776
40
0.8972453
50
316.7025253
51
0.155484
0
ARC
8
DEFAULT_255_2_778
10
9.2984686
20
71.7532963
40
0.8970484
50
270.8030542
51
316.7416762
0
ARC
8
DEFAULT_255_2_778
10
9.2958778
20
71.7863992
40
0.9301866
50
270.0005962
51
270.9340436
0
ARC
8
DEFAULT_255_2_778
10
9.2934961
20
71.7534685
40
0.8972592
50
226.5307528
51
270.1527091
0
ARC
8
DEFAULT_255_2_778
10
9.2928566
20
71.7537642
40
0.8970342
50
180.8015346
51
226.5733925
0
ARC
8
DEFAULT_255_2_778
10
9.3250372
20
71.7563222
40
0.9292497
50
180.0006025
51
180.9314852
0
LINE
8
DEFAULT_255_2_778
10
8.3957875
20
71.7563125
11
8.3957875
21
71.7563125
0
ARC
8
DEFAULT_255_2_778
10
9.2930466
20
75.7585889
40
0.897262
50
136.3553735
51
180.145367
0
ARC
8
DEFAULT_255_2_778
10
9.2934801
20
75.7593014
40
0.8970843
50
90.6208726
51
136.4074087
0
ARC
8
DEFAULT_255_2_778
10
9.2958779
20
75.7292154
40
0.927197
50
89.999408
51
90.748893
0
ARC
8
DEFAULT_255_2_778
10
9.2982953
20
75.7591982
40
0.8972175
50
46.6984764
51
90.1537573
0
ARC
8
DEFAULT_255_2_778
10
9.2988682
20
75.7588413
40
0.8970845
50
0.8061688
51
46.7407367
0
ARC
8
DEFAULT_255_2_778
10
9.2661561
20
75.7563028
40
0.9298314
50
0.0005966
51
0.9342169
0
ARC
8
DEFAULT_255_2_778
10
9.2987455
20
75.7538776
40
0.8972453
50
316.7025253
51
0.155484
0
ARC
8
DEFAULT_255_2_778
10
9.2984686
20
75.7532963
40
0.8970484
50
270.8030542
51
316.7416762
0
ARC
8
DEFAULT_255_2_778
10
9.2958778
20
75.7863992
40
0.9301866
50
270.0005962
51
270.9340436
0
ARC
8
DEFAULT_255_2_778
10
9.2934961
20
75.7534685
40
0.8972592
50
226.5307528
51
270.1527091
0
ARC
8
DEFAULT_255_2_778
10
9.2928566
20
75.7537642
40
0.8970342
50
180.8015346
51
226.5733925
0
ARC
8
DEFAULT_255_2_778
10
9.3250372
20
75.7563222
40
0.9292497
50
180.0006025
51
180.9314852
0
LINE
8
DEFAULT_255_2_778
10
8.3957875
20
75.7563125
11
8.3957875
21
75.7563125
0
ARC
8
DEFAULT_255_2_778
10
5.2930466
20
71.7585889
40
0.897262
50
136.3553735
51
180.145367
0
ARC
8
DEFAULT_255_2_778
10
5.2934801
20
71.7593014
40
0.8970843
50
90.6208726
51
136.4074087
0
ARC
8
DEFAULT_255_2_778
10
5.2958779
20
71.7292154
40
0.927197
50
89.999408
51
90.748893
0
ARC
8
DEFAULT_255_2_778
10
5.2982953
20
71.7591982
40
0.8972175
50
46.6984764
51
90.1537573
0
ARC
8
DEFAULT_255_2_778
10
5.2988682
20
71.7588413
40
0.8970845
50
0.8061688
51
46.7407367
0
ARC
8
DEFAULT_255_2_778
10
5.2661561
20
71.7563028
40
0.9298314
50
0.0005966
51
0.9342169
0
ARC
8
DEFAULT_255_2_778
10
5.2987455
20
71.7538776
40
0.8972453
50
316.7025253
51
0.155484
0
ARC
8
DEFAULT_255_2_778
10
5.2984686
20
71.7532963
40
0.8970484
50
270.8030542
51
316.7416762
0
ARC
8
DEFAULT_255_2_778
10
5.2958778
20
71.7863992
40
0.9301866
50
270.0005962
51
270.9340436
0
ARC
8
DEFAULT_255_2_778
10
5.2934961
20
71.7534685
40
0.8972592
50
226.5307528
51
270.1527091
0
ARC
8
DEFAULT_255_2_778
10
5.2928566
20
71.7537642
40
0.8970342
50
180.8015346
51
226.5733925
0
ARC
8
DEFAULT_255_2_778
10
5.3250372
20
71.7563222
40
0.9292497
50
180.0006025
51
180.9314852
0
LINE
8
DEFAULT_255_2_778
10
4.3957875
20
71.7563125
11
4.3957875
21
71.7563125
0
LINE
8
DEFAULT_255_2_778
10
16.1956896
20
69.7563062
11
16.1956896
21
69.6563062
0
LINE
8
DEFAULT_255_2_778
10
13.5958896
20
69.7563062
11
13.5958896
21
69.6563062
0
LINE
8
DEFAULT_255_2_778
10
16.3956896
20
69.6563062
11
16.3956896
21
69.7563062
0
LINE
8
DEFAULT_255_2_778
10
15.2957896
20
69.6563062
11
15.2957896
21
69.7563062
0
LINE
8
DEFAULT_255_2_778
10
2.6489542
20
86.7266948
11
2.6489542
21
86.5885948
0
LINE
8
DEFAULT_255_2_778
10
2.6489542
20
86.5885948
11
2.1118542
21
86.5885948
0
LINE
8
DEFAULT_255_2_778
10
2.1118542
20
86.5885948
11
2.1118542
21
86.0233948
0
LINE
8
DEFAULT_255_2_778
10
2.1118542
20
86.0233948
11
1.9430542
21
86.0233948
0
LINE
8
DEFAULT_255_2_778
10
1.9430542
20
86.0233948
11
1.9430542
21
87.3031948
0
LINE
8
DEFAULT_255_2_778
10
1.9430542
20
87.3031948
11
2.7357542
21
87.3031948
0
LINE
8
DEFAULT_255_2_778
10
2.7357542
20
87.3031948
11
2.7357542
21
87.1642948
0
LINE
8
DEFAULT_255_2_778
10
2.7357542
20
87.1642948
11
2.1121542
21
87.1642948
0
LINE
8
DEFAULT_255_2_778
10
2.1121542
20
87.1642948
11
2.1121542
21
86.7266948
0
LINE
8
DEFAULT_255_2_778
10
2.1121542
20
86.7266948
11
2.6492542
21
86.7266948
0
LINE
8
DEFAULT_255_2_778
10
2.6492542
20
86.7266948
11
2.6489542
21
86.7266948
0
ARC
8
DEFAULT_255_2_778
10
4.4121531
20
87.0744932
40
0.322771
50
268.5462878
51
299.9672919
0
ARC
8
DEFAULT_255_2_778
10
4.4563779
20
86.9812214
40
0.220034
50
302.1231724
51
309.576959
0
ARC
8
DEFAULT_255_2_778
10
4.4734811
20
86.9607271
40
0.1933409
50
309.539795
51
2.3117992
0
ARC
8
DEFAULT_255_2_778
10
4.4345432
20
86.9817218
40
0.2324962
50
356.7463214
51
35.6595636
0
ARC
8
DEFAULT_255_2_778
10
4.4666901
20
86.9796186
40
0.2086077
50
41.2851958
51
87.7382419
0
ARC
8
DEFAULT_255_2_778
10
4.429442
20
86.7517408
40
0.4386868
50
84.0491743
51
90.1537725
0
ARC
8
DEFAULT_255_2_778
10
4.4149786
20
86.9301016
40
0.2606632
50
87.0783742
51
129.5033642
0
ARC
8
DEFAULT_255_2_778
10
4.3828228
20
86.9814948
40
0.2007086
50
131.7538314
51
182.2182961
0
ARC
8
DEFAULT_255_2_778
10
4.321025
20
86.9784577
40
0.3118963
50
128.3593876
51
180.8692509
0
ARC
8
DEFAULT_255_2_778
10
4.4083699
20
86.8748211
40
0.4473863
50
88.9288532
51
128.8939594
0
ARC
8
DEFAULT_255_2_778
10
4.4280338
20
86.6625728
40
0.6596532
50
89.9973269
51
90.9815782
0
ARC
8
DEFAULT_255_2_778
10
4.4410919
20
86.7916095
40
0.5307765
50
67.9197939
51
91.4064055
0
ARC
8
DEFAULT_255_2_778
10
4.5036563
20
86.9643921
40
0.3472177
50
49.3243455
51
66.768923
0
ARC
8
DEFAULT_255_2_778
10
4.5108724
20
86.9826068
40
0.3287626
50
356.9346184
51
48.2090609
0
ARC
8
DEFAULT_255_2_778
10
4.5749227
20
86.9700416
40
0.2642895
50
321.5023622
51
358.9126059
0
ARC
8
DEFAULT_255_2_778
10
4.5086139
20
87.0122422
40
0.3425535
50
289.8915569
51
322.8821387
0
ARC
8
DEFAULT_255_2_778
10
4.54159
20
86.3648718
40
0.3358199
50
40.0207856
51
75.5894973
0
ARC
8
DEFAULT_255_2_778
10
4.5713195
20
86.4030532
40
0.288677
50
358.2675848
51
38.0114496
0
ARC
8
DEFAULT_255_2_778
10
4.527479
20
86.3804505
40
0.3326751
50
309.7634797
51
2.3904404
0
ARC
8
DEFAULT_255_2_778
10
4.4585484
20
86.4771999
40
0.4512227
50
271.454531
51
308.633741
0
ARC
8
DEFAULT_255_2_778
10
4.4292746
20
86.7185546
40
0.6936287
50
269.9661302
51
273.3661391
0
ARC
8
DEFAULT_255_2_778
10
4.4153278
20
86.5567143
40
0.5319605
50
244.6907379
51
271.4581594
0
ARC
8
DEFAULT_255_2_778
10
4.3659492
20
86.4319645
40
0.3981702
50
231.2757122
51
243.4398669
0
ARC
8
DEFAULT_255_2_778
10
4.3062295
20
86.366258
40
0.3095978
50
178.321592
51
232.2912215
0
ARC
8
DEFAULT_255_2_778
10
4.3696275
20
86.3675643
40
0.1992142
50
177.7670845
51
229.6572928
0
ARC
8
DEFAULT_255_2_778
10
4.413679
20
86.434704
40
0.2790794
50
231.6877568
51
272.6800649
0
ARC
8
DEFAULT_255_2_778
10
4.428614
20
86.6234492
40
0.4675233
50
269.7689158
51
269.9939414
0
ARC
8
DEFAULT_255_2_778
10
4.4414101
20
86.4643946
40
0.3087359
50
267.6154107
51
298.2940534
0
ARC
8
DEFAULT_255_2_778
10
4.4880615
20
86.3611851
40
0.1959017
50
300.5885844
51
312.4024182
0
ARC
8
DEFAULT_255_2_778
10
4.4628707
20
86.3762535
40
0.2241746
50
314.5601844
51
3.7527598
0
ARC
8
DEFAULT_255_2_778
10
4.4823048
20
86.4028841
40
0.2046096
50
356.6495385
51
50.1317103
0
ARC
8
DEFAULT_255_2_778
10
4.4370881
20
86.3222209
40
0.2959939
50
53.4246891
51
86.657758
0
ARC
8
DEFAULT_255_2_778
10
4.3977052
20
86.0545648
40
0.5659878
50
84.2567025
51
89.4473304
0
LINE
8
DEFAULT_255_2_778
10
4.2740646
20
86.620826
11
4.2740646
21
86.751826
0
LINE
8
DEFAULT_255_2_778
10
4.2740646
20
86.751826
11
4.4039646
21
86.751826
0
LINE
8
DEFAULT_255_2_778
10
4.1822646
20
86.973726
11
4.0091646
21
86.973726
0
LINE
8
DEFAULT_255_2_778
10
3.9967646
20
86.375326
11
4.1705646
21
86.375326
0
LINE
8
DEFAULT_255_2_778
10
4.4031646
20
86.620526
11
4.2732646
21
86.620526
0
LINE
8
DEFAULT_255_2_778
10
4.2732646
20
86.620526
11
4.2740646
21
86.620826
0
LINE
8
DEFAULT_255_2_778
10
3.0471917
20
87.3031625
11
3.3556917
21
86.8126625
0
LINE
8
DEFAULT_255_2_778
10
3.3556917
20
86.8126625
11
3.6622917
21
87.3031625
0
LINE
8
DEFAULT_255_2_778
10
3.6622917
20
87.3031625
11
3.8609917
21
87.3031625
0
LINE
8
DEFAULT_255_2_778
10
3.8609917
20
87.3031625
11
3.4566917
21
86.6686625
0
LINE
8
DEFAULT_255_2_778
10
3.4566917
20
86.6686625
11
3.8707917
21
86.0236625
0
LINE
8
DEFAULT_255_2_778
10
3.8707917
20
86.0236625
11
3.6704917
21
86.0236625
0
LINE
8
DEFAULT_255_2_778
10
3.6704917
20
86.0236625
11
3.3558917
21
86.5228625
0
LINE
8
DEFAULT_255_2_778
10
3.3558917
20
86.5228625
11
3.0394917
21
86.0236625
0
LINE
8
DEFAULT_255_2_778
10
3.0394917
20
86.0236625
11
2.8399917
21
86.0236625
0
LINE
8
DEFAULT_255_2_778
10
2.8399917
20
86.0236625
11
3.2548917
21
86.6686625
0
LINE
8
DEFAULT_255_2_778
10
3.2548917
20
86.6686625
11
2.8497917
21
87.3031625
0
LINE
8
DEFAULT_255_2_778
10
2.8497917
20
87.3031625
11
3.0473917
21
87.3031625
0
LINE
8
DEFAULT_255_2_778
10
3.0473917
20
87.3031625
11
3.0471917
21
87.3031625
0
ARC
8
DEFAULT_255_2_778
10
5.5913583
20
86.4010735
40
0.3937073
50
313.5502203
51
1.5649917
0
ARC
8
DEFAULT_255_2_778
10
5.5371569
20
86.4731227
40
0.4833816
50
276.6671503
51
312.322431
0
ARC
8
DEFAULT_255_2_778
10
5.4840762
20
86.7323619
40
0.747373
50
273.7931772
51
278.4018166
0
ARC
8
DEFAULT_255_2_778
10
5.4723148
20
86.6202595
40
0.6356665
50
248.9757823
51
271.1721961
0
ARC
8
DEFAULT_255_2_778
10
5.4077515
20
86.4331661
40
0.437919
50
229.8728604
51
248.0786181
0
ARC
8
DEFAULT_255_2_778
10
5.3813773
20
86.3954904
40
0.3921355
50
177.8464374
51
229.271547
0
ARC
8
DEFAULT_255_2_778
10
5.4574456
20
86.4007621
40
0.2889043
50
177.0707236
51
220.1167151
0
ARC
8
DEFAULT_255_2_778
10
5.4190731
20
86.3791254
40
0.2457541
50
222.0239139
51
226.9201186
0
ARC
8
DEFAULT_255_2_778
10
5.4523205
20
86.4297637
40
0.3056227
50
228.8519791
51
268.0243894
0
ARC
8
DEFAULT_255_2_778
10
5.484599
20
86.6635463
40
0.5409207
50
265.4602213
51
270.0762385
0
ARC
8
DEFAULT_255_2_778
10
5.4980036
20
86.5146741
40
0.3922532
50
268.1468272
51
294.8656633
0
ARC
8
DEFAULT_255_2_778
10
5.5521791
20
86.3806315
40
0.2479614
50
296.5320312
51
312.9464367
0
ARC
8
DEFAULT_255_2_778
10
5.526301
20
86.3955181
40
0.2766294
50
314.7694383
51
2.1313014
0
ARC
8
DEFAULT_255_2_778
10
5.3392949
20
86.4144066
40
0.4635239
50
358.9368078
51
0.002406
0
LINE
8
DEFAULT_255_2_778
10
5.8026188
20
87.282026
11
5.9849188
21
87.282026
0
LINE
8
DEFAULT_255_2_778
10
5.9849188
20
87.282026
11
5.9849188
21
86.411826
0
LINE
8
DEFAULT_255_2_778
10
5.5335188
20
85.986626
11
5.4853188
21
85.984726
0
LINE
8
DEFAULT_255_2_778
10
4.9895188
20
86.410226
11
4.9895188
21
87.282026
0
LINE
8
DEFAULT_255_2_778
10
4.9895188
20
87.282026
11
5.1689188
21
87.282026
0
LINE
8
DEFAULT_255_2_778
10
5.1689188
20
87.282026
11
5.1689188
21
86.415526
0
LINE
8
DEFAULT_255_2_778
10
5.8028188
20
86.414426
11
5.8028188
21
87.282026
0
LINE
8
DEFAULT_255_2_778
10
5.8028188
20
87.282026
11
5.8026188
21
87.282026
0
LINE
8
DEFAULT_255_2_778
10
6.5936552
20
86.6333104
11
6.5936552
21
86.5005104
0
LINE
8
DEFAULT_255_2_778
10
6.5936552
20
86.5005104
11
6.1647552
21
86.5005104
0
LINE
8
DEFAULT_255_2_778
10
6.1647552
20
86.5005104
11
6.1647552
21
86.6333104
0
LINE
8
DEFAULT_255_2_778
10
6.1647552
20
86.6333104
11
6.5936552
21
86.6333104
0
LINE
8
DEFAULT_255_2_778
10
6.5936552
20
86.6333104
11
6.5936552
21
86.6333104
0
ARC
8
DEFAULT_255_2_778
10
6.0531912
20
87.6389683
40
1.5096913
50
318.1753552
51
324.0566121
0
ARC
8
DEFAULT_255_2_778
10
6.8067377
20
87.0913074
40
0.5781538
50
324.1620394
51
331.3069661
0
ARC
8
DEFAULT_255_2_778
10
7.0479927
20
86.9594284
40
0.3032066
50
331.2794295
51
359.7727872
0
ARC
8
DEFAULT_255_2_778
10
7.1220875
20
86.9670477
40
0.2292792
50
357.7949693
51
42.6967612
0
ARC
8
DEFAULT_255_2_778
10
7.1384371
20
86.9753479
40
0.2116932
50
44.0465512
51
92.5829675
0
ARC
8
DEFAULT_255_2_778
10
7.113981
20
86.9361612
40
0.2511082
50
86.594616
51
133.3364212
0
ARC
8
DEFAULT_255_2_778
10
7.0919976
20
86.9705042
40
0.2111787
50
135.393321
51
135.8017426
0
ARC
8
DEFAULT_255_2_778
10
7.1332473
20
86.9431639
40
0.2599733
50
137.8200169
51
182.181732
0
ARC
8
DEFAULT_255_2_778
10
7.3153853
20
86.9256521
40
0.4419883
50
179.0128226
51
180.003378
0
ARC
8
DEFAULT_255_2_778
10
7.0882778
20
86.9409168
40
0.3776905
50
134.2567836
51
182.3202464
0
ARC
8
DEFAULT_255_2_778
10
7.1020025
20
86.9104844
40
0.409224
50
90.5026382
51
132.6593239
0
ARC
8
DEFAULT_255_2_778
10
7.1289472
20
86.6846348
40
0.6357914
50
89.9774948
51
92.7527513
0
ARC
8
DEFAULT_255_2_778
10
7.1426089
20
86.8659142
40
0.4547097
50
63.5614971
51
91.6902314
0
ARC
8
DEFAULT_255_2_778
10
7.1912864
20
86.9827731
40
0.3285082
50
47.9540781
51
62.0886893
0
ARC
8
DEFAULT_255_2_778
10
7.1959468
20
86.9909356
40
0.3193318
50
357.5932891
51
47.594189
0
ARC
8
DEFAULT_255_2_778
10
7.0919403
20
86.9905086
40
0.4232557
50
332.2173577
51
358.2422837
0
ARC
8
DEFAULT_255_2_778
10
6.6058695
20
87.2294227
40
0.9647753
50
320.7861291
51
333.1197366
0
ARC
8
DEFAULT_255_2_778
10
6.0518093
20
87.6588841
40
1.6656617
50
317.2122469
51
321.3895933
0
LINE
8
DEFAULT_255_2_778
10
7.5736969
20
86.156026
11
7.5736969
21
86.023126
0
LINE
8
DEFAULT_255_2_778
10
7.5736969
20
86.023126
11
6.7351969
21
86.023126
0
LINE
8
DEFAULT_255_2_778
10
6.7351969
20
86.023126
11
6.7351969
21
86.140126
0
LINE
8
DEFAULT_255_2_778
10
6.7351969
20
86.140126
11
7.1781969
21
86.632226
0
LINE
8
DEFAULT_255_2_778
10
6.8733969
20
86.925626
11
6.7108969
21
86.925626
0
LINE
8
DEFAULT_255_2_778
10
7.2741969
20
86.527426
11
6.9312969
21
86.155726
0
LINE
8
DEFAULT_255_2_778
10
6.9312969
20
86.155726
11
7.5736969
21
86.155726
0
LINE
8
DEFAULT_255_2_778
10
7.5736969
20
86.155726
11
7.5736969
21
86.156026
0
LINE
8
DEFAULT_255_2_778
10
8.7717719
20
87.3031948
11
8.7717719
21
86.0233948
0
LINE
8
DEFAULT_255_2_778
10
8.7717719
20
86.0233948
11
8.6021719
21
86.0233948
0
LINE
8
DEFAULT_255_2_778
10
8.6021719
20
86.0233948
11
8.6021719
21
86.6149948
0
LINE
8
DEFAULT_255_2_778
10
8.6021719
20
86.6149948
11
7.9570719
21
86.6149948
0
LINE
8
DEFAULT_255_2_778
10
7.9570719
20
86.6149948
11
7.9570719
21
86.0233948
0
LINE
8
DEFAULT_255_2_778
10
7.9570719
20
86.0233948
11
7.7882719
21
86.0233948
0
LINE
8
DEFAULT_255_2_778
10
7.7882719
20
86.0233948
11
7.7882719
21
87.3031948
0
LINE
8
DEFAULT_255_2_778
10
7.7882719
20
87.3031948
11
7.9570719
21
87.3031948
0
LINE
8
DEFAULT_255_2_778
10
7.9570719
20
87.3031948
11
7.9570719
21
86.7530948
0
LINE
8
DEFAULT_255_2_778
10
7.9570719
20
86.7530948
11
8.6021719
21
86.7530948
0
LINE
8
DEFAULT_255_2_778
10
8.6021719
20
86.7530948
11
8.6021719
21
87.3031948
0
LINE
8
DEFAULT_255_2_778
10
8.6021719
20
87.3031948
11
8.7717719
21
87.3031948
0
LINE
8
DEFAULT_255_2_778
10
8.7717719
20
87.3031948
11
8.7717719
21
87.3031948
0
ARC
8
DEFAULT_255_2_778
10
9.76235
20
87.7267675
40
1.1756065
50
244.754261
51
254.5174107
0
ARC
8
DEFAULT_255_2_778
10
9.4838888
20
87.1446333
40
0.5303218
50
228.5202105
51
245.1414128
0
ARC
8
DEFAULT_255_2_778
10
9.3267949
20
86.9668961
40
0.2931109
50
179.0175514
51
228.5139196
0
ARC
8
DEFAULT_255_2_778
10
9.343183
20
86.9765026
40
0.3094898
50
127.5351153
51
180.8480633
0
ARC
8
DEFAULT_255_2_778
10
9.4375078
20
86.8613652
40
0.4582822
50
91.9754946
51
128.1165491
0
ARC
8
DEFAULT_255_2_778
10
9.4683921
20
86.6159004
40
0.7050218
50
89.9565237
51
93.7965521
0
ARC
8
DEFAULT_255_2_778
10
9.4782649
20
86.7970693
40
0.5239357
50
64.4634036
51
91.0212083
0
ARC
8
DEFAULT_255_2_778
10
9.537613
20
86.9186116
40
0.3886844
50
32.8274841
51
64.6336595
0
ARC
8
DEFAULT_255_2_778
10
9.5606543
20
86.9354851
40
0.3601793
50
359.6558751
51
32.5589695
0
ARC
8
DEFAULT_255_2_778
10
9.5187497
20
86.9452968
40
0.2327856
50
357.0512933
51
47.0275902
0
ARC
8
DEFAULT_255_2_778
10
9.4964577
20
86.8984117
40
0.2827193
50
50.200508
51
89.3034003
0
ARC
8
DEFAULT_255_2_778
10
9.4696219
20
86.6791013
40
0.5029206
50
86.5490352
51
90.0449824
0
ARC
8
DEFAULT_255_2_778
10
9.4565671
20
86.8378227
40
0.3444319
50
87.8935447
51
115.8547492
0
ARC
8
DEFAULT_255_2_778
10
9.406912
20
86.9581203
40
0.2146624
50
117.9307004
51
128.1103247
0
ARC
8
DEFAULT_255_2_778
10
9.387823
20
86.9829016
40
0.1833829
50
128.1961704
51
182.5877729
0
ARC
8
DEFAULT_255_2_778
10
9.3690909
20
86.9743518
40
0.164464
50
179.9059149
51
233.3972864
0
ARC
8
DEFAULT_255_2_778
10
9.5309191
20
87.1861083
40
0.4309675
50
232.9118337
51
249.6151777
0
ARC
8
DEFAULT_255_2_778
10
9.8015423
20
87.8479394
40
1.1458491
50
248.457846
51
254.5829902
0
ARC
8
DEFAULT_255_2_778
10
9.1541074
20
85.4746308
40
1.3141926
50
66.6681402
51
74.8789302
0
ARC
8
DEFAULT_255_2_778
10
9.4121055
20
86.0825922
40
0.6537764
50
59.244872
51
66.3275553
0
ARC
8
DEFAULT_255_2_778
10
9.560284
20
86.3132935
40
0.3798622
50
32.6483076
51
60.6575725
0
ARC
8
DEFAULT_255_2_778
10
9.6007239
20
86.356561
40
0.3228009
50
358.5906979
51
30.0533924
0
ARC
8
DEFAULT_255_2_778
10
9.6240989
20
86.3399608
40
0.2994534
50
306.5253362
51
1.6573975
0
ARC
8
DEFAULT_255_2_778
10
9.5261738
20
86.4752757
40
0.4664783
50
274.6942128
51
306.2987837
0
ARC
8
DEFAULT_255_2_778
10
9.4798037
20
86.7778845
40
0.7721649
50
269.8607543
51
276.2860189
0
ARC
8
DEFAULT_255_2_778
10
9.4732408
20
86.6077897
40
0.6020861
50
246.3616653
51
270.445964
0
ARC
8
DEFAULT_255_2_778
10
9.3895152
20
86.43834
40
0.4133761
50
216.1271811
51
247.575601
0
ARC
8
DEFAULT_255_2_778
10
9.3314707
20
86.3895624
40
0.3377744
50
179.2265755
51
215.2491165
0
ARC
8
DEFAULT_255_2_778
10
9.384166
20
86.3855933
40
0.2210035
50
177.7884019
51
232.3035204
0
ARC
8
DEFAULT_255_2_778
10
9.4518953
20
86.4872887
40
0.3429937
50
233.7390843
51
269.2306728
0
ARC
8
DEFAULT_255_2_778
10
9.4775965
20
86.715055
40
0.5715333
50
266.9603654
51
270.0331403
0
ARC
8
DEFAULT_255_2_778
10
9.4903515
20
86.5410275
40
0.3976997
50
268.2097461
51
291.6452948
0
ARC
8
DEFAULT_255_2_778
10
9.549958
20
86.3731193
40
0.2197422
50
293.3484884
51
307.1715253
0
ARC
8
DEFAULT_255_2_778
10
9.576986
20
86.3399159
40
0.1769607
50
306.6939007
51
2.1069576
0
ARC
8
DEFAULT_255_2_778
10
9.5797035
20
86.3553996
40
0.1743549
50
357.04845
51
51.5901672
0
ARC
8
DEFAULT_255_2_778
10
9.4306762
20
86.1357802
40
0.4394742
50
54.1554483
51
69.0659669
0
ARC
8
DEFAULT_255_2_778
10
9.0771126
20
85.2768209
40
1.3682604
50
68.08916
51
74.2363706
0
LINE
8
DEFAULT_255_2_778
10
9.9208271
20
86.9333219
11
9.7512271
21
86.9333219
0
LINE
8
DEFAULT_255_2_778
10
8.9937271
20
86.3941219
11
9.1633271
21
86.3941219
0
LINE
8
DEFAULT_255_2_778
10
9.4488271
20
86.5936219
11
9.4485271
21
86.5938219
0
LINE
8
DEFAULT_255_2_778
10
10.1973052
20
87.3031948
11
10.5296052
21
86.6607948
0
LINE
8
DEFAULT_255_2_778
10
10.5296052
20
86.6607948
11
10.8635052
21
87.3031948
0
LINE
8
DEFAULT_255_2_778
10
10.8635052
20
87.3031948
11
11.0551052
21
87.3031948
0
LINE
8
DEFAULT_255_2_778
10
11.0551052
20
87.3031948
11
10.6138052
21
86.5006948
0
LINE
8
DEFAULT_255_2_778
10
10.6138052
20
86.5006948
11
10.6138052
21
86.0233948
0
LINE
8
DEFAULT_255_2_778
10
10.6138052
20
86.0233948
11
10.4450052
21
86.0233948
0
LINE
8
DEFAULT_255_2_778
10
10.4450052
20
86.0233948
11
10.4450052
21
86.5006948
0
LINE
8
DEFAULT_255_2_778
10
10.4450052
20
86.5006948
11
10.0039052
21
87.3031948
0
LINE
8
DEFAULT_255_2_778
10
10.0039052
20
87.3031948
11
10.1973052
21
87.3031948
0
LINE
8
DEFAULT_255_2_778
10
10.1973052
20
87.3031948
11
10.1973052
21
87.3031948
0
LINE
8
DEFAULT_255_2_778
10
11.4876552
20
86.6333104
11
11.4876552
21
86.5005104
0
LINE
8
DEFAULT_255_2_778
10
11.4876552
20
86.5005104
11
11.0587552
21
86.5005104
0
LINE
8
DEFAULT_255_2_778
10
11.0587552
20
86.5005104
11
11.0587552
21
86.6333104
0
LINE
8
DEFAULT_255_2_778
10
11.0587552
20
86.6333104
11
11.4876552
21
86.6333104
0
LINE
8
DEFAULT_255_2_778
10
11.4876552
20
86.6333104
11
11.4876552
21
86.6333104
0
LINE
8
DEFAULT_255_2_778
10
12.499999
20
86.0233948
11
12.377699
21
86.3572948
0
LINE
8
DEFAULT_255_2_778
10
12.377699
20
86.3572948
11
11.841699
21
86.3572948
0
LINE
8
DEFAULT_255_2_778
10
11.841699
20
86.3572948
11
11.721299
21
86.0233948
0
LINE
8
DEFAULT_255_2_778
10
11.721299
20
86.0233948
11
11.547199
21
86.0233948
0
LINE
8
DEFAULT_255_2_778
10
11.547199
20
86.0233948
11
12.035899
21
87.3031948
0
LINE
8
DEFAULT_255_2_778
10
12.035899
20
87.3031948
11
12.183499
21
87.3031948
0
LINE
8
DEFAULT_255_2_778
10
12.183499
20
87.3031948
11
12.672999
21
86.0233948
0
LINE
8
DEFAULT_255_2_778
10
12.672999
20
86.0233948
11
12.499999
21
86.0233948
0
LINE
8
DEFAULT_255_2_778
10
12.499999
20
86.0233948
11
12.499999
21
86.0233948
0
LINE
8
DEFAULT_255_2_778
10
12.109699
20
87.0946948
11
11.892699
21
86.4961948
0
LINE
8
DEFAULT_255_2_778
10
11.892699
20
86.4961948
11
12.327699
21
86.4961948
0
LINE
8
DEFAULT_255_2_778
10
12.327699
20
86.4961948
11
12.109699
21
87.0946948
0
LINE
8
DEFAULT_255_2_778
10
12.109699
20
87.0946948
11
12.109699
21
87.0946948
0
ARC
8
DEFAULT_255_2_778
10
13.2181835
20
86.7219246
40
0.5813841
50
60.7933713
51
91.1341417
0
ARC
8
DEFAULT_255_2_778
10
13.253961
20
86.7969845
40
0.4984381
50
26.4882184
51
60.1729287
0
ARC
8
DEFAULT_255_2_778
10
13.0889745
20
86.7170031
40
0.681781
50
359.125263
51
26.320074
0
ARC
8
DEFAULT_255_2_778
10
13.0740392
20
86.6109794
40
0.6967739
50
335.7494256
51
1.1361168
0
ARC
8
DEFAULT_255_2_778
10
13.1934557
20
86.5676274
40
0.5701687
50
332.8666752
51
334.7926012
0
ARC
8
DEFAULT_255_2_778
10
13.2607535
20
86.5273801
40
0.4919486
50
299.2828409
51
333.4636909
0
ARC
8
DEFAULT_255_2_778
10
13.2072352
20
86.6404763
40
0.6168303
50
269.2792542
51
298.4804348
0
ARC
8
DEFAULT_255_2_778
10
13.205816
20
86.5852416
40
0.4239794
50
268.1023238
51
300.8932622
0
ARC
8
DEFAULT_255_2_778
10
13.2392286
20
86.5111624
40
0.3433824
50
302.4557495
51
318.2912361
0
ARC
8
DEFAULT_255_2_778
10
13.1664101
20
86.5629586
40
0.432317
50
319.5877164
51
352.9878436
0
ARC
8
DEFAULT_255_2_778
10
12.8387492
20
86.6245336
40
0.7653355
50
351.4070019
51
0.2740879
0
ARC
8
DEFAULT_255_2_778
10
12.9646208
20
86.7157
40
0.6395835
50
358.8527952
51
18.735942
0
ARC
8
DEFAULT_255_2_778
10
13.2036518
20
86.7917903
40
0.3888068
50
19.4315459
51
39.9585028
0
ARC
8
DEFAULT_255_2_778
10
13.2325597
20
86.8058933
40
0.3576753
50
41.200956
51
90.5156347
0
ARC
8
DEFAULT_255_2_778
10
13.2064216
20
86.5933133
40
0.5707012
50
87.6983883
51
89.5226658
0
LINE
8
DEFAULT_255_2_778
10
13.1997761
20
86.0233948
11
12.8454761
21
86.0233948
0
LINE
8
DEFAULT_255_2_778
10
12.8454761
20
86.0233948
11
12.8454761
21
87.3031948
0
LINE
8
DEFAULT_255_2_778
10
12.8454761
20
87.3031948
11
13.2066761
21
87.3031948
0
LINE
8
DEFAULT_255_2_778
10
13.7706761
20
86.7065948
11
13.7706761
21
86.6247948
0
LINE
8
DEFAULT_255_2_778
10
13.1994761
20
86.0236948
11
13.1997761
21
86.0233948
0
LINE
8
DEFAULT_255_2_778
10
13.2111761
20
87.1642948
11
13.0142761
21
87.1642948
0
LINE
8
DEFAULT_255_2_778
10
13.0142761
20
87.1642948
11
13.0142761
21
86.1614948
0
LINE
8
DEFAULT_255_2_778
10
13.0142761
20
86.1614948
11
13.1917761
21
86.1614948
0
LINE
8
DEFAULT_255_2_778
10
13.6040761
20
86.6281948
11
13.6040761
21
86.7028948
0
LINE
8
DEFAULT_255_2_778
10
13.2111761
20
87.1639948
11
13.2111761
21
87.1642948
0
ARC
8
DEFAULT_255_2_778
10
14.510693
20
86.734782
40
0.5685269
50
68.3918138
51
91.3005078
0
ARC
8
DEFAULT_255_2_778
10
14.5744606
20
86.9138042
40
0.378661
50
48.1717566
51
67.3870596
0
ARC
8
DEFAULT_255_2_778
10
14.5828594
20
86.9267423
40
0.3634268
50
357.6850265
51
47.7981006
0
ARC
8
DEFAULT_255_2_778
10
14.5521539
20
86.8980217
40
0.3940859
50
328.2200746
51
2.0418071
0
ARC
8
DEFAULT_255_2_778
10
14.6223349
20
86.8655045
40
0.3174379
50
310.7604668
51
326.5377552
0
ARC
8
DEFAULT_255_2_778
10
14.5635065
20
86.9500383
40
0.4200113
50
277.189033
51
309.3098645
0
ARC
8
DEFAULT_255_2_778
10
14.4999735
20
87.2880579
40
0.7636059
50
269.7010733
51
278.74486
0
ARC
8
DEFAULT_255_2_778
10
14.5104993
20
87.0134802
40
0.3513476
50
267.9269189
51
295.6350312
0
ARC
8
DEFAULT_255_2_778
10
14.5626181
20
86.8877193
40
0.2155449
50
297.6078408
51
311.4103371
0
ARC
8
DEFAULT_255_2_778
10
14.5445509
20
86.8950245
40
0.2331372
50
313.5534272
51
3.7475558
0
ARC
8
DEFAULT_255_2_778
10
14.5369488
20
86.9212175
40
0.2404904
50
357.3891038
51
45.6071871
0
ARC
8
DEFAULT_255_2_778
10
14.5180818
20
86.8825143
40
0.2816733
50
48.3734753
51
91.1397127
0
ARC
8
DEFAULT_255_2_778
10
14.4976286
20
86.6997318
40
0.4646375
50
88.1684173
51
88.7715897
0
LINE
8
DEFAULT_255_2_778
10
14.4959896
20
86.5244625
11
14.1945896
21
86.5244625
0
LINE
8
DEFAULT_255_2_778
10
14.1945896
20
86.5244625
11
14.1945896
21
86.0236625
0
LINE
8
DEFAULT_255_2_778
10
14.1945896
20
86.0236625
11
14.0257896
21
86.0236625
0
LINE
8
DEFAULT_255_2_778
10
14.0257896
20
86.0236625
11
14.0257896
21
87.3031625
0
LINE
8
DEFAULT_255_2_778
10
14.0257896
20
87.3031625
11
14.4977896
21
87.3031625
0
LINE
8
DEFAULT_255_2_778
10
14.4959896
20
86.5244625
11
14.4959896
21
86.5244625
0
LINE
8
DEFAULT_255_2_778
10
14.1945896
20
87.1642625
11
14.1945896
21
86.6623625
0
LINE
8
DEFAULT_255_2_778
10
14.1945896
20
86.6623625
11
14.4977896
21
86.6623625
0
LINE
8
DEFAULT_255_2_778
10
14.5075896
20
87.1642625
11
14.1945896
21
87.1642625
0
LINE
8
DEFAULT_255_2_778
10
14.1945896
20
87.1642625
11
14.1945896
21
87.1642625
0
ARC
8
DEFAULT_255_2_778
10
16.7954629
20
88.7563211
40
0.5000956
50
0.0053149
51
45.0041129
0
ARC
8
DEFAULT_255_2_778
10
16.795552
20
88.7563681
40
0.4999994
50
45.0075237
51
90.0107106
0
ARC
8
DEFAULT_255_2_778
10
1.1959127
20
88.7563133
40
0.5000542
50
90.0062131
51
179.9937926
0
ARC
8
DEFAULT_255_2_778
10
1.1959341
20
0.756443
40
0.5000756
50
179.9971903
51
269.9913379
0
ARC
8
DEFAULT_255_2_778
10
16.7956829
20
0.756443
40
0.5000756
50
270.0086621
51
0.0028016
0
ARC
8
DEFAULT_255_2_778
10
0.9905087
20
88.7569186
40
0.7947506
50
159.5060487
51
179.9798713
0
ARC
8
DEFAULT_255_2_778
10
1.0575849
20
88.7574053
40
0.8618269
50
180.0137997
51
180.068998
0
ARC
8
DEFAULT_255_2_778
10
1.1920801
20
88.7577865
40
0.9963226
50
138.3541388
51
180.0816049
0
ARC
8
DEFAULT_255_2_778
10
1.1947422
20
88.758806
40
0.9976376
50
91.732932
51
138.4994886
0
ARC
8
DEFAULT_255_2_778
10
1.1958488
20
88.7377083
40
1.0187592
50
89.9994554
51
91.7592612
0
ARC
8
DEFAULT_255_2_778
10
16.7971776
20
88.7601459
40
0.9963226
50
48.3541388
51
90.0816049
0
ARC
8
DEFAULT_255_2_778
10
16.7981971
20
88.7574839
40
0.9976376
50
1.732932
51
48.4994886
0
ARC
8
DEFAULT_255_2_778
10
16.7770993
20
88.7563772
40
1.0187592
50
359.9994554
51
1.7592612
0
ARC
8
DEFAULT_255_2_778
10
16.7995405
20
0.7550071
40
0.9963191
50
318.3540548
51
0.083984
0
ARC
8
DEFAULT_255_2_778
10
16.7969129
20
0.7540262
40
0.9976339
50
271.7307506
51
318.4964297
0
ARC
8
DEFAULT_255_2_778
10
16.7957682
20
0.7751266
40
1.0187593
50
269.9994553
51
271.7592611
0
ARC
8
DEFAULT_255_2_778
10
1.194414
20
0.7527237
40
0.9963573
50
228.3578711
51
270.0830675
0
ARC
8
DEFAULT_255_2_778
10
1.1933722
20
0.7552932
40
0.9975883
50
181.730003
51
228.5006483
0
ARC
8
DEFAULT_255_2_778
10
1.2148592
20
0.7564576
40
1.0191008
50
179.999446
51
181.7589697
0
ARC
8
DEFAULT_255_2_778
10
0.9962521
20
0.7568052
40
0.8004936
50
180.0241737
51
198.8428129
0
LINE
8
DEFAULT_255_2_778
10
10.7457585
20
61.2565675
11
12.2456585
21
62.7565675
0
LINE
8
DEFAULT_255_2_778
10
12.2456585
20
62.7565675
11
12.2456585
21
52.7565675
0
LINE
8
DEFAULT_255_2_778
10
6.4457585
20
52.7565675
11
6.4457585
21
62.7565675
0
LINE
8
DEFAULT_255_2_778
10
6.4457585
20
62.7565675
11
7.9456585
21
61.2565675
0
LINE
8
DEFAULT_255_2_778
10
8.4957585
20
61.2565675
11
8.4957585
21
54.2565675
0
LINE
8
DEFAULT_255_2_778
10
6.4457585
20
62.7565675
11
12.2456585
21
62.7565675
0
LINE
8
DEFAULT_255_2_778
10
10.3957585
20
57.7564675
11
10.3957585
21
55.7564675
0
LINE
8
DEFAULT_255_2_778
10
10.3957585
20
55.7564675
11
8.8957585
21
55.7564675
0
LINE
8
DEFAULT_255_2_778
10
8.8957585
20
55.7564675
11
8.8957585
21
57.7564675
0
LINE
8
DEFAULT_255_2_778
10
8.8957585
20
57.7564675
11
10.3957585
21
57.7564675
0
LINE
8
DEFAULT_255_2_778
10
10.7457585
20
54.2565675
11
12.2456585
21
52.7565675
0
LINE
8
DEFAULT_255_2_778
10
12.2456585
20
52.7565675
11
6.4457585
21
52.7565675
0
LINE
8
DEFAULT_255_2_778
10
6.4457585
20
52.7565675
11
7.9456585
21
54.2565675
0
LINE
8
DEFAULT_255_2_778
10
7.9456585
20
54.2565675
11
7.9456585
21
61.2565675
0
LINE
8
DEFAULT_255_2_778
10
7.9456585
20
61.2565675
11
10.7457585
21
61.2565675
0
LINE
8
DEFAULT_255_2_778
10
10.7457585
20
61.2565675
11
10.7457585
21
54.2565675
0
LINE
8
DEFAULT_255_2_778
10
10.7457585
20
54.2565675
11
7.9456585
21
54.2565675
0
LINE
8
DEFAULT_255_2_778
10
17.7958585
20
0.7564675
11
17.2957585
21
0.7564675
0
LINE
8
DEFAULT_255_2_778
10
16.7957585
20
-0.2436325
11
16.7957585
21
0.2563675
0
LINE
8
DEFAULT_255_2_778
10
16.7957585
20
89.7564675
11
16.7957585
21
89.2563675
0
LINE
8
DEFAULT_255_2_778
10
17.7955585
20
88.7563675
11
17.2955585
21
88.7563675
0
LINE
8
DEFAULT_255_2_778
10
17.2955585
20
69.7563675
11
17.2955585
21
88.7563675
0
LINE
8
DEFAULT_255_2_778
10
16.7954585
20
89.2563675
11
1.1958585
21
89.2563675
0
LINE
8
DEFAULT_255_2_778
10
0.6958585
20
88.7563675
11
0.6958585
21
0.7564675
0
LINE
8
DEFAULT_255_2_778
10
1.1958585
20
0.2563675
11
16.7957585
21
0.2563675
0
LINE
8
DEFAULT_255_2_778
10
17.2957585
20
0.7564675
11
17.2957585
21
7.7565675
0
LINE
8
DEFAULT_255_2_778
10
17.2957585
20
7.8565675
11
17.2957585
21
69.6563675
0
LINE
8
DEFAULT_255_2_778
10
0.1957585
20
0.7564675
11
0.1957585
21
88.7563675
0
LINE
8
DEFAULT_255_2_778
10
1.1958585
20
89.7564675
11
16.7957585
21
89.7564675
0
LINE
8
DEFAULT_255_2_778
10
17.7958585
20
88.7563675
11
17.7958585
21
0.7564675
0
LINE
8
DEFAULT_255_2_778
10
16.7957585
20
-0.2436325
11
1.1958585
21
-0.2436325
0
LINE
8
DEFAULT_255_2_778
10
0.2386585
20
0.4982675
11
0.2460585
21
0.4778675
0
LINE
8
DEFAULT_255_2_778
10
16.8959585
20
-0.2243325
11
16.8959585
21
-0.2383325
0
LINE
8
DEFAULT_255_2_778
10
10.9958146
20
40.7362552
11
14.9958146
21
40.7362552
0
LINE
8
DEFAULT_255_2_778
10
14.9958146
20
40.7362552
11
14.9958146
21
43.7363552
0
LINE
8
DEFAULT_255_2_778
10
14.9958146
20
43.7363552
11
10.9958146
21
43.7363552
0
LINE
8
DEFAULT_255_2_778
10
10.9958146
20
43.7363552
11
10.9958146
21
40.7362552
0
LINE
8
DEFAULT_255_2_778
10
10.9958146
20
44.5462552
11
14.9958146
21
44.5462552
0
LINE
8
DEFAULT_255_2_778
10
14.9958146
20
44.5462552
11
14.9958146
21
47.5463552
0
LINE
8
DEFAULT_255_2_778
10
14.9958146
20
47.5463552
11
10.9958146
21
47.5463552
0
LINE
8
DEFAULT_255_2_778
10
10.9958146
20
47.5463552
11
10.9958146
21
44.5462552
0
LINE
8
DEFAULT_255_2_778
10
10.9958146
20
33.1162552
11
14.9958146
21
33.1162552
0
LINE
8
DEFAULT_255_2_778
10
14.9958146
20
33.1162552
11
14.9958146
21
36.1163552
0
LINE
8
DEFAULT_255_2_778
10
14.9958146
20
36.1163552
11
10.9958146
21
36.1163552
0
LINE
8
DEFAULT_255_2_778
10
10.9958146
20
36.1163552
11
10.9958146
21
33.1162552
0
LINE
8
DEFAULT_255_2_778
10
10.9958146
20
36.9262552
11
14.9958146
21
36.9262552
0
LINE
8
DEFAULT_255_2_778
10
14.9958146
20
36.9262552
11
14.9958146
21
39.9263552
0
LINE
8
DEFAULT_255_2_778
10
14.9958146
20
39.9263552
11
10.9958146
21
39.9263552
0
LINE
8
DEFAULT_255_2_778
10
10.9958146
20
39.9263552
11
10.9958146
21
36.9262552
0
LINE
8
DEFAULT_255_2_778
10
10.9958146
20
17.0663552
11
10.9958146
21
14.0662552
0
LINE
8
DEFAULT_255_2_778
10
10.9958146
20
14.0662552
11
14.9958146
21
14.0662552
0
LINE
8
DEFAULT_255_2_778
10
14.9958146
20
14.0662552
11
14.9958146
21
17.0663552
0
LINE
8
DEFAULT_255_2_778
10
14.9958146
20
17.0663552
11
10.9958146
21
17.0663552
0
LINE
8
DEFAULT_255_2_778
10
10.9958146
20
13.2563552
11
10.9958146
21
10.2562552
0
LINE
8
DEFAULT_255_2_778
10
10.9958146
20
10.2562552
11
14.9958146
21
10.2562552
0
LINE
8
DEFAULT_255_2_778
10
14.9958146
20
10.2562552
11
14.9958146
21
13.2563552
0
LINE
8
DEFAULT_255_2_778
10
14.9958146
20
13.2563552
11
10.9958146
21
13.2563552
0
LINE
8
DEFAULT_255_2_778
10
10.9958146
20
24.6863552
11
10.9958146
21
21.6862552
0
LINE
8
DEFAULT_255_2_778
10
10.9958146
20
21.6862552
11
14.9958146
21
21.6862552
0
LINE
8
DEFAULT_255_2_778
10
14.9958146
20
21.6862552
11
14.9958146
21
24.6863552
0
LINE
8
DEFAULT_255_2_778
10
14.9958146
20
24.6863552
11
10.9958146
21
24.6863552
0
LINE
8
DEFAULT_255_2_778
10
10.9958146
20
20.8763552
11
10.9958146
21
17.8762552
0
LINE
8
DEFAULT_255_2_778
10
10.9958146
20
17.8762552
11
14.9958146
21
17.8762552
0
LINE
8
DEFAULT_255_2_778
10
14.9958146
20
17.8762552
11
14.9958146
21
20.8763552
0
LINE
8
DEFAULT_255_2_778
10
14.9958146
20
20.8763552
11
10.9958146
21
20.8763552
0
LINE
8
DEFAULT_255_2_778
10
10.9958146
20
28.4963552
11
10.9958146
21
25.4962552
0
LINE
8
DEFAULT_255_2_778
10
10.9958146
20
25.4962552
11
14.9958146
21
25.4962552
0
LINE
8
DEFAULT_255_2_778
10
14.9958146
20
25.4962552
11
14.9958146
21
28.4963552
0
LINE
8
DEFAULT_255_2_778
10
14.9958146
20
28.4963552
11
10.9958146
21
28.4963552
0
LINE
8
DEFAULT_255_2_778
10
10.9958146
20
29.3062552
11
14.9958146
21
29.3062552
0
LINE
8
DEFAULT_255_2_778
10
14.9958146
20
29.3062552
11
14.9958146
21
32.3063552
0
LINE
8
DEFAULT_255_2_778
10
14.9958146
20
32.3063552
11
10.9958146
21
32.3063552
0
LINE
8
DEFAULT_255_2_778
10
10.9958146
20
32.3063552
11
10.9958146
21
29.3062552
0
ARC
8
DEFAULT_255_2_778
10
7.4920466
20
15.5679486
40
0.9962403
50
138.3561595
51
180.0837306
0
ARC
8
DEFAULT_255_2_778
10
7.4946384
20
15.5689578
40
0.9975096
50
91.7301295
51
138.4984071
0
ARC
8
DEFAULT_255_2_778
10
7.4957976
20
15.547737
40
1.0187558
50
89.9994546
51
91.7592604
0
ARC
8
DEFAULT_255_2_778
10
7.4972632
20
15.5702534
40
0.9962403
50
48.3561595
51
90.0837306
0
ARC
8
DEFAULT_255_2_778
10
7.4982725
20
15.5676616
40
0.9975096
50
1.7301295
51
48.4984071
0
ARC
8
DEFAULT_255_2_778
10
7.4770517
20
15.5665024
40
1.0187558
50
359.9994546
51
1.7592604
0
ARC
8
DEFAULT_255_2_778
10
7.4995681
20
15.5650368
40
0.9962403
50
318.3561595
51
0.0837306
0
ARC
8
DEFAULT_255_2_778
10
7.4969762
20
15.5640275
40
0.9975096
50
271.7301295
51
318.4984071
0
ARC
8
DEFAULT_255_2_778
10
7.495817
20
15.5852483
40
1.0187558
50
269.9994546
51
271.7592604
0
ARC
8
DEFAULT_255_2_778
10
7.4943514
20
15.5627319
40
0.9962403
50
228.3561595
51
270.0837306
0
ARC
8
DEFAULT_255_2_778
10
7.4933422
20
15.5653238
40
0.9975096
50
181.7301295
51
228.4984071
0
ARC
8
DEFAULT_255_2_778
10
7.514563
20
15.566483
40
1.0187558
50
179.9994546
51
181.7592604
0
LINE
8
DEFAULT_255_2_778
10
6.4958073
20
15.5664927
11
6.4958073
21
15.5664927
0
ARC
8
DEFAULT_255_2_778
10
7.4920466
20
11.7579486
40
0.9962403
50
138.3561595
51
180.0837306
0
ARC
8
DEFAULT_255_2_778
10
7.4946384
20
11.7589578
40
0.9975096
50
91.7301295
51
138.4984071
0
ARC
8
DEFAULT_255_2_778
10
7.4957976
20
11.737737
40
1.0187558
50
89.9994546
51
91.7592604
0
ARC
8
DEFAULT_255_2_778
10
7.4972632
20
11.7602534
40
0.9962403
50
48.3561595
51
90.0837306
0
ARC
8
DEFAULT_255_2_778
10
7.4982725
20
11.7576616
40
0.9975096
50
1.7301295
51
48.4984071
0
ARC
8
DEFAULT_255_2_778
10
7.4770517
20
11.7565024
40
1.0187558
50
359.9994546
51
1.7592604
0
ARC
8
DEFAULT_255_2_778
10
7.4995681
20
11.7550368
40
0.9962403
50
318.3561595
51
0.0837306
0
ARC
8
DEFAULT_255_2_778
10
7.4969762
20
11.7540275
40
0.9975096
50
271.7301295
51
318.4984071
0
ARC
8
DEFAULT_255_2_778
10
7.495817
20
11.7752483
40
1.0187558
50
269.9994546
51
271.7592604
0
ARC
8
DEFAULT_255_2_778
10
7.4943514
20
11.7527319
40
0.9962403
50
228.3561595
51
270.0837306
0
ARC
8
DEFAULT_255_2_778
10
7.4933422
20
11.7553238
40
0.9975096
50
181.7301295
51
228.4984071
0
ARC
8
DEFAULT_255_2_778
10
7.514563
20
11.756483
40
1.0187558
50
179.9994546
51
181.7592604
0
LINE
8
DEFAULT_255_2_778
10
6.4958073
20
11.7564927
11
6.4958073
21
11.7564927
0
ARC
8
DEFAULT_255_2_778
10
7.4920466
20
23.1879486
40
0.9962403
50
138.3561595
51
180.0837306
0
ARC
8
DEFAULT_255_2_778
10
7.4946384
20
23.1889578
40
0.9975096
50
91.7301295
51
138.4984071
0
ARC
8
DEFAULT_255_2_778
10
7.4957976
20
23.167737
40
1.0187558
50
89.9994546
51
91.7592604
0
ARC
8
DEFAULT_255_2_778
10
7.4972632
20
23.1902534
40
0.9962403
50
48.3561595
51
90.0837306
0
ARC
8
DEFAULT_255_2_778
10
7.4982725
20
23.1876616
40
0.9975096
50
1.7301295
51
48.4984071
0
ARC
8
DEFAULT_255_2_778
10
7.4770517
20
23.1865024
40
1.0187558
50
359.9994546
51
1.7592604
0
ARC
8
DEFAULT_255_2_778
10
7.4995681
20
23.1850368
40
0.9962403
50
318.3561595
51
0.0837306
0
ARC
8
DEFAULT_255_2_778
10
7.4969762
20
23.1840275
40
0.9975096
50
271.7301295
51
318.4984071
0
ARC
8
DEFAULT_255_2_778
10
7.495817
20
23.2052483
40
1.0187558
50
269.9994546
51
271.7592604
0
ARC
8
DEFAULT_255_2_778
10
7.4943514
20
23.1827319
40
0.9962403
50
228.3561595
51
270.0837306
0
ARC
8
DEFAULT_255_2_778
10
7.4933422
20
23.1853238
40
0.9975096
50
181.7301295
51
228.4984071
0
ARC
8
DEFAULT_255_2_778
10
7.514563
20
23.186483
40
1.0187558
50
179.9994546
51
181.7592604
0
LINE
8
DEFAULT_255_2_778
10
6.4958073
20
23.1864927
11
6.4958073
21
23.1864927
0
ARC
8
DEFAULT_255_2_778
10
7.4920466
20
19.3779486
40
0.9962403
50
138.3561595
51
180.0837306
0
ARC
8
DEFAULT_255_2_778
10
7.4946384
20
19.3789578
40
0.9975096
50
91.7301295
51
138.4984071
0
ARC
8
DEFAULT_255_2_778
10
7.4957976
20
19.357737
40
1.0187558
50
89.9994546
51
91.7592604
0
ARC
8
DEFAULT_255_2_778
10
7.4972632
20
19.3802534
40
0.9962403
50
48.3561595
51
90.0837306
0
ARC
8
DEFAULT_255_2_778
10
7.4982725
20
19.3776616
40
0.9975096
50
1.7301295
51
48.4984071
0
ARC
8
DEFAULT_255_2_778
10
7.4770517
20
19.3765024
40
1.0187558
50
359.9994546
51
1.7592604
0
ARC
8
DEFAULT_255_2_778
10
7.4995681
20
19.3750368
40
0.9962403
50
318.3561595
51
0.0837306
0
ARC
8
DEFAULT_255_2_778
10
7.4969762
20
19.3740275
40
0.9975096
50
271.7301295
51
318.4984071
0
ARC
8
DEFAULT_255_2_778
10
7.495817
20
19.3952483
40
1.0187558
50
269.9994546
51
271.7592604
0
ARC
8
DEFAULT_255_2_778
10
7.4943514
20
19.3727319
40
0.9962403
50
228.3561595
51
270.0837306
0
ARC
8
DEFAULT_255_2_778
10
7.4933422
20
19.3753238
40
0.9975096
50
181.7301295
51
228.4984071
0
ARC
8
DEFAULT_255_2_778
10
7.514563
20
19.376483
40
1.0187558
50
179.9994546
51
181.7592604
0
LINE
8
DEFAULT_255_2_778
10
6.4958073
20
19.3764927
11
6.4958073
21
19.3764927
0
ARC
8
DEFAULT_255_2_778
10
7.4920466
20
30.8079486
40
0.9962403
50
138.3561595
51
180.0837306
0
ARC
8
DEFAULT_255_2_778
10
7.4946384
20
30.8089578
40
0.9975096
50
91.7301295
51
138.4984071
0
ARC
8
DEFAULT_255_2_778
10
7.4957976
20
30.787737
40
1.0187558
50
89.9994546
51
91.7592604
0
ARC
8
DEFAULT_255_2_778
10
7.4972632
20
30.8102534
40
0.9962403
50
48.3561595
51
90.0837306
0
ARC
8
DEFAULT_255_2_778
10
7.4982725
20
30.8076616
40
0.9975096
50
1.7301295
51
48.4984071
0
ARC
8
DEFAULT_255_2_778
10
7.4770517
20
30.8065024
40
1.0187558
50
359.9994546
51
1.7592604
0
ARC
8
DEFAULT_255_2_778
10
7.4995681
20
30.8050368
40
0.9962403
50
318.3561595
51
0.0837306
0
ARC
8
DEFAULT_255_2_778
10
7.4969762
20
30.8040275
40
0.9975096
50
271.7301295
51
318.4984071
0
ARC
8
DEFAULT_255_2_778
10
7.495817
20
30.8252483
40
1.0187558
50
269.9994546
51
271.7592604
0
ARC
8
DEFAULT_255_2_778
10
7.4943514
20
30.8027319
40
0.9962403
50
228.3561595
51
270.0837306
0
ARC
8
DEFAULT_255_2_778
10
7.4933422
20
30.8053238
40
0.9975096
50
181.7301295
51
228.4984071
0
ARC
8
DEFAULT_255_2_778
10
7.514563
20
30.806483
40
1.0187558
50
179.9994546
51
181.7592604
0
LINE
8
DEFAULT_255_2_778
10
6.4958073
20
30.8064927
11
6.4958073
21
30.8064927
0
ARC
8
DEFAULT_255_2_778
10
7.4920466
20
26.9979486
40
0.9962403
50
138.3561595
51
180.0837306
0
ARC
8
DEFAULT_255_2_778
10
7.4946384
20
26.9989578
40
0.9975096
50
91.7301295
51
138.4984071
0
ARC
8
DEFAULT_255_2_778
10
7.4957976
20
26.977737
40
1.0187558
50
89.9994546
51
91.7592604
0
ARC
8
DEFAULT_255_2_778
10
7.4972632
20
27.0002534
40
0.9962403
50
48.3561595
51
90.0837306
0
ARC
8
DEFAULT_255_2_778
10
7.4982725
20
26.9976616
40
0.9975096
50
1.7301295
51
48.4984071
0
ARC
8
DEFAULT_255_2_778
10
7.4770517
20
26.9965024
40
1.0187558
50
359.9994546
51
1.7592604
0
ARC
8
DEFAULT_255_2_778
10
7.4995681
20
26.9950368
40
0.9962403
50
318.3561595
51
0.0837306
0
ARC
8
DEFAULT_255_2_778
10
7.4969762
20
26.9940275
40
0.9975096
50
271.7301295
51
318.4984071
0
ARC
8
DEFAULT_255_2_778
10
7.495817
20
27.0152483
40
1.0187558
50
269.9994546
51
271.7592604
0
ARC
8
DEFAULT_255_2_778
10
7.4943514
20
26.9927319
40
0.9962403
50
228.3561595
51
270.0837306
0
ARC
8
DEFAULT_255_2_778
10
7.4933422
20
26.9953238
40
0.9975096
50
181.7301295
51
228.4984071
0
ARC
8
DEFAULT_255_2_778
10
7.514563
20
26.996483
40
1.0187558
50
179.9994546
51
181.7592604
0
LINE
8
DEFAULT_255_2_778
10
6.4958073
20
26.9964927
11
6.4958073
21
26.9964927
0
ARC
8
DEFAULT_255_2_778
10
7.4920466
20
38.4279486
40
0.9962403
50
138.3561595
51
180.0837306
0
ARC
8
DEFAULT_255_2_778
10
7.4946384
20
38.4289578
40
0.9975096
50
91.7301295
51
138.4984071
0
ARC
8
DEFAULT_255_2_778
10
7.4957976
20
38.407737
40
1.0187558
50
89.9994546
51
91.7592604
0
ARC
8
DEFAULT_255_2_778
10
7.4972632
20
38.4302534
40
0.9962403
50
48.3561595
51
90.0837306
0
ARC
8
DEFAULT_255_2_778
10
7.4982725
20
38.4276616
40
0.9975096
50
1.7301295
51
48.4984071
0
ARC
8
DEFAULT_255_2_778
10
7.4770517
20
38.4265024
40
1.0187558
50
359.9994546
51
1.7592604
0
ARC
8
DEFAULT_255_2_778
10
7.4995681
20
38.4250368
40
0.9962403
50
318.3561595
51
0.0837306
0
ARC
8
DEFAULT_255_2_778
10
7.4969762
20
38.4240275
40
0.9975096
50
271.7301295
51
318.4984071
0
ARC
8
DEFAULT_255_2_778
10
7.495817
20
38.4452483
40
1.0187558
50
269.9994546
51
271.7592604
0
ARC
8
DEFAULT_255_2_778
10
7.4943514
20
38.4227319
40
0.9962403
50
228.3561595
51
270.0837306
0
ARC
8
DEFAULT_255_2_778
10
7.4933422
20
38.4253238
40
0.9975096
50
181.7301295
51
228.4984071
0
ARC
8
DEFAULT_255_2_778
10
7.514563
20
38.426483
40
1.0187558
50
179.9994546
51
181.7592604
0
LINE
8
DEFAULT_255_2_778
10
6.4958073
20
38.4264927
11
6.4958073
21
38.4264927
0
ARC
8
DEFAULT_255_2_778
10
7.4920466
20
34.6179486
40
0.9962403
50
138.3561595
51
180.0837306
0
ARC
8
DEFAULT_255_2_778
10
7.4946384
20
34.6189578
40
0.9975096
50
91.7301295
51
138.4984071
0
ARC
8
DEFAULT_255_2_778
10
7.4957976
20
34.597737
40
1.0187558
50
89.9994546
51
91.7592604
0
ARC
8
DEFAULT_255_2_778
10
7.4972632
20
34.6202534
40
0.9962403
50
48.3561595
51
90.0837306
0
ARC
8
DEFAULT_255_2_778
10
7.4982725
20
34.6176616
40
0.9975096
50
1.7301295
51
48.4984071
0
ARC
8
DEFAULT_255_2_778
10
7.4770517
20
34.6165024
40
1.0187558
50
359.9994546
51
1.7592604
0
ARC
8
DEFAULT_255_2_778
10
7.4995681
20
34.6150368
40
0.9962403
50
318.3561595
51
0.0837306
0
ARC
8
DEFAULT_255_2_778
10
7.4969762
20
34.6140275
40
0.9975096
50
271.7301295
51
318.4984071
0
ARC
8
DEFAULT_255_2_778
10
7.495817
20
34.6352483
40
1.0187558
50
269.9994546
51
271.7592604
0
ARC
8
DEFAULT_255_2_778
10
7.4943514
20
34.6127319
40
0.9962403
50
228.3561595
51
270.0837306
0
ARC
8
DEFAULT_255_2_778
10
7.4933422
20
34.6153238
40
0.9975096
50
181.7301295
51
228.4984071
0
ARC
8
DEFAULT_255_2_778
10
7.514563
20
34.616483
40
1.0187558
50
179.9994546
51
181.7592604
0
LINE
8
DEFAULT_255_2_778
10
6.4958073
20
34.6164927
11
6.4958073
21
34.6164927
0
ARC
8
DEFAULT_255_2_778
10
7.4920466
20
46.0479486
40
0.9962403
50
138.3561595
51
180.0837306
0
ARC
8
DEFAULT_255_2_778
10
7.4946384
20
46.0489578
40
0.9975096
50
91.7301295
51
138.4984071
0
ARC
8
DEFAULT_255_2_778
10
7.4957976
20
46.027737
40
1.0187558
50
89.9994546
51
91.7592604
0
ARC
8
DEFAULT_255_2_778
10
7.4972632
20
46.0502534
40
0.9962403
50
48.3561595
51
90.0837306
0
ARC
8
DEFAULT_255_2_778
10
7.4982725
20
46.0476616
40
0.9975096
50
1.7301295
51
48.4984071
0
ARC
8
DEFAULT_255_2_778
10
7.4770517
20
46.0465024
40
1.0187558
50
359.9994546
51
1.7592604
0
ARC
8
DEFAULT_255_2_778
10
7.4995681
20
46.0450368
40
0.9962403
50
318.3561595
51
0.0837306
0
ARC
8
DEFAULT_255_2_778
10
7.4969762
20
46.0440275
40
0.9975096
50
271.7301295
51
318.4984071
0
ARC
8
DEFAULT_255_2_778
10
7.495817
20
46.0652483
40
1.0187558
50
269.9994546
51
271.7592604
0
ARC
8
DEFAULT_255_2_778
10
7.4943514
20
46.0427319
40
0.9962403
50
228.3561595
51
270.0837306
0
ARC
8
DEFAULT_255_2_778
10
7.4933422
20
46.0453238
40
0.9975096
50
181.7301295
51
228.4984071
0
ARC
8
DEFAULT_255_2_778
10
7.514563
20
46.046483
40
1.0187558
50
179.9994546
51
181.7592604
0
LINE
8
DEFAULT_255_2_778
10
6.4958073
20
46.0464927
11
6.4958073
21
46.0464927
0
ARC
8
DEFAULT_255_2_778
10
7.4920466
20
42.2379486
40
0.9962403
50
138.3561595
51
180.0837306
0
ARC
8
DEFAULT_255_2_778
10
7.4946384
20
42.2389578
40
0.9975096
50
91.7301295
51
138.4984071
0
ARC
8
DEFAULT_255_2_778
10
7.4957976
20
42.217737
40
1.0187558
50
89.9994546
51
91.7592604
0
ARC
8
DEFAULT_255_2_778
10
7.4972632
20
42.2402534
40
0.9962403
50
48.3561595
51
90.0837306
0
ARC
8
DEFAULT_255_2_778
10
7.4982725
20
42.2376616
40
0.9975096
50
1.7301295
51
48.4984071
0
ARC
8
DEFAULT_255_2_778
10
7.4770517
20
42.2365024
40
1.0187558
50
359.9994546
51
1.7592604
0
ARC
8
DEFAULT_255_2_778
10
7.4995681
20
42.2350368
40
0.9962403
50
318.3561595
51
0.0837306
0
ARC
8
DEFAULT_255_2_778
10
7.4969762
20
42.2340275
40
0.9975096
50
271.7301295
51
318.4984071
0
ARC
8
DEFAULT_255_2_778
10
7.495817
20
42.2552483
40
1.0187558
50
269.9994546
51
271.7592604
0
ARC
8
DEFAULT_255_2_778
10
7.4943514
20
42.2327319
40
0.9962403
50
228.3561595
51
270.0837306
0
ARC
8
DEFAULT_255_2_778
10
7.4933422
20
42.2353238
40
0.9975096
50
181.7301295
51
228.4984071
0
ARC
8
DEFAULT_255_2_778
10
7.514563
20
42.236483
40
1.0187558
50
179.9994546
51
181.7592604
0
LINE
8
DEFAULT_255_2_778
10
6.4958073
20
42.2364927
11
6.4958073
21
42.2364927
0
LINE
8
DEFAULT_255_2_778
10
9.4959
20
9.4565224
11
9.4959
21
48.3465224
0
LINE
8
DEFAULT_255_2_778
10
10.4959929
20
9.4565224
11
10.4959929
21
48.3465224
0
LINE
8
DEFAULT_255_2_778
10
10.4959929
20
48.3465224
11
15.4960929
21
48.3465224
0
LINE
8
DEFAULT_255_2_778
10
15.4960929
20
48.3465224
11
15.4960929
21
9.4565224
0
LINE
8
DEFAULT_255_2_778
10
15.4960929
20
9.4565224
11
3.1958929
21
9.4565224
0
LINE
8
DEFAULT_255_2_778
10
3.1958929
20
9.4565224
11
3.1958929
21
48.3465224
0
LINE
8
DEFAULT_255_2_778
10
3.1958929
20
48.3465224
11
10.4959929
21
48.3465224
0
ENDSEC
0
EOF