0
SECTION
2
HEADER
9
$MEASUREMENT
70
1
0
ENDSEC
0
SECTION
2
TABLES
0
TABLE
2
LTYPE
0
LTYPE
72
65
70
64
2
CONTINUOUS
3
______
73
0
40
0
0
ENDTAB
0
TABLE
2
LAYER
0
LAYER
2
DEFAULT_255_2_778
70
0
62
255
6
CONTINUOUS
0
ENDTAB
0
ENDSEC
0
SECTION
2
ENTITIES
0
ARC
8
DEFAULT_255_2_778
10
75.8591624
20
24.2489575
40
1.7925235
50
269.9170642
51
296.2369902
0
ARC
8
DEFAULT_255_2_778
10
75.8546989
20
24.257677
40
1.8023179
50
296.2417218
51
350.6143213
0
ARC
8
DEFAULT_255_2_778
10
75.84414
20
24.2557675
40
1.8124277
50
350.7283157
51
0.0211296
0
ARC
8
DEFAULT_255_2_778
10
75.8561579
20
64.6562816
40
1.8004098
50
0.0049075
51
44.9987495
0
ARC
8
DEFAULT_255_2_778
10
75.8562615
20
64.6563419
40
1.8002939
50
44.9997247
51
89.9998045
0
ARC
8
DEFAULT_255_2_778
10
36.4565222
20
64.6562251
40
1.8004107
50
90.0049165
51
134.998735
0
ARC
8
DEFAULT_255_2_778
10
36.45623
20
64.6564257
40
1.8000623
50
134.9966723
51
179.9996762
0
ARC
8
DEFAULT_255_2_778
10
36.4568099
20
24.2565864
40
1.8006423
50
180.0047903
51
224.9956867
0
ARC
8
DEFAULT_255_2_778
10
36.4563776
20
24.2561972
40
1.8000614
50
224.9966578
51
269.9996853
0
LINE
8
DEFAULT_255_2_778
10
15.1563677
20
35.7565358
11
7.1564677
21
34.7563358
0
LINE
8
DEFAULT_255_2_778
10
7.1564677
20
34.7563358
11
5.1564677
21
34.7563358
0
LINE
8
DEFAULT_255_2_778
10
5.1564677
20
34.7563358
11
5.1564677
21
54.7565358
0
LINE
8
DEFAULT_255_2_778
10
5.1564677
20
54.7565358
11
7.1564677
21
54.7565358
0
LINE
8
DEFAULT_255_2_778
10
7.1564677
20
54.7565358
11
15.1563677
21
53.7563358
0
LINE
8
DEFAULT_255_2_778
10
15.1563677
20
53.7563358
11
15.1563677
21
35.7565358
0
LINE
8
DEFAULT_255_2_778
10
72.8757677
20
23.6047358
11
72.8757677
21
65.2395358
0
LINE
8
DEFAULT_255_2_778
10
77.6565677
20
24.2564358
11
77.6565677
21
64.6564358
0
LINE
8
DEFAULT_255_2_778
10
75.8562677
20
66.4566358
11
36.4563677
21
66.4566358
0
LINE
8
DEFAULT_255_2_778
10
34.6561677
20
64.6564358
11
34.6561677
21
24.2564358
0
LINE
8
DEFAULT_255_2_778
10
36.4563677
20
22.4561358
11
75.8562677
21
22.4561358
0
LINE
8
DEFAULT_255_2_778
10
80.8548594
20
20.5999239
11
80.8548594
21
20.7452239
0
LINE
8
DEFAULT_255_2_778
10
80.8548594
20
20.7452239
11
81.5509594
21
21.0240239
0
LINE
8
DEFAULT_255_2_778
10
81.5509594
20
21.0240239
11
80.8548594
21
21.3029239
0
LINE
8
DEFAULT_255_2_778
10
80.8548594
20
21.3029239
11
80.8548594
21
21.4487239
0
LINE
8
DEFAULT_255_2_778
10
80.8548594
20
21.4487239
11
81.7078594
21
21.4487239
0
LINE
8
DEFAULT_255_2_778
10
81.7078594
20
21.4487239
11
81.7078594
21
21.3363239
0
LINE
8
DEFAULT_255_2_778
10
81.7078594
20
21.3363239
11
81.3755594
21
21.3363239
0
LINE
8
DEFAULT_255_2_778
10
81.3755594
20
21.3363239
11
81.0170594
21
21.3468239
0
LINE
8
DEFAULT_255_2_778
10
81.0170594
20
21.3468239
11
81.7078594
21
21.0666239
0
LINE
8
DEFAULT_255_2_778
10
81.7078594
20
21.0666239
11
81.7078594
21
20.9804239
0
LINE
8
DEFAULT_255_2_778
10
81.7078594
20
20.9804239
11
81.0188594
21
20.7010239
0
LINE
8
DEFAULT_255_2_778
10
81.0188594
20
20.7010239
11
81.3758594
21
20.7121239
0
LINE
8
DEFAULT_255_2_778
10
81.3758594
20
20.7121239
11
81.7081594
21
20.7121239
0
LINE
8
DEFAULT_255_2_778
10
81.7081594
20
20.7121239
11
81.7081594
21
20.5997239
0
LINE
8
DEFAULT_255_2_778
10
81.7081594
20
20.5997239
11
80.8551594
21
20.5997239
0
LINE
8
DEFAULT_255_2_778
10
80.8551594
20
20.5997239
11
80.8548594
21
20.5999239
0
LINE
8
DEFAULT_255_2_778
10
81.7077917
20
22.2107114
11
81.4849917
21
22.1292114
0
LINE
8
DEFAULT_255_2_778
10
81.4849917
20
22.1292114
11
81.4849917
21
21.7717114
0
LINE
8
DEFAULT_255_2_778
10
81.4849917
20
21.7717114
11
81.7077917
21
21.6916114
0
LINE
8
DEFAULT_255_2_778
10
81.7077917
20
21.6916114
11
81.7077917
21
21.5757114
0
LINE
8
DEFAULT_255_2_778
10
81.7077917
20
21.5757114
11
80.8547917
21
21.9014114
0
LINE
8
DEFAULT_255_2_778
10
80.8547917
20
21.9014114
11
80.8547917
21
21.9998114
0
LINE
8
DEFAULT_255_2_778
10
80.8547917
20
21.9998114
11
81.7077917
21
22.3263114
0
LINE
8
DEFAULT_255_2_778
10
81.7077917
20
22.3263114
11
81.7077917
21
22.2109114
0
LINE
8
DEFAULT_255_2_778
10
81.7077917
20
22.2109114
11
81.7077917
21
22.2107114
0
LINE
8
DEFAULT_255_2_778
10
80.9933917
20
21.9506114
11
81.3923917
21
21.8059114
0
LINE
8
DEFAULT_255_2_778
10
81.3923917
20
21.8059114
11
81.3923917
21
22.0958114
0
LINE
8
DEFAULT_255_2_778
10
81.3923917
20
22.0958114
11
80.9933917
21
21.9506114
0
LINE
8
DEFAULT_255_2_778
10
80.9933917
20
21.9506114
11
80.9933917
21
21.9506114
0
ARC
8
DEFAULT_255_2_778
10
81.2424569
20
22.6893186
40
0.3876749
50
150.7962191
51
181.144988
0
ARC
8
DEFAULT_255_2_778
10
81.1928771
20
22.7123924
40
0.3331637
50
116.5309083
51
150.0997231
0
ARC
8
DEFAULT_255_2_778
10
81.2455865
20
22.6034
40
0.4542254
50
89.1204148
51
116.3384177
0
ARC
8
DEFAULT_255_2_778
10
81.3172025
20
22.6007801
40
0.4569044
50
63.8655439
51
91.272056
0
ARC
8
DEFAULT_255_2_778
10
81.3720534
20
22.7180869
40
0.327439
50
29.2081483
51
63.4406526
0
ARC
8
DEFAULT_255_2_778
10
81.2959998
20
22.6815406
40
0.4116896
50
359.3084647
51
28.4825698
0
ARC
8
DEFAULT_255_2_778
10
81.3587809
20
22.6862247
40
0.2573959
50
356.7365508
51
46.8369809
0
ARC
8
DEFAULT_255_2_778
10
81.3393455
20
22.6381577
40
0.3063234
50
50.337819
51
87.6735749
0
ARC
8
DEFAULT_255_2_778
10
81.3055247
20
22.3949273
40
0.5512453
50
85.1866273
51
90.0899407
0
ARC
8
DEFAULT_255_2_778
10
81.2419798
20
22.5577673
40
0.388618
50
88.100749
51
115.221525
0
ARC
8
DEFAULT_255_2_778
10
81.1892909
20
22.6876988
40
0.2487407
50
116.9955502
51
130.1336426
0
ARC
8
DEFAULT_255_2_778
10
81.1893263
20
22.6960324
40
0.2424523
50
131.4095513
51
182.7803241
0
LINE
8
DEFAULT_255_2_778
10
81.7078594
20
22.6768718
11
81.7078594
21
22.4408718
0
LINE
8
DEFAULT_255_2_778
10
81.7078594
20
22.4408718
11
80.8548594
21
22.4408718
0
LINE
8
DEFAULT_255_2_778
10
80.8548594
20
22.4408718
11
80.8548594
21
22.6815718
0
LINE
8
DEFAULT_255_2_778
10
81.2525594
20
23.0575718
11
81.3070594
21
23.0575718
0
LINE
8
DEFAULT_255_2_778
10
81.7076594
20
22.6765718
11
81.7078594
21
22.6768718
0
LINE
8
DEFAULT_255_2_778
10
80.9471594
20
22.6844718
11
80.9471594
21
22.5532718
0
LINE
8
DEFAULT_255_2_778
10
80.9471594
20
22.5532718
11
81.6157594
21
22.5532718
0
LINE
8
DEFAULT_255_2_778
10
81.6157594
20
22.5532718
11
81.6157594
21
22.6715718
0
LINE
8
DEFAULT_255_2_778
10
81.3046594
20
22.9461718
11
81.2548594
21
22.9461718
0
LINE
8
DEFAULT_255_2_778
10
80.9471594
20
22.6842718
11
80.9471594
21
22.6844718
0
LINE
8
DEFAULT_255_2_778
10
81.2215594
20
23.7100718
11
81.3136594
21
23.7100718
0
LINE
8
DEFAULT_255_2_778
10
81.3136594
20
23.7100718
11
81.3136594
21
23.3403718
0
LINE
8
DEFAULT_255_2_778
10
81.3136594
20
23.3403718
11
81.6160594
21
23.3403718
0
LINE
8
DEFAULT_255_2_778
10
81.6160594
20
23.3403718
11
81.6160594
21
23.7698718
0
LINE
8
DEFAULT_255_2_778
10
81.6160594
20
23.7698718
11
81.7081594
21
23.7698718
0
LINE
8
DEFAULT_255_2_778
10
81.7081594
20
23.7698718
11
81.7081594
21
23.2279718
0
LINE
8
DEFAULT_255_2_778
10
81.7081594
20
23.2279718
11
80.8551594
21
23.2279718
0
LINE
8
DEFAULT_255_2_778
10
80.8551594
20
23.2279718
11
80.8551594
21
23.7639718
0
LINE
8
DEFAULT_255_2_778
10
80.8551594
20
23.7639718
11
80.9477594
21
23.7639718
0
LINE
8
DEFAULT_255_2_778
10
80.9477594
20
23.7639718
11
80.9477594
21
23.3403718
0
LINE
8
DEFAULT_255_2_778
10
80.9477594
20
23.3403718
11
81.2218594
21
23.3403718
0
LINE
8
DEFAULT_255_2_778
10
81.2218594
20
23.3403718
11
81.2218594
21
23.7100718
0
LINE
8
DEFAULT_255_2_778
10
81.2218594
20
23.7100718
11
81.2215594
21
23.7100718
0
LINE
8
DEFAULT_255_2_778
10
80.8548594
20
24.3275718
11
81.7078594
21
24.3275718
0
LINE
8
DEFAULT_255_2_778
10
81.7078594
20
24.3275718
11
81.7078594
21
24.2151718
0
LINE
8
DEFAULT_255_2_778
10
81.7078594
20
24.2151718
11
80.8548594
21
24.2151718
0
LINE
8
DEFAULT_255_2_778
10
80.8548594
20
24.2151718
11
80.8548594
21
24.3275718
0
LINE
8
DEFAULT_255_2_778
10
80.8548594
20
24.3275718
11
80.8548594
21
24.3275718
0
LINE
8
DEFAULT_255_2_778
10
80.8547917
20
25.1888187
11
81.7077917
21
25.1888187
0
LINE
8
DEFAULT_255_2_778
10
81.7077917
20
25.1888187
11
81.7077917
21
25.0759187
0
LINE
8
DEFAULT_255_2_778
10
81.7077917
20
25.0759187
11
81.0502917
21
24.6464187
0
LINE
8
DEFAULT_255_2_778
10
81.0502917
20
24.6464187
11
81.7077917
21
24.6464187
0
LINE
8
DEFAULT_255_2_778
10
81.7077917
20
24.6464187
11
81.7077917
21
24.5335187
0
LINE
8
DEFAULT_255_2_778
10
81.7077917
20
24.5335187
11
80.8547917
21
24.5335187
0
LINE
8
DEFAULT_255_2_778
10
80.8547917
20
24.5335187
11
80.8547917
21
24.6464187
0
LINE
8
DEFAULT_255_2_778
10
80.8547917
20
24.6464187
11
81.5151917
21
25.0772187
0
LINE
8
DEFAULT_255_2_778
10
81.5151917
20
25.0772187
11
80.8547917
21
25.0772187
0
LINE
8
DEFAULT_255_2_778
10
80.8547917
20
25.0772187
11
80.8547917
21
25.1891187
0
LINE
8
DEFAULT_255_2_778
10
80.8547917
20
25.1891187
11
80.8547917
21
25.1888187
0
ARC
8
DEFAULT_255_2_778
10
81.4728149
20
25.9065139
40
0.2500267
50
44.753056
51
93.2200225
0
ARC
8
DEFAULT_255_2_778
10
81.4452864
20
25.9000624
40
0.2745175
50
357.1777445
51
41.662564
0
ARC
8
DEFAULT_255_2_778
10
81.4169681
20
25.8732231
40
0.302796
50
328.0807811
51
2.5217626
0
ARC
8
DEFAULT_255_2_778
10
81.4953396
20
25.8343259
40
0.215873
50
317.4501465
51
325.8451467
0
ARC
8
DEFAULT_255_2_778
10
81.4856801
20
25.8522514
40
0.2352055
50
266.6585475
51
315.8242719
0
ARC
8
DEFAULT_255_2_778
10
81.4813611
20
25.8861015
40
0.1564378
50
266.5587345
51
312.1640733
0
ARC
8
DEFAULT_255_2_778
10
81.4719454
20
25.8758711
40
0.1557916
50
317.2631044
51
3.928935
0
ARC
8
DEFAULT_255_2_778
10
81.4770077
20
25.8928751
40
0.1504963
50
357.5896692
51
44.9751155
0
ARC
8
DEFAULT_255_2_778
10
81.4692669
20
25.8727731
40
0.170405
50
47.9181835
51
92.9925052
0
LINE
8
DEFAULT_255_2_778
10
81.4606708
20
26.0431458
11
80.8547708
21
26.0431458
0
LINE
8
DEFAULT_255_2_778
10
80.8547708
20
26.0431458
11
80.8547708
21
26.1561458
0
LINE
8
DEFAULT_255_2_778
10
80.8547708
20
26.1561458
11
81.4587708
21
26.1561458
0
LINE
8
DEFAULT_255_2_778
10
81.4719708
20
25.6174458
11
81.4719708
21
25.7299458
0
LINE
8
DEFAULT_255_2_778
10
81.4603708
20
26.0429458
11
81.4606708
21
26.0431458
0
LINE
8
DEFAULT_255_2_778
10
81.7077917
20
26.8875114
11
81.4849917
21
26.8060114
0
LINE
8
DEFAULT_255_2_778
10
81.4849917
20
26.8060114
11
81.4849917
21
26.4485114
0
LINE
8
DEFAULT_255_2_778
10
81.4849917
20
26.4485114
11
81.7077917
21
26.3684114
0
LINE
8
DEFAULT_255_2_778
10
81.7077917
20
26.3684114
11
81.7077917
21
26.2525114
0
LINE
8
DEFAULT_255_2_778
10
81.7077917
20
26.2525114
11
80.8547917
21
26.5782114
0
LINE
8
DEFAULT_255_2_778
10
80.8547917
20
26.5782114
11
80.8547917
21
26.6766114
0
LINE
8
DEFAULT_255_2_778
10
80.8547917
20
26.6766114
11
81.7077917
21
27.0031114
0
LINE
8
DEFAULT_255_2_778
10
81.7077917
20
27.0031114
11
81.7077917
21
26.8877114
0
LINE
8
DEFAULT_255_2_778
10
81.7077917
20
26.8877114
11
81.7077917
21
26.8875114
0
LINE
8
DEFAULT_255_2_778
10
80.9933917
20
26.6274114
11
81.3923917
21
26.4827114
0
LINE
8
DEFAULT_255_2_778
10
81.3923917
20
26.4827114
11
81.3923917
21
26.7726114
0
LINE
8
DEFAULT_255_2_778
10
81.3923917
20
26.7726114
11
80.9933917
21
26.6274114
0
LINE
8
DEFAULT_255_2_778
10
80.9933917
20
26.6274114
11
80.9933917
21
26.6274114
0
ARC
8
DEFAULT_255_2_778
10
81.1989494
20
27.4455724
40
0.3444154
50
150.1819694
51
182.2164762
0
ARC
8
DEFAULT_255_2_778
10
81.108042
20
27.4879191
40
0.2446331
50
138.0184225
51
148.1994456
0
ARC
8
DEFAULT_255_2_778
10
81.105735
20
27.4888431
40
0.2423014
50
87.715922
51
137.8159354
0
ARC
8
DEFAULT_255_2_778
10
81.1298753
20
27.4918521
40
0.2395382
50
42.4255152
51
93.4664972
0
ARC
8
DEFAULT_255_2_778
10
81.0759927
20
27.4681321
40
0.2959147
50
2.8966571
51
38.7748281
0
ARC
8
DEFAULT_255_2_778
10
80.8261746
20
27.4322579
40
0.5477181
50
359.8843242
51
5.324704
0
ARC
8
DEFAULT_255_2_778
10
81.0768228
20
27.4451967
40
0.2056766
50
356.3915989
51
36.5210153
0
ARC
8
DEFAULT_255_2_778
10
81.1351326
20
27.4784328
40
0.1392668
50
39.8105524
51
41.46615
0
ARC
8
DEFAULT_255_2_778
10
81.1267774
20
27.4636961
40
0.1553837
50
43.4984428
51
93.7216147
0
ARC
8
DEFAULT_255_2_778
10
81.1094236
20
27.4586557
40
0.1602612
50
87.4006681
51
135.6663008
0
ARC
8
DEFAULT_255_2_778
10
81.1363467
20
27.4453205
40
0.1890657
50
138.4785893
51
181.9606071
0
LINE
8
DEFAULT_255_2_778
10
81.3738917
20
27.4311521
11
81.3738917
21
27.2300521
0
LINE
8
DEFAULT_255_2_778
10
81.3738917
20
27.2300521
11
81.7077917
21
27.2300521
0
LINE
8
DEFAULT_255_2_778
10
81.7077917
20
27.2300521
11
81.7077917
21
27.1176521
0
LINE
8
DEFAULT_255_2_778
10
81.7077917
20
27.1176521
11
80.8547917
21
27.1176521
0
LINE
8
DEFAULT_255_2_778
10
80.8547917
20
27.1176521
11
80.8547917
21
27.4322521
0
LINE
8
DEFAULT_255_2_778
10
81.3738917
20
27.4311521
11
81.3738917
21
27.4311521
0
LINE
8
DEFAULT_255_2_778
10
80.9473917
20
27.2300521
11
81.2820917
21
27.2300521
0
LINE
8
DEFAULT_255_2_778
10
81.2820917
20
27.2300521
11
81.2820917
21
27.4322521
0
LINE
8
DEFAULT_255_2_778
10
80.9473917
20
27.4388521
11
80.9473917
21
27.2303521
0
LINE
8
DEFAULT_255_2_778
10
80.9473917
20
27.2303521
11
80.9473917
21
27.2300521
0
LINE
8
DEFAULT_255_2_778
10
81.7077917
20
28.3466114
11
81.4849917
21
28.2651114
0
LINE
8
DEFAULT_255_2_778
10
81.4849917
20
28.2651114
11
81.4849917
21
27.9076114
0
LINE
8
DEFAULT_255_2_778
10
81.4849917
20
27.9076114
11
81.7077917
21
27.8275114
0
LINE
8
DEFAULT_255_2_778
10
81.7077917
20
27.8275114
11
81.7077917
21
27.7116114
0
LINE
8
DEFAULT_255_2_778
10
81.7077917
20
27.7116114
11
80.8547917
21
28.0373114
0
LINE
8
DEFAULT_255_2_778
10
80.8547917
20
28.0373114
11
80.8547917
21
28.1357114
0
LINE
8
DEFAULT_255_2_778
10
80.8547917
20
28.1357114
11
81.7077917
21
28.4622114
0
LINE
8
DEFAULT_255_2_778
10
81.7077917
20
28.4622114
11
81.7077917
21
28.3468114
0
LINE
8
DEFAULT_255_2_778
10
81.7077917
20
28.3468114
11
81.7077917
21
28.3466114
0
LINE
8
DEFAULT_255_2_778
10
80.9933917
20
28.0865114
11
81.3923917
21
27.9418114
0
LINE
8
DEFAULT_255_2_778
10
81.3923917
20
27.9418114
11
81.3923917
21
28.2317114
0
LINE
8
DEFAULT_255_2_778
10
81.3923917
20
28.2317114
11
80.9933917
21
28.0865114
0
LINE
8
DEFAULT_255_2_778
10
80.9933917
20
28.0865114
11
80.9933917
21
28.0865114
0
LINE
8
DEFAULT_255_2_778
10
80.8547917
20
29.2324187
11
81.7077917
21
29.2324187
0
LINE
8
DEFAULT_255_2_778
10
81.7077917
20
29.2324187
11
81.7077917
21
29.1195187
0
LINE
8
DEFAULT_255_2_778
10
81.7077917
20
29.1195187
11
81.0502917
21
28.6900187
0
LINE
8
DEFAULT_255_2_778
10
81.0502917
20
28.6900187
11
81.7077917
21
28.6900187
0
LINE
8
DEFAULT_255_2_778
10
81.7077917
20
28.6900187
11
81.7077917
21
28.5771187
0
LINE
8
DEFAULT_255_2_778
10
81.7077917
20
28.5771187
11
80.8547917
21
28.5771187
0
LINE
8
DEFAULT_255_2_778
10
80.8547917
20
28.5771187
11
80.8547917
21
28.6900187
0
LINE
8
DEFAULT_255_2_778
10
80.8547917
20
28.6900187
11
81.5151917
21
29.1208187
0
LINE
8
DEFAULT_255_2_778
10
81.5151917
20
29.1208187
11
80.8547917
21
29.1208187
0
LINE
8
DEFAULT_255_2_778
10
80.8547917
20
29.1208187
11
80.8547917
21
29.2327187
0
LINE
8
DEFAULT_255_2_778
10
80.8547917
20
29.2327187
11
80.8547917
21
29.2324187
0
ARC
8
DEFAULT_255_2_778
10
38.3557883
20
37.1537937
40
0.8274434
50
95.8480054
51
130.362566
0
ARC
8
DEFAULT_255_2_778
10
38.2443946
20
37.275954
40
0.6622459
50
129.863864
51
179.4396254
0
ARC
8
DEFAULT_255_2_778
10
38.2779019
20
36.986225
40
0.6959727
50
181.5391769
51
248.3843648
0
ARC
8
DEFAULT_255_2_778
10
38.366572
20
37.1363718
40
0.8686484
50
246.5950027
51
269.7630899
0
ARC
8
DEFAULT_255_2_778
10
38.363319
20
36.8991611
40
0.6314303
50
269.9692622
51
307.8731342
0
ARC
8
DEFAULT_255_2_778
10
38.4387911
20
36.8050468
40
0.5108087
50
307.6715367
51
348.2965193
0
ARC
8
DEFAULT_255_2_778
10
39.3573723
20
37.3671355
40
0.2812213
50
94.4079601
51
166.448541
0
ARC
8
DEFAULT_255_2_778
10
39.3744788
20
37.3126804
40
0.3370759
50
91.5637521
51
96.5962282
0
ARC
8
DEFAULT_255_2_778
10
39.3617673
20
37.2411156
40
0.4085304
50
39.8970739
51
89.5073064
0
ARC
8
DEFAULT_255_2_778
10
39.4251325
20
37.2987808
40
0.3229497
50
0.2040462
51
39.2588051
0
ARC
8
DEFAULT_255_2_778
10
39.3892135
20
36.964417
40
0.3591631
50
280.5772395
51
357.6725
0
ARC
8
DEFAULT_255_2_778
10
39.3545753
20
37.0443211
40
0.4444903
50
269.9361901
51
283.0764616
0
ARC
8
DEFAULT_255_2_778
10
39.3592298
20
37.0356095
40
0.8556941
50
269.6551962
51
301.2286226
0
ARC
8
DEFAULT_255_2_778
10
39.46233
20
36.8919799
40
0.6795608
50
300.0737815
51
358.9671958
0
ARC
8
DEFAULT_255_2_778
10
39.4466034
20
37.3512976
40
0.6954212
50
1.5188991
51
68.2128721
0
ARC
8
DEFAULT_255_2_778
10
39.3570894
20
37.1997906
40
0.8697454
50
66.4413882
51
90.1982315
0
ARC
8
DEFAULT_255_2_778
10
39.3432424
20
37.3245718
40
0.7449782
50
89.5894656
51
123.5878862
0
ARC
8
DEFAULT_255_2_778
10
39.2607257
20
37.4390454
40
0.603992
50
123.074583
51
168.1155318
0
ARC
8
DEFAULT_255_2_778
10
38.3421052
20
36.8818788
40
0.1890215
50
271.5991856
51
346.2125054
0
ARC
8
DEFAULT_255_2_778
10
38.3600539
20
37.0968282
40
0.4040961
50
217.4077424
51
268.2027457
0
ARC
8
DEFAULT_255_2_778
10
38.2976607
20
37.0431831
40
0.3219813
50
180.13386
51
216.5697191
0
ARC
8
DEFAULT_255_2_778
10
38.3346717
20
37.1973549
40
0.3592913
50
100.549807
51
177.6589897
0
ARC
8
DEFAULT_255_2_778
10
38.361164
20
37.1539159
40
0.4072486
50
102.8084259
51
103.095896
0
LINE
8
DEFAULT_255_2_778
10
37.5821803
20
50.3703309
11
40.1422803
21
50.3703309
0
LINE
8
DEFAULT_255_2_778
10
40.1422803
20
50.3703309
11
40.1422803
21
50.8251309
0
LINE
8
DEFAULT_255_2_778
10
40.1422803
20
50.8251309
11
37.5821803
21
50.8251309
0
LINE
8
DEFAULT_255_2_778
10
37.5821803
20
50.8251309
11
37.5821803
21
50.3703309
0
LINE
8
DEFAULT_255_2_778
10
37.0075803
20
27.4497309
11
40.0973803
21
25.6585309
0
LINE
8
DEFAULT_255_2_778
10
40.0973803
20
25.6585309
11
40.0973803
21
23.7820309
0
LINE
8
DEFAULT_255_2_778
10
40.0973803
20
23.7820309
11
38.6259803
21
24.6351309
0
LINE
8
DEFAULT_255_2_778
10
38.6259803
20
24.6351309
11
38.6259803
21
28.3879309
0
LINE
8
DEFAULT_255_2_778
10
38.6259803
20
28.3879309
11
40.0973803
21
29.2409309
0
LINE
8
DEFAULT_255_2_778
10
40.0973803
20
29.2409309
11
40.0973803
21
27.3645309
0
LINE
8
DEFAULT_255_2_778
10
40.0973803
20
27.3645309
11
37.0075803
21
25.5733309
0
LINE
8
DEFAULT_255_2_778
10
37.0075803
20
25.5733309
11
35.3890803
21
26.5115309
0
LINE
8
DEFAULT_255_2_778
10
35.3890803
20
26.5115309
11
37.0075803
21
27.4497309
0
LINE
8
DEFAULT_255_2_778
10
40.1422803
20
44.5158309
11
37.5821803
21
44.5158309
0
LINE
8
DEFAULT_255_2_778
10
37.5821803
20
44.5158309
11
37.5821803
21
44.0610309
0
LINE
8
DEFAULT_255_2_778
10
37.5821803
20
44.0610309
11
40.1422803
21
44.0610309
0
LINE
8
DEFAULT_255_2_778
10
40.1422803
20
44.0610309
11
40.1422803
21
44.5158309
0
LINE
8
DEFAULT_255_2_778
10
37.9761803
20
34.5667309
11
40.1422803
21
34.5667309
0
LINE
8
DEFAULT_255_2_778
10
40.1422803
20
34.5667309
11
40.1422803
21
34.9866309
0
LINE
8
DEFAULT_255_2_778
10
40.1422803
20
34.9866309
11
37.9761803
21
34.9866309
0
LINE
8
DEFAULT_255_2_778
10
37.9761803
20
34.9866309
11
37.9761803
21
35.5639309
0
LINE
8
DEFAULT_255_2_778
10
37.9761803
20
35.5639309
11
37.5821803
21
35.5639309
0
LINE
8
DEFAULT_255_2_778
10
37.5821803
20
35.5639309
11
37.5821803
21
33.9891309
0
LINE
8
DEFAULT_255_2_778
10
37.5821803
20
33.9891309
11
37.9761803
21
33.9891309
0
LINE
8
DEFAULT_255_2_778
10
37.9761803
20
33.9891309
11
37.9761803
21
34.5665309
0
LINE
8
DEFAULT_255_2_778
10
37.5821803
20
30.0315309
11
37.5821803
21
30.6615309
0
LINE
8
DEFAULT_255_2_778
10
37.5821803
20
30.6615309
11
39.3742803
21
31.1515309
0
LINE
8
DEFAULT_255_2_778
10
39.3742803
20
31.1515309
11
37.5821803
21
31.6415309
0
LINE
8
DEFAULT_255_2_778
10
37.5821803
20
31.6415309
11
37.5821803
21
32.2715309
0
LINE
8
DEFAULT_255_2_778
10
37.5821803
20
32.2715309
11
40.1422803
21
32.2715309
0
LINE
8
DEFAULT_255_2_778
10
40.1422803
20
32.2715309
11
40.1422803
21
31.8865309
0
LINE
8
DEFAULT_255_2_778
10
40.1422803
20
31.8865309
11
38.2222803
21
31.8865309
0
LINE
8
DEFAULT_255_2_778
10
38.2222803
20
31.8865309
11
40.1422803
21
31.3616309
0
LINE
8
DEFAULT_255_2_778
10
40.1422803
20
31.3616309
11
40.1422803
21
30.9417309
0
LINE
8
DEFAULT_255_2_778
10
40.1422803
20
30.9417309
11
38.2222803
21
30.4167309
0
LINE
8
DEFAULT_255_2_778
10
38.2222803
20
30.4167309
11
40.1422803
21
30.4167309
0
LINE
8
DEFAULT_255_2_778
10
40.1422803
20
30.4167309
11
40.1422803
21
30.0318309
0
LINE
8
DEFAULT_255_2_778
10
40.1422803
20
30.0318309
11
37.5821803
21
30.0318309
0
LINE
8
DEFAULT_255_2_778
10
38.2714803
20
37.5512309
11
38.2714803
21
37.9769309
0
LINE
8
DEFAULT_255_2_778
10
37.5821803
20
37.2824309
11
37.5821803
21
37.2824309
0
LINE
8
DEFAULT_255_2_778
10
37.5821803
20
37.2824309
11
37.5821803
21
36.9675309
0
LINE
8
DEFAULT_255_2_778
10
38.9389803
20
36.7014309
11
39.0839803
21
37.4330309
0
LINE
8
DEFAULT_255_2_778
10
39.7480803
20
37.2999309
11
39.7480803
21
36.9498309
0
LINE
8
DEFAULT_255_2_778
10
39.7480803
20
36.9498309
11
39.7480803
21
36.9498309
0
LINE
8
DEFAULT_255_2_778
10
39.3540803
20
36.5998309
11
39.3146803
21
36.6016309
0
LINE
8
DEFAULT_255_2_778
10
39.3146803
20
36.6016309
11
39.3146803
21
36.1799309
0
LINE
8
DEFAULT_255_2_778
10
39.3146803
20
36.1799309
11
39.3540803
21
36.1799309
0
LINE
8
DEFAULT_255_2_778
10
40.1417803
20
36.8797309
11
40.1417803
21
36.8797309
0
LINE
8
DEFAULT_255_2_778
10
40.1417803
20
36.8797309
11
40.1417803
21
37.3697309
0
LINE
8
DEFAULT_255_2_778
10
39.3540803
20
38.0695309
11
39.3540803
21
38.0695309
0
LINE
8
DEFAULT_255_2_778
10
39.3540803
20
38.0695309
11
39.3485803
21
38.0695309
0
LINE
8
DEFAULT_255_2_778
10
38.6696803
20
37.5634309
11
38.5256803
21
36.8368309
0
LINE
8
DEFAULT_255_2_778
10
37.9756803
20
37.0424309
11
37.9756803
21
37.2120309
0
LINE
8
DEFAULT_255_2_778
10
37.9756803
20
37.2120309
11
37.9756803
21
37.2120309
0
LINE
8
DEFAULT_255_2_778
10
38.2708803
20
37.5510309
11
38.2714803
21
37.5512309
0
LINE
8
DEFAULT_255_2_778
10
40.1420803
20
33.0017309
11
40.1420803
21
33.4213309
0
LINE
8
DEFAULT_255_2_778
10
40.1420803
20
33.4213309
11
37.5819803
21
33.4213309
0
LINE
8
DEFAULT_255_2_778
10
37.5819803
20
33.4213309
11
37.5819803
21
33.0014309
0
LINE
8
DEFAULT_255_2_778
10
37.5819803
20
33.0014309
11
40.1420803
21
33.0017309
0
ARC
8
DEFAULT_255_2_778
10
39.3895428
20
39.9370442
40
0.3590965
50
2.3162496
51
79.4160019
0
ARC
8
DEFAULT_255_2_778
10
39.3549441
20
39.8571547
40
0.4444025
50
76.9222449
51
90.0642372
0
ARC
8
DEFAULT_255_2_778
10
39.3596084
20
39.8659432
40
0.8555295
50
58.768285
51
90.3457457
0
ARC
8
DEFAULT_255_2_778
10
39.462597
20
40.0094487
40
0.6795587
50
1.0293892
51
59.9197014
0
ARC
8
DEFAULT_255_2_778
10
39.4462288
20
39.655327
40
0.6960675
50
291.4503501
51
358.4630328
0
ARC
8
DEFAULT_255_2_778
10
39.357386
20
39.8070278
40
0.8701756
50
269.8064071
51
293.2424426
0
ARC
8
DEFAULT_255_2_778
10
39.3606436
20
39.7689776
40
0.412267
50
269.1386219
51
317.4931664
0
ARC
8
DEFAULT_255_2_778
10
39.4231888
20
39.7082865
40
0.3251607
50
317.9303189
51
359.7305224
0
ARC
8
DEFAULT_255_2_778
10
39.3506187
20
42.6820619
40
0.7837875
50
100.482593
51
137.4031474
0
ARC
8
DEFAULT_255_2_778
10
39.3735501
20
42.5984888
40
0.8701688
50
89.9541848
51
100.966136
0
ARC
8
DEFAULT_255_2_778
10
39.3794889
20
42.6351168
40
0.8335569
50
58.2183587
51
90.3603886
0
ARC
8
DEFAULT_255_2_778
10
39.4809908
20
42.7748309
40
0.6614538
50
0.9898048
51
59.3183179
0
ARC
8
DEFAULT_255_2_778
10
38.2112573
20
42.7333675
40
0.6292686
50
110.1062885
51
178.3617925
0
ARC
8
DEFAULT_255_2_778
10
38.288697
20
42.5968418
40
0.7845188
50
89.8284534
51
111.9899914
0
ARC
8
DEFAULT_255_2_778
10
38.2983497
20
42.6278989
40
0.7534937
50
89.9985587
51
90.5553926
0
ARC
8
DEFAULT_255_2_778
10
38.2983364
20
42.6241262
40
0.7572663
50
51.0149654
51
89.9975629
0
ARC
8
DEFAULT_255_2_778
10
38.2663252
20
42.6677365
40
0.2906939
50
96.3553647
51
177.3341181
0
ARC
8
DEFAULT_255_2_778
10
38.2908457
20
42.602755
40
0.3584022
50
89.9680011
51
99.1023638
0
ARC
8
DEFAULT_255_2_778
10
38.2979176
20
42.6379324
40
0.3232978
50
34.5958623
51
91.2179176
0
ARC
8
DEFAULT_255_2_778
10
38.35028
20
42.6808895
40
0.255866
50
0.0823255
51
33.334865
0
ARC
8
DEFAULT_255_2_778
10
39.4060036
20
42.7016727
40
0.3424488
50
2.4241452
51
80.3845445
0
ARC
8
DEFAULT_255_2_778
10
39.3744403
20
42.6270191
40
0.4217383
50
77.8499928
51
90.0535918
0
ARC
8
DEFAULT_255_2_778
10
39.3676721
20
42.6590591
40
0.3897502
50
89.0629763
51
139.4871761
0
ARC
8
DEFAULT_255_2_778
10
39.3074834
20
42.7150474
40
0.3076396
50
140.1327093
51
179.7933163
0
ARC
8
DEFAULT_255_2_778
10
39.3580221
20
46.3090754
40
0.2816855
50
94.4599456
51
166.3904588
0
ARC
8
DEFAULT_255_2_778
10
39.3752981
20
46.2546018
40
0.3375876
50
91.6044613
51
96.6647847
0
ARC
8
DEFAULT_255_2_778
10
39.3621389
20
46.1832989
40
0.4087751
50
39.895684
51
89.4804058
0
ARC
8
DEFAULT_255_2_778
10
39.4256672
20
46.2411024
40
0.3229806
50
0.2048538
51
39.2568473
0
ARC
8
DEFAULT_255_2_778
10
39.3895738
20
45.9068599
40
0.3593689
50
280.4130838
51
357.6711686
0
ARC
8
DEFAULT_255_2_778
10
39.3551314
20
45.9867646
40
0.4446076
50
269.9374346
51
282.9181651
0
ARC
8
DEFAULT_255_2_778
10
39.3597954
20
45.9777357
40
0.8556941
50
269.6551962
51
301.2286226
0
ARC
8
DEFAULT_255_2_778
10
39.4628956
20
45.8341061
40
0.6795608
50
300.0737815
51
358.9671958
0
ARC
8
DEFAULT_255_2_778
10
39.447169
20
46.2934238
40
0.6954212
50
1.5188991
51
68.2128721
0
ARC
8
DEFAULT_255_2_778
10
39.357655
20
46.1419169
40
0.8697454
50
66.4413882
51
90.1982315
0
ARC
8
DEFAULT_255_2_778
10
39.343808
20
46.266698
40
0.7449782
50
89.5894656
51
123.5878862
0
ARC
8
DEFAULT_255_2_778
10
39.2612913
20
46.3811717
40
0.603992
50
123.074583
51
168.1155318
0
ARC
8
DEFAULT_255_2_778
10
38.3427584
20
45.8238963
40
0.1889105
50
271.573522
51
346.2382011
0
ARC
8
DEFAULT_255_2_778
10
38.3604574
20
46.0386805
40
0.4038173
50
217.3938406
51
268.2245168
0
ARC
8
DEFAULT_255_2_778
10
38.298333
20
45.9853182
40
0.3220881
50
180.1353838
51
216.5634678
0
ARC
8
DEFAULT_255_2_778
10
38.3351905
20
46.1394663
40
0.3592452
50
100.3821934
51
177.6563181
0
ARC
8
DEFAULT_255_2_778
10
38.3632287
20
46.0886766
40
0.4146658
50
102.787854
51
102.9290349
0
ARC
8
DEFAULT_255_2_778
10
38.3552668
20
46.0963379
40
0.8264807
50
95.8208918
51
130.3673862
0
ARC
8
DEFAULT_255_2_778
10
38.244732
20
46.2176078
40
0.6625167
50
129.876823
51
179.4508883
0
ARC
8
DEFAULT_255_2_778
10
38.278192
20
45.9278792
40
0.6961979
50
181.5409749
51
248.5133436
0
ARC
8
DEFAULT_255_2_778
10
38.3664591
20
46.0778943
40
0.8685437
50
246.7197489
51
269.7748399
0
ARC
8
DEFAULT_255_2_778
10
38.3635973
20
45.8405069
40
0.63115
50
269.9499427
51
307.8516235
0
ARC
8
DEFAULT_255_2_778
10
38.4388887
20
45.7465639
40
0.5107754
50
307.649134
51
348.2967907
0
LINE
8
DEFAULT_255_2_778
10
39.7483459
20
39.7065571
11
39.7483459
21
39.9515571
0
LINE
8
DEFAULT_255_2_778
10
39.3544459
20
40.3015571
11
39.3544459
21
40.3015571
0
LINE
8
DEFAULT_255_2_778
10
39.3544459
20
40.3015571
11
37.5822459
21
40.3015571
0
LINE
8
DEFAULT_255_2_778
10
37.5822459
20
40.3015571
11
37.5822459
21
40.7214571
0
LINE
8
DEFAULT_255_2_778
10
37.5822459
20
40.7214571
11
39.3544459
21
40.7214571
0
LINE
8
DEFAULT_255_2_778
10
39.3544459
20
40.7214571
11
39.3544459
21
40.7214571
0
LINE
8
DEFAULT_255_2_778
10
40.1420459
20
40.0216571
11
40.1420459
21
39.6366571
0
LINE
8
DEFAULT_255_2_778
10
40.1420459
20
39.6366571
11
40.1420459
21
39.6366571
0
LINE
8
DEFAULT_255_2_778
10
39.3544459
20
38.9368571
11
37.5822459
21
38.9368571
0
LINE
8
DEFAULT_255_2_778
10
37.5822459
20
38.9368571
11
37.5822459
21
39.3567571
0
LINE
8
DEFAULT_255_2_778
10
37.5822459
20
39.3567571
11
39.3544459
21
39.3567571
0
LINE
8
DEFAULT_255_2_778
10
39.7483459
20
39.7067571
11
39.7483459
21
39.7065571
0
LINE
8
DEFAULT_255_2_778
10
39.3742459
20
43.4686571
11
39.3742459
21
43.4686571
0
LINE
8
DEFAULT_255_2_778
10
40.1423459
20
42.7862571
11
40.1423459
21
41.6313571
0
LINE
8
DEFAULT_255_2_778
10
40.1423459
20
41.6313571
11
37.5822459
21
41.6313571
0
LINE
8
DEFAULT_255_2_778
10
37.5822459
20
41.6313571
11
37.5822459
21
42.7513571
0
LINE
8
DEFAULT_255_2_778
10
37.5822459
20
42.7513571
11
37.5822459
21
42.7513571
0
LINE
8
DEFAULT_255_2_778
10
38.2910459
20
43.3813571
11
38.2910459
21
43.3813571
0
LINE
8
DEFAULT_255_2_778
10
38.7747459
20
43.2127571
11
38.7736459
21
43.2125571
0
LINE
8
DEFAULT_255_2_778
10
37.9759459
20
42.6812571
11
37.9759459
21
42.6812571
0
LINE
8
DEFAULT_255_2_778
10
38.2910459
20
42.9611571
11
38.2910459
21
42.9611571
0
LINE
8
DEFAULT_255_2_778
10
38.6061459
20
42.6812571
11
38.6061459
21
42.0512571
0
LINE
8
DEFAULT_255_2_778
10
38.6061459
20
42.0512571
11
37.9759459
21
42.0512571
0
LINE
8
DEFAULT_255_2_778
10
37.9759459
20
42.0512571
11
37.9759459
21
42.6812571
0
LINE
8
DEFAULT_255_2_778
10
39.3740459
20
43.0487571
11
39.3740459
21
43.0487571
0
LINE
8
DEFAULT_255_2_778
10
38.9998459
20
42.7161571
11
38.9998459
21
42.7161571
0
LINE
8
DEFAULT_255_2_778
10
38.9998459
20
42.7161571
11
38.9998459
21
42.0512571
0
LINE
8
DEFAULT_255_2_778
10
38.9998459
20
42.0512571
11
39.7481459
21
42.0512571
0
LINE
8
DEFAULT_255_2_778
10
39.7481459
20
42.0512571
11
39.7481459
21
42.7161571
0
LINE
8
DEFAULT_255_2_778
10
39.7486459
20
46.2422571
11
39.7486459
21
45.8922571
0
LINE
8
DEFAULT_255_2_778
10
39.7486459
20
45.8922571
11
39.7486459
21
45.8922571
0
LINE
8
DEFAULT_255_2_778
10
39.3546459
20
45.5421571
11
39.3152459
21
45.5437571
0
LINE
8
DEFAULT_255_2_778
10
39.3152459
20
45.5437571
11
39.3152459
21
45.1220571
0
LINE
8
DEFAULT_255_2_778
10
39.3152459
20
45.1220571
11
39.3546459
21
45.1220571
0
LINE
8
DEFAULT_255_2_778
10
40.1423459
20
45.8218571
11
40.1423459
21
45.8218571
0
LINE
8
DEFAULT_255_2_778
10
40.1423459
20
45.8218571
11
40.1423459
21
46.3118571
0
LINE
8
DEFAULT_255_2_778
10
39.3546459
20
47.0116571
11
39.3546459
21
47.0116571
0
LINE
8
DEFAULT_255_2_778
10
39.3546459
20
47.0116571
11
39.3491459
21
47.0116571
0
LINE
8
DEFAULT_255_2_778
10
38.6702459
20
46.5055571
11
38.5262459
21
45.7789571
0
LINE
8
DEFAULT_255_2_778
10
37.9762459
20
45.9845571
11
37.9762459
21
46.1541571
0
LINE
8
DEFAULT_255_2_778
10
37.9762459
20
46.1541571
11
37.9762459
21
46.1541571
0
LINE
8
DEFAULT_255_2_778
10
38.2714459
20
46.4930571
11
38.2714459
21
46.9185571
0
LINE
8
DEFAULT_255_2_778
10
37.5822459
20
46.2239571
11
37.5822459
21
46.2239571
0
LINE
8
DEFAULT_255_2_778
10
37.5822459
20
46.2239571
11
37.5822459
21
45.9091571
0
LINE
8
DEFAULT_255_2_778
10
38.9390459
20
45.6429571
11
39.0842459
21
46.3753571
0
LINE
8
DEFAULT_255_2_778
10
39.0001459
20
49.2201571
11
40.1423459
21
49.2201571
0
LINE
8
DEFAULT_255_2_778
10
40.1423459
20
49.2201571
11
40.1423459
21
49.6749571
0
LINE
8
DEFAULT_255_2_778
10
40.1423459
20
49.6749571
11
37.5822459
21
49.6749571
0
LINE
8
DEFAULT_255_2_778
10
37.5822459
20
49.6749571
11
37.5822459
21
49.2201571
0
LINE
8
DEFAULT_255_2_778
10
37.5822459
20
49.2201571
11
38.6061459
21
49.2201571
0
LINE
8
DEFAULT_255_2_778
10
38.6061459
20
49.2201571
11
38.6061459
21
48.2753571
0
LINE
8
DEFAULT_255_2_778
10
38.6061459
20
48.2753571
11
37.5822459
21
48.2753571
0
LINE
8
DEFAULT_255_2_778
10
37.5822459
20
48.2753571
11
37.5822459
21
47.8204571
0
LINE
8
DEFAULT_255_2_778
10
37.5822459
20
47.8204571
11
40.1423459
21
47.8204571
0
LINE
8
DEFAULT_255_2_778
10
40.1423459
20
47.8204571
11
40.1423459
21
48.2753571
0
LINE
8
DEFAULT_255_2_778
10
40.1423459
20
48.2753571
11
39.0001459
21
48.2753571
0
LINE
8
DEFAULT_255_2_778
10
39.0001459
20
48.2753571
11
39.0001459
21
49.2201571
0
ARC
8
DEFAULT_255_2_778
10
31.6562575
20
37.7961027
40
0.5000979
50
0.0188847
51
85.2286576
0
ARC
8
DEFAULT_255_2_778
10
28.1563763
20
39.2166615
40
0.5000209
50
180.0107718
51
265.2367643
0
ARC
8
DEFAULT_255_2_778
10
28.1563999
20
50.2964517
40
0.5000446
50
94.7657263
51
179.9981908
0
ARC
8
DEFAULT_255_2_778
10
31.6563283
20
51.7166672
40
0.5000271
50
274.7638866
51
359.9885768
0
ARC
8
DEFAULT_255_2_778
10
3.6548108
20
88.7599916
40
0.996477
50
89.9169422
51
131.6424919
0
ARC
8
DEFAULT_255_2_778
10
3.6536753
20
88.7574889
40
0.9975959
50
131.4982452
51
178.2672879
0
ARC
8
DEFAULT_255_2_778
10
3.6748146
20
88.7563772
40
1.0187592
50
178.2407388
51
180.0005446
0
ARC
8
DEFAULT_255_2_778
10
30.2488413
20
56.7056106
40
29.9911542
50
162.4354016
51
175.1210821
0
ARC
8
DEFAULT_255_2_778
10
500.1427504
20
44.7563613
40
499.9866951
50
178.3381445
51
179.9999936
0
ARC
8
DEFAULT_255_2_778
10
500.1427504
20
44.7564737
40
499.9866951
50
180.0000064
51
181.6618555
0
ARC
8
DEFAULT_255_2_778
10
30.2551457
20
32.8097943
40
29.9976544
50
184.8827844
51
197.5658171
0
ARC
8
DEFAULT_255_2_778
10
3.6526734
20
0.7550071
40
0.9963191
50
179.916016
51
221.6459452
0
ARC
8
DEFAULT_255_2_778
10
3.6553009
20
0.7540262
40
0.9976339
50
221.5035703
51
268.2692494
0
ARC
8
DEFAULT_255_2_778
10
3.6564457
20
0.7751266
40
1.0187593
50
268.2407389
51
270.0005447
0
ARC
8
DEFAULT_255_2_778
10
86.6562799
20
60.956343
40
0.5000755
50
269.9971846
51
359.9913517
0
LINE
8
DEFAULT_255_2_778
10
84.4808554
20
27.0562675
11
84.4812946
21
27.0562677
0
ARC
8
DEFAULT_255_2_778
10
84.4811339
20
26.5563942
40
0.4998735
50
51.3471021
51
89.9815861
0
ARC
8
DEFAULT_255_2_778
10
86.6562434
20
24.8161213
40
0.500112
50
359.9938381
51
51.3263272
0
LINE
8
DEFAULT_255_2_778
10
31.6978554
20
38.2944675
11
28.1148554
21
38.7183675
0
LINE
8
DEFAULT_255_2_778
10
27.6563554
20
39.2165675
11
27.6563554
21
50.2964675
0
LINE
8
DEFAULT_255_2_778
10
28.1148554
20
50.7947675
11
31.6978554
21
51.2183675
0
LINE
8
DEFAULT_255_2_778
10
27.9563554
20
38.7252675
11
27.9563554
21
50.7759675
0
LINE
8
DEFAULT_255_2_778
10
27.9563554
20
50.7759675
11
32.4563554
21
51.2564675
0
LINE
8
DEFAULT_255_2_778
10
32.4563554
20
51.2564675
11
32.4563554
21
89.7564675
0
LINE
8
DEFAULT_255_2_778
10
32.4563554
20
89.7564675
11
87.1563554
21
89.7564675
0
LINE
8
DEFAULT_255_2_778
10
87.1563554
20
89.7564675
11
87.1563554
21
62.4564675
0
LINE
8
DEFAULT_255_2_778
10
7.1563554
20
89.7564675
11
3.6562554
21
89.7564675
0
LINE
8
DEFAULT_255_2_778
10
2.6560554
20
88.7563675
11
2.6560554
21
65.7563675
0
LINE
8
DEFAULT_255_2_778
10
2.6560554
20
65.7563675
11
1.6559554
21
65.7563675
0
LINE
8
DEFAULT_255_2_778
10
1.6562554
20
23.7564675
11
2.6563554
21
23.7564675
0
LINE
8
DEFAULT_255_2_778
10
2.6563554
20
23.7564675
11
2.6563554
21
0.7564675
0
LINE
8
DEFAULT_255_2_778
10
3.6564554
20
-0.2436325
11
7.1563554
21
-0.2436325
0
LINE
8
DEFAULT_255_2_778
10
83.1563554
20
58.7562675
11
83.9064554
21
57.2563675
0
LINE
8
DEFAULT_255_2_778
10
83.9064554
20
57.2563675
11
83.1563554
21
55.7564675
0
LINE
8
DEFAULT_255_2_778
10
87.1563554
20
61.9564675
11
83.1563554
21
61.9564675
0
LINE
8
DEFAULT_255_2_778
10
84.3395554
20
61.9564675
11
84.4562554
21
61.2563675
0
LINE
8
DEFAULT_255_2_778
10
84.4562554
20
61.2563675
11
85.1563554
21
60.4562675
0
LINE
8
DEFAULT_255_2_778
10
85.1563554
20
60.4562675
11
86.6562554
21
60.4562675
0
LINE
8
DEFAULT_255_2_778
10
87.1563554
20
60.9562675
11
87.1563554
21
62.4562675
0
LINE
8
DEFAULT_255_2_778
10
87.1563554
20
62.4562675
11
83.1563554
21
62.4562675
0
LINE
8
DEFAULT_255_2_778
10
83.1563554
20
62.4562675
11
83.1563554
21
27.0562675
0
LINE
8
DEFAULT_255_2_778
10
83.1563554
20
27.0562675
11
84.4808554
21
27.0562675
0
LINE
8
DEFAULT_255_2_778
10
84.7933554
20
26.9467675
11
86.9687554
21
25.2065675
0
LINE
8
DEFAULT_255_2_778
10
87.1563554
20
24.8160675
11
87.1563554
21
-0.2436325
0
LINE
8
DEFAULT_255_2_778
10
87.1563554
20
-0.2436325
11
32.4563554
21
-0.2436325
0
LINE
8
DEFAULT_255_2_778
10
32.4563554
20
-0.2436325
11
32.4563554
21
38.2563675
0
LINE
8
DEFAULT_255_2_778
10
32.4563554
20
38.2563675
11
28.2563554
21
38.6939675
0
LINE
8
DEFAULT_255_2_778
10
32.4563554
20
89.4564675
11
32.1563554
21
89.4564675
0
LINE
8
DEFAULT_255_2_778
10
32.1563554
20
89.4564675
11
32.1563554
21
51.7165675
0
LINE
8
DEFAULT_255_2_778
10
32.1563554
20
51.7165675
11
32.1563554
21
89.7564675
0
LINE
8
DEFAULT_255_2_778
10
32.1563554
20
89.7564675
11
7.1563554
21
89.7564675
0
LINE
8
DEFAULT_255_2_778
10
7.1563554
20
89.7564675
11
7.1563554
21
-0.2434325
0
LINE
8
DEFAULT_255_2_778
10
7.1563554
20
-0.2434325
11
32.1563554
21
-0.2434325
0
LINE
8
DEFAULT_255_2_778
10
32.1563554
20
-0.2434325
11
32.1563554
21
37.7962675
0
LINE
8
DEFAULT_255_2_778
10
32.1563554
20
37.7962675
11
32.1563554
21
0.0563675
0
LINE
8
DEFAULT_255_2_778
10
32.1563554
20
0.0563675
11
32.4563554
21
0.0563675
0
ENDSEC
0
EOF