0
SECTION
2
HEADER
9
$MEASUREMENT
70
1
0
ENDSEC
0
SECTION
2
TABLES
0
TABLE
2
LTYPE
0
LTYPE
72
65
70
64
2
CONTINUOUS
3
______
73
0
40
0
0
ENDTAB
0
TABLE
2
LAYER
0
LAYER
2
DEFAULT_255_2_778
70
0
62
255
6
CONTINUOUS
0
LAYER
2
DEFAULT_255_1_388
70
0
62
255
6
CONTINUOUS
0
ENDTAB
0
ENDSEC
0
SECTION
2
ENTITIES
0
ARC
8
DEFAULT_255_2_778
10
3.5700693
20
51.9926534
40
0.7914215
50
129.1312896
51
180.1450914
0
ARC
8
DEFAULT_255_2_778
10
3.5703345
20
51.9931405
40
0.7912112
50
89.854026
51
129.1684493
0
ARC
8
DEFAULT_255_2_778
10
25.7993937
20
51.992827
40
0.7915249
50
39.4792447
51
90.147911
0
ARC
8
DEFAULT_255_2_778
10
25.7999935
20
51.9926737
40
0.7911595
50
359.8533901
51
39.5154338
0
ARC
8
DEFAULT_255_2_778
10
25.7996693
20
-1.9863989
40
0.7914836
50
309.4761667
51
0.1482649
0
ARC
8
DEFAULT_255_2_778
10
25.799398
20
-1.98683
40
0.7913235
50
269.8517415
51
309.511178
0
ARC
8
DEFAULT_255_2_778
10
3.570342
20
-1.9867718
40
0.7913815
50
219.1282118
51
270.1454017
0
ARC
8
DEFAULT_255_2_778
10
3.5700247
20
-1.9863893
40
0.7913769
50
179.8524075
51
219.1641908
0
LINE
8
DEFAULT_255_2_778
10
3.5723503
20
52.7843492
11
25.7973503
21
52.7843492
0
LINE
8
DEFAULT_255_2_778
10
26.5911503
20
51.9906492
11
26.5911503
21
-1.9843508
0
LINE
8
DEFAULT_255_2_778
10
25.7973503
20
-2.7781508
11
3.5723503
21
-2.7781508
0
LINE
8
DEFAULT_255_2_778
10
2.7786503
20
-1.9843508
11
2.7786503
21
51.9906492
0
LINE
8
DEFAULT_255_1_388
10
8.3509646
20
0.0830516
11
8.3509646
21
-0.0588081
0
LINE
8
DEFAULT_255_1_388
10
8.3509646
20
-0.0588081
11
7.7988868
21
-0.0588081
0
LINE
8
DEFAULT_255_1_388
10
7.7988868
20
-0.0588081
11
7.7988868
21
-0.6398
0
LINE
8
DEFAULT_255_1_388
10
7.7988868
20
-0.6398
11
7.6254024
21
-0.6398
0
LINE
8
DEFAULT_255_1_388
10
7.6254024
20
-0.6398
11
7.6254024
21
0.6757898
0
LINE
8
DEFAULT_255_1_388
10
7.6254024
20
0.6757898
11
8.4404175
21
0.6757898
0
LINE
8
DEFAULT_255_1_388
10
8.4404175
20
0.6757898
11
8.4404175
21
0.5330267
0
LINE
8
DEFAULT_255_1_388
10
8.4404175
20
0.5330267
11
7.7988868
21
0.5330267
0
LINE
8
DEFAULT_255_1_388
10
7.7988868
20
0.5330267
11
7.7988868
21
0.0830516
0
LINE
8
DEFAULT_255_1_388
10
7.7988868
20
0.0830516
11
8.3509646
21
0.0830516
0
LINE
8
DEFAULT_255_1_388
10
8.7602793
20
0.6757898
11
9.0774305
21
0.1716009
0
LINE
8
DEFAULT_255_1_388
10
9.0774305
20
0.1716009
11
9.3927745
21
0.6757898
0
LINE
8
DEFAULT_255_1_388
10
9.3927745
20
0.6757898
11
9.59698
21
0.6757898
0
LINE
8
DEFAULT_255_1_388
10
9.59698
20
0.6757898
11
9.1813404
21
0.0234163
0
LINE
8
DEFAULT_255_1_388
10
9.1813404
20
0.0234163
11
9.6069192
21
-0.6398
0
LINE
8
DEFAULT_255_1_388
10
9.6069192
20
-0.6398
11
9.4009065
21
-0.6398
0
LINE
8
DEFAULT_255_1_388
10
9.4009065
20
-0.6398
11
9.0774305
21
-0.1265754
0
LINE
8
DEFAULT_255_1_388
10
9.0774305
20
-0.1265754
11
8.7521473
21
-0.6398
0
LINE
8
DEFAULT_255_1_388
10
8.7521473
20
-0.6398
11
8.5470381
21
-0.6398
0
LINE
8
DEFAULT_255_1_388
10
8.5470381
20
-0.6398
11
8.9735206
21
0.0234163
0
LINE
8
DEFAULT_255_1_388
10
8.9735206
20
0.0234163
11
8.5569773
21
0.6757898
0
LINE
8
DEFAULT_255_1_388
10
8.5569773
20
0.6757898
11
8.7602793
21
0.6757898
0
LINE
8
DEFAULT_255_1_388
10
10.0081019
20
-0.0371225
11
10.0081019
21
0.0993157
0
LINE
8
DEFAULT_255_1_388
10
10.0081019
20
0.0993157
11
10.1336973
21
0.0993157
0
LINE
8
DEFAULT_255_1_388
10
9.9195525
20
0.3306282
11
9.7523931
21
0.3306282
0
LINE
8
DEFAULT_255_1_388
10
9.7406468
20
-0.2928313
11
9.9087098
21
-0.2928313
0
LINE
8
DEFAULT_255_1_388
10
10.1336973
20
-0.0371225
11
10.0081019
21
-0.0371225
0
ARC
8
DEFAULT_255_1_388
10
10.13042
20
0.4809922
40
0.3816905
50
270.491971
51
281.8953028
0
ARC
8
DEFAULT_255_1_388
10
10.1575627
20
0.3570199
40
0.2547877
50
281.6690378
51
301.2943765
0
ARC
8
DEFAULT_255_1_388
10
10.1767078
20
0.3219926
40
0.2149197
50
301.7834992
51
311.754567
0
ARC
8
DEFAULT_255_1_388
10
10.1870119
20
0.310565
40
0.1995326
50
311.7325027
51
354.2803031
0
ARC
8
DEFAULT_255_1_388
10
10.1052535
20
0.324628
40
0.2823461
50
353.0941646
51
0.1174696
0
ARC
8
DEFAULT_255_1_388
10
10.0534093
20
0.3299874
40
0.3342238
50
359.1804452
51
15.0452323
0
ARC
8
DEFAULT_255_1_388
10
10.2048152
20
0.3741546
40
0.1765747
50
13.957816
51
77.6713812
0
ARC
8
DEFAULT_255_1_388
10
10.1613387
20
0.2183464
40
0.3381982
50
76.111571
51
90.7028736
0
ARC
8
DEFAULT_255_1_388
10
10.1546799
20
0.249125
40
0.3074046
50
89.5321574
51
103.5319393
0
ARC
8
DEFAULT_255_1_388
10
10.1321183
20
0.3390443
40
0.2147041
50
103.2930114
51
133.5619756
0
ARC
8
DEFAULT_255_1_388
10
10.1271125
20
0.3457351
40
0.2064084
50
133.8349761
51
173.5343225
0
ARC
8
DEFAULT_255_1_388
10
10.2084782
20
0.3313144
40
0.2889266
50
172.5097183
51
180.1360699
0
ARC
8
DEFAULT_255_1_388
10
10.1014546
20
0.335188
40
0.3490913
50
155.3483706
51
180.7484035
0
ARC
8
DEFAULT_255_1_388
10
10.0959522
20
0.3319519
40
0.3454798
50
131.5745177
51
154.4799474
0
ARC
8
DEFAULT_255_1_388
10
10.1311804
20
0.2963422
40
0.3955058
50
96.9874487
51
131.9690874
0
ARC
8
DEFAULT_255_1_388
10
10.1558697
20
0.1562407
40
0.537622
50
89.8592909
51
97.7827481
0
ARC
8
DEFAULT_255_1_388
10
10.1612806
20
0.126736
40
0.5671399
50
78.3654493
51
90.4132586
0
ARC
8
DEFAULT_255_1_388
10
10.2015447
20
0.3133918
40
0.3762034
50
56.6229818
51
78.6387103
0
ARC
8
DEFAULT_255_1_388
10
10.2257276
20
0.3556846
40
0.3275964
50
47.0254604
51
56.085558
0
ARC
8
DEFAULT_255_1_388
10
10.2279527
20
0.3601189
40
0.3228382
50
10.9207523
51
46.777927
0
ARC
8
DEFAULT_255_1_388
10
10.0745121
20
0.3246401
40
0.4802559
50
359.6364235
51
11.6087615
0
ARC
8
DEFAULT_255_1_388
10
10.2809287
20
0.3229404
40
0.273833
50
332.3549969
51
359.7179765
0
ARC
8
DEFAULT_255_1_388
10
10.2077687
20
0.3576285
40
0.3547505
50
325.2332381
51
332.8746682
0
ARC
8
DEFAULT_255_1_388
10
10.224927
20
0.3456763
40
0.3338396
50
292.9803892
51
325.2391113
0
ARC
8
DEFAULT_255_1_388
10
10.1938466
20
0.4061679
40
0.4016959
50
292.542178
51
293.6931461
0
ARC
8
DEFAULT_255_1_388
10
10.2382038
20
-0.3203964
40
0.372079
50
57.643292
51
72.8626085
0
ARC
8
DEFAULT_255_1_388
10
10.2780873
20
-0.2557727
40
0.2961455
50
36.7246661
51
57.4701329
0
ARC
8
DEFAULT_255_1_388
10
10.2768029
20
-0.254353
40
0.2963321
50
8.054535
51
36.3561529
0
ARC
8
DEFAULT_255_1_388
10
10.1797702
20
-0.2717927
40
0.3948682
50
359.8316595
51
8.5873361
0
ARC
8
DEFAULT_255_1_388
10
10.1375176
20
-0.277203
40
0.4371398
50
343.9831631
51
0.557075
0
ARC
8
DEFAULT_255_1_388
10
10.2372226
20
-0.3045037
40
0.3337749
50
311.6358204
51
343.7652116
0
ARC
8
DEFAULT_255_1_388
10
10.1946479
20
-0.2565045
40
0.3979351
50
279.7829743
51
311.625622
0
ARC
8
DEFAULT_255_1_388
10
10.1607615
20
-0.0948358
40
0.5630417
50
269.7285092
51
280.3857694
0
ARC
8
DEFAULT_255_1_388
10
10.1537928
20
-0.0994759
40
0.5584119
50
256.6827433
51
270.4412869
0
ARC
8
DEFAULT_255_1_388
10
10.1156914
20
-0.2552302
40
0.3980715
50
229.4223821
51
256.8554507
0
ARC
8
DEFAULT_255_1_388
10
10.0690468
20
-0.3077317
40
0.3278564
50
181.8183354
51
229.6455015
0
ARC
8
DEFAULT_255_1_388
10
10.1860077
20
-0.2930175
40
0.4453611
50
179.9760419
51
183.2330638
0
ARC
8
DEFAULT_255_1_388
10
10.1666629
20
-0.2953219
40
0.2579652
50
179.4467996
51
196.2871626
0
ARC
8
DEFAULT_255_1_388
10
10.1118083
20
-0.3103291
40
0.2011057
50
196.5661293
51
227.7059371
0
ARC
8
DEFAULT_255_1_388
10
10.130269
20
-0.2896845
40
0.2287994
50
227.7653015
51
257.8763321
0
ARC
8
DEFAULT_255_1_388
10
10.1555773
20
-0.1836039
40
0.3378385
50
257.4583525
51
270.4267406
0
ARC
8
DEFAULT_255_1_388
10
10.1607023
20
-0.150977
40
0.3704652
50
269.5965319
51
280.8788143
0
ARC
8
DEFAULT_255_1_388
10
10.1865251
20
-0.2799471
40
0.2389415
50
280.6347277
51
299.8594068
0
ARC
8
DEFAULT_255_1_388
10
10.2080021
20
-0.3207264
40
0.19289
50
300.3575552
51
314.5515667
0
ARC
8
DEFAULT_255_1_388
10
10.1986696
20
-0.3138975
40
0.204312
50
315.0730962
51
345.0429362
0
ARC
8
DEFAULT_255_1_388
10
10.0948204
20
-0.2836461
40
0.31246
50
344.598526
51
357.9270698
0
ARC
8
DEFAULT_255_1_388
10
9.9938509
20
-0.2767295
40
0.4136265
50
357.4755098
51
0.0224936
0
ARC
8
DEFAULT_255_1_388
10
10.1091386
20
-0.2739901
40
0.2983498
50
359.5051035
51
13.4236939
0
ARC
8
DEFAULT_255_1_388
10
10.2066476
20
-0.2490363
40
0.1977186
50
12.9497905
51
48.7550905
0
ARC
8
DEFAULT_255_1_388
10
10.1861398
20
-0.2770627
40
0.2323321
50
49.509109
51
72.1832965
0
ARC
8
DEFAULT_255_1_388
10
10.1458866
20
-0.3965368
40
0.358397
50
71.9008458
51
84.3555134
0
ARC
8
DEFAULT_255_1_388
10
10.1277261
20
-0.5497288
40
0.512641
50
84.019632
51
89.3326067
0
LINE
8
DEFAULT_255_1_388
10
11.5992789
20
0.6757898
11
11.7736668
21
0.6757898
0
LINE
8
DEFAULT_255_1_388
10
11.7736668
20
0.6757898
11
11.7736668
21
-0.218739
0
LINE
8
DEFAULT_255_1_388
10
11.341763
20
-0.6560642
11
11.2956812
21
-0.6578713
0
LINE
8
DEFAULT_255_1_388
10
10.8213099
20
-0.2205461
11
10.8213099
21
0.6757898
0
LINE
8
DEFAULT_255_1_388
10
10.8213099
20
0.6757898
11
10.9929871
21
0.6757898
0
LINE
8
DEFAULT_255_1_388
10
10.9929871
20
0.6757898
11
10.9929871
21
-0.2151247
0
LINE
8
DEFAULT_255_1_388
10
11.5992789
20
-0.2160283
11
11.5992789
21
0.6757898
0
ARC
8
DEFAULT_255_1_388
10
11.2839466
20
-0.220973
40
0.4897252
50
343.0897723
51
0.2613727
0
ARC
8
DEFAULT_255_1_388
10
11.3771438
20
-0.246973
40
0.3930016
50
315.3344451
51
342.7642569
0
ARC
8
DEFAULT_255_1_388
10
11.3519933
20
-0.2208915
40
0.4292244
50
284.6605441
51
315.2183439
0
ARC
8
DEFAULT_255_1_388
10
11.3007713
20
-0.0469492
40
0.6104926
50
273.8500371
51
285.1796441
0
ARC
8
DEFAULT_255_1_388
10
11.2908778
20
-0.0085238
40
0.6493653
50
257.6315393
51
270.4238259
0
ARC
8
DEFAULT_255_1_388
10
11.2430861
20
-0.2134085
40
0.4390079
50
230.6086859
51
257.9965362
0
ARC
8
DEFAULT_255_1_388
10
11.2284919
20
-0.2363357
40
0.4120404
50
227.745033
51
230.1538266
0
ARC
8
DEFAULT_255_1_388
10
11.2131449
20
-0.2547747
40
0.3880742
50
189.2524335
51
227.5915299
0
ARC
8
DEFAULT_255_1_388
10
11.384332
20
-0.2179265
40
0.5630282
50
180.2665782
51
190.1525221
0
ARC
8
DEFAULT_255_1_388
10
11.4093048
20
-0.2182746
40
0.4163296
50
179.566507
51
191.9954402
0
ARC
8
DEFAULT_255_1_388
10
11.2711736
20
-0.2490849
40
0.274815
50
191.6974619
51
215.1403758
0
ARC
8
DEFAULT_255_1_388
10
11.2444129
20
-0.2650311
40
0.2437647
50
215.6958251
51
224.8509274
0
ARC
8
DEFAULT_255_1_388
10
11.2506605
20
-0.2560984
40
0.2545012
50
225.2846515
51
255.0110023
0
ARC
8
DEFAULT_255_1_388
10
11.2871051
20
-0.1307983
40
0.384974
50
254.5945979
51
267.9129427
0
ARC
8
DEFAULT_255_1_388
10
11.2954744
20
-0.0090556
40
0.506956
50
267.4687563
51
270.0233681
0
ARC
8
DEFAULT_255_1_388
10
11.298874
20
-0.0750712
40
0.440952
50
269.5851384
51
281.1845308
0
ARC
8
DEFAULT_255_1_388
10
11.3302344
20
-0.2272531
40
0.2855802
50
280.9345159
51
300.9740496
0
ARC
8
DEFAULT_255_1_388
10
11.3541524
20
-0.2712872
40
0.2355257
50
301.4982546
51
315.1468616
0
ARC
8
DEFAULT_255_1_388
10
11.337902
20
-0.2579512
40
0.2564594
50
315.5952932
51
345.6679188
0
ARC
8
DEFAULT_255_1_388
10
11.2119577
20
-0.2228765
40
0.3871766
50
345.2525685
51
358.6303941
0
ARC
8
DEFAULT_255_1_388
10
11.0975967
20
-0.2161305
40
0.5016822
50
358.1723541
51
0.0116795
0
LINE
8
DEFAULT_255_1_388
10
12.3691158
20
-0.0127263
11
12.3691158
21
-0.1491645
0
LINE
8
DEFAULT_255_1_388
10
12.3691158
20
-0.1491645
11
11.9281763
21
-0.1491645
0
LINE
8
DEFAULT_255_1_388
10
11.9281763
20
-0.1491645
11
11.9281763
21
-0.0127263
0
LINE
8
DEFAULT_255_1_388
10
11.9281763
20
-0.0127263
11
12.3691158
21
-0.0127263
0
LINE
8
DEFAULT_255_1_388
10
13.3015943
20
0.1101585
11
13.3015943
21
-0.0317011
0
LINE
8
DEFAULT_255_1_388
10
13.3015943
20
-0.0317011
11
12.7314451
21
-0.0317011
0
LINE
8
DEFAULT_255_1_388
10
12.7314451
20
-0.0317011
11
12.7314451
21
-0.4979404
0
LINE
8
DEFAULT_255_1_388
10
12.7314451
20
-0.4979404
11
13.3937579
21
-0.4979404
0
LINE
8
DEFAULT_255_1_388
10
13.3937579
20
-0.4979404
11
13.3937579
21
-0.6398
0
LINE
8
DEFAULT_255_1_388
10
13.3937579
20
-0.6398
11
12.5579607
21
-0.6398
0
LINE
8
DEFAULT_255_1_388
10
12.5579607
20
-0.6398
11
12.5579607
21
0.6757898
0
LINE
8
DEFAULT_255_1_388
10
12.5579607
20
0.6757898
11
13.3847222
21
0.6757898
0
LINE
8
DEFAULT_255_1_388
10
13.3847222
20
0.6757898
11
13.3847222
21
0.5330267
0
LINE
8
DEFAULT_255_1_388
10
13.3847222
20
0.5330267
11
12.7314451
21
0.5330267
0
LINE
8
DEFAULT_255_1_388
10
12.7314451
20
0.5330267
11
12.7314451
21
0.1101585
0
LINE
8
DEFAULT_255_1_388
10
12.7314451
20
0.1101585
11
13.3015943
21
0.1101585
0
LINE
8
DEFAULT_255_1_388
10
14.6207984
20
0.6757898
11
14.6207984
21
-0.6398
0
LINE
8
DEFAULT_255_1_388
10
14.6207984
20
-0.6398
11
14.4464104
21
-0.6398
0
LINE
8
DEFAULT_255_1_388
10
14.4464104
20
-0.6398
11
13.7840977
21
0.3739993
0
LINE
8
DEFAULT_255_1_388
10
13.7840977
20
0.3739993
11
13.7840977
21
-0.6398
0
LINE
8
DEFAULT_255_1_388
10
13.7840977
20
-0.6398
11
13.6097098
21
-0.6398
0
LINE
8
DEFAULT_255_1_388
10
13.6097098
20
-0.6398
11
13.6097098
21
0.6757898
0
LINE
8
DEFAULT_255_1_388
10
13.6097098
20
0.6757898
11
13.7840977
21
0.6757898
0
LINE
8
DEFAULT_255_1_388
10
13.7840977
20
0.6757898
11
14.4482176
21
-0.3425273
0
LINE
8
DEFAULT_255_1_388
10
14.4482176
20
-0.3425273
11
14.4482176
21
0.6757898
0
LINE
8
DEFAULT_255_1_388
10
14.4482176
20
0.6757898
11
14.6207984
21
0.6757898
0
LINE
8
DEFAULT_255_1_388
10
15.6725474
20
0.1101585
11
15.6725474
21
-0.0317011
0
LINE
8
DEFAULT_255_1_388
10
15.6725474
20
-0.0317011
11
15.1023982
21
-0.0317011
0
LINE
8
DEFAULT_255_1_388
10
15.1023982
20
-0.0317011
11
15.1023982
21
-0.4979404
0
LINE
8
DEFAULT_255_1_388
10
15.1023982
20
-0.4979404
11
15.764711
21
-0.4979404
0
LINE
8
DEFAULT_255_1_388
10
15.764711
20
-0.4979404
11
15.764711
21
-0.6398
0
LINE
8
DEFAULT_255_1_388
10
15.764711
20
-0.6398
11
14.9289139
21
-0.6398
0
LINE
8
DEFAULT_255_1_388
10
14.9289139
20
-0.6398
11
14.9289139
21
0.6757898
0
LINE
8
DEFAULT_255_1_388
10
14.9289139
20
0.6757898
11
15.7556753
21
0.6757898
0
LINE
8
DEFAULT_255_1_388
10
15.7556753
20
0.6757898
11
15.7556753
21
0.5330267
0
LINE
8
DEFAULT_255_1_388
10
15.7556753
20
0.5330267
11
15.1023982
21
0.5330267
0
LINE
8
DEFAULT_255_1_388
10
15.1023982
20
0.5330267
11
15.1023982
21
0.1101585
0
LINE
8
DEFAULT_255_1_388
10
15.1023982
20
0.1101585
11
15.6725474
21
0.1101585
0
LINE
8
DEFAULT_255_1_388
10
16.90772
20
0.6757898
11
16.90772
21
0.5330267
0
LINE
8
DEFAULT_255_1_388
10
16.90772
20
0.5330267
11
16.4848519
21
0.5330267
0
LINE
8
DEFAULT_255_1_388
10
16.4848519
20
0.5330267
11
16.4848519
21
-0.6398
0
LINE
8
DEFAULT_255_1_388
10
16.4848519
20
-0.6398
11
16.312271
21
-0.6398
0
LINE
8
DEFAULT_255_1_388
10
16.312271
20
-0.6398
11
16.312271
21
0.5330267
0
LINE
8
DEFAULT_255_1_388
10
16.312271
20
0.5330267
11
15.8903064
21
0.5330267
0
LINE
8
DEFAULT_255_1_388
10
15.8903064
20
0.5330267
11
15.8903064
21
0.6757898
0
LINE
8
DEFAULT_255_1_388
10
15.8903064
20
0.6757898
11
16.90772
21
0.6757898
0
LINE
8
DEFAULT_255_1_388
10
17.2149319
20
-0.0127263
11
17.2149319
21
-0.1491645
0
LINE
8
DEFAULT_255_1_388
10
17.2149319
20
-0.1491645
11
16.7739925
21
-0.1491645
0
LINE
8
DEFAULT_255_1_388
10
16.7739925
20
-0.1491645
11
16.7739925
21
-0.0127263
0
LINE
8
DEFAULT_255_1_388
10
16.7739925
20
-0.0127263
11
17.2149319
21
-0.0127263
0
LINE
8
DEFAULT_255_1_388
10
18.2558382
20
-0.6398
11
18.1302427
21
-0.2964455
0
LINE
8
DEFAULT_255_1_388
10
18.1302427
20
-0.2964455
11
17.5790684
21
-0.2964455
0
LINE
8
DEFAULT_255_1_388
10
17.5790684
20
-0.2964455
11
17.4552801
21
-0.6398
0
LINE
8
DEFAULT_255_1_388
10
17.4552801
20
-0.6398
11
17.2763743
21
-0.6398
0
LINE
8
DEFAULT_255_1_388
10
17.2763743
20
-0.6398
11
17.7787562
21
0.6757898
0
LINE
8
DEFAULT_255_1_388
10
17.7787562
20
0.6757898
11
17.930555
21
0.6757898
0
LINE
8
DEFAULT_255_1_388
10
17.930555
20
0.6757898
11
18.4338404
21
-0.6398
0
LINE
8
DEFAULT_255_1_388
10
18.4338404
20
-0.6398
11
18.2558382
21
-0.6398
0
LINE
8
DEFAULT_255_1_388
10
17.8546556
20
0.4616451
11
17.6314751
21
-0.1536823
0
LINE
8
DEFAULT_255_1_388
10
17.6314751
20
-0.1536823
11
18.0787396
21
-0.1536823
0
LINE
8
DEFAULT_255_1_388
10
18.0787396
20
-0.1536823
11
17.8546556
21
0.4616451
0
LINE
8
DEFAULT_255_1_388
10
18.9750755
20
-0.6398
11
18.610939
21
-0.6398
0
LINE
8
DEFAULT_255_1_388
10
18.610939
20
-0.6398
11
18.610939
21
0.6757898
0
LINE
8
DEFAULT_255_1_388
10
18.610939
20
0.6757898
11
18.982304
21
0.6757898
0
LINE
8
DEFAULT_255_1_388
10
19.5623924
20
0.0622696
11
19.5623924
21
-0.0217619
0
LINE
8
DEFAULT_255_1_388
10
18.9868218
20
0.5330267
11
18.7844234
21
0.5330267
0
LINE
8
DEFAULT_255_1_388
10
18.7844234
20
0.5330267
11
18.7844234
21
-0.4979404
0
LINE
8
DEFAULT_255_1_388
10
18.7844234
20
-0.4979404
11
18.9669434
21
-0.4979404
0
LINE
8
DEFAULT_255_1_388
10
19.3907151
20
-0.0181477
11
19.3907151
21
0.0586553
0
ARC
8
DEFAULT_255_1_388
10
18.9866835
20
0.0159436
40
0.6598608
50
75.4100343
51
90.3802731
0
ARC
8
DEFAULT_255_1_388
10
19.012508
20
0.1235691
40
0.5492049
50
60.1455157
51
75.1889627
0
ARC
8
DEFAULT_255_1_388
10
19.0303672
20
0.1546914
40
0.5133226
50
26.525419
51
60.1451222
0
ARC
8
DEFAULT_255_1_388
10
18.9043458
20
0.0878642
40
0.6559324
50
7.4029944
51
26.832209
0
ARC
8
DEFAULT_255_1_388
10
18.7249855
20
0.0599229
40
0.8374103
50
0.1605597
51
7.7176135
0
ARC
8
DEFAULT_255_1_388
10
18.7434255
20
-0.0260679
40
0.8189782
50
348.7289744
51
0.30125
0
ARC
8
DEFAULT_255_1_388
10
18.9297719
20
-0.0630844
40
0.628991
50
333.0706936
51
348.7181455
0
ARC
8
DEFAULT_255_1_388
10
19.0385348
20
-0.1221551
40
0.5052808
50
299.2531435
51
333.4571133
0
ARC
8
DEFAULT_255_1_388
10
18.9979378
20
-0.0450371
40
0.5924066
50
278.1072193
51
299.0340218
0
ARC
8
DEFAULT_255_1_388
10
18.9691427
20
0.1245979
40
0.7644209
50
270.4446841
51
278.4508355
0
ARC
8
DEFAULT_255_1_388
10
18.9714911
20
0.02003
40
0.5179903
50
269.4969684
51
284.0204874
0
ARC
8
DEFAULT_255_1_388
10
19.0114629
20
-0.1335585
40
0.3592968
50
283.7699076
51
318.1557121
0
ARC
8
DEFAULT_255_1_388
10
18.9735174
20
-0.1051601
40
0.4065308
50
318.7417595
51
343.687252
0
ARC
8
DEFAULT_255_1_388
10
18.7705753
20
-0.0417725
40
0.6191194
50
343.3324891
51
355.8548594
0
ARC
8
DEFAULT_255_1_388
10
18.5344791
20
-0.0193281
40
0.856237
50
355.4988754
51
0.0789913
0
ARC
8
DEFAULT_255_1_388
10
18.622559
20
0.063408
40
0.7681709
50
359.6455047
51
9.8607559
0
ARC
8
DEFAULT_255_1_388
10
18.8881313
20
0.1113664
40
0.498312
50
9.6573037
51
26.1931522
0
ARC
8
DEFAULT_255_1_388
10
18.9925388
20
0.1598587
40
0.3832303
50
26.5777895
51
40.1533752
0
ARC
8
DEFAULT_255_1_388
10
19.0213053
20
0.182302
40
0.3467742
50
40.3839958
51
80.1430923
0
ARC
8
DEFAULT_255_1_388
10
18.9845309
20
0.0192486
40
0.5137832
50
79.2153636
51
89.7445174
0
LINE
8
DEFAULT_255_1_388
10
20.3078331
20
-0.1247683
11
19.9979104
21
-0.1247683
0
LINE
8
DEFAULT_255_1_388
10
19.9979104
20
-0.1247683
11
19.9979104
21
-0.6398
0
LINE
8
DEFAULT_255_1_388
10
19.9979104
20
-0.6398
11
19.8244261
21
-0.6398
0
LINE
8
DEFAULT_255_1_388
10
19.8244261
20
-0.6398
11
19.8244261
21
0.6757898
0
LINE
8
DEFAULT_255_1_388
10
19.8244261
20
0.6757898
11
20.3096402
21
0.6757898
0
LINE
8
DEFAULT_255_1_388
10
19.9979104
20
0.5330267
11
19.9979104
21
0.0170914
0
LINE
8
DEFAULT_255_1_388
10
19.9979104
20
0.0170914
11
20.3096402
21
0.0170914
0
LINE
8
DEFAULT_255_1_388
10
20.3195794
20
0.5330267
11
19.9979104
21
0.5330267
0
ARC
8
DEFAULT_255_1_388
10
20.3143775
20
-0.0058666
40
0.6816729
50
78.8380084
51
90.398184
0
ARC
8
DEFAULT_255_1_388
10
20.3611805
20
0.2214796
40
0.449571
50
58.9633273
51
79.0810717
0
ARC
8
DEFAULT_255_1_388
10
20.395119
20
0.2844823
40
0.3781049
50
48.0194715
51
58.4475592
0
ARC
8
DEFAULT_255_1_388
10
20.405101
20
0.2940818
40
0.3642936
50
3.3374546
51
48.1766642
0
ARC
8
DEFAULT_255_1_388
10
20.2665817
20
0.2741581
40
0.5038766
50
359.9483251
51
4.6822857
0
ARC
8
DEFAULT_255_1_388
10
20.280574
20
0.2693779
40
0.4899031
50
346.1879032
51
0.5059221
0
ARC
8
DEFAULT_255_1_388
10
20.4334531
20
0.2296763
40
0.3319729
50
310.8832219
51
346.5426612
0
ARC
8
DEFAULT_255_1_388
10
20.398738
20
0.2765853
40
0.3901853
50
286.6925305
51
310.228778
0
ARC
8
DEFAULT_255_1_388
10
20.334711
20
0.4779585
40
0.6014737
50
274.6848219
51
287.0247342
0
ARC
8
DEFAULT_255_1_388
10
20.3093659
20
0.7264088
40
0.8511785
50
269.8968222
51
275.0192639
0
ARC
8
DEFAULT_255_1_388
10
20.3124652
20
0.4926144
40
0.4755314
50
269.6596206
51
279.4150542
0
ARC
8
DEFAULT_255_1_388
10
20.341411
20
0.3248945
40
0.3053379
50
279.2050006
51
294.9901776
0
ARC
8
DEFAULT_255_1_388
10
20.3740744
20
0.2520353
40
0.2255036
50
295.2886769
51
311.2912669
0
ARC
8
DEFAULT_255_1_388
10
20.3820486
20
0.2401938
40
0.2113522
50
311.7853512
51
347.2860549
0
ARC
8
DEFAULT_255_1_388
10
20.2713647
20
0.268643
40
0.3256011
50
346.6891629
51
0.1057086
0
ARC
8
DEFAULT_255_1_388
10
20.1791107
20
0.2719247
40
0.417863
50
359.63239
51
359.9961329
0
ARC
8
DEFAULT_255_1_388
10
20.2955712
20
0.2746987
40
0.3014155
50
359.4673371
51
15.5931159
0
ARC
8
DEFAULT_255_1_388
10
20.3658774
20
0.2936937
40
0.2285918
50
15.7441779
51
46.620186
0
ARC
8
DEFAULT_255_1_388
10
20.3492535
20
0.2745361
40
0.2539359
50
46.8628482
51
75.6676625
0
ARC
8
DEFAULT_255_1_388
10
20.3161591
20
0.1554243
40
0.3775415
50
75.2763152
51
88.2916439
0
ARC
8
DEFAULT_255_1_388
10
20.309559
20
0.0552097
40
0.4779221
50
87.8589087
51
88.7986197
0
LINE
8
DEFAULT_255_1_388
10
11.7486646
20
47.0466516
11
11.7486646
21
46.9047919
0
LINE
8
DEFAULT_255_1_388
10
11.7486646
20
46.9047919
11
11.1965868
21
46.9047919
0
LINE
8
DEFAULT_255_1_388
10
11.1965868
20
46.9047919
11
11.1965868
21
46.3238
0
LINE
8
DEFAULT_255_1_388
10
11.1965868
20
46.3238
11
11.0231024
21
46.3238
0
LINE
8
DEFAULT_255_1_388
10
11.0231024
20
46.3238
11
11.0231024
21
47.6393898
0
LINE
8
DEFAULT_255_1_388
10
11.0231024
20
47.6393898
11
11.8381175
21
47.6393898
0
LINE
8
DEFAULT_255_1_388
10
11.8381175
20
47.6393898
11
11.8381175
21
47.4966267
0
LINE
8
DEFAULT_255_1_388
10
11.8381175
20
47.4966267
11
11.1965868
21
47.4966267
0
LINE
8
DEFAULT_255_1_388
10
11.1965868
20
47.4966267
11
11.1965868
21
47.0466516
0
LINE
8
DEFAULT_255_1_388
10
11.1965868
20
47.0466516
11
11.7486646
21
47.0466516
0
LINE
8
DEFAULT_255_1_388
10
13.3768878
20
47.2589892
11
13.2024999
21
47.2589892
0
LINE
8
DEFAULT_255_1_388
10
12.4236273
20
46.7051042
11
12.5980152
21
46.7051042
0
ARC
8
DEFAULT_255_1_388
10
13.2765726
20
48.2653821
40
1.4087688
50
248.9196578
51
254.1442424
0
ARC
8
DEFAULT_255_1_388
10
13.0875606
20
47.7787805
40
0.8867498
50
241.6337352
51
249.0064643
0
ARC
8
DEFAULT_255_1_388
10
12.9155919
20
47.4636764
40
0.5277799
50
230.4982261
51
241.8087583
0
ARC
8
DEFAULT_255_1_388
10
12.827369
20
47.3512686
40
0.3849419
50
227.4062979
51
229.9877433
0
ARC
8
DEFAULT_255_1_388
10
12.7725037
20
47.2977155
40
0.3084129
50
200.6782127
51
228.1765252
0
ARC
8
DEFAULT_255_1_388
10
12.7806406
20
47.2960277
40
0.315461
50
179.506278
51
199.8695278
0
ARC
8
DEFAULT_255_1_388
10
12.7795994
20
47.3043671
40
0.3144584
50
132.4834401
51
181.0242352
0
ARC
8
DEFAULT_255_1_388
10
12.8465199
20
47.2411788
40
0.4063094
50
129.2526113
51
133.4249077
0
ARC
8
DEFAULT_255_1_388
10
12.8630791
20
47.2163619
40
0.436014
50
101.9878945
51
128.8741833
0
ARC
8
DEFAULT_255_1_388
10
12.9079207
20
47.022736
40
0.6347415
50
89.5906376
51
102.3170567
0
ARC
8
DEFAULT_255_1_388
10
12.9158518
20
47.0585586
40
0.5989122
50
77.2359491
51
90.3248968
0
ARC
8
DEFAULT_255_1_388
10
12.9391449
20
47.1673554
40
0.4876594
50
63.8379856
51
77.0808925
0
ARC
8
DEFAULT_255_1_388
10
12.9703983
20
47.2255882
40
0.4216191
50
45.9863127
51
64.1608798
0
ARC
8
DEFAULT_255_1_388
10
12.9997376
20
47.259099
40
0.3771394
50
32.2747934
51
45.6544796
0
ARC
8
DEFAULT_255_1_388
10
13.0072183
20
47.2612426
40
0.3696765
50
359.6507495
51
32.6129943
0
ARC
8
DEFAULT_255_1_388
10
12.9011365
20
47.2617788
40
0.3013762
50
359.469654
51
14.983205
0
ARC
8
DEFAULT_255_1_388
10
12.9804617
20
47.2830288
40
0.2192542
50
14.9781954
51
48.2004799
0
ARC
8
DEFAULT_255_1_388
10
12.9619728
20
47.2597937
40
0.2489048
50
48.5926661
51
74.1242559
0
ARC
8
DEFAULT_255_1_388
10
12.9244531
20
47.1359607
40
0.3782845
50
73.7889321
51
86.6653996
0
ARC
8
DEFAULT_255_1_388
10
12.9129345
20
47.0001955
40
0.5145025
50
86.2642725
51
90.0533288
0
ARC
8
DEFAULT_255_1_388
10
12.9097438
20
47.0446376
40
0.4700681
50
89.669455
51
99.2313411
0
ARC
8
DEFAULT_255_1_388
10
12.8824598
20
47.2071401
40
0.3052945
50
99.0695987
51
113.7659242
0
ARC
8
DEFAULT_255_1_388
10
12.8516592
20
47.2797772
40
0.226407
50
114.0402885
51
127.9848946
0
ARC
8
DEFAULT_255_1_388
10
12.8246068
20
47.3130884
40
0.1835045
50
127.7287217
51
176.7106493
0
ARC
8
DEFAULT_255_1_388
10
12.9009734
20
47.301721
40
0.2604907
50
175.1780759
51
180.0581213
0
ARC
8
DEFAULT_255_1_388
10
12.8061077
20
47.3003411
40
0.1656287
50
179.6140658
51
228.124674
0
ARC
8
DEFAULT_255_1_388
10
12.8558435
20
47.346394
40
0.2332038
50
226.5785315
51
230.8792476
0
ARC
8
DEFAULT_255_1_388
10
12.9087921
20
47.4166908
40
0.3211664
50
231.4636401
51
241.9261664
0
ARC
8
DEFAULT_255_1_388
10
13.0434705
20
47.6645349
40
0.6032345
50
241.7177136
51
248.3259138
0
ARC
8
DEFAULT_255_1_388
10
13.1993299
20
48.0506771
40
1.0196417
50
248.2007377
51
252.4527713
0
ARC
8
DEFAULT_255_1_388
10
13.3346826
20
48.4691092
40
1.4594143
50
252.3388938
51
254.347037
0
ARC
8
DEFAULT_255_1_388
10
12.4862127
20
45.4343095
40
1.6917621
50
71.0197462
51
74.4085467
0
ARC
8
DEFAULT_255_1_388
10
12.6769214
20
45.9848144
40
1.1091618
50
66.1845203
51
71.086519
0
ARC
8
DEFAULT_255_1_388
10
12.8519763
20
46.3789439
40
0.6779073
50
59.3537334
51
66.269255
0
ARC
8
DEFAULT_255_1_388
10
12.9519489
20
46.5480777
40
0.4814366
50
49.1021732
51
59.3294421
0
ARC
8
DEFAULT_255_1_388
10
13.0440478
20
46.6530575
40
0.3417875
50
32.7924183
51
49.2503526
0
ARC
8
DEFAULT_255_1_388
10
13.0790092
20
46.6780311
40
0.2988789
50
31.121225
51
32.3977355
0
ARC
8
DEFAULT_255_1_388
10
13.070227
20
46.6747728
40
0.3080861
50
8.1116803
51
30.7958224
0
ARC
8
DEFAULT_255_1_388
10
12.9790615
20
46.6592437
40
0.4005385
50
359.8390945
51
8.4707348
0
ARC
8
DEFAULT_255_1_388
10
13.0494663
20
46.6537751
40
0.3301608
50
337.4732479
51
0.7538283
0
ARC
8
DEFAULT_255_1_388
10
13.0695688
20
46.6515554
40
0.3107929
50
307.5917028
51
336.4313755
0
ARC
8
DEFAULT_255_1_388
10
13.0184746
20
46.7083509
40
0.3870096
50
307.6560665
51
308.4561779
0
ARC
8
DEFAULT_255_1_388
10
12.9918962
20
46.7491832
40
0.435591
50
284.3733666
51
307.1426212
0
ARC
8
DEFAULT_255_1_388
10
12.9361857
20
46.9541391
40
0.6479685
50
272.4384566
51
284.6464689
0
ARC
8
DEFAULT_255_1_388
10
12.9219241
20
47.1565434
40
0.8508149
50
269.9708517
51
272.8180721
0
ARC
8
DEFAULT_255_1_388
10
12.9170924
20
46.9273283
40
0.6216151
50
248.2707343
51
270.4054609
0
ARC
8
DEFAULT_255_1_388
10
12.9109796
20
46.9058673
40
0.5994203
50
246.1380358
51
248.054058
0
ARC
8
DEFAULT_255_1_388
10
12.8638938
20
46.8069705
40
0.4899388
50
233.1671897
51
246.4951656
0
ARC
8
DEFAULT_255_1_388
10
12.8015573
20
46.7228137
40
0.3852115
50
215.3403381
51
233.084328
0
ARC
8
DEFAULT_255_1_388
10
12.7708937
20
46.7005093
40
0.3472969
50
179.2419235
51
215.2648426
0
ARC
8
DEFAULT_255_1_388
10
12.8572488
20
46.7020979
40
0.259251
50
179.3355796
51
199.1045873
0
ARC
8
DEFAULT_255_1_388
10
12.819863
20
46.6923223
40
0.2207454
50
199.8830064
51
232.7061328
0
ARC
8
DEFAULT_255_1_388
10
12.8729904
20
46.7591456
40
0.306101
50
232.3736206
51
255.5136621
0
ARC
8
DEFAULT_255_1_388
10
12.911341
20
46.8991177
40
0.4512213
50
255.2447928
51
267.5318292
0
ARC
8
DEFAULT_255_1_388
10
12.9211877
20
47.0377709
40
0.5901825
50
267.1564563
51
270.0294721
0
ARC
8
DEFAULT_255_1_388
10
12.9243203
20
46.9878623
40
0.5402814
50
269.6999944
51
278.1662446
0
ARC
8
DEFAULT_255_1_388
10
12.953123
20
46.7931974
40
0.3435003
50
278.0229022
51
290.6255326
0
ARC
8
DEFAULT_255_1_388
10
12.9922397
20
46.6888547
40
0.2320666
50
290.6616368
51
307.0374127
0
ARC
8
DEFAULT_255_1_388
10
13.0260297
20
46.647404
40
0.1786372
50
306.3942078
51
355.303191
0
ARC
8
DEFAULT_255_1_388
10
12.968459
20
46.6560186
40
0.2367516
50
354.3662092
51
0.0709489
0
ARC
8
DEFAULT_255_1_388
10
12.9844458
20
46.6585561
40
0.2207761
50
359.4175379
51
16.1975911
0
ARC
8
DEFAULT_255_1_388
10
13.0356576
20
46.6725954
40
0.1676828
50
16.4721294
51
52.6261798
0
ARC
8
DEFAULT_255_1_388
10
12.9433084
20
46.5506606
40
0.3206412
50
52.7381828
51
62.4979144
0
ARC
8
DEFAULT_255_1_388
10
12.7874836
20
46.2574236
40
0.6527035
50
62.2517425
51
68.1219454
0
ARC
8
DEFAULT_255_1_388
10
12.5940324
20
45.7819951
40
1.1659797
50
68.006043
51
71.8055127
0
ARC
8
DEFAULT_255_1_388
10
12.3920232
20
45.1761723
40
1.8045908
50
71.718361
51
73.9260743
0
LINE
8
DEFAULT_255_1_388
10
13.5332044
20
46.7855214
11
13.5332044
21
46.8162426
0
LINE
8
DEFAULT_255_1_388
10
14.3626766
20
46.8343139
11
14.3626766
21
46.7647395
0
LINE
8
DEFAULT_255_1_388
10
14.3626766
20
46.7647395
11
13.7003639
21
46.7647395
0
LINE
8
DEFAULT_255_1_388
10
14.2479239
20
46.5740874
11
14.3500267
21
46.4945737
0
LINE
8
DEFAULT_255_1_388
10
13.7057853
20
46.9020813
11
14.1955172
21
46.9020813
0
LINE
8
DEFAULT_255_1_388
10
14.1955172
20
46.9020813
11
14.1955172
21
46.9147312
0
ARC
8
DEFAULT_255_1_388
10
13.9763805
20
46.798021
40
0.4923176
50
252.326534
51
270.5809615
0
ARC
8
DEFAULT_255_1_388
10
13.953327
20
46.714694
40
0.4059384
50
223.3000488
51
251.8562489
0
ARC
8
DEFAULT_255_1_388
10
13.977105
20
46.7377898
40
0.4390832
50
190.9374369
51
223.3654369
0
ARC
8
DEFAULT_255_1_388
10
14.1711728
20
46.7816598
40
0.63798
50
179.6531919
51
191.4988561
0
ARC
8
DEFAULT_255_1_388
10
14.1848755
20
46.8198571
40
0.6516811
50
167.4005523
51
180.3177836
0
ARC
8
DEFAULT_255_1_388
10
14.0665426
20
46.8448853
40
0.5307402
50
154.1835149
51
167.2508278
0
ARC
8
DEFAULT_255_1_388
10
13.9955017
20
46.8822925
40
0.4505076
50
134.3150225
51
154.5315008
0
ARC
8
DEFAULT_255_1_388
10
13.9710352
20
46.903755
40
0.4180662
50
122.8617482
51
133.9707159
0
ARC
8
DEFAULT_255_1_388
10
13.9593959
20
46.9287882
40
0.3907416
50
89.8248474
51
123.4199325
0
ARC
8
DEFAULT_255_1_388
10
13.9650257
20
46.8560352
40
0.4635141
50
74.7874349
51
90.5482648
0
ARC
8
DEFAULT_255_1_388
10
13.9980721
20
46.9780987
40
0.3370565
50
39.8178888
51
74.7634383
0
ARC
8
DEFAULT_255_1_388
10
13.9403963
20
46.9331356
40
0.4101553
50
16.8990848
51
39.4830125
0
ARC
8
DEFAULT_255_1_388
10
13.7272578
20
46.8648711
40
0.6339427
50
4.9634768
51
17.2027767
0
ARC
8
DEFAULT_255_1_388
10
13.4551983
20
46.83616
40
0.9074803
50
359.8834402
51
5.2832409
0
ARC
8
DEFAULT_255_1_388
10
14.134434
20
46.7721981
40
0.4341343
50
180.9844233
51
194.9402766
0
ARC
8
DEFAULT_255_1_388
10
14.0163506
20
46.739917
40
0.3117211
50
194.8030557
51
222.0412897
0
ARC
8
DEFAULT_255_1_388
10
13.9821378
20
46.7059715
40
0.2635903
50
221.541578
51
268.8616004
0
ARC
8
DEFAULT_255_1_388
10
13.9903499
20
46.782028
40
0.3398611
50
267.7321071
51
270.009808
0
ARC
8
DEFAULT_255_1_388
10
13.9923562
20
46.8047178
40
0.3625561
50
269.6921218
51
280.4122297
0
ARC
8
DEFAULT_255_1_388
10
14.0121974
20
46.7013767
40
0.2573323
50
280.2257165
51
298.633539
0
ARC
8
DEFAULT_255_1_388
10
14.0247388
20
46.6749578
40
0.2281403
50
299.0485543
51
300.4624141
0
ARC
8
DEFAULT_255_1_388
10
13.9488368
20
46.8014796
40
0.3756797
50
300.6578578
51
322.037749
0
ARC
8
DEFAULT_255_1_388
10
13.9117889
20
46.8338266
40
0.4247956
50
321.671786
51
322.3059078
0
ARC
8
DEFAULT_255_1_388
10
14.0141452
20
46.7044267
40
0.3960488
50
276.9729088
51
328.0035579
0
ARC
8
DEFAULT_255_1_388
10
13.9829923
20
46.8709609
40
0.5652345
50
269.8358003
51
278.0581296
0
ARC
8
DEFAULT_255_1_388
10
13.9574222
20
46.954782
40
0.2274263
50
89.2017936
51
117.2852353
0
ARC
8
DEFAULT_255_1_388
10
13.9633972
20
46.9500637
40
0.2343798
50
118.0546404
51
137.4544511
0
ARC
8
DEFAULT_255_1_388
10
14.0055616
20
46.9117556
40
0.2913471
50
137.5109688
51
158.8516701
0
ARC
8
DEFAULT_255_1_388
10
14.1335717
20
46.8600902
40
0.4293804
50
158.5845496
51
170.1719753
0
ARC
8
DEFAULT_255_1_388
10
14.2652052
20
46.8339519
40
0.5635533
50
169.8378964
51
173.0563877
0
ARC
8
DEFAULT_255_1_388
10
13.7367336
20
46.8914187
40
0.4593755
50
2.9089079
51
12.88469
0
ARC
8
DEFAULT_255_1_388
10
13.8909255
20
46.9277082
40
0.3009753
50
12.6957404
51
28.6405841
0
ARC
8
DEFAULT_255_1_388
10
13.9518752
20
46.9592577
40
0.232366
50
29.016559
51
41.1492981
0
ARC
8
DEFAULT_255_1_388
10
13.9746731
20
46.979108
40
0.2021373
50
41.1646967
51
85.001362
0
ARC
8
DEFAULT_255_1_388
10
13.9610735
20
46.8964775
40
0.2857091
50
83.728216
51
90.0968824
0
LINE
8
DEFAULT_255_1_388
10
15.0286036
20
47.3068781
11
15.0286036
21
47.151465
0
LINE
8
DEFAULT_255_1_388
10
14.7231988
20
47.0177375
11
14.7231988
21
46.3238
0
LINE
8
DEFAULT_255_1_388
10
14.7231988
20
46.3238
11
14.5560394
21
46.3238
0
LINE
8
DEFAULT_255_1_388
10
14.5560394
20
46.3238
11
14.5560394
21
47.3014567
0
LINE
8
DEFAULT_255_1_388
10
14.5560394
20
47.3014567
11
14.718681
21
47.3014567
0
LINE
8
DEFAULT_255_1_388
10
14.718681
20
47.3014567
11
14.7213917
21
47.1885112
0
ARC
8
DEFAULT_255_1_388
10
14.9536196
20
46.6948068
40
0.4627735
50
80.6751522
51
86.893806
0
ARC
8
DEFAULT_255_1_388
10
14.9468026
20
46.5856103
40
0.5721798
50
86.8046851
51
90.0423898
0
ARC
8
DEFAULT_255_1_388
10
14.9426445
20
46.8623197
40
0.2954939
50
89.2758283
51
106.6212906
0
ARC
8
DEFAULT_255_1_388
10
14.919647
20
46.9459009
40
0.2088351
50
107.1347109
51
157.6456887
0
ARC
8
DEFAULT_255_1_388
10
14.9964532
20
46.9031908
40
0.296292
50
155.6557383
51
157.256838
0
ARC
8
DEFAULT_255_1_388
10
14.9744147
20
47.0342472
40
0.296341
50
127.8167201
51
148.6300223
0
ARC
8
DEFAULT_255_1_388
10
14.9458894
20
47.0635066
40
0.2557782
50
91.3329934
51
126.7875218
0
ARC
8
DEFAULT_255_1_388
10
14.9544281
20
46.9831718
40
0.3363561
50
89.9858247
51
92.4688453
0
ARC
8
DEFAULT_255_1_388
10
14.9553774
20
47.0140114
40
0.3055179
50
85.3587643
51
90.1624243
0
ARC
8
DEFAULT_255_1_388
10
14.9648839
20
47.1269458
40
0.1921848
50
78.4019195
51
85.4592653
0
ARC
8
DEFAULT_255_1_388
10
14.98119
20
47.2047142
40
0.1127267
50
67.7849217
51
78.573798
0
ARC
8
DEFAULT_255_1_388
10
14.9933534
20
47.2362374
40
0.0789473
50
63.4805074
51
67.3074739
0
LINE
8
DEFAULT_255_1_388
10
15.363826
20
47.3014567
11
15.363826
21
46.3238
0
LINE
8
DEFAULT_255_1_388
10
15.363826
20
46.3238
11
15.1966666
21
46.3238
0
LINE
8
DEFAULT_255_1_388
10
15.1966666
20
46.3238
11
15.1966666
21
47.3014567
0
LINE
8
DEFAULT_255_1_388
10
15.1966666
20
47.3014567
11
15.363826
21
47.3014567
0
ARC
8
DEFAULT_255_1_388
10
15.2932028
20
47.5618428
40
0.1100948
50
161.4148232
51
180.5532607
0
ARC
8
DEFAULT_255_1_388
10
15.2792338
20
47.5656875
40
0.0956324
50
138.1830164
51
160.9307633
0
ARC
8
DEFAULT_255_1_388
10
15.2668525
20
47.5764313
40
0.0792417
50
104.6371663
51
138.0036136
0
ARC
8
DEFAULT_255_1_388
10
15.2789064
20
47.5351963
40
0.1221906
50
92.0601206
51
105.2198859
0
ARC
8
DEFAULT_255_1_388
10
15.2815428
20
47.4963583
40
0.161103
50
89.9790681
51
92.5006086
0
ARC
8
DEFAULT_255_1_388
10
15.2826604
20
47.5219998
40
0.1354654
50
78.0234649
51
90.4478111
0
ARC
8
DEFAULT_255_1_388
10
15.2930188
20
47.5685203
40
0.0878096
50
55.0521508
51
78.336297
0
ARC
8
DEFAULT_255_1_388
10
15.2986723
20
47.5780168
40
0.0767913
50
42.0506198
51
54.4508489
0
ARC
8
DEFAULT_255_1_388
10
15.2834756
20
47.5640821
40
0.0974091
50
1.7493657
51
42.1498724
0
ARC
8
DEFAULT_255_1_388
10
15.2548661
20
47.5608166
40
0.1261276
50
359.9832635
51
2.8353994
0
ARC
8
DEFAULT_255_1_388
10
15.2735071
20
47.5597412
40
0.1074916
50
342.1062453
51
0.5535864
0
ARC
8
DEFAULT_255_1_388
10
15.2895495
20
47.5553197
40
0.0908695
50
316.7110111
51
341.6513114
0
ARC
8
DEFAULT_255_1_388
10
15.2970927
20
47.5485607
40
0.0807447
50
285.4398289
51
316.5320129
0
ARC
8
DEFAULT_255_1_388
10
15.2847098
20
47.5897023
40
0.1237022
50
272.3543902
51
285.8951677
0
ARC
8
DEFAULT_255_1_388
10
15.2816808
20
47.6312742
40
0.1653687
50
269.9725761
51
272.8112722
0
ARC
8
DEFAULT_255_1_388
10
15.280586
20
47.6061727
40
0.1402709
50
258.8433431
51
270.4148607
0
ARC
8
DEFAULT_255_1_388
10
15.270464
20
47.5571739
40
0.0902407
50
238.54281
51
259.1289544
0
ARC
8
DEFAULT_255_1_388
10
15.2627962
20
47.5432694
40
0.0743817
50
222.5056676
51
237.9918132
0
ARC
8
DEFAULT_255_1_388
10
15.2771555
20
47.5563295
40
0.0937918
50
184.1070774
51
222.4604165
0
ARC
8
DEFAULT_255_1_388
10
15.3073969
20
47.5606538
40
0.1242838
50
179.9419581
51
185.0970785
0
LINE
8
DEFAULT_255_1_388
10
15.5888136
20
46.7855214
11
15.5888136
21
46.8162426
0
LINE
8
DEFAULT_255_1_388
10
16.4182857
20
46.8343139
11
16.4182857
21
46.7647395
0
LINE
8
DEFAULT_255_1_388
10
16.4182857
20
46.7647395
11
15.755973
21
46.7647395
0
LINE
8
DEFAULT_255_1_388
10
16.3035331
20
46.5740874
11
16.4056358
21
46.4945737
0
LINE
8
DEFAULT_255_1_388
10
15.7613944
20
46.9020813
11
16.2511263
21
46.9020813
0
LINE
8
DEFAULT_255_1_388
10
16.2511263
20
46.9020813
11
16.2511263
21
46.9147312
0
ARC
8
DEFAULT_255_1_388
10
16.0319897
20
46.798021
40
0.4923176
50
252.326534
51
270.5809615
0
ARC
8
DEFAULT_255_1_388
10
16.0089361
20
46.714694
40
0.4059384
50
223.3000488
51
251.8562489
0
ARC
8
DEFAULT_255_1_388
10
16.0327141
20
46.7377898
40
0.4390832
50
190.9374369
51
223.3654369
0
ARC
8
DEFAULT_255_1_388
10
16.2267819
20
46.7816598
40
0.63798
50
179.6531919
51
191.4988561
0
ARC
8
DEFAULT_255_1_388
10
16.2404846
20
46.8198571
40
0.6516811
50
167.4005523
51
180.3177836
0
ARC
8
DEFAULT_255_1_388
10
16.1221517
20
46.8448853
40
0.5307402
50
154.1835149
51
167.2508278
0
ARC
8
DEFAULT_255_1_388
10
16.0511108
20
46.8822925
40
0.4505076
50
134.3150225
51
154.5315008
0
ARC
8
DEFAULT_255_1_388
10
16.0266443
20
46.903755
40
0.4180662
50
122.8617482
51
133.9707159
0
ARC
8
DEFAULT_255_1_388
10
16.0150051
20
46.9287882
40
0.3907416
50
89.8248474
51
123.4199325
0
ARC
8
DEFAULT_255_1_388
10
16.0206349
20
46.8560352
40
0.4635141
50
74.7874349
51
90.5482648
0
ARC
8
DEFAULT_255_1_388
10
16.0536813
20
46.9780987
40
0.3370565
50
39.8178888
51
74.7634383
0
ARC
8
DEFAULT_255_1_388
10
15.9960055
20
46.9331356
40
0.4101553
50
16.8990848
51
39.4830125
0
ARC
8
DEFAULT_255_1_388
10
15.7828669
20
46.8648711
40
0.6339427
50
4.9634768
51
17.2027767
0
ARC
8
DEFAULT_255_1_388
10
15.5108074
20
46.83616
40
0.9074803
50
359.8834402
51
5.2832409
0
ARC
8
DEFAULT_255_1_388
10
16.1900432
20
46.7721981
40
0.4341343
50
180.9844233
51
194.9402766
0
ARC
8
DEFAULT_255_1_388
10
16.0719597
20
46.739917
40
0.3117211
50
194.8030557
51
222.0412897
0
ARC
8
DEFAULT_255_1_388
10
16.037747
20
46.7059715
40
0.2635903
50
221.541578
51
268.8616004
0
ARC
8
DEFAULT_255_1_388
10
16.045959
20
46.782028
40
0.3398611
50
267.7321071
51
270.009808
0
ARC
8
DEFAULT_255_1_388
10
16.0479654
20
46.8047178
40
0.3625561
50
269.6921218
51
280.4122297
0
ARC
8
DEFAULT_255_1_388
10
16.0678065
20
46.7013767
40
0.2573323
50
280.2257165
51
298.633539
0
ARC
8
DEFAULT_255_1_388
10
16.0803479
20
46.6749578
40
0.2281403
50
299.0485543
51
300.4624141
0
ARC
8
DEFAULT_255_1_388
10
16.0044459
20
46.8014796
40
0.3756797
50
300.6578578
51
322.037749
0
ARC
8
DEFAULT_255_1_388
10
15.9673981
20
46.8338266
40
0.4247956
50
321.671786
51
322.3059078
0
ARC
8
DEFAULT_255_1_388
10
16.0697544
20
46.7044267
40
0.3960488
50
276.9729088
51
328.0035579
0
ARC
8
DEFAULT_255_1_388
10
16.0386014
20
46.8709609
40
0.5652345
50
269.8358003
51
278.0581296
0
ARC
8
DEFAULT_255_1_388
10
16.0130313
20
46.954782
40
0.2274263
50
89.2017936
51
117.2852353
0
ARC
8
DEFAULT_255_1_388
10
16.0190064
20
46.9500637
40
0.2343798
50
118.0546404
51
137.4544511
0
ARC
8
DEFAULT_255_1_388
10
16.0611707
20
46.9117556
40
0.2913471
50
137.5109688
51
158.8516701
0
ARC
8
DEFAULT_255_1_388
10
16.1891808
20
46.8600902
40
0.4293804
50
158.5845496
51
170.1719753
0
ARC
8
DEFAULT_255_1_388
10
16.3208144
20
46.8339519
40
0.5635533
50
169.8378964
51
173.0563877
0
ARC
8
DEFAULT_255_1_388
10
15.7923427
20
46.8914187
40
0.4593755
50
2.9089079
51
12.88469
0
ARC
8
DEFAULT_255_1_388
10
15.9465347
20
46.9277082
40
0.3009753
50
12.6957404
51
28.6405841
0
ARC
8
DEFAULT_255_1_388
10
16.0074844
20
46.9592577
40
0.232366
50
29.016559
51
41.1492981
0
ARC
8
DEFAULT_255_1_388
10
16.0302823
20
46.979108
40
0.2021373
50
41.1646967
51
85.001362
0
ARC
8
DEFAULT_255_1_388
10
16.0166827
20
46.8964775
40
0.2857091
50
83.728216
51
90.0968824
0
LINE
8
DEFAULT_255_1_388
10
17.3390179
20
47.0141232
11
17.1709549
21
47.0141232
0
LINE
8
DEFAULT_255_1_388
10
16.5709881
20
46.624687
11
16.7381476
21
46.624687
0
ARC
8
DEFAULT_255_1_388
10
17.037284
20
46.5847935
40
0.1436198
50
359.3335374
51
18.5869869
0
ARC
8
DEFAULT_255_1_388
10
17.060758
20
46.5910015
40
0.1194022
50
19.3538149
51
54.6486387
0
ARC
8
DEFAULT_255_1_388
10
17.0040567
20
46.5128077
40
0.2159877
50
54.3821575
51
65.0627557
0
ARC
8
DEFAULT_255_1_388
10
16.9175914
20
46.3309032
40
0.4173927
50
64.8282172
51
71.4204388
0
ARC
8
DEFAULT_255_1_388
10
16.816081
20
46.0330782
40
0.7320403
50
71.3166092
51
75.8005927
0
ARC
8
DEFAULT_255_1_388
10
16.7214695
20
45.6685881
40
1.108605
50
75.6810806
51
78.0063886
0
ARC
8
DEFAULT_255_1_388
10
17.2219284
20
48.028753
40
1.3040363
50
254.69024
51
258.0465557
0
ARC
8
DEFAULT_255_1_388
10
17.1051153
20
47.6057742
40
0.8652254
50
249.9010634
51
254.7555005
0
ARC
8
DEFAULT_255_1_388
10
16.9922205
20
47.299168
40
0.5384962
50
243.3097375
51
249.970939
0
ARC
8
DEFAULT_255_1_388
10
16.9214619
20
47.1580721
40
0.380652
50
234.4047808
51
243.2861752
0
ARC
8
DEFAULT_255_1_388
10
16.8514255
20
47.0613645
40
0.2612502
50
220.8665526
51
234.5497192
0
ARC
8
DEFAULT_255_1_388
10
16.8129254
20
47.0263203
40
0.2092097
50
214.3063391
51
220.5075055
0
ARC
8
DEFAULT_255_1_388
10
16.8100368
20
47.0228577
40
0.2048755
50
186.9131438
51
213.9617385
0
ARC
8
DEFAULT_255_1_388
10
16.8698758
20
47.0325431
40
0.2654563
50
179.8802037
51
187.4338578
0
ARC
8
DEFAULT_255_1_388
10
16.8524722
20
47.0348049
40
0.2480581
50
132.0053393
51
180.3942351
0
ARC
8
DEFAULT_255_1_388
10
16.9263635
20
46.9665997
40
0.3483116
50
129.2317021
51
133.5294826
0
ARC
8
DEFAULT_255_1_388
10
16.9323604
20
46.9560383
40
0.360291
50
100.440976
51
128.9081567
0
ARC
8
DEFAULT_255_1_388
10
16.9631722
20
46.8114357
40
0.5080996
50
89.6985063
51
100.9029043
0
ARC
8
DEFAULT_255_1_388
10
16.9695876
20
46.7933739
40
0.5261675
50
77.6967144
51
90.4074623
0
ARC
8
DEFAULT_255_1_388
10
17.0068229
20
46.9539503
40
0.3613511
50
50.7278431
51
78.0397473
0
ARC
8
DEFAULT_255_1_388
10
17.0568272
20
47.0122173
40
0.2845966
50
25.754382
51
51.0957456
0
ARC
8
DEFAULT_255_1_388
10
17.0569639
20
47.0178311
40
0.2820785
50
359.2468358
51
24.7393861
0
ARC
8
DEFAULT_255_1_388
10
17.0249526
20
47.0146204
40
0.1460032
50
359.8048924
51
45.1543866
0
ARC
8
DEFAULT_255_1_388
10
16.979126
20
46.9754291
40
0.2061641
50
43.8053172
51
49.625485
0
ARC
8
DEFAULT_255_1_388
10
16.9800702
20
46.9755849
40
0.2054344
50
49.7979696
51
82.121802
0
ARC
8
DEFAULT_255_1_388
10
16.9666785
20
46.9028473
40
0.2793404
50
81.4458692
51
90.1707936
0
ARC
8
DEFAULT_255_1_388
10
16.9639362
20
46.8436478
40
0.3385438
50
89.6768097
51
99.1267111
0
ARC
8
DEFAULT_255_1_388
10
16.9446344
20
46.9599405
40
0.2206627
50
98.9679878
51
113.4573418
0
ARC
8
DEFAULT_255_1_388
10
16.9226024
20
47.0126193
40
0.1635691
50
113.7230234
51
127.4758155
0
ARC
8
DEFAULT_255_1_388
10
16.9036606
20
47.0351433
40
0.1341757
50
126.9086647
51
150.3160891
0
ARC
8
DEFAULT_255_1_388
10
16.8982937
20
47.040868
40
0.1266992
50
151.363328
51
180.0701537
0
ARC
8
DEFAULT_255_1_388
10
16.9293158
20
47.038523
40
0.1577364
50
179.2045432
51
180.0012892
0
ARC
8
DEFAULT_255_1_388
10
16.8924269
20
47.0370515
40
0.1208564
50
179.3040542
51
198.4225767
0
ARC
8
DEFAULT_255_1_388
10
16.8708411
20
47.0314337
40
0.0986126
50
199.2893055
51
238.6036855
0
ARC
8
DEFAULT_255_1_388
10
16.9386504
20
47.1378752
40
0.2248082
50
237.9844191
51
246.8751643
0
ARC
8
DEFAULT_255_1_388
10
17.0351364
20
47.3585861
40
0.4656832
50
246.6226408
51
251.8174794
0
ARC
8
DEFAULT_255_1_388
10
17.1511831
20
47.7070909
40
0.8329993
50
251.7140983
51
255.0775146
0
ARC
8
DEFAULT_255_1_388
10
17.2861356
20
48.2097708
40
1.3534786
50
255.0370864
51
257.4701577
0
ARC
8
DEFAULT_255_1_388
10
16.7113901
20
45.6203535
40
1.298957
50
73.6835762
51
77.5015749
0
ARC
8
DEFAULT_255_1_388
10
16.8338815
20
46.0365699
40
0.8650912
50
68.7042835
51
73.7249997
0
ARC
8
DEFAULT_255_1_388
10
16.9354379
20
46.2982853
40
0.584363
50
63.5907059
51
68.6622978
0
ARC
8
DEFAULT_255_1_388
10
17.022212
20
46.4713157
40
0.3907955
50
54.7106507
51
63.7018033
0
ARC
8
DEFAULT_255_1_388
10
17.0924507
20
46.5694287
40
0.2701345
50
41.0624597
51
54.8488532
0
ARC
8
DEFAULT_255_1_388
10
17.1308286
20
46.6046439
40
0.2180695
50
34.4952722
51
40.7097584
0
ARC
8
DEFAULT_255_1_388
10
17.1361251
20
46.6101204
40
0.2106083
50
9.3761233
51
34.0834046
0
ARC
8
DEFAULT_255_1_388
10
17.062638
20
46.5960174
40
0.2854177
50
359.7695264
51
9.7660556
0
ARC
8
DEFAULT_255_1_388
10
17.0848673
20
46.5911841
40
0.2632121
50
335.8653103
51
0.8022272
0
ARC
8
DEFAULT_255_1_388
10
17.0933078
20
46.5926951
40
0.2561728
50
307.7357819
51
334.7849324
0
ARC
8
DEFAULT_255_1_388
10
17.0487719
20
46.6426553
40
0.3229737
50
307.0217048
51
308.5596894
0
ARC
8
DEFAULT_255_1_388
10
17.0192304
20
46.6868063
40
0.3760237
50
282.9361285
51
306.5649033
0
ARC
8
DEFAULT_255_1_388
10
16.9785365
20
46.8518871
40
0.5460314
50
271.1026197
51
283.2199962
0
ARC
8
DEFAULT_255_1_388
10
16.9713554
20
46.9919744
40
0.6862456
50
269.9926344
51
271.4770056
0
ARC
8
DEFAULT_255_1_388
10
16.9684124
20
46.8702633
40
0.5645418
50
259.0723633
51
270.2897324
0
ARC
8
DEFAULT_255_1_388
10
16.9445349
20
46.7445887
40
0.4366198
50
245.4965026
51
259.0225745
0
ARC
8
DEFAULT_255_1_388
10
16.9132565
20
46.6791491
40
0.3641037
50
228.9686619
51
245.7042678
0
ARC
8
DEFAULT_255_1_388
10
16.883384
20
46.6423573
40
0.3167435
50
214.4015391
51
228.6759028
0
ARC
8
DEFAULT_255_1_388
10
16.8508337
20
46.6245429
40
0.2798456
50
179.9704983
51
215.1574389
0
ARC
8
DEFAULT_255_1_388
10
16.929655
20
46.6328148
40
0.1916798
50
182.430239
51
203.0329751
0
ARC
8
DEFAULT_255_1_388
10
16.9089146
20
46.6264675
40
0.1701248
50
203.7987464
51
232.5483345
0
ARC
8
DEFAULT_255_1_388
10
16.940023
20
46.6660049
40
0.2204299
50
232.3784541
51
256.3934343
0
ARC
8
DEFAULT_255_1_388
10
16.9659377
20
46.7661359
40
0.3238512
50
256.1048329
51
268.4627478
0
ARC
8
DEFAULT_255_1_388
10
16.9711797
20
46.8565297
40
0.4143627
50
268.0734924
51
270.0121004
0
ARC
8
DEFAULT_255_1_388
10
16.9732515
20
46.8251191
40
0.3829573
50
269.7031202
51
278.8338867
0
ARC
8
DEFAULT_255_1_388
10
16.9937379
20
46.6979553
40
0.2541568
50
278.6727378
51
292.82331
0
ARC
8
DEFAULT_255_1_388
10
17.0162926
20
46.6415546
40
0.1934264
50
293.1457581
51
303.6656964
0
ARC
8
DEFAULT_255_1_388
10
17.0460999
20
46.5992159
40
0.1416713
50
303.1245849
51
321.7434683
0
ARC
8
DEFAULT_255_1_388
10
17.067008
20
46.580878
40
0.1139081
50
322.4747616
51
1.1293039
0
LINE
8
DEFAULT_255_2_778
10
10.5738396
20
48.8368073
11
9.3932396
21
48.8368073
0
LINE
8
DEFAULT_255_2_778
10
9.3932396
20
48.8368073
11
9.9837396
21
49.8594073
0
LINE
8
DEFAULT_255_2_778
10
9.9837396
20
49.8594073
11
11.1643396
21
49.8594073
0
LINE
8
DEFAULT_255_2_778
10
11.1643396
20
49.8594073
11
10.5738396
21
48.8368073
0
LINE
8
DEFAULT_255_2_778
10
10.5738396
20
48.8368073
11
10.5738396
21
48.8368073
0
LINE
8
DEFAULT_255_2_778
10
11.7546396
20
48.8368073
11
12.9354396
21
48.8368073
0
LINE
8
DEFAULT_255_2_778
10
12.9354396
20
48.8368073
11
12.3451396
21
49.8594073
0
LINE
8
DEFAULT_255_2_778
10
12.3451396
20
49.8594073
11
11.1643396
21
49.8594073
0
LINE
8
DEFAULT_255_2_778
10
11.1643396
20
49.8594073
11
11.7546396
21
48.8368073
0
LINE
8
DEFAULT_255_2_778
10
11.7546396
20
48.8368073
11
11.7546396
21
48.8368073
0
LINE
8
DEFAULT_255_2_778
10
11.7545823
20
50.8820146
11
11.1642823
21
51.9046146
0
LINE
8
DEFAULT_255_2_778
10
11.1642823
20
51.9046146
11
10.5737823
21
50.8820146
0
LINE
8
DEFAULT_255_2_778
10
10.5737823
20
50.8820146
11
11.1642823
21
49.8594146
0
LINE
8
DEFAULT_255_2_778
10
11.1642823
20
49.8594146
11
11.7545823
21
50.8820146
0
LINE
8
DEFAULT_255_2_778
10
11.7545823
20
50.8820146
11
11.7545823
21
50.8820146
0
ARC
8
DEFAULT_255_2_778
10
16.5183731
20
50.5282426
40
0.5650491
50
268.7543645
51
289.1417717
0
ARC
8
DEFAULT_255_2_778
10
16.606208
20
50.2730531
40
0.2951681
50
289.2776255
51
3.7648372
0
ARC
8
DEFAULT_255_2_778
10
16.3901618
20
50.2996085
40
0.5106278
50
359.1949826
51
0.0020862
0
ARC
8
DEFAULT_255_2_778
10
16.547449
20
50.2855832
40
0.1541914
50
280.2616216
51
358.5297855
0
ARC
8
DEFAULT_255_2_778
10
16.5080075
20
50.398155
40
0.2726346
50
269.5969454
51
284.2065679
0
ARC
8
DEFAULT_255_2_778
10
16.4981883
20
50.3823788
40
0.2569732
50
246.5218562
51
271.7619895
0
ARC
8
DEFAULT_255_2_778
10
16.4527498
20
50.2744164
40
0.1398527
50
188.0764216
51
245.9747848
0
ARC
8
DEFAULT_255_2_778
10
16.4833113
20
50.2814608
40
0.1711218
50
179.9443312
51
188.9740498
0
ARC
8
DEFAULT_255_2_778
10
16.4924507
20
50.2882849
40
0.3763411
50
178.2272621
51
205.8283807
0
ARC
8
DEFAULT_255_2_778
10
16.4132476
20
50.2705833
40
0.2979176
50
209.4028057
51
263.0375728
0
ARC
8
DEFAULT_255_2_778
10
16.5005111
20
50.6452629
40
0.6816586
50
259.5722942
51
270.4689037
0
ARC
8
DEFAULT_255_2_778
10
17.411252
20
50.7014767
40
0.1217154
50
2.0482843
51
87.015299
0
ARC
8
DEFAULT_255_2_778
10
17.4057913
20
50.7058868
40
0.1270984
50
353.0742102
51
359.9730821
0
ARC
8
DEFAULT_255_2_778
10
17.4111345
20
50.7026717
40
0.1214332
50
270.7420557
51
354.2761882
0
ARC
8
DEFAULT_255_2_778
10
17.4065072
20
50.7392509
40
0.1581238
50
269.9936646
51
272.2471507
0
ARC
8
DEFAULT_255_2_778
10
17.414084
20
50.2880295
40
0.1400686
50
358.2807293
51
95.6106825
0
ARC
8
DEFAULT_255_2_778
10
17.4103233
20
50.2841963
40
0.1437669
50
266.9962473
51
359.8528392
0
ARC
8
DEFAULT_255_2_778
10
17.4725249
20
50.3244988
40
0.3335288
50
268.2414507
51
302.0223478
0
ARC
8
DEFAULT_255_2_778
10
17.5091261
20
50.249183
40
0.2504234
50
304.0600275
51
2.0468005
0
ARC
8
DEFAULT_255_2_778
10
17.4835388
20
50.255988
40
0.2758592
50
0.4442832
51
66.1293704
0
ARC
8
DEFAULT_255_2_778
10
17.5193244
20
50.320936
40
0.202088
50
67.956084
51
75.8901834
0
ARC
8
DEFAULT_255_2_778
10
17.5042026
20
50.728222
40
0.2208874
50
286.9473417
51
358.0074963
0
ARC
8
DEFAULT_255_2_778
10
17.4710866
20
50.7370045
40
0.2544031
50
356.2897886
51
0.0050857
0
ARC
8
DEFAULT_255_2_778
10
17.497262
20
50.7420946
40
0.2282839
50
358.7280137
51
81.8073164
0
ARC
8
DEFAULT_255_2_778
10
17.4216369
20
50.4906283
40
0.4895182
50
77.2355086
51
90.5088275
0
ARC
8
DEFAULT_255_2_778
10
17.5842747
20
49.5260989
40
0.1302704
50
89.9972707
51
92.6773048
0
ARC
8
DEFAULT_255_2_778
10
17.5844071
20
49.52687
40
0.1294993
50
45.0546048
51
90.0558451
0
ARC
8
DEFAULT_255_2_778
10
17.5844118
20
49.526719
40
0.1296029
50
0.001866
51
45.1031959
0
ARC
8
DEFAULT_255_2_778
10
17.5845123
20
49.5267202
40
0.1295026
50
357.4803735
51
0.0013544
0
ARC
8
DEFAULT_255_2_778
10
17.5901979
20
49.5228512
40
0.1237052
50
339.8672523
51
359.1550732
0
ARC
8
DEFAULT_255_2_778
10
17.5794513
20
49.5200079
40
0.1329691
50
272.0853006
51
342.6124646
0
ARC
8
DEFAULT_255_2_778
10
17.6596145
20
49.5582661
40
0.2575135
50
286.787355
51
290.6121696
0
ARC
8
DEFAULT_255_2_778
10
17.6689461
20
49.5439533
40
0.24086
50
289.7330405
51
342.3216972
0
ARC
8
DEFAULT_255_2_778
10
17.641261
20
49.5487954
40
0.268735
50
343.130572
51
0.3905272
0
ARC
8
DEFAULT_255_2_778
10
17.6578783
20
49.5661767
40
0.2525904
50
356.4706028
51
80.1788963
0
ARC
8
DEFAULT_255_2_778
10
17.5921649
20
49.3392163
40
0.4881286
50
77.1212301
51
90.4900821
0
ARC
8
DEFAULT_255_2_778
10
17.5166337
20
49.041536
40
0.1865405
50
50.1507009
51
92.9634648
0
ARC
8
DEFAULT_255_2_778
10
17.5301354
20
49.0698678
40
0.1563319
50
12.621233
51
47.2950617
0
ARC
8
DEFAULT_255_2_778
10
16.8485884
20
48.9369726
40
0.8506657
50
2.8173892
51
11.3253986
0
ARC
8
DEFAULT_255_2_778
10
-29.2295733
20
45.4406175
40
47.060992
50
4.3048394
51
4.3117143
0
ARC
8
DEFAULT_255_2_778
10
18.5500859
20
49.013084
40
0.8523717
50
182.6850102
51
191.2954256
0
ARC
8
DEFAULT_255_2_778
10
17.9656837
20
48.9067399
40
0.2586603
50
193.5512904
51
195.3825538
0
ARC
8
DEFAULT_255_2_778
10
19.3507425
20
49.1656408
40
1.4700994
50
182.6283124
51
192.8725697
0
ARC
8
DEFAULT_255_2_778
10
17.6207606
20
49.0927215
40
0.261487
50
1.2064311
51
30.4123358
0
ARC
8
DEFAULT_255_2_778
10
17.6663626
20
49.107776
40
0.2147766
50
33.1081154
51
71.7312197
0
LINE
8
DEFAULT_255_2_778
10
13.4657897
20
49.2723271
11
13.9385897
21
49.2723271
0
LINE
8
DEFAULT_255_2_778
10
13.9385897
20
49.2723271
11
13.9385897
21
49.4437271
0
LINE
8
DEFAULT_255_2_778
10
13.9385897
20
49.4437271
11
13.4657897
21
49.4437271
0
LINE
8
DEFAULT_255_2_778
10
13.4657897
20
49.4437271
11
13.4657897
21
49.6546271
0
LINE
8
DEFAULT_255_2_778
10
13.4657897
20
49.6546271
11
13.9977897
21
49.6546271
0
LINE
8
DEFAULT_255_2_778
10
13.9977897
20
49.6546271
11
13.9977897
21
49.8260271
0
LINE
8
DEFAULT_255_2_778
10
13.9977897
20
49.8260271
11
13.4657897
21
49.8260271
0
LINE
8
DEFAULT_255_2_778
10
13.4657897
20
49.8260271
11
13.2651897
21
49.8260271
0
LINE
8
DEFAULT_255_2_778
10
13.2651897
20
49.8260271
11
13.2651897
21
49.6546271
0
LINE
8
DEFAULT_255_2_778
10
13.2651897
20
49.6546271
11
13.2651897
21
49.0082271
0
LINE
8
DEFAULT_255_2_778
10
13.2651897
20
49.0082271
11
13.2651897
21
48.8367271
0
LINE
8
DEFAULT_255_2_778
10
13.2651897
20
48.8367271
11
13.4657897
21
48.8367271
0
LINE
8
DEFAULT_255_2_778
10
13.4657897
20
48.8367271
11
14.0118897
21
48.8367271
0
LINE
8
DEFAULT_255_2_778
10
14.0118897
20
48.8367271
11
14.0118897
21
49.0082271
0
LINE
8
DEFAULT_255_2_778
10
14.0118897
20
49.0082271
11
13.4657897
21
49.0082271
0
LINE
8
DEFAULT_255_2_778
10
13.4657897
20
49.0082271
11
13.4657897
21
49.2720271
0
LINE
8
DEFAULT_255_2_778
10
13.4657897
20
49.2720271
11
13.4657897
21
49.2723271
0
LINE
8
DEFAULT_255_2_778
10
13.4519897
20
50.7264271
11
13.6620897
21
49.9911271
0
LINE
8
DEFAULT_255_2_778
10
13.6620897
20
49.9911271
11
13.6704897
21
49.9911271
0
LINE
8
DEFAULT_255_2_778
10
13.6704897
20
49.9911271
11
13.8464897
21
49.9911271
0
LINE
8
DEFAULT_255_2_778
10
13.8464897
20
49.9911271
11
13.8546897
21
49.9911271
0
LINE
8
DEFAULT_255_2_778
10
13.8546897
20
49.9911271
11
14.0647897
21
50.7264271
0
LINE
8
DEFAULT_255_2_778
10
14.0647897
20
50.7264271
11
14.0647897
21
49.9911271
0
LINE
8
DEFAULT_255_2_778
10
14.0647897
20
49.9911271
11
14.2515897
21
49.9911271
0
LINE
8
DEFAULT_255_2_778
10
14.2515897
20
49.9911271
11
14.2515897
21
50.9804271
0
LINE
8
DEFAULT_255_2_778
10
14.2515897
20
50.9804271
11
14.1496897
21
50.9804271
0
LINE
8
DEFAULT_255_2_778
10
14.1496897
20
50.9804271
11
14.0615897
21
50.9804271
0
LINE
8
DEFAULT_255_2_778
10
14.0615897
20
50.9804271
11
13.9655897
21
50.9804271
0
LINE
8
DEFAULT_255_2_778
10
13.9655897
20
50.9804271
11
13.7583897
21
50.2861271
0
LINE
8
DEFAULT_255_2_778
10
13.7583897
20
50.2861271
11
13.5511897
21
50.9804271
0
LINE
8
DEFAULT_255_2_778
10
13.5511897
20
50.9804271
11
13.4551897
21
50.9804271
0
LINE
8
DEFAULT_255_2_778
10
13.4551897
20
50.9804271
11
13.3670897
21
50.9804271
0
LINE
8
DEFAULT_255_2_778
10
13.3670897
20
50.9804271
11
13.2651897
21
50.9804271
0
LINE
8
DEFAULT_255_2_778
10
13.2651897
20
50.9804271
11
13.2651897
21
49.9911271
0
LINE
8
DEFAULT_255_2_778
10
13.2651897
20
49.9911271
11
13.4519897
21
49.9911271
0
LINE
8
DEFAULT_255_2_778
10
13.4519897
20
49.9911271
11
13.4519897
21
50.7264271
0
LINE
8
DEFAULT_255_2_778
10
13.4519897
20
50.7264271
11
13.4519897
21
50.7264271
0
LINE
8
DEFAULT_255_2_778
10
18.0057897
20
50.9804271
11
17.8064897
21
50.9804271
0
LINE
8
DEFAULT_255_2_778
10
17.8064897
20
50.9804271
11
17.8064897
21
49.9911271
0
LINE
8
DEFAULT_255_2_778
10
17.8064897
20
49.9911271
11
18.0057897
21
49.9911271
0
LINE
8
DEFAULT_255_2_778
10
18.0057897
20
49.9911271
11
18.0057897
21
50.9804271
0
LINE
8
DEFAULT_255_2_778
10
18.0057897
20
50.9804271
11
18.0057897
21
50.9804271
0
LINE
8
DEFAULT_255_2_778
10
18.1681897
20
49.8263271
11
17.9689897
21
49.8263271
0
LINE
8
DEFAULT_255_2_778
10
17.9689897
20
49.8263271
11
17.9689897
21
48.8370271
0
LINE
8
DEFAULT_255_2_778
10
17.9689897
20
48.8370271
11
18.1681897
21
48.8370271
0
LINE
8
DEFAULT_255_2_778
10
18.1681897
20
48.8370271
11
18.1681897
21
49.8263271
0
LINE
8
DEFAULT_255_2_778
10
18.1681897
20
49.8263271
11
18.1681897
21
49.8263271
0
LINE
8
DEFAULT_255_2_778
10
19.9765897
20
50.9804271
11
19.7773897
21
50.9804271
0
LINE
8
DEFAULT_255_2_778
10
19.7773897
20
50.9804271
11
19.7773897
21
49.9911271
0
LINE
8
DEFAULT_255_2_778
10
19.7773897
20
49.9911271
11
19.9765897
21
49.9911271
0
LINE
8
DEFAULT_255_2_778
10
19.9765897
20
49.9911271
11
19.9765897
21
50.9804271
0
LINE
8
DEFAULT_255_2_778
10
19.9765897
20
50.9804271
11
19.9765897
21
50.9804271
0
LINE
8
DEFAULT_255_2_778
10
14.5298897
20
50.9804271
11
14.3306897
21
50.9804271
0
LINE
8
DEFAULT_255_2_778
10
14.3306897
20
50.9804271
11
14.3306897
21
49.9911271
0
LINE
8
DEFAULT_255_2_778
10
14.3306897
20
49.9911271
11
14.5298897
21
49.9911271
0
LINE
8
DEFAULT_255_2_778
10
14.5298897
20
49.9911271
11
14.5298897
21
50.9804271
0
LINE
8
DEFAULT_255_2_778
10
14.5298897
20
50.9804271
11
14.5298897
21
50.9804271
0
LINE
8
DEFAULT_255_2_778
10
19.4989897
20
50.5944271
11
19.1029897
21
50.5944271
0
LINE
8
DEFAULT_255_2_778
10
19.1029897
20
50.5944271
11
19.1029897
21
50.9801271
0
LINE
8
DEFAULT_255_2_778
10
19.1029897
20
50.9801271
11
18.9068897
21
50.9801271
0
LINE
8
DEFAULT_255_2_778
10
18.9068897
20
50.9801271
11
18.9068897
21
49.9911271
0
LINE
8
DEFAULT_255_2_778
10
18.9068897
20
49.9911271
11
19.1029897
21
49.9911271
0
LINE
8
DEFAULT_255_2_778
10
19.1029897
20
49.9911271
11
19.1029897
21
50.4229271
0
LINE
8
DEFAULT_255_2_778
10
19.1029897
20
50.4229271
11
19.4989897
21
50.4229271
0
LINE
8
DEFAULT_255_2_778
10
19.4989897
20
50.4229271
11
19.4989897
21
49.9911271
0
LINE
8
DEFAULT_255_2_778
10
19.4989897
20
49.9911271
11
19.6950897
21
49.9911271
0
LINE
8
DEFAULT_255_2_778
10
19.6950897
20
49.9911271
11
19.6950897
21
50.9801271
0
LINE
8
DEFAULT_255_2_778
10
19.6950897
20
50.9801271
11
19.4989897
21
50.9801271
0
LINE
8
DEFAULT_255_2_778
10
19.4989897
20
50.9801271
11
19.4989897
21
50.5944271
0
LINE
8
DEFAULT_255_2_778
10
19.4989897
20
50.5944271
11
19.4989897
21
50.5944271
0
LINE
8
DEFAULT_255_2_778
10
14.8246897
20
49.9911271
11
15.0280897
21
49.9911271
0
LINE
8
DEFAULT_255_2_778
10
15.0280897
20
49.9911271
11
15.0280897
21
50.8090271
0
LINE
8
DEFAULT_255_2_778
10
15.0280897
20
50.8090271
11
15.2696897
21
50.8090271
0
LINE
8
DEFAULT_255_2_778
10
15.2696897
20
50.8090271
11
15.2696897
21
50.9804271
0
LINE
8
DEFAULT_255_2_778
10
15.2696897
20
50.9804271
11
15.0280897
21
50.9804271
0
LINE
8
DEFAULT_255_2_778
10
15.0280897
20
50.9804271
11
14.8246897
21
50.9804271
0
LINE
8
DEFAULT_255_2_778
10
14.8246897
20
50.9804271
11
14.5830897
21
50.9804271
0
LINE
8
DEFAULT_255_2_778
10
14.5830897
20
50.9804271
11
14.5830897
21
50.8090271
0
LINE
8
DEFAULT_255_2_778
10
14.5830897
20
50.8090271
11
14.8246897
21
50.8090271
0
LINE
8
DEFAULT_255_2_778
10
14.8246897
20
50.8090271
11
14.8246897
21
49.9911271
0
LINE
8
DEFAULT_255_2_778
10
14.8246897
20
49.9911271
11
14.8246897
21
49.9911271
0
LINE
8
DEFAULT_255_2_778
10
16.6422897
20
48.8370271
11
16.8454897
21
48.8370271
0
LINE
8
DEFAULT_255_2_778
10
16.8454897
20
48.8370271
11
16.8454897
21
49.6548271
0
LINE
8
DEFAULT_255_2_778
10
16.8454897
20
49.6548271
11
17.0873897
21
49.6548271
0
LINE
8
DEFAULT_255_2_778
10
17.0873897
20
49.6548271
11
17.0873897
21
49.8266271
0
LINE
8
DEFAULT_255_2_778
10
17.0873897
20
49.8266271
11
16.8454897
21
49.8266271
0
LINE
8
DEFAULT_255_2_778
10
16.8454897
20
49.8266271
11
16.6422897
21
49.8266271
0
LINE
8
DEFAULT_255_2_778
10
16.6422897
20
49.8266271
11
16.4004897
21
49.8266271
0
LINE
8
DEFAULT_255_2_778
10
16.4004897
20
49.8266271
11
16.4004897
21
49.6548271
0
LINE
8
DEFAULT_255_2_778
10
16.4004897
20
49.6548271
11
16.6422897
21
49.6548271
0
LINE
8
DEFAULT_255_2_778
10
16.6422897
20
49.6548271
11
16.6422897
21
48.8370271
0
LINE
8
DEFAULT_255_2_778
10
16.6422897
20
48.8370271
11
16.6422897
21
48.8370271
0
LINE
8
DEFAULT_255_2_778
10
16.9007897
20
50.2996271
11
16.9007897
21
50.9801271
0
LINE
8
DEFAULT_255_2_778
10
16.9007897
20
50.9801271
11
16.7015897
21
50.9801271
0
LINE
8
DEFAULT_255_2_778
10
16.7015897
20
50.9801271
11
16.7015897
21
50.2816271
0
LINE
8
DEFAULT_255_2_778
10
16.3121897
20
50.2816271
11
16.3121897
21
50.9801271
0
LINE
8
DEFAULT_255_2_778
10
16.3121897
20
50.9801271
11
16.1162897
21
50.9801271
0
LINE
8
DEFAULT_255_2_778
10
16.1162897
20
50.9801271
11
16.1162897
21
50.2999271
0
LINE
8
DEFAULT_255_2_778
10
15.0000897
20
49.2723271
11
15.4730897
21
49.2723271
0
LINE
8
DEFAULT_255_2_778
10
15.4730897
20
49.2723271
11
15.4730897
21
49.4437271
0
LINE
8
DEFAULT_255_2_778
10
15.4730897
20
49.4437271
11
15.0000897
21
49.4437271
0
LINE
8
DEFAULT_255_2_778
10
15.0000897
20
49.4437271
11
15.0000897
21
49.6546271
0
LINE
8
DEFAULT_255_2_778
10
15.0000897
20
49.6546271
11
15.5321897
21
49.6546271
0
LINE
8
DEFAULT_255_2_778
10
15.5321897
20
49.6546271
11
15.5321897
21
49.8260271
0
LINE
8
DEFAULT_255_2_778
10
15.5321897
20
49.8260271
11
15.0000897
21
49.8260271
0
LINE
8
DEFAULT_255_2_778
10
15.0000897
20
49.8260271
11
14.7997897
21
49.8260271
0
LINE
8
DEFAULT_255_2_778
10
14.7997897
20
49.8260271
11
14.7997897
21
49.6546271
0
LINE
8
DEFAULT_255_2_778
10
14.7997897
20
49.6546271
11
14.7997897
21
49.0082271
0
LINE
8
DEFAULT_255_2_778
10
14.7997897
20
49.0082271
11
14.7997897
21
48.8367271
0
LINE
8
DEFAULT_255_2_778
10
14.7997897
20
48.8367271
11
15.0000897
21
48.8367271
0
LINE
8
DEFAULT_255_2_778
10
15.0000897
20
48.8367271
11
15.5461897
21
48.8367271
0
LINE
8
DEFAULT_255_2_778
10
15.5461897
20
48.8367271
11
15.5461897
21
49.0082271
0
LINE
8
DEFAULT_255_2_778
10
15.5461897
20
49.0082271
11
15.0000897
21
49.0082271
0
LINE
8
DEFAULT_255_2_778
10
15.0000897
20
49.0082271
11
15.0000897
21
49.2720271
0
LINE
8
DEFAULT_255_2_778
10
15.0000897
20
49.2720271
11
15.0000897
21
49.2723271
0
LINE
8
DEFAULT_255_2_778
10
17.4064897
20
50.5811271
11
17.1690897
21
50.5811271
0
LINE
8
DEFAULT_255_2_778
10
17.1690897
20
50.5811271
11
17.1690897
21
50.8227271
0
LINE
8
DEFAULT_255_2_778
10
17.1690897
20
50.8227271
11
17.4175897
21
50.8227271
0
LINE
8
DEFAULT_255_2_778
10
17.4175897
20
50.8227271
11
17.4175897
21
50.8230271
0
LINE
8
DEFAULT_255_2_778
10
17.4027897
20
50.1403271
11
17.1690897
21
50.1403271
0
LINE
8
DEFAULT_255_2_778
10
17.1690897
20
50.1403271
11
17.1690897
21
50.4274271
0
LINE
8
DEFAULT_255_2_778
10
17.1690897
20
50.4274271
11
17.4003897
21
50.4274271
0
LINE
8
DEFAULT_255_2_778
10
17.1767897
20
49.9911271
11
17.4622897
21
49.9911271
0
LINE
8
DEFAULT_255_2_778
10
17.4172897
20
50.9801271
11
17.1770897
21
50.9801271
0
LINE
8
DEFAULT_255_2_778
10
17.1770897
20
50.9801271
11
16.9722897
21
50.9801271
0
LINE
8
DEFAULT_255_2_778
10
16.9722897
20
50.9801271
11
16.9711897
21
50.9801271
0
LINE
8
DEFAULT_255_2_778
10
16.9711897
20
50.9801271
11
16.9711897
21
49.9911271
0
LINE
8
DEFAULT_255_2_778
10
16.9711897
20
49.9911271
11
16.9722897
21
49.9911271
0
LINE
8
DEFAULT_255_2_778
10
16.9722897
20
49.9911271
11
17.1770897
21
49.9911271
0
LINE
8
DEFAULT_255_2_778
10
17.1770897
20
49.9911271
11
17.1767897
21
49.9911271
0
LINE
8
DEFAULT_255_2_778
10
17.3368897
20
49.3868271
11
17.3368897
21
49.6562271
0
LINE
8
DEFAULT_255_2_778
10
17.3368897
20
49.6562271
11
17.5781897
21
49.6562271
0
LINE
8
DEFAULT_255_2_778
10
17.5842897
20
49.3871271
11
17.3370897
21
49.3871271
0
LINE
8
DEFAULT_255_2_778
10
17.3370897
20
49.3871271
11
17.3368897
21
49.3868271
0
LINE
8
DEFAULT_255_2_778
10
17.5879897
20
49.8273271
11
17.3368897
21
49.8273271
0
LINE
8
DEFAULT_255_2_778
10
17.3368897
20
49.8273271
11
17.1383897
21
49.8273271
0
LINE
8
DEFAULT_255_2_778
10
17.1383897
20
49.8273271
11
17.1362897
21
49.8273271
0
LINE
8
DEFAULT_255_2_778
10
17.1362897
20
49.8273271
11
17.1362897
21
48.8381271
0
LINE
8
DEFAULT_255_2_778
10
17.1362897
20
48.8381271
11
17.3368897
21
48.8381271
0
LINE
8
DEFAULT_255_2_778
10
17.3368897
20
48.8381271
11
17.3368897
21
49.2278271
0
LINE
8
DEFAULT_255_2_778
10
17.3368897
20
49.2278271
11
17.5069897
21
49.2278271
0
LINE
8
DEFAULT_255_2_778
10
17.7162897
20
48.8381271
11
17.9175897
21
48.8381271
0
LINE
8
DEFAULT_255_2_778
10
14.2763897
20
49.8263271
11
14.0760897
21
49.8263271
0
LINE
8
DEFAULT_255_2_778
10
14.0760897
20
49.8263271
11
14.0760897
21
49.0085271
0
LINE
8
DEFAULT_255_2_778
10
14.0760897
20
49.0085271
11
14.0760897
21
48.8370271
0
LINE
8
DEFAULT_255_2_778
10
14.0760897
20
48.8370271
11
14.2763897
21
48.8370271
0
LINE
8
DEFAULT_255_2_778
10
14.2763897
20
48.8370271
11
14.7428897
21
48.8370271
0
LINE
8
DEFAULT_255_2_778
10
14.7428897
20
48.8370271
11
14.7428897
21
49.0085271
0
LINE
8
DEFAULT_255_2_778
10
14.7428897
20
49.0085271
11
14.2763897
21
49.0085271
0
LINE
8
DEFAULT_255_2_778
10
14.2763897
20
49.0085271
11
14.2763897
21
49.8263271
0
LINE
8
DEFAULT_255_2_778
10
14.2763897
20
49.8263271
11
14.2763897
21
49.8263271
0
ARC
8
DEFAULT_255_2_778
10
15.4584271
20
49.4521969
40
0.9681224
50
72.4822103
51
81.3184214
0
ARC
8
DEFAULT_255_2_778
10
15.7160297
20
50.2288918
40
0.1503783
50
28.8883513
51
77.0092434
0
ARC
8
DEFAULT_255_2_778
10
15.7432379
20
50.2578196
40
0.113238
50
358.9917455
51
22.7117017
0
ARC
8
DEFAULT_255_2_778
10
15.7394861
20
50.2619918
40
0.1171346
50
289.2958104
51
356.9831562
0
ARC
8
DEFAULT_255_2_778
10
15.6668261
20
50.4194882
40
0.2902651
50
268.4665462
51
292.5613311
0
ARC
8
DEFAULT_255_2_778
10
15.6496856
20
50.3604179
40
0.2312808
50
236.4956947
51
272.3225735
0
ARC
8
DEFAULT_255_2_778
10
15.6106646
20
50.2921839
40
0.1529307
50
178.9722202
51
234.5742435
0
ARC
8
DEFAULT_255_2_778
10
15.5656113
20
50.2826079
40
0.3002058
50
177.6481608
51
245.5596397
0
ARC
8
DEFAULT_255_2_778
10
15.6409971
20
50.4548561
40
0.488217
50
245.8690375
51
267.169035
0
ARC
8
DEFAULT_255_2_778
10
15.6671503
20
50.7058916
40
0.7403648
50
266.1069867
51
270.0547972
0
ARC
8
DEFAULT_255_2_778
10
15.6772894
20
50.5371135
40
0.5716642
50
269.0547216
51
287.7147747
0
ARC
8
DEFAULT_255_2_778
10
15.7598889
20
50.2914091
40
0.3125017
50
286.995984
51
325.1221533
0
ARC
8
DEFAULT_255_2_778
10
15.7678294
20
50.274861
40
0.2966627
50
326.8673922
51
0.8625726
0
ARC
8
DEFAULT_255_2_778
10
15.7898286
20
50.2834409
40
0.2746606
50
359.1417932
51
76.9739731
0
ARC
8
DEFAULT_255_2_778
10
15.6705461
20
50.0025719
40
0.577616
50
71.7185727
51
79.1315439
0
ARC
8
DEFAULT_255_2_778
10
14.2492968
20
42.648967
40
8.0673056
50
79.0662148
51
79.6216572
0
ARC
8
DEFAULT_255_2_778
10
16.4356585
20
54.5266581
40
4.0099443
50
259.1227669
51
259.4665204
0
ARC
8
DEFAULT_255_2_778
10
15.7836732
20
51.2316142
40
0.6513291
50
249.9945768
51
260.7485895
0
ARC
8
DEFAULT_255_2_778
10
15.5880401
20
50.7205999
40
0.1046098
50
178.6705173
51
254.9333545
0
ARC
8
DEFAULT_255_2_778
10
15.6049957
20
50.7171688
40
0.1216785
50
93.288632
51
177.2403935
0
ARC
8
DEFAULT_255_2_778
10
15.6585677
20
50.5301752
40
0.3143588
50
89.6189463
51
101.1057977
0
ARC
8
DEFAULT_255_2_778
10
15.6722733
20
50.642016
40
0.2028439
50
53.5634072
51
93.2825843
0
ARC
8
DEFAULT_255_2_778
10
15.7018505
20
50.7002144
40
0.1388739
50
357.1985816
51
49.1152298
0
ARC
8
DEFAULT_255_2_778
10
15.7254907
20
50.6934274
40
0.3087677
50
359.9999335
51
2.3703878
0
ARC
8
DEFAULT_255_2_778
10
15.7353555
20
50.6949337
40
0.298851
50
2.1600756
51
60.1092229
0
ARC
8
DEFAULT_255_2_778
10
15.6766212
20
50.5883133
40
0.4205645
50
60.4106856
51
86.1444419
0
ARC
8
DEFAULT_255_2_778
10
15.6536151
20
50.4116228
40
0.5985046
50
85.0843314
51
90.0628677
0
ARC
8
DEFAULT_255_2_778
10
15.6529718
20
50.5350466
40
0.4750804
50
90.001616
51
92.2300394
0
ARC
8
DEFAULT_255_2_778
10
15.6281193
20
50.640187
40
0.3696351
50
89.0131319
51
149.6364996
0
ARC
8
DEFAULT_255_2_778
10
15.5505461
20
50.7124055
40
0.2671974
50
154.5962367
51
180.4885883
0
ARC
8
DEFAULT_255_2_778
10
15.5651524
20
50.710884
40
0.281795
50
180.1539064
51
255.1120325
0
ARC
8
DEFAULT_255_2_778
10
15.7094242
20
51.033732
40
0.6333958
50
249.9962237
51
260.4976723
0
ARC
8
DEFAULT_255_2_778
10
18.2470963
20
49.4533351
40
0.967002
50
72.4685023
51
81.3064395
0
ARC
8
DEFAULT_255_2_778
10
18.5045397
20
50.228927
40
0.1503535
50
28.8782248
51
76.9904304
0
ARC
8
DEFAULT_255_2_778
10
18.5317197
20
50.2578189
40
0.1132561
50
358.9922779
51
22.7082666
0
ARC
8
DEFAULT_255_2_778
10
18.5280402
20
50.2619088
40
0.1170763
50
289.2761556
51
357.0223042
0
ARC
8
DEFAULT_255_2_778
10
18.4553612
20
50.4197836
40
0.2905613
50
268.4611814
51
292.5289055
0
ARC
8
DEFAULT_255_2_778
10
18.4381801
20
50.3613175
40
0.2321799
50
236.6698634
51
272.3149402
0
ARC
8
DEFAULT_255_2_778
10
18.39878
20
50.2921762
40
0.1528464
50
178.9687581
51
234.7686008
0
ARC
8
DEFAULT_255_2_778
10
18.3540113
20
50.2826079
40
0.3002058
50
177.6481608
51
245.5596397
0
ARC
8
DEFAULT_255_2_778
10
18.4293971
20
50.4548561
40
0.488217
50
245.8690375
51
267.169035
0
ARC
8
DEFAULT_255_2_778
10
18.4555503
20
50.7058916
40
0.7403648
50
266.1069867
51
270.0547972
0
ARC
8
DEFAULT_255_2_778
10
18.4656836
20
50.5377451
40
0.5722957
50
269.0563423
51
287.7048702
0
ARC
8
DEFAULT_255_2_778
10
18.548344
20
50.2917682
40
0.312856
50
286.9832601
51
325.0871916
0
ARC
8
DEFAULT_255_2_778
10
18.5567708
20
50.2748856
40
0.2964208
50
326.8311942
51
0.8585267
0
ARC
8
DEFAULT_255_2_778
10
18.5785756
20
50.2835282
40
0.2746149
50
359.1234265
51
76.9343785
0
ARC
8
DEFAULT_255_2_778
10
18.4596421
20
50.0036965
40
0.5764934
50
71.6999697
51
79.1198353
0
ARC
8
DEFAULT_255_2_778
10
17.0173657
20
42.5269392
40
8.1910887
50
79.0843627
51
79.6321368
0
ARC
8
DEFAULT_255_2_778
10
19.2200266
20
54.5064177
40
3.9892176
50
259.1314419
51
259.4772924
0
ARC
8
DEFAULT_255_2_778
10
18.5723251
20
51.2310131
40
0.6507003
50
249.9919323
51
260.7592458
0
ARC
8
DEFAULT_255_2_778
10
18.376901
20
50.7205546
40
0.1045718
50
178.6452075
51
254.9151907
0
ARC
8
DEFAULT_255_2_778
10
18.3939581
20
50.7171016
40
0.121744
50
93.2745253
51
177.21023
0
ARC
8
DEFAULT_255_2_778
10
18.4475726
20
50.5300052
40
0.3145287
50
89.6200387
51
101.1027534
0
ARC
8
DEFAULT_255_2_778
10
18.4613489
20
50.6433453
40
0.2015212
50
53.1490002
51
93.3256649
0
ARC
8
DEFAULT_255_2_778
10
18.4902753
20
50.7001519
40
0.1391457
50
357.2298288
51
48.6469881
0
ARC
8
DEFAULT_255_2_778
10
18.5137232
20
50.6934226
40
0.3092351
50
0.0008291
51
2.3676985
0
ARC
8
DEFAULT_255_2_778
10
18.5240744
20
50.6949868
40
0.2988304
50
2.1500394
51
60.0956838
0
ARC
8
DEFAULT_255_2_778
10
18.4654399
20
50.5884909
40
0.4203859
50
60.40452
51
86.1455285
0
ARC
8
DEFAULT_255_2_778
10
18.4424157
20
50.4116686
40
0.5984588
50
85.0841409
51
90.0629301
0
ARC
8
DEFAULT_255_2_778
10
18.4417778
20
50.5346392
40
0.4754878
50
90.0023409
51
92.3231329
0
ARC
8
DEFAULT_255_2_778
10
18.4167555
20
50.6399604
40
0.3698206
50
89.1093915
51
149.6400816
0
ARC
8
DEFAULT_255_2_778
10
18.338761
20
50.7123917
40
0.2669122
50
154.6001925
51
180.486137
0
ARC
8
DEFAULT_255_2_778
10
18.3537607
20
50.7110152
40
0.2819037
50
180.1805176
51
255.132702
0
ARC
8
DEFAULT_255_2_778
10
18.4982264
20
51.0342784
40
0.6339516
50
250.0026216
51
260.4967164
0
ARC
8
DEFAULT_255_2_778
10
16.008917
20
49.2414283
40
0.2519711
50
190.2626864
51
267.3480013
0
ARC
8
DEFAULT_255_2_778
10
16.2443543
20
49.3327548
40
0.5022041
50
179.6723028
51
195.7380858
0
ARC
8
DEFAULT_255_2_778
10
16.1790511
20
49.3482671
40
0.4370755
50
148.7005643
51
181.6572045
0
ARC
8
DEFAULT_255_2_778
10
15.9957576
20
49.4583723
40
0.2232598
50
89.6148479
51
148.4074796
0
ARC
8
DEFAULT_255_2_778
10
16.0060936
20
49.480449
40
0.201372
50
41.9769772
51
92.5146611
0
ARC
8
DEFAULT_255_2_778
10
15.9522078
20
49.4427523
40
0.2667646
50
15.1848537
51
40.2549591
0
ARC
8
DEFAULT_255_2_778
10
16.028123
20
49.4530326
40
0.3935735
50
8.7091682
51
82.0550801
0
ARC
8
DEFAULT_255_2_778
10
15.9931241
20
49.3065871
40
0.543642
50
80.5350289
51
90.1544743
0
ARC
8
DEFAULT_255_2_778
10
15.9818804
20
49.3952192
40
0.4551129
50
88.7689246
51
119.6437418
0
ARC
8
DEFAULT_255_2_778
10
16.0077717
20
49.3989647
40
0.4653013
50
122.644121
51
173.3997839
0
ARC
8
DEFAULT_255_2_778
10
16.2711934
20
49.3346568
40
0.7351371
50
170.7798304
51
180.1348114
0
ARC
8
DEFAULT_255_2_778
10
16.1377257
20
49.3192615
40
0.6018225
50
178.6988735
51
210.5289552
0
ARC
8
DEFAULT_255_2_778
10
15.970325
20
49.2284953
40
0.4115783
50
211.4828222
51
265.8686737
0
ARC
8
DEFAULT_255_2_778
10
15.9909864
20
49.3532011
40
0.5375742
50
264.6297133
51
270.0503073
0
ARC
8
DEFAULT_255_2_778
10
16.0020995
20
49.2850749
40
0.4695684
50
268.7014824
51
300.1403067
0
ARC
8
DEFAULT_255_2_778
10
16.0350333
20
49.2066852
40
0.385394
50
301.7580058
51
353.77968
0
ARC
8
DEFAULT_255_2_778
10
16.0012256
20
49.2010219
40
0.2113379
50
268.8430278
51
350.1661143
0
ARC
8
DEFAULT_255_2_778
10
18.6896799
20
49.2413824
40
0.2519281
50
190.2538303
51
267.3332171
0
ARC
8
DEFAULT_255_2_778
10
18.9252249
20
49.3327581
40
0.5022746
50
179.672724
51
195.7362088
0
ARC
8
DEFAULT_255_2_778
10
18.8600432
20
49.3482917
40
0.4372682
50
148.7196987
51
181.6596982
0
ARC
8
DEFAULT_255_2_778
10
18.676443
20
49.4584906
40
0.2231415
50
89.6108896
51
148.4244661
0
ARC
8
DEFAULT_255_2_778
10
18.686876
20
49.480467
40
0.2013576
50
42.5913083
51
92.5383066
0
ARC
8
DEFAULT_255_2_778
10
18.6345542
20
49.4440973
40
0.2646316
50
15.0085433
51
40.7215892
0
ARC
8
DEFAULT_255_2_778
10
18.708623
20
49.4530326
40
0.3935735
50
8.7091682
51
82.0550801
0
ARC
8
DEFAULT_255_2_778
10
18.6736241
20
49.3065871
40
0.543642
50
80.5350289
51
90.1544743
0
ARC
8
DEFAULT_255_2_778
10
18.6623804
20
49.3952192
40
0.4551129
50
88.7689246
51
119.6437418
0
ARC
8
DEFAULT_255_2_778
10
18.6882717
20
49.3989647
40
0.4653013
50
122.644121
51
173.3997839
0
ARC
8
DEFAULT_255_2_778
10
18.9516934
20
49.3346568
40
0.7351371
50
170.7798304
51
180.1348114
0
ARC
8
DEFAULT_255_2_778
10
18.8177822
20
49.31932
40
0.6013778
50
178.7034849
51
210.5604279
0
ARC
8
DEFAULT_255_2_778
10
18.6511312
20
49.2288377
40
0.4119265
50
211.5090145
51
265.8592607
0
ARC
8
DEFAULT_255_2_778
10
18.6716883
20
49.3529521
40
0.5373252
50
264.628472
51
270.0501277
0
ARC
8
DEFAULT_255_2_778
10
18.682837
20
49.2848685
40
0.4693629
50
268.6963312
51
300.2191972
0
ARC
8
DEFAULT_255_2_778
10
18.7155684
20
49.2069124
40
0.3856821
50
301.8465101
51
353.7503927
0
ARC
8
DEFAULT_255_2_778
10
18.6820648
20
49.2008604
40
0.2111733
50
268.8857714
51
350.2028431
0
LINE
8
DEFAULT_255_2_778
10
15.4577584
20
50.2949271
11
15.2656584
21
50.2949271
0
LINE
8
DEFAULT_255_2_778
10
15.8405584
20
50.6934271
11
16.0342584
21
50.6934271
0
LINE
8
DEFAULT_255_2_778
10
18.2459584
20
50.2949271
11
18.0540584
21
50.2949271
0
LINE
8
DEFAULT_255_2_778
10
18.6292584
20
50.6934271
11
18.8229584
21
50.6934271
0
LINE
8
DEFAULT_255_2_778
10
16.2096584
20
49.5126271
11
16.4171584
21
49.5126271
0
LINE
8
DEFAULT_255_2_778
10
16.4181584
20
49.1649271
11
16.2094584
21
49.1649271
0
LINE
8
DEFAULT_255_2_778
10
18.8901584
20
49.5126271
11
19.0976584
21
49.5126271
0
LINE
8
DEFAULT_255_2_778
10
19.0989584
20
49.1649271
11
18.8901584
21
49.1649271
0
LINE
8
DEFAULT_255_1_388
10
4.8119318
20
44.4758382
11
4.8119318
21
44.3394
0
LINE
8
DEFAULT_255_1_388
10
4.8119318
20
44.3394
11
3.9499313
21
44.3394
0
LINE
8
DEFAULT_255_1_388
10
3.9499313
20
44.3394
11
3.9499313
21
44.4595741
0
LINE
8
DEFAULT_255_1_388
10
3.9499313
20
44.4595741
11
4.4053278
21
44.9655702
0
LINE
8
DEFAULT_255_1_388
10
4.0917909
20
45.2673607
11
3.9246315
21
45.2673607
0
LINE
8
DEFAULT_255_1_388
10
4.5038163
20
44.858046
11
4.1514262
21
44.4758382
0
LINE
8
DEFAULT_255_1_388
10
4.1514262
20
44.4758382
11
4.8119318
21
44.4758382
0
ARC
8
DEFAULT_255_1_388
10
2.8877337
20
46.3075983
40
2.0258655
50
318.5132526
51
320.7829045
0
ARC
8
DEFAULT_255_1_388
10
3.4825294
20
45.8234929
40
1.2589638
50
320.7372878
51
323.9739031
0
ARC
8
DEFAULT_255_1_388
10
3.9234226
20
45.5040554
40
0.7145141
50
323.8962701
51
328.64194
0
ARC
8
DEFAULT_255_1_388
10
4.1536484
20
45.3620545
40
0.4440242
50
328.8294576
51
331.7891185
0
ARC
8
DEFAULT_255_1_388
10
4.2658804
20
45.3041374
40
0.3177517
50
331.4254512
51
352.9365785
0
ARC
8
DEFAULT_255_1_388
10
4.2811804
20
45.300705
40
0.3021496
50
353.2257659
51
0.0166158
0
ARC
8
DEFAULT_255_1_388
10
4.3048564
20
45.3032894
40
0.2784847
50
359.486299
51
15.9343185
0
ARC
8
DEFAULT_255_1_388
10
4.3618831
20
45.3186269
40
0.2194403
50
16.1712913
51
43.5286088
0
ARC
8
DEFAULT_255_1_388
10
4.3705776
20
45.3273191
40
0.2071504
50
43.4417391
51
83.1661095
0
ARC
8
DEFAULT_255_1_388
10
4.3554937
20
45.2444316
40
0.2912888
50
82.160179
51
90.1505708
0
ARC
8
DEFAULT_255_1_388
10
4.3519418
20
45.1840279
40
0.3517025
50
89.5460741
51
102.5418361
0
ARC
8
DEFAULT_255_1_388
10
4.3246138
20
45.2999933
40
0.2325748
50
102.1738499
51
129.206123
0
ARC
8
DEFAULT_255_1_388
10
4.3157592
20
45.3139664
40
0.2161591
50
129.72865
51
135.753947
0
ARC
8
DEFAULT_255_1_388
10
4.3294074
20
45.3030728
40
0.2335433
50
136.1757367
51
166.3673339
0
ARC
8
DEFAULT_255_1_388
10
4.4426762
20
45.2727148
40
0.3507873
50
165.9090694
51
178.8684636
0
ARC
8
DEFAULT_255_1_388
10
4.5402534
20
45.2674263
40
0.4484624
50
178.4391136
51
180.0083808
0
ARC
8
DEFAULT_255_1_388
10
4.3823235
20
45.2718197
40
0.4577138
50
163.2878482
51
180.5581842
0
ARC
8
DEFAULT_255_1_388
10
4.2921276
20
45.2966393
40
0.3641968
50
133.4540601
51
162.947111
0
ARC
8
DEFAULT_255_1_388
10
4.3122158
20
45.2752789
40
0.3935189
50
100.7869829
51
133.4382499
0
ARC
8
DEFAULT_255_1_388
10
4.3513403
20
45.1010399
40
0.5720313
50
89.660664
51
101.3702276
0
ARC
8
DEFAULT_255_1_388
10
4.3588012
20
45.1079263
40
0.5651495
50
78.2172678
51
90.412935
0
ARC
8
DEFAULT_255_1_388
10
4.3987478
20
45.2906511
40
0.378122
50
55.9269121
51
78.4888449
0
ARC
8
DEFAULT_255_1_388
10
4.4208193
20
45.3287187
40
0.3342379
50
47.929771
51
55.4049217
0
ARC
8
DEFAULT_255_1_388
10
4.4322723
20
45.3403618
40
0.3179217
50
4.334829
51
48.0560205
0
ARC
8
DEFAULT_255_1_388
10
4.3090525
20
45.3212487
40
0.442341
50
359.9251713
51
5.5971671
0
ARC
8
DEFAULT_255_1_388
10
4.357268
20
45.3275728
40
0.3941854
50
337.8914027
51
358.9967534
0
ARC
8
DEFAULT_255_1_388
10
4.052025
20
45.4453295
40
0.7213271
50
326.9132501
51
338.3508308
0
ARC
8
DEFAULT_255_1_388
10
3.6036362
20
45.7327105
40
1.2538973
50
319.6471833
51
327.0959558
0
ARC
8
DEFAULT_255_1_388
10
3.172302
20
46.088505
40
1.8129975
50
317.2588228
51
319.9045804
0
LINE
8
DEFAULT_255_1_388
10
5.6947143
20
45.6549898
11
5.6947143
21
44.781243
0
LINE
8
DEFAULT_255_1_388
10
5.6947143
20
44.781243
11
5.8772343
21
44.781243
0
LINE
8
DEFAULT_255_1_388
10
5.8772343
20
44.781243
11
5.8772343
21
44.6448048
0
LINE
8
DEFAULT_255_1_388
10
5.8772343
20
44.6448048
11
5.6947143
21
44.6448048
0
LINE
8
DEFAULT_255_1_388
10
5.6947143
20
44.6448048
11
5.6947143
21
44.3394
0
LINE
8
DEFAULT_255_1_388
10
5.6947143
20
44.3394
11
5.5266513
21
44.3394
0
LINE
8
DEFAULT_255_1_388
10
5.5266513
20
44.3394
11
5.5266513
21
44.6448048
0
LINE
8
DEFAULT_255_1_388
10
5.5266513
20
44.6448048
11
4.927588
21
44.6448048
0
LINE
8
DEFAULT_255_1_388
10
4.927588
20
44.6448048
11
4.927588
21
44.7432933
0
LINE
8
DEFAULT_255_1_388
10
4.927588
20
44.7432933
11
5.5167121
21
45.6549898
0
LINE
8
DEFAULT_255_1_388
10
5.5167121
20
45.6549898
11
5.6947143
21
45.6549898
0
LINE
8
DEFAULT_255_1_388
10
5.5067729
20
45.3902455
11
5.1173366
21
44.781243
0
LINE
8
DEFAULT_255_1_388
10
5.1173366
20
44.781243
11
5.5266513
21
44.781243
0
LINE
8
DEFAULT_255_1_388
10
5.5266513
20
44.781243
11
5.5266513
21
45.426388
0
LINE
8
DEFAULT_255_1_388
10
5.5266513
20
45.426388
11
5.5067729
21
45.3902455
0
LINE
8
DEFAULT_255_1_388
10
6.5241864
20
45.4290987
11
6.5241864
21
45.0450838
0
LINE
8
DEFAULT_255_1_388
10
6.5241864
20
45.0450838
11
6.8910336
21
45.0450838
0
LINE
8
DEFAULT_255_1_388
10
6.8910336
20
45.0450838
11
6.8910336
21
44.8869601
0
LINE
8
DEFAULT_255_1_388
10
6.8910336
20
44.8869601
11
6.5241864
21
44.8869601
0
LINE
8
DEFAULT_255_1_388
10
6.5241864
20
44.8869601
11
6.5241864
21
44.4713204
0
LINE
8
DEFAULT_255_1_388
10
6.5241864
20
44.4713204
11
6.3561234
21
44.4713204
0
LINE
8
DEFAULT_255_1_388
10
6.3561234
20
44.4713204
11
6.3561234
21
44.8869601
0
LINE
8
DEFAULT_255_1_388
10
6.3561234
20
44.8869601
11
5.9892763
21
44.8869601
0
LINE
8
DEFAULT_255_1_388
10
5.9892763
20
44.8869601
11
5.9892763
21
45.0450838
0
LINE
8
DEFAULT_255_1_388
10
5.9892763
20
45.0450838
11
6.3561234
21
45.0450838
0
LINE
8
DEFAULT_255_1_388
10
6.3561234
20
45.0450838
11
6.3561234
21
45.4290987
0
LINE
8
DEFAULT_255_1_388
10
6.3561234
20
45.4290987
11
6.5241864
21
45.4290987
0
LINE
8
DEFAULT_255_1_388
10
4.7669322
20
4.6519
11
4.4814058
21
5.1840995
0
LINE
8
DEFAULT_255_1_388
10
4.4814058
20
5.1840995
11
4.1723868
21
5.1840995
0
LINE
8
DEFAULT_255_1_388
10
4.1723868
20
5.1840995
11
4.1723868
21
4.6519
0
LINE
8
DEFAULT_255_1_388
10
4.1723868
20
4.6519
11
3.9979988
21
4.6519
0
LINE
8
DEFAULT_255_1_388
10
3.9979988
20
4.6519
11
3.9979988
21
5.9674898
0
LINE
8
DEFAULT_255_1_388
10
3.9979988
20
5.9674898
11
4.4335169
21
5.9674898
0
LINE
8
DEFAULT_255_1_388
10
4.6440474
20
5.2211456
11
4.9530665
21
4.6627428
0
LINE
8
DEFAULT_255_1_388
10
4.9530665
20
4.6627428
11
4.9530665
21
4.6519
0
LINE
8
DEFAULT_255_1_388
10
4.9530665
20
4.6519
11
4.7669322
21
4.6519
0
LINE
8
DEFAULT_255_1_388
10
4.1723868
20
5.8247267
11
4.1723868
21
5.3259591
0
LINE
8
DEFAULT_255_1_388
10
4.1723868
20
5.3259591
11
4.4389383
21
5.3259591
0
LINE
8
DEFAULT_255_1_388
10
4.4380347
20
5.8247267
11
4.1723868
21
5.8247267
0
ARC
8
DEFAULT_255_1_388
10
4.4382015
20
5.1843346
40
0.7831693
50
80.6535681
51
90.3427203
0
ARC
8
DEFAULT_255_1_388
10
4.4853925
20
5.4613722
40
0.5021479
50
65.6987674
51
80.8330164
0
ARC
8
DEFAULT_255_1_388
10
4.5391219
20
5.5845479
40
0.3677787
50
50.0019152
51
65.4304412
0
ARC
8
DEFAULT_255_1_388
10
4.5637035
20
5.6177603
40
0.3265454
50
11.6284215
51
49.5603681
0
ARC
8
DEFAULT_255_1_388
10
4.3909521
20
5.5755524
40
0.5043009
50
359.5655533
51
12.3693319
0
ARC
8
DEFAULT_255_1_388
10
4.5120858
20
5.5685038
40
0.3831661
50
341.998418
51
0.4822212
0
ARC
8
DEFAULT_255_1_388
10
4.5565044
20
5.5564479
40
0.3372036
50
323.8610842
51
341.6141514
0
ARC
8
DEFAULT_255_1_388
10
4.522559
20
5.5826615
40
0.3800784
50
296.7019299
51
323.6876213
0
ARC
8
DEFAULT_255_1_388
10
4.4729548
20
5.6713532
40
0.4816219
50
290.808313
51
297.2325929
0
ARC
8
DEFAULT_255_1_388
10
4.4418342
20
5.7302377
40
0.404289
50
269.5895908
51
281.8058892
0
ARC
8
DEFAULT_255_1_388
10
4.4700608
20
5.601136
40
0.2721459
50
281.5499321
51
303.9358954
0
ARC
8
DEFAULT_255_1_388
10
4.4855143
20
5.5743588
40
0.2413121
50
304.4410786
51
311.211123
0
ARC
8
DEFAULT_255_1_388
10
4.5003548
20
5.5587152
40
0.2197678
50
310.9874923
51
356.2715203
0
ARC
8
DEFAULT_255_1_388
10
4.4153294
20
5.5713992
40
0.3055212
50
354.9346315
51
0.0617816
0
ARC
8
DEFAULT_255_1_388
10
4.3942135
20
5.5744427
40
0.3266482
50
359.5239293
51
12.8808621
0
ARC
8
DEFAULT_255_1_388
10
4.5041898
20
5.6013638
40
0.2134449
50
12.417206
51
43.1023141
0
ARC
8
DEFAULT_255_1_388
10
4.5111228
20
5.6055253
40
0.2055463
50
43.575886
51
48.2047245
0
ARC
8
DEFAULT_255_1_388
10
4.4920489
20
5.5806151
40
0.2368418
50
48.7809155
51
72.6968768
0
ARC
8
DEFAULT_255_1_388
10
4.4521853
20
5.4596385
40
0.364206
50
72.3699892
51
84.8793749
0
ARC
8
DEFAULT_255_1_388
10
4.4355859
20
5.3086651
40
0.5160674
50
84.5398226
51
89.7281165
0
LINE
8
DEFAULT_255_1_388
10
5.6894715
20
5.0332042
11
5.6894715
21
5.9674898
0
LINE
8
DEFAULT_255_1_388
10
5.6894715
20
5.9674898
11
5.8638594
21
5.9674898
0
LINE
8
DEFAULT_255_1_388
10
5.8638594
20
5.9674898
11
5.8638594
21
5.0359149
0
LINE
8
DEFAULT_255_1_388
10
5.0334837
20
5.0151329
11
5.2069681
21
5.0151329
0
ARC
8
DEFAULT_255_1_388
10
5.3586317
20
5.0315958
40
0.5052462
50
346.3132364
51
0.4897996
0
ARC
8
DEFAULT_255_1_388
10
5.5125849
20
4.9921792
40
0.3463431
50
313.3793278
51
346.6225662
0
ARC
8
DEFAULT_255_1_388
10
5.4899933
20
5.0206186
40
0.3825426
50
281.1587645
51
312.9130978
0
ARC
8
DEFAULT_255_1_388
10
5.4516838
20
5.1887607
40
0.5549427
50
269.6423454
51
281.6796473
0
ARC
8
DEFAULT_255_1_388
10
5.4439617
20
5.2505499
40
0.6167359
50
258.9989698
51
270.3955842
0
ARC
8
DEFAULT_255_1_388
10
5.4018075
20
5.0425792
40
0.4045461
50
239.625581
51
259.2387746
0
ARC
8
DEFAULT_255_1_388
10
5.3693069
20
4.9812638
40
0.3352261
50
227.4961805
51
239.1189042
0
ARC
8
DEFAULT_255_1_388
10
5.3650952
20
4.9744009
40
0.3273245
50
191.3396895
51
227.2280349
0
ARC
8
DEFAULT_255_1_388
10
5.5231274
20
5.0117896
40
0.4896551
50
179.6087821
51
191.9932937
0
ARC
8
DEFAULT_255_1_388
10
5.5382019
20
5.0126216
40
0.3312434
50
179.565607
51
192.0702314
0
ARC
8
DEFAULT_255_1_388
10
5.4288971
20
4.988056
40
0.2192212
50
191.7655537
51
215.6462731
0
ARC
8
DEFAULT_255_1_388
10
5.4088212
20
4.9759629
40
0.1958682
50
216.1940686
51
224.3931249
0
ARC
8
DEFAULT_255_1_388
10
5.4095909
20
4.9789862
40
0.1985399
50
224.861176
51
254.3628599
0
ARC
8
DEFAULT_255_1_388
10
5.4400452
20
5.0796135
40
0.3036595
50
253.9470645
51
267.395327
0
ARC
8
DEFAULT_255_1_388
10
5.4479751
20
5.1835346
40
0.4078462
50
266.9458957
51
270.0343693
0
ARC
8
DEFAULT_255_1_388
10
5.4508332
20
5.0528844
40
0.2772084
50
269.4598277
51
286.1819188
0
ARC
8
DEFAULT_255_1_388
10
5.4667305
20
4.9945765
40
0.2167824
50
286.4415261
51
315.8045035
0
ARC
8
DEFAULT_255_1_388
10
5.4606337
20
4.9993201
40
0.2244619
50
316.0212602
51
345.479585
0
ARC
8
DEFAULT_255_1_388
10
5.3514496
20
5.0300753
40
0.3378781
50
345.0729937
51
358.3249855
0
ARC
8
DEFAULT_255_1_388
10
5.2538942
20
5.0363509
40
0.4355887
50
357.8749464
51
359.5860856
0
LINE
8
DEFAULT_255_1_388
10
6.8216377
20
5.9674898
11
6.8216377
21
5.093743
0
LINE
8
DEFAULT_255_1_388
10
6.8216377
20
5.093743
11
7.0041578
21
5.093743
0
LINE
8
DEFAULT_255_1_388
10
7.0041578
20
5.093743
11
7.0041578
21
4.9573048
0
LINE
8
DEFAULT_255_1_388
10
7.0041578
20
4.9573048
11
6.8216377
21
4.9573048
0
LINE
8
DEFAULT_255_1_388
10
6.8216377
20
4.9573048
11
6.8216377
21
4.6519
0
LINE
8
DEFAULT_255_1_388
10
6.8216377
20
4.6519
11
6.6535748
21
4.6519
0
LINE
8
DEFAULT_255_1_388
10
6.6535748
20
4.6519
11
6.6535748
21
4.9573048
0
LINE
8
DEFAULT_255_1_388
10
6.6535748
20
4.9573048
11
6.0545115
21
4.9573048
0
LINE
8
DEFAULT_255_1_388
10
6.0545115
20
4.9573048
11
6.0545115
21
5.0557933
0
LINE
8
DEFAULT_255_1_388
10
6.0545115
20
5.0557933
11
6.6436355
21
5.9674898
0
LINE
8
DEFAULT_255_1_388
10
6.6436355
20
5.9674898
11
6.8216377
21
5.9674898
0
LINE
8
DEFAULT_255_1_388
10
6.6336963
20
5.7027455
11
6.2442601
21
5.093743
0
LINE
8
DEFAULT_255_1_388
10
6.2442601
20
5.093743
11
6.6535748
21
5.093743
0
LINE
8
DEFAULT_255_1_388
10
6.6535748
20
5.093743
11
6.6535748
21
5.738888
0
LINE
8
DEFAULT_255_1_388
10
6.6535748
20
5.738888
11
6.6336963
21
5.7027455
0
LINE
8
DEFAULT_255_1_388
10
7.3655835
20
5.2771666
11
7.231856
21
5.3115021
0
LINE
8
DEFAULT_255_1_388
10
7.231856
20
5.3115021
11
7.2987198
21
5.9674898
0
LINE
8
DEFAULT_255_1_388
10
7.2987198
20
5.9674898
11
7.9727789
21
5.9674898
0
LINE
8
DEFAULT_255_1_388
10
7.9727789
20
5.9674898
11
7.9727789
21
5.8129803
0
LINE
8
DEFAULT_255_1_388
10
7.9727789
20
5.8129803
11
7.4405794
21
5.8129803
0
LINE
8
DEFAULT_255_1_388
10
7.4405794
20
5.8129803
11
7.4008226
21
5.4542652
0
LINE
8
DEFAULT_255_1_388
10
7.1848707
20
4.9979652
11
7.3429944
21
4.9979652
0
LINE
8
DEFAULT_255_1_388
10
7.4098582
20
5.3133092
11
7.3655835
21
5.2771666
0
ARC
8
DEFAULT_255_1_388
10
7.6094839
20
5.0965241
40
0.4141476
50
93.7181681
51
120.253934
0
ARC
8
DEFAULT_255_1_388
10
7.6200891
20
5.0056284
40
0.5055616
50
89.9660471
51
94.2495185
0
ARC
8
DEFAULT_255_1_388
10
7.6246713
20
5.0719154
40
0.4392953
50
73.8045384
51
90.5585736
0
ARC
8
DEFAULT_255_1_388
10
7.6510971
20
5.168452
40
0.3392225
50
41.3071072
51
73.543002
0
ARC
8
DEFAULT_255_1_388
10
7.6042791
20
5.1281461
40
0.4009977
50
13.5075837
51
41.2174839
0
ARC
8
DEFAULT_255_1_388
10
7.4195888
20
5.0797907
40
0.5918864
50
1.1330171
51
13.8830737
0
ARC
8
DEFAULT_255_1_388
10
7.2599534
20
5.0712522
40
0.7516787
50
359.9925091
51
1.5431298
0
ARC
8
DEFAULT_255_1_388
10
7.4044149
20
5.0666027
40
0.6072343
50
347.8572712
51
0.4294349
0
ARC
8
DEFAULT_255_1_388
10
7.6013284
20
5.0219898
40
0.4053482
50
323.6727442
51
348.1674594
0
ARC
8
DEFAULT_255_1_388
10
7.6344248
20
5.0018175
40
0.3667495
50
316.8171818
51
323.1486802
0
ARC
8
DEFAULT_255_1_388
10
7.6413372
20
4.9976612
40
0.358869
50
281.839603
51
316.5458142
0
ARC
8
DEFAULT_255_1_388
10
7.599066
20
5.1726363
40
0.5388223
50
269.5770964
51
282.4214641
0
ARC
8
DEFAULT_255_1_388
10
7.591058
20
5.148593
40
0.5147801
50
256.2425863
51
270.4486481
0
ARC
8
DEFAULT_255_1_388
10
7.5574108
20
5.0136124
40
0.3756708
50
228.9024379
51
256.33135
0
ARC
8
DEFAULT_255_1_388
10
7.5491088
20
5.0005054
40
0.360344
50
193.7536029
51
228.5272638
0
ARC
8
DEFAULT_255_1_388
10
7.6883653
20
5.0413463
40
0.5053599
50
184.9244437
51
194.4976052
0
ARC
8
DEFAULT_255_1_388
10
7.7100294
20
5.0453722
40
0.3700839
50
187.3596909
51
198.6733728
0
ARC
8
DEFAULT_255_1_388
10
7.5919538
20
5.0044373
40
0.2451195
50
198.4453795
51
217.7945479
0
ARC
8
DEFAULT_255_1_388
10
7.558671
20
4.9808563
40
0.2043754
50
218.2887146
51
228.5613203
0
ARC
8
DEFAULT_255_1_388
10
7.5696717
20
4.9956902
40
0.2227819
50
228.9652423
51
258.1237049
0
ARC
8
DEFAULT_255_1_388
10
7.5928155
20
5.0947964
40
0.3245374
50
257.7260585
51
270.4013717
0
ARC
8
DEFAULT_255_1_388
10
7.5978653
20
5.0447255
40
0.2744726
50
269.4204315
51
286.420998
0
ARC
8
DEFAULT_255_1_388
10
7.6145708
20
4.9840705
40
0.2115721
50
286.7250065
51
320.6004665
0
ARC
8
DEFAULT_255_1_388
10
7.5714624
20
5.0190527
40
0.2670878
50
320.6712228
51
344.5440474
0
ARC
8
DEFAULT_255_1_388
10
7.4413338
20
5.0572394
40
0.4026927
50
344.241448
51
356.735803
0
ARC
8
DEFAULT_255_1_388
10
7.3009645
20
5.0688656
40
0.5435085
50
356.3547471
51
0.0507222
0
ARC
8
DEFAULT_255_1_388
10
7.451191
20
5.0723812
40
0.3932934
50
359.5579289
51
12.9534322
0
ARC
8
DEFAULT_255_1_388
10
7.569875
20
5.1011586
40
0.2711827
50
12.6489751
51
41.608121
0
ARC
8
DEFAULT_255_1_388
10
7.595791
20
5.1231946
40
0.2371737
50
41.7851122
51
85.9892156
0
ARC
8
DEFAULT_255_1_388
10
7.581922
20
5.0316738
40
0.3295244
50
84.6965848
51
90.0672125
0
ARC
8
DEFAULT_255_1_388
10
7.5792788
20
4.9565118
40
0.4046926
50
89.6804991
51
99.161352
0
ARC
8
DEFAULT_255_1_388
10
7.5561797
20
5.0945848
40
0.2647044
50
98.9836248
51
113.8905702
0
ARC
8
DEFAULT_255_1_388
10
7.5303472
20
5.1555118
40
0.1985386
50
114.195234
51
127.3641866
0
LINE
8
DEFAULT_255_1_388
10
4.923532
20
13.0068468
11
5.0979199
21
13.0068468
0
LINE
8
DEFAULT_255_1_388
10
4.0850242
20
13.1857525
11
4.0850242
21
13.3122516
0
LINE
8
DEFAULT_255_1_388
10
5.0979199
20
13.4821217
11
4.923532
21
13.4821217
0
LINE
8
DEFAULT_255_1_388
10
4.2594121
20
13.3077337
11
4.2594121
21
13.1803312
0
ARC
8
DEFAULT_255_1_388
10
4.4813433
20
13.0740329
40
0.6202263
50
340.1774904
51
353.7812217
0
ARC
8
DEFAULT_255_1_388
10
4.6581286
20
13.0081893
40
0.4315926
50
311.4560052
51
340.4420756
0
ARC
8
DEFAULT_255_1_388
10
4.6543826
20
13.0206665
40
0.4434573
50
282.4332229
51
310.7514507
0
ARC
8
DEFAULT_255_1_388
10
4.6049644
20
13.2248703
40
0.6535262
50
269.9358869
51
282.8096729
0
ARC
8
DEFAULT_255_1_388
10
4.5991583
20
13.3761329
40
0.8048043
50
269.9995752
51
270.3612856
0
ARC
8
DEFAULT_255_1_388
10
4.5932073
20
13.0962781
40
0.5249831
50
250.7885263
51
270.6488451
0
ARC
8
DEFAULT_255_1_388
10
4.5742898
20
13.0245853
40
0.4510942
50
219.3628377
51
250.0611024
0
ARC
8
DEFAULT_255_1_388
10
4.6675772
20
13.1038653
40
0.5735046
50
193.5480293
51
219.5755675
0
ARC
8
DEFAULT_255_1_388
10
4.9343981
20
13.173152
40
0.849146
50
181.1220183
51
193.8754971
0
ARC
8
DEFAULT_255_1_388
10
5.1667214
20
13.1855914
40
1.0816971
50
179.9914644
51
181.5398227
0
ARC
8
DEFAULT_255_1_388
10
4.9590525
20
13.3164586
40
0.8740384
50
169.5837606
51
180.275782
0
ARC
8
DEFAULT_255_1_388
10
4.7523873
20
13.3546439
40
0.6638751
50
155.0367033
51
169.6002779
0
ARC
8
DEFAULT_255_1_388
10
4.6246331
20
13.4162336
40
0.5220662
50
136.7831557
51
155.2472983
0
ARC
8
DEFAULT_255_1_388
10
4.5808122
20
13.4534577
40
0.4646502
50
121.7633063
51
136.4281161
0
ARC
8
DEFAULT_255_1_388
10
4.5959962
20
13.4254049
40
0.4964979
50
95.6460018
51
121.5489589
0
ARC
8
DEFAULT_255_1_388
10
4.6136936
20
13.3006704
40
0.6223912
50
89.9245727
51
96.1375919
0
ARC
8
DEFAULT_255_1_388
10
4.6193641
20
13.3140721
40
0.6090084
50
76.6779212
51
90.456405
0
ARC
8
DEFAULT_255_1_388
10
4.6636454
20
13.493006
40
0.42469
50
47.4858803
51
76.9287069
0
ARC
8
DEFAULT_255_1_388
10
4.6471068
20
13.4817623
40
0.4441778
50
16.5424081
51
46.8934505
0
ARC
8
DEFAULT_255_1_388
10
4.4662118
20
13.4223265
40
0.6345318
50
5.4072971
51
17.0363711
0
ARC
8
DEFAULT_255_1_388
10
4.3043843
20
13.3963304
40
0.6250632
50
7.8888693
51
15.9242022
0
ARC
8
DEFAULT_255_1_388
10
4.5278828
20
13.4612309
40
0.3923364
50
15.7650676
51
27.9410069
0
ARC
8
DEFAULT_255_1_388
10
4.6520997
20
13.5277317
40
0.2514401
50
27.8167196
51
46.4007942
0
ARC
8
DEFAULT_255_1_388
10
4.6576839
20
13.5270882
40
0.2480958
50
47.4372362
51
75.0695672
0
ARC
8
DEFAULT_255_1_388
10
4.6229675
20
13.4062277
40
0.3738281
50
74.7009379
51
87.8124314
0
ARC
8
DEFAULT_255_1_388
10
4.6147292
20
13.2878659
40
0.4924321
50
87.3802571
51
90.0251599
0
ARC
8
DEFAULT_255_1_388
10
4.6103939
20
13.4198997
40
0.3604218
50
89.3451886
51
108.5744412
0
ARC
8
DEFAULT_255_1_388
10
4.5949931
20
13.4776836
40
0.3007661
50
109.2998307
51
143.3037387
0
ARC
8
DEFAULT_255_1_388
10
4.6807221
20
13.4117584
40
0.4089031
50
143.075267
51
163.1918576
0
ARC
8
DEFAULT_255_1_388
10
4.9003055
20
13.3424652
40
0.6391492
50
162.9375929
51
174.6208776
0
ARC
8
DEFAULT_255_1_388
10
5.1957437
20
13.3100711
40
0.9363344
50
174.342123
51
180.1430283
0
ARC
8
DEFAULT_255_1_388
10
5.0909978
20
13.1757117
40
0.8315986
50
179.6817261
51
189.150555
0
ARC
8
DEFAULT_255_1_388
10
4.8096727
20
13.1288559
40
0.5464044
50
188.9911061
51
203.5772363
0
ARC
8
DEFAULT_255_1_388
10
4.6882019
20
13.0784539
40
0.4149206
50
203.9075402
51
215.1312435
0
ARC
8
DEFAULT_255_1_388
10
4.5843817
20
12.9979907
40
0.2837747
50
213.9071511
51
263.8848919
0
ARC
8
DEFAULT_255_1_388
10
4.598481
20
13.0862519
40
0.3730641
50
263.1757928
51
270.1031044
0
ARC
8
DEFAULT_255_1_388
10
4.602089
20
13.2265511
40
0.5133712
50
269.6722503
51
279.0606936
0
ARC
8
DEFAULT_255_1_388
10
4.6321045
20
13.045115
40
0.3294739
50
278.8749101
51
293.6349581
0
ARC
8
DEFAULT_255_1_388
10
4.6681249
20
12.9605251
40
0.2375405
50
293.8553806
51
310.0518171
0
ARC
8
DEFAULT_255_1_388
10
4.6686758
20
12.9535021
40
0.2318463
50
311.0644687
51
332.0111037
0
ARC
8
DEFAULT_255_1_388
10
4.5345431
20
13.0274702
40
0.3850112
50
331.6586806
51
343.2877423
0
ARC
8
DEFAULT_255_1_388
10
4.3024896
20
13.0987806
40
0.6277712
50
343.1446576
51
351.0103568
0
ARC
8
DEFAULT_255_1_388
10
4.139222
20
13.1287873
40
0.7937327
50
350.71248
51
351.1626997
0
LINE
8
DEFAULT_255_1_388
10
5.9969666
20
13.9049898
11
5.9969666
21
13.031243
0
LINE
8
DEFAULT_255_1_388
10
5.9969666
20
13.031243
11
6.1794866
21
13.031243
0
LINE
8
DEFAULT_255_1_388
10
6.1794866
20
13.031243
11
6.1794866
21
12.8948048
0
LINE
8
DEFAULT_255_1_388
10
6.1794866
20
12.8948048
11
5.9969666
21
12.8948048
0
LINE
8
DEFAULT_255_1_388
10
5.9969666
20
12.8948048
11
5.9969666
21
12.5894
0
LINE
8
DEFAULT_255_1_388
10
5.9969666
20
12.5894
11
5.8289036
21
12.5894
0
LINE
8
DEFAULT_255_1_388
10
5.8289036
20
12.5894
11
5.8289036
21
12.8948048
0
LINE
8
DEFAULT_255_1_388
10
5.8289036
20
12.8948048
11
5.2298403
21
12.8948048
0
LINE
8
DEFAULT_255_1_388
10
5.2298403
20
12.8948048
11
5.2298403
21
12.9932933
0
LINE
8
DEFAULT_255_1_388
10
5.2298403
20
12.9932933
11
5.8189644
21
13.9049898
0
LINE
8
DEFAULT_255_1_388
10
5.8189644
20
13.9049898
11
5.9969666
21
13.9049898
0
LINE
8
DEFAULT_255_1_388
10
5.8090251
20
13.6402455
11
5.4195889
21
13.031243
0
LINE
8
DEFAULT_255_1_388
10
5.4195889
20
13.031243
11
5.8289036
21
13.031243
0
LINE
8
DEFAULT_255_1_388
10
5.8289036
20
13.031243
11
5.8289036
21
13.676388
0
LINE
8
DEFAULT_255_1_388
10
5.8289036
20
13.676388
11
5.8090251
21
13.6402455
0
LINE
8
DEFAULT_255_1_388
10
4.791232
20
20.9443468
11
4.9656199
21
20.9443468
0
LINE
8
DEFAULT_255_1_388
10
3.9527242
20
21.1232525
11
3.9527242
21
21.2497516
0
LINE
8
DEFAULT_255_1_388
10
4.9656199
20
21.4196217
11
4.791232
21
21.4196217
0
LINE
8
DEFAULT_255_1_388
10
4.1271121
20
21.2452337
11
4.1271121
21
21.1178312
0
ARC
8
DEFAULT_255_1_388
10
4.3490433
20
21.0115329
40
0.6202263
50
340.1774904
51
353.7812217
0
ARC
8
DEFAULT_255_1_388
10
4.5258286
20
20.9456893
40
0.4315926
50
311.4560052
51
340.4420756
0
ARC
8
DEFAULT_255_1_388
10
4.5220826
20
20.9581665
40
0.4434573
50
282.4332229
51
310.7514507
0
ARC
8
DEFAULT_255_1_388
10
4.4726644
20
21.1623703
40
0.6535262
50
269.9358869
51
282.8096729
0
ARC
8
DEFAULT_255_1_388
10
4.4668583
20
21.3136329
40
0.8048043
50
269.9995752
51
270.3612856
0
ARC
8
DEFAULT_255_1_388
10
4.4609073
20
21.0337781
40
0.5249831
50
250.7885263
51
270.6488451
0
ARC
8
DEFAULT_255_1_388
10
4.4419898
20
20.9620853
40
0.4510942
50
219.3628377
51
250.0611024
0
ARC
8
DEFAULT_255_1_388
10
4.5352772
20
21.0413653
40
0.5735046
50
193.5480293
51
219.5755675
0
ARC
8
DEFAULT_255_1_388
10
4.8020981
20
21.110652
40
0.849146
50
181.1220183
51
193.8754971
0
ARC
8
DEFAULT_255_1_388
10
5.0344214
20
21.1230914
40
1.0816971
50
179.9914644
51
181.5398227
0
ARC
8
DEFAULT_255_1_388
10
4.8267525
20
21.2539586
40
0.8740384
50
169.5837606
51
180.275782
0
ARC
8
DEFAULT_255_1_388
10
4.6200873
20
21.2921439
40
0.6638751
50
155.0367033
51
169.6002779
0
ARC
8
DEFAULT_255_1_388
10
4.4923331
20
21.3537336
40
0.5220662
50
136.7831557
51
155.2472983
0
ARC
8
DEFAULT_255_1_388
10
4.4485122
20
21.3909577
40
0.4646502
50
121.7633063
51
136.4281161
0
ARC
8
DEFAULT_255_1_388
10
4.4636962
20
21.3629049
40
0.4964979
50
95.6460018
51
121.5489589
0
ARC
8
DEFAULT_255_1_388
10
4.4813936
20
21.2381704
40
0.6223912
50
89.9245727
51
96.1375919
0
ARC
8
DEFAULT_255_1_388
10
4.4870641
20
21.2515721
40
0.6090084
50
76.6779212
51
90.456405
0
ARC
8
DEFAULT_255_1_388
10
4.5313454
20
21.430506
40
0.42469
50
47.4858803
51
76.9287069
0
ARC
8
DEFAULT_255_1_388
10
4.5148068
20
21.4192623
40
0.4441778
50
16.5424081
51
46.8934505
0
ARC
8
DEFAULT_255_1_388
10
4.3339118
20
21.3598265
40
0.6345318
50
5.4072971
51
17.0363711
0
ARC
8
DEFAULT_255_1_388
10
4.1720843
20
21.3338304
40
0.6250632
50
7.8888693
51
15.9242022
0
ARC
8
DEFAULT_255_1_388
10
4.3955828
20
21.3987309
40
0.3923364
50
15.7650676
51
27.9410069
0
ARC
8
DEFAULT_255_1_388
10
4.5197997
20
21.4652317
40
0.2514401
50
27.8167196
51
46.4007942
0
ARC
8
DEFAULT_255_1_388
10
4.5253839
20
21.4645882
40
0.2480958
50
47.4372362
51
75.0695672
0
ARC
8
DEFAULT_255_1_388
10
4.4906675
20
21.3437277
40
0.3738281
50
74.7009379
51
87.8124314
0
ARC
8
DEFAULT_255_1_388
10
4.4824292
20
21.2253659
40
0.4924321
50
87.3802571
51
90.0251599
0
ARC
8
DEFAULT_255_1_388
10
4.4780939
20
21.3573997
40
0.3604218
50
89.3451886
51
108.5744412
0
ARC
8
DEFAULT_255_1_388
10
4.4626931
20
21.4151836
40
0.3007661
50
109.2998307
51
143.3037387
0
ARC
8
DEFAULT_255_1_388
10
4.5484221
20
21.3492584
40
0.4089031
50
143.075267
51
163.1918576
0
ARC
8
DEFAULT_255_1_388
10
4.7680055
20
21.2799652
40
0.6391492
50
162.9375929
51
174.6208776
0
ARC
8
DEFAULT_255_1_388
10
5.0634437
20
21.2475711
40
0.9363344
50
174.342123
51
180.1430283
0
ARC
8
DEFAULT_255_1_388
10
4.9586978
20
21.1132117
40
0.8315986
50
179.6817261
51
189.150555
0
ARC
8
DEFAULT_255_1_388
10
4.6773727
20
21.0663559
40
0.5464044
50
188.9911061
51
203.5772363
0
ARC
8
DEFAULT_255_1_388
10
4.5559019
20
21.0159539
40
0.4149206
50
203.9075402
51
215.1312435
0
ARC
8
DEFAULT_255_1_388
10
4.4520817
20
20.9354907
40
0.2837747
50
213.9071511
51
263.8848919
0
ARC
8
DEFAULT_255_1_388
10
4.466181
20
21.0237519
40
0.3730641
50
263.1757928
51
270.1031044
0
ARC
8
DEFAULT_255_1_388
10
4.469789
20
21.1640511
40
0.5133712
50
269.6722503
51
279.0606936
0
ARC
8
DEFAULT_255_1_388
10
4.4998045
20
20.982615
40
0.3294739
50
278.8749101
51
293.6349581
0
ARC
8
DEFAULT_255_1_388
10
4.5358249
20
20.8980251
40
0.2375405
50
293.8553806
51
310.0518171
0
ARC
8
DEFAULT_255_1_388
10
4.5363758
20
20.8910021
40
0.2318463
50
311.0644687
51
332.0111037
0
ARC
8
DEFAULT_255_1_388
10
4.4022431
20
20.9649702
40
0.3850112
50
331.6586806
51
343.2877423
0
ARC
8
DEFAULT_255_1_388
10
4.1701896
20
21.0362806
40
0.6277712
50
343.1446576
51
351.0103568
0
ARC
8
DEFAULT_255_1_388
10
4.006922
20
21.0662873
40
0.7937327
50
350.71248
51
351.1626997
0
LINE
8
DEFAULT_255_1_388
10
5.4020416
20
21.1295775
11
5.4020416
21
21.2660157
0
LINE
8
DEFAULT_255_1_388
10
5.4020416
20
21.2660157
11
5.527637
21
21.2660157
0
LINE
8
DEFAULT_255_1_388
10
5.3134922
20
21.4973282
11
5.1463328
21
21.4973282
0
LINE
8
DEFAULT_255_1_388
10
5.1345865
20
20.8738687
11
5.3026495
21
20.8738687
0
LINE
8
DEFAULT_255_1_388
10
5.527637
20
21.1295775
11
5.4020416
21
21.1295775
0
ARC
8
DEFAULT_255_1_388
10
5.5243597
20
21.6476922
40
0.3816905
50
270.491971
51
281.8953028
0
ARC
8
DEFAULT_255_1_388
10
5.5515024
20
21.5237199
40
0.2547877
50
281.6690378
51
301.2943765
0
ARC
8
DEFAULT_255_1_388
10
5.5706475
20
21.4886926
40
0.2149197
50
301.7834992
51
311.754567
0
ARC
8
DEFAULT_255_1_388
10
5.5809516
20
21.477265
40
0.1995326
50
311.7325027
51
354.2803031
0
ARC
8
DEFAULT_255_1_388
10
5.4991932
20
21.491328
40
0.2823461
50
353.0941646
51
0.1174696
0
ARC
8
DEFAULT_255_1_388
10
5.447349
20
21.4966874
40
0.3342238
50
359.1804452
51
15.0452323
0
ARC
8
DEFAULT_255_1_388
10
5.5987548
20
21.5408546
40
0.1765747
50
13.957816
51
77.6713812
0
ARC
8
DEFAULT_255_1_388
10
5.5552784
20
21.3850464
40
0.3381982
50
76.111571
51
90.7028736
0
ARC
8
DEFAULT_255_1_388
10
5.5486196
20
21.415825
40
0.3074046
50
89.5321574
51
103.5319393
0
ARC
8
DEFAULT_255_1_388
10
5.526058
20
21.5057443
40
0.2147041
50
103.2930114
51
133.5619756
0
ARC
8
DEFAULT_255_1_388
10
5.5210522
20
21.5124351
40
0.2064084
50
133.8349761
51
173.5343225
0
ARC
8
DEFAULT_255_1_388
10
5.6024179
20
21.4980144
40
0.2889266
50
172.5097183
51
180.1360699
0
ARC
8
DEFAULT_255_1_388
10
5.4953943
20
21.501888
40
0.3490913
50
155.3483706
51
180.7484035
0
ARC
8
DEFAULT_255_1_388
10
5.4898919
20
21.4986519
40
0.3454798
50
131.5745177
51
154.4799474
0
ARC
8
DEFAULT_255_1_388
10
5.5251201
20
21.4630422
40
0.3955058
50
96.9874487
51
131.9690874
0
ARC
8
DEFAULT_255_1_388
10
5.5498094
20
21.3229407
40
0.537622
50
89.8592909
51
97.7827481
0
ARC
8
DEFAULT_255_1_388
10
5.5552203
20
21.293436
40
0.5671399
50
78.3654493
51
90.4132586
0
ARC
8
DEFAULT_255_1_388
10
5.5954844
20
21.4800918
40
0.3762034
50
56.6229818
51
78.6387103
0
ARC
8
DEFAULT_255_1_388
10
5.6196673
20
21.5223846
40
0.3275964
50
47.0254604
51
56.085558
0
ARC
8
DEFAULT_255_1_388
10
5.6218924
20
21.5268189
40
0.3228382
50
10.9207523
51
46.777927
0
ARC
8
DEFAULT_255_1_388
10
5.4684518
20
21.4913401
40
0.4802559
50
359.6364235
51
11.6087615
0
ARC
8
DEFAULT_255_1_388
10
5.6748684
20
21.4896404
40
0.273833
50
332.3549969
51
359.7179765
0
ARC
8
DEFAULT_255_1_388
10
5.6017084
20
21.5243285
40
0.3547505
50
325.2332381
51
332.8746682
0
ARC
8
DEFAULT_255_1_388
10
5.6188667
20
21.5123763
40
0.3338396
50
292.9803892
51
325.2391113
0
ARC
8
DEFAULT_255_1_388
10
5.5877863
20
21.5728679
40
0.4016959
50
292.542178
51
293.6931461
0
ARC
8
DEFAULT_255_1_388
10
5.6321435
20
20.8463036
40
0.372079
50
57.643292
51
72.8626085
0
ARC
8
DEFAULT_255_1_388
10
5.672027
20
20.9109273
40
0.2961455
50
36.7246661
51
57.4701329
0
ARC
8
DEFAULT_255_1_388
10
5.6707426
20
20.912347
40
0.2963321
50
8.054535
51
36.3561529
0
ARC
8
DEFAULT_255_1_388
10
5.5737099
20
20.8949073
40
0.3948682
50
359.8316595
51
8.5873361
0
ARC
8
DEFAULT_255_1_388
10
5.5314573
20
20.889497
40
0.4371398
50
343.9831631
51
0.557075
0
ARC
8
DEFAULT_255_1_388
10
5.6311623
20
20.8621963
40
0.3337749
50
311.6358204
51
343.7652116
0
ARC
8
DEFAULT_255_1_388
10
5.5885876
20
20.9101955
40
0.3979351
50
279.7829743
51
311.625622
0
ARC
8
DEFAULT_255_1_388
10
5.5547012
20
21.0718642
40
0.5630417
50
269.7285092
51
280.3857694
0
ARC
8
DEFAULT_255_1_388
10
5.5477325
20
21.0672241
40
0.5584119
50
256.6827433
51
270.4412869
0
ARC
8
DEFAULT_255_1_388
10
5.5096311
20
20.9114698
40
0.3980715
50
229.4223821
51
256.8554507
0
ARC
8
DEFAULT_255_1_388
10
5.4629864
20
20.8589683
40
0.3278564
50
181.8183354
51
229.6455015
0
ARC
8
DEFAULT_255_1_388
10
5.5799474
20
20.8736825
40
0.4453611
50
179.9760419
51
183.2330638
0
ARC
8
DEFAULT_255_1_388
10
5.5606026
20
20.8713781
40
0.2579652
50
179.4467996
51
196.2871626
0
ARC
8
DEFAULT_255_1_388
10
5.505748
20
20.8563709
40
0.2011057
50
196.5661293
51
227.7059371
0
ARC
8
DEFAULT_255_1_388
10
5.5242087
20
20.8770155
40
0.2287994
50
227.7653015
51
257.8763321
0
ARC
8
DEFAULT_255_1_388
10
5.549517
20
20.9830961
40
0.3378385
50
257.4583525
51
270.4267406
0
ARC
8
DEFAULT_255_1_388
10
5.554642
20
21.015723
40
0.3704652
50
269.5965319
51
280.8788143
0
ARC
8
DEFAULT_255_1_388
10
5.5804648
20
20.8867529
40
0.2389415
50
280.6347277
51
299.8594068
0
ARC
8
DEFAULT_255_1_388
10
5.6019418
20
20.8459736
40
0.19289
50
300.3575552
51
314.5515667
0
ARC
8
DEFAULT_255_1_388
10
5.5926093
20
20.8528025
40
0.204312
50
315.0730962
51
345.0429362
0
ARC
8
DEFAULT_255_1_388
10
5.4887601
20
20.8830539
40
0.31246
50
344.598526
51
357.9270698
0
ARC
8
DEFAULT_255_1_388
10
5.3877906
20
20.8899705
40
0.4136265
50
357.4755098
51
0.0224936
0
ARC
8
DEFAULT_255_1_388
10
5.5030783
20
20.8927099
40
0.2983498
50
359.5051035
51
13.4236939
0
ARC
8
DEFAULT_255_1_388
10
5.6005873
20
20.9176637
40
0.1977186
50
12.9497905
51
48.7550905
0
ARC
8
DEFAULT_255_1_388
10
5.5800795
20
20.8896373
40
0.2323321
50
49.509109
51
72.1832965
0
ARC
8
DEFAULT_255_1_388
10
5.5398263
20
20.7701632
40
0.358397
50
71.9008458
51
84.3555134
0
ARC
8
DEFAULT_255_1_388
10
5.5216658
20
20.6169712
40
0.512641
50
84.019632
51
89.3326067
0
LINE
8
DEFAULT_255_1_388
10
4.791232
20
28.8818468
11
4.9656199
21
28.8818468
0
LINE
8
DEFAULT_255_1_388
10
3.9527242
20
29.0607525
11
3.9527242
21
29.1872516
0
LINE
8
DEFAULT_255_1_388
10
4.9656199
20
29.3571217
11
4.791232
21
29.3571217
0
LINE
8
DEFAULT_255_1_388
10
4.1271121
20
29.1827337
11
4.1271121
21
29.0553312
0
ARC
8
DEFAULT_255_1_388
10
4.3490433
20
28.9490329
40
0.6202263
50
340.1774904
51
353.7812217
0
ARC
8
DEFAULT_255_1_388
10
4.5258286
20
28.8831893
40
0.4315926
50
311.4560052
51
340.4420756
0
ARC
8
DEFAULT_255_1_388
10
4.5220826
20
28.8956665
40
0.4434573
50
282.4332229
51
310.7514507
0
ARC
8
DEFAULT_255_1_388
10
4.4726644
20
29.0998703
40
0.6535262
50
269.9358869
51
282.8096729
0
ARC
8
DEFAULT_255_1_388
10
4.4668583
20
29.2511329
40
0.8048043
50
269.9995752
51
270.3612856
0
ARC
8
DEFAULT_255_1_388
10
4.4609073
20
28.9712781
40
0.5249831
50
250.7885263
51
270.6488451
0
ARC
8
DEFAULT_255_1_388
10
4.4419898
20
28.8995853
40
0.4510942
50
219.3628377
51
250.0611024
0
ARC
8
DEFAULT_255_1_388
10
4.5352772
20
28.9788653
40
0.5735046
50
193.5480293
51
219.5755675
0
ARC
8
DEFAULT_255_1_388
10
4.8020981
20
29.048152
40
0.849146
50
181.1220183
51
193.8754971
0
ARC
8
DEFAULT_255_1_388
10
5.0344214
20
29.0605914
40
1.0816971
50
179.9914644
51
181.5398227
0
ARC
8
DEFAULT_255_1_388
10
4.8267525
20
29.1914586
40
0.8740384
50
169.5837606
51
180.275782
0
ARC
8
DEFAULT_255_1_388
10
4.6200873
20
29.2296439
40
0.6638751
50
155.0367033
51
169.6002779
0
ARC
8
DEFAULT_255_1_388
10
4.4923331
20
29.2912336
40
0.5220662
50
136.7831557
51
155.2472983
0
ARC
8
DEFAULT_255_1_388
10
4.4485122
20
29.3284577
40
0.4646502
50
121.7633063
51
136.4281161
0
ARC
8
DEFAULT_255_1_388
10
4.4636962
20
29.3004049
40
0.4964979
50
95.6460018
51
121.5489589
0
ARC
8
DEFAULT_255_1_388
10
4.4813936
20
29.1756704
40
0.6223912
50
89.9245727
51
96.1375919
0
ARC
8
DEFAULT_255_1_388
10
4.4870641
20
29.1890721
40
0.6090084
50
76.6779212
51
90.456405
0
ARC
8
DEFAULT_255_1_388
10
4.5313454
20
29.368006
40
0.42469
50
47.4858803
51
76.9287069
0
ARC
8
DEFAULT_255_1_388
10
4.5148068
20
29.3567623
40
0.4441778
50
16.5424081
51
46.8934505
0
ARC
8
DEFAULT_255_1_388
10
4.3339118
20
29.2973265
40
0.6345318
50
5.4072971
51
17.0363711
0
ARC
8
DEFAULT_255_1_388
10
4.1720843
20
29.2713304
40
0.6250632
50
7.8888693
51
15.9242022
0
ARC
8
DEFAULT_255_1_388
10
4.3955828
20
29.3362309
40
0.3923364
50
15.7650676
51
27.9410069
0
ARC
8
DEFAULT_255_1_388
10
4.5197997
20
29.4027317
40
0.2514401
50
27.8167196
51
46.4007942
0
ARC
8
DEFAULT_255_1_388
10
4.5253839
20
29.4020882
40
0.2480958
50
47.4372362
51
75.0695672
0
ARC
8
DEFAULT_255_1_388
10
4.4906675
20
29.2812277
40
0.3738281
50
74.7009379
51
87.8124314
0
ARC
8
DEFAULT_255_1_388
10
4.4824292
20
29.1628659
40
0.4924321
50
87.3802571
51
90.0251599
0
ARC
8
DEFAULT_255_1_388
10
4.4780939
20
29.2948997
40
0.3604218
50
89.3451886
51
108.5744412
0
ARC
8
DEFAULT_255_1_388
10
4.4626931
20
29.3526836
40
0.3007661
50
109.2998307
51
143.3037387
0
ARC
8
DEFAULT_255_1_388
10
4.5484221
20
29.2867584
40
0.4089031
50
143.075267
51
163.1918576
0
ARC
8
DEFAULT_255_1_388
10
4.7680055
20
29.2174652
40
0.6391492
50
162.9375929
51
174.6208776
0
ARC
8
DEFAULT_255_1_388
10
5.0634437
20
29.1850711
40
0.9363344
50
174.342123
51
180.1430283
0
ARC
8
DEFAULT_255_1_388
10
4.9586978
20
29.0507117
40
0.8315986
50
179.6817261
51
189.150555
0
ARC
8
DEFAULT_255_1_388
10
4.6773727
20
29.0038559
40
0.5464044
50
188.9911061
51
203.5772363
0
ARC
8
DEFAULT_255_1_388
10
4.5559019
20
28.9534539
40
0.4149206
50
203.9075402
51
215.1312435
0
ARC
8
DEFAULT_255_1_388
10
4.4520817
20
28.8729907
40
0.2837747
50
213.9071511
51
263.8848919
0
ARC
8
DEFAULT_255_1_388
10
4.466181
20
28.9612519
40
0.3730641
50
263.1757928
51
270.1031044
0
ARC
8
DEFAULT_255_1_388
10
4.469789
20
29.1015511
40
0.5133712
50
269.6722503
51
279.0606936
0
ARC
8
DEFAULT_255_1_388
10
4.4998045
20
28.920115
40
0.3294739
50
278.8749101
51
293.6349581
0
ARC
8
DEFAULT_255_1_388
10
4.5358249
20
28.8355251
40
0.2375405
50
293.8553806
51
310.0518171
0
ARC
8
DEFAULT_255_1_388
10
4.5363758
20
28.8285021
40
0.2318463
50
311.0644687
51
332.0111037
0
ARC
8
DEFAULT_255_1_388
10
4.4022431
20
28.9024702
40
0.3850112
50
331.6586806
51
343.2877423
0
ARC
8
DEFAULT_255_1_388
10
4.1701896
20
28.9737806
40
0.6277712
50
343.1446576
51
351.0103568
0
ARC
8
DEFAULT_255_1_388
10
4.006922
20
29.0037873
40
0.7937327
50
350.71248
51
351.1626997
0
LINE
8
DEFAULT_255_1_388
10
6.0209832
20
28.6008382
11
6.0209832
21
28.4644
0
LINE
8
DEFAULT_255_1_388
10
6.0209832
20
28.4644
11
5.1589827
21
28.4644
0
LINE
8
DEFAULT_255_1_388
10
5.1589827
20
28.4644
11
5.1589827
21
28.5845741
0
LINE
8
DEFAULT_255_1_388
10
5.1589827
20
28.5845741
11
5.6143792
21
29.0905702
0
LINE
8
DEFAULT_255_1_388
10
5.3008423
20
29.3923607
11
5.1336829
21
29.3923607
0
LINE
8
DEFAULT_255_1_388
10
5.7128677
20
28.983046
11
5.3604776
21
28.6008382
0
LINE
8
DEFAULT_255_1_388
10
5.3604776
20
28.6008382
11
6.0209832
21
28.6008382
0
ARC
8
DEFAULT_255_1_388
10
4.0967852
20
30.4325983
40
2.0258655
50
318.5132526
51
320.7829045
0
ARC
8
DEFAULT_255_1_388
10
4.6915808
20
29.9484929
40
1.2589638
50
320.7372878
51
323.9739031
0
ARC
8
DEFAULT_255_1_388
10
5.132474
20
29.6290554
40
0.7145141
50
323.8962701
51
328.64194
0
ARC
8
DEFAULT_255_1_388
10
5.3626998
20
29.4870545
40
0.4440242
50
328.8294576
51
331.7891185
0
ARC
8
DEFAULT_255_1_388
10
5.4749318
20
29.4291374
40
0.3177517
50
331.4254512
51
352.9365785
0
ARC
8
DEFAULT_255_1_388
10
5.4902318
20
29.425705
40
0.3021496
50
353.2257659
51
0.0166158
0
ARC
8
DEFAULT_255_1_388
10
5.5139078
20
29.4282894
40
0.2784847
50
359.486299
51
15.9343185
0
ARC
8
DEFAULT_255_1_388
10
5.5709345
20
29.4436269
40
0.2194403
50
16.1712913
51
43.5286088
0
ARC
8
DEFAULT_255_1_388
10
5.579629
20
29.4523191
40
0.2071504
50
43.4417391
51
83.1661095
0
ARC
8
DEFAULT_255_1_388
10
5.5645451
20
29.3694316
40
0.2912888
50
82.160179
51
90.1505708
0
ARC
8
DEFAULT_255_1_388
10
5.5609933
20
29.3090279
40
0.3517025
50
89.5460741
51
102.5418361
0
ARC
8
DEFAULT_255_1_388
10
5.5336653
20
29.4249933
40
0.2325748
50
102.1738499
51
129.206123
0
ARC
8
DEFAULT_255_1_388
10
5.5248106
20
29.4389664
40
0.2161591
50
129.72865
51
135.753947
0
ARC
8
DEFAULT_255_1_388
10
5.5384588
20
29.4280728
40
0.2335433
50
136.1757367
51
166.3673339
0
ARC
8
DEFAULT_255_1_388
10
5.6517276
20
29.3977148
40
0.3507873
50
165.9090694
51
178.8684636
0
ARC
8
DEFAULT_255_1_388
10
5.7493048
20
29.3924263
40
0.4484624
50
178.4391136
51
180.0083808
0
ARC
8
DEFAULT_255_1_388
10
5.5913749
20
29.3968197
40
0.4577138
50
163.2878482
51
180.5581842
0
ARC
8
DEFAULT_255_1_388
10
5.5011791
20
29.4216393
40
0.3641968
50
133.4540601
51
162.947111
0
ARC
8
DEFAULT_255_1_388
10
5.5212672
20
29.4002789
40
0.3935189
50
100.7869829
51
133.4382499
0
ARC
8
DEFAULT_255_1_388
10
5.5603917
20
29.2260399
40
0.5720313
50
89.660664
51
101.3702276
0
ARC
8
DEFAULT_255_1_388
10
5.5678526
20
29.2329263
40
0.5651495
50
78.2172678
51
90.412935
0
ARC
8
DEFAULT_255_1_388
10
5.6077992
20
29.4156511
40
0.378122
50
55.9269121
51
78.4888449
0
ARC
8
DEFAULT_255_1_388
10
5.6298707
20
29.4537187
40
0.3342379
50
47.929771
51
55.4049217
0
ARC
8
DEFAULT_255_1_388
10
5.6413238
20
29.4653618
40
0.3179217
50
4.334829
51
48.0560205
0
ARC
8
DEFAULT_255_1_388
10
5.5181039
20
29.4462487
40
0.442341
50
359.9251713
51
5.5971671
0
ARC
8
DEFAULT_255_1_388
10
5.5663194
20
29.4525728
40
0.3941854
50
337.8914027
51
358.9967534
0
ARC
8
DEFAULT_255_1_388
10
5.2610764
20
29.5703295
40
0.7213271
50
326.9132501
51
338.3508308
0
ARC
8
DEFAULT_255_1_388
10
4.8126876
20
29.8577105
40
1.2538973
50
319.6471833
51
327.0959558
0
ARC
8
DEFAULT_255_1_388
10
4.3813534
20
30.213505
40
1.8129975
50
317.2588228
51
319.9045804
0
LINE
8
DEFAULT_255_1_388
10
4.783732
20
36.8193468
11
4.9581199
21
36.8193468
0
LINE
8
DEFAULT_255_1_388
10
3.9452242
20
36.9982525
11
3.9452242
21
37.1247516
0
LINE
8
DEFAULT_255_1_388
10
4.9581199
20
37.2946217
11
4.783732
21
37.2946217
0
LINE
8
DEFAULT_255_1_388
10
4.1196121
20
37.1202337
11
4.1196121
21
36.9928312
0
ARC
8
DEFAULT_255_1_388
10
4.3415433
20
36.8865329
40
0.6202263
50
340.1774904
51
353.7812217
0
ARC
8
DEFAULT_255_1_388
10
4.5183286
20
36.8206893
40
0.4315926
50
311.4560052
51
340.4420756
0
ARC
8
DEFAULT_255_1_388
10
4.5145826
20
36.8331665
40
0.4434573
50
282.4332229
51
310.7514507
0
ARC
8
DEFAULT_255_1_388
10
4.4651644
20
37.0373703
40
0.6535262
50
269.9358869
51
282.8096729
0
ARC
8
DEFAULT_255_1_388
10
4.4593583
20
37.1886329
40
0.8048043
50
269.9995752
51
270.3612856
0
ARC
8
DEFAULT_255_1_388
10
4.4534073
20
36.9087781
40
0.5249831
50
250.7885263
51
270.6488451
0
ARC
8
DEFAULT_255_1_388
10
4.4344898
20
36.8370853
40
0.4510942
50
219.3628377
51
250.0611024
0
ARC
8
DEFAULT_255_1_388
10
4.5277772
20
36.9163653
40
0.5735046
50
193.5480293
51
219.5755675
0
ARC
8
DEFAULT_255_1_388
10
4.7945981
20
36.985652
40
0.849146
50
181.1220183
51
193.8754971
0
ARC
8
DEFAULT_255_1_388
10
5.0269214
20
36.9980914
40
1.0816971
50
179.9914644
51
181.5398227
0
ARC
8
DEFAULT_255_1_388
10
4.8192525
20
37.1289586
40
0.8740384
50
169.5837606
51
180.275782
0
ARC
8
DEFAULT_255_1_388
10
4.6125873
20
37.1671439
40
0.6638751
50
155.0367033
51
169.6002779
0
ARC
8
DEFAULT_255_1_388
10
4.4848331
20
37.2287336
40
0.5220662
50
136.7831557
51
155.2472983
0
ARC
8
DEFAULT_255_1_388
10
4.4410122
20
37.2659577
40
0.4646502
50
121.7633063
51
136.4281161
0
ARC
8
DEFAULT_255_1_388
10
4.4561962
20
37.2379049
40
0.4964979
50
95.6460018
51
121.5489589
0
ARC
8
DEFAULT_255_1_388
10
4.4738936
20
37.1131704
40
0.6223912
50
89.9245727
51
96.1375919
0
ARC
8
DEFAULT_255_1_388
10
4.4795641
20
37.1265721
40
0.6090084
50
76.6779212
51
90.456405
0
ARC
8
DEFAULT_255_1_388
10
4.5238454
20
37.305506
40
0.42469
50
47.4858803
51
76.9287069
0
ARC
8
DEFAULT_255_1_388
10
4.5073068
20
37.2942623
40
0.4441778
50
16.5424081
51
46.8934505
0
ARC
8
DEFAULT_255_1_388
10
4.3264118
20
37.2348265
40
0.6345318
50
5.4072971
51
17.0363711
0
ARC
8
DEFAULT_255_1_388
10
4.1645843
20
37.2088304
40
0.6250632
50
7.8888693
51
15.9242022
0
ARC
8
DEFAULT_255_1_388
10
4.3880828
20
37.2737309
40
0.3923364
50
15.7650676
51
27.9410069
0
ARC
8
DEFAULT_255_1_388
10
4.5122997
20
37.3402317
40
0.2514401
50
27.8167196
51
46.4007942
0
ARC
8
DEFAULT_255_1_388
10
4.5178839
20
37.3395882
40
0.2480958
50
47.4372362
51
75.0695672
0
ARC
8
DEFAULT_255_1_388
10
4.4831675
20
37.2187277
40
0.3738281
50
74.7009379
51
87.8124314
0
ARC
8
DEFAULT_255_1_388
10
4.4749292
20
37.1003659
40
0.4924321
50
87.3802571
51
90.0251599
0
ARC
8
DEFAULT_255_1_388
10
4.4705939
20
37.2323997
40
0.3604218
50
89.3451886
51
108.5744412
0
ARC
8
DEFAULT_255_1_388
10
4.4551931
20
37.2901836
40
0.3007661
50
109.2998307
51
143.3037387
0
ARC
8
DEFAULT_255_1_388
10
4.5409221
20
37.2242584
40
0.4089031
50
143.075267
51
163.1918576
0
ARC
8
DEFAULT_255_1_388
10
4.7605055
20
37.1549652
40
0.6391492
50
162.9375929
51
174.6208776
0
ARC
8
DEFAULT_255_1_388
10
5.0559437
20
37.1225711
40
0.9363344
50
174.342123
51
180.1430283
0
ARC
8
DEFAULT_255_1_388
10
4.9511978
20
36.9882117
40
0.8315986
50
179.6817261
51
189.150555
0
ARC
8
DEFAULT_255_1_388
10
4.6698727
20
36.9413559
40
0.5464044
50
188.9911061
51
203.5772363
0
ARC
8
DEFAULT_255_1_388
10
4.5484019
20
36.8909539
40
0.4149206
50
203.9075402
51
215.1312435
0
ARC
8
DEFAULT_255_1_388
10
4.4445817
20
36.8104907
40
0.2837747
50
213.9071511
51
263.8848919
0
ARC
8
DEFAULT_255_1_388
10
4.458681
20
36.8987519
40
0.3730641
50
263.1757928
51
270.1031044
0
ARC
8
DEFAULT_255_1_388
10
4.462289
20
37.0390511
40
0.5133712
50
269.6722503
51
279.0606936
0
ARC
8
DEFAULT_255_1_388
10
4.4923045
20
36.857615
40
0.3294739
50
278.8749101
51
293.6349581
0
ARC
8
DEFAULT_255_1_388
10
4.5283249
20
36.7730251
40
0.2375405
50
293.8553806
51
310.0518171
0
ARC
8
DEFAULT_255_1_388
10
4.5288758
20
36.7660021
40
0.2318463
50
311.0644687
51
332.0111037
0
ARC
8
DEFAULT_255_1_388
10
4.3947431
20
36.8399702
40
0.3850112
50
331.6586806
51
343.2877423
0
ARC
8
DEFAULT_255_1_388
10
4.1626896
20
36.9112806
40
0.6277712
50
343.1446576
51
351.0103568
0
ARC
8
DEFAULT_255_1_388
10
3.999422
20
36.9412873
40
0.7937327
50
350.71248
51
351.1626997
0
LINE
8
DEFAULT_255_1_388
10
5.7008499
20
37.7238148
11
5.7008499
21
36.4019
0
LINE
8
DEFAULT_255_1_388
10
5.7008499
20
36.4019
11
5.5327869
21
36.4019
0
LINE
8
DEFAULT_255_1_388
10
5.5327869
20
36.4019
11
5.5327869
21
37.515995
0
LINE
8
DEFAULT_255_1_388
10
5.5327869
20
37.515995
11
5.1957574
21
37.3922066
0
LINE
8
DEFAULT_255_1_388
10
5.1957574
20
37.3922066
11
5.1957574
21
37.5440055
0
LINE
8
DEFAULT_255_1_388
10
5.1957574
20
37.5440055
11
5.6746465
21
37.7238148
0
LINE
8
DEFAULT_255_1_388
10
5.6746465
20
37.7238148
11
5.7008499
21
37.7238148
0
LINE
8
DEFAULT_255_1_388
10
22.7155318
20
44.4758382
11
22.7155318
21
44.3394
0
LINE
8
DEFAULT_255_1_388
10
22.7155318
20
44.3394
11
21.8535313
21
44.3394
0
LINE
8
DEFAULT_255_1_388
10
21.8535313
20
44.3394
11
21.8535313
21
44.4595741
0
LINE
8
DEFAULT_255_1_388
10
21.8535313
20
44.4595741
11
22.3089278
21
44.9655702
0
LINE
8
DEFAULT_255_1_388
10
21.9953909
20
45.2673607
11
21.8282315
21
45.2673607
0
LINE
8
DEFAULT_255_1_388
10
22.4074163
20
44.858046
11
22.0550262
21
44.4758382
0
LINE
8
DEFAULT_255_1_388
10
22.0550262
20
44.4758382
11
22.7155318
21
44.4758382
0
ARC
8
DEFAULT_255_1_388
10
20.7913337
20
46.3075983
40
2.0258655
50
318.5132526
51
320.7829045
0
ARC
8
DEFAULT_255_1_388
10
21.3861294
20
45.8234929
40
1.2589638
50
320.7372878
51
323.9739031
0
ARC
8
DEFAULT_255_1_388
10
21.8270226
20
45.5040554
40
0.7145141
50
323.8962701
51
328.64194
0
ARC
8
DEFAULT_255_1_388
10
22.0572484
20
45.3620545
40
0.4440242
50
328.8294576
51
331.7891185
0
ARC
8
DEFAULT_255_1_388
10
22.1694804
20
45.3041374
40
0.3177517
50
331.4254512
51
352.9365785
0
ARC
8
DEFAULT_255_1_388
10
22.1847804
20
45.300705
40
0.3021496
50
353.2257659
51
0.0166158
0
ARC
8
DEFAULT_255_1_388
10
22.2084564
20
45.3032894
40
0.2784847
50
359.486299
51
15.9343185
0
ARC
8
DEFAULT_255_1_388
10
22.2654831
20
45.3186269
40
0.2194403
50
16.1712913
51
43.5286088
0
ARC
8
DEFAULT_255_1_388
10
22.2741776
20
45.3273191
40
0.2071504
50
43.4417391
51
83.1661095
0
ARC
8
DEFAULT_255_1_388
10
22.2590937
20
45.2444316
40
0.2912888
50
82.160179
51
90.1505708
0
ARC
8
DEFAULT_255_1_388
10
22.2555418
20
45.1840279
40
0.3517025
50
89.5460741
51
102.5418361
0
ARC
8
DEFAULT_255_1_388
10
22.2282138
20
45.2999933
40
0.2325748
50
102.1738499
51
129.206123
0
ARC
8
DEFAULT_255_1_388
10
22.2193592
20
45.3139664
40
0.2161591
50
129.72865
51
135.753947
0
ARC
8
DEFAULT_255_1_388
10
22.2330074
20
45.3030728
40
0.2335433
50
136.1757367
51
166.3673339
0
ARC
8
DEFAULT_255_1_388
10
22.3462762
20
45.2727148
40
0.3507873
50
165.9090694
51
178.8684636
0
ARC
8
DEFAULT_255_1_388
10
22.4438534
20
45.2674263
40
0.4484624
50
178.4391136
51
180.0083808
0
ARC
8
DEFAULT_255_1_388
10
22.2859235
20
45.2718197
40
0.4577138
50
163.2878482
51
180.5581842
0
ARC
8
DEFAULT_255_1_388
10
22.1957276
20
45.2966393
40
0.3641968
50
133.4540601
51
162.947111
0
ARC
8
DEFAULT_255_1_388
10
22.2158158
20
45.2752789
40
0.3935189
50
100.7869829
51
133.4382499
0
ARC
8
DEFAULT_255_1_388
10
22.2549403
20
45.1010399
40
0.5720313
50
89.660664
51
101.3702276
0
ARC
8
DEFAULT_255_1_388
10
22.2624012
20
45.1079263
40
0.5651495
50
78.2172678
51
90.412935
0
ARC
8
DEFAULT_255_1_388
10
22.3023478
20
45.2906511
40
0.378122
50
55.9269121
51
78.4888449
0
ARC
8
DEFAULT_255_1_388
10
22.3244193
20
45.3287187
40
0.3342379
50
47.929771
51
55.4049217
0
ARC
8
DEFAULT_255_1_388
10
22.3358723
20
45.3403618
40
0.3179217
50
4.334829
51
48.0560205
0
ARC
8
DEFAULT_255_1_388
10
22.2126525
20
45.3212487
40
0.442341
50
359.9251713
51
5.5971671
0
ARC
8
DEFAULT_255_1_388
10
22.260868
20
45.3275728
40
0.3941854
50
337.8914027
51
358.9967534
0
ARC
8
DEFAULT_255_1_388
10
21.955625
20
45.4453295
40
0.7213271
50
326.9132501
51
338.3508308
0
ARC
8
DEFAULT_255_1_388
10
21.5072362
20
45.7327105
40
1.2538973
50
319.6471833
51
327.0959558
0
ARC
8
DEFAULT_255_1_388
10
21.075902
20
46.088505
40
1.8129975
50
317.2588228
51
319.9045804
0
LINE
8
DEFAULT_255_1_388
10
23.5983143
20
45.6549898
11
23.5983143
21
44.781243
0
LINE
8
DEFAULT_255_1_388
10
23.5983143
20
44.781243
11
23.7808343
21
44.781243
0
LINE
8
DEFAULT_255_1_388
10
23.7808343
20
44.781243
11
23.7808343
21
44.6448048
0
LINE
8
DEFAULT_255_1_388
10
23.7808343
20
44.6448048
11
23.5983143
21
44.6448048
0
LINE
8
DEFAULT_255_1_388
10
23.5983143
20
44.6448048
11
23.5983143
21
44.3394
0
LINE
8
DEFAULT_255_1_388
10
23.5983143
20
44.3394
11
23.4302513
21
44.3394
0
LINE
8
DEFAULT_255_1_388
10
23.4302513
20
44.3394
11
23.4302513
21
44.6448048
0
LINE
8
DEFAULT_255_1_388
10
23.4302513
20
44.6448048
11
22.831188
21
44.6448048
0
LINE
8
DEFAULT_255_1_388
10
22.831188
20
44.6448048
11
22.831188
21
44.7432933
0
LINE
8
DEFAULT_255_1_388
10
22.831188
20
44.7432933
11
23.4203121
21
45.6549898
0
LINE
8
DEFAULT_255_1_388
10
23.4203121
20
45.6549898
11
23.5983143
21
45.6549898
0
LINE
8
DEFAULT_255_1_388
10
23.4103729
20
45.3902455
11
23.0209366
21
44.781243
0
LINE
8
DEFAULT_255_1_388
10
23.0209366
20
44.781243
11
23.4302513
21
44.781243
0
LINE
8
DEFAULT_255_1_388
10
23.4302513
20
44.781243
11
23.4302513
21
45.426388
0
LINE
8
DEFAULT_255_1_388
10
23.4302513
20
45.426388
11
23.4103729
21
45.3902455
0
LINE
8
DEFAULT_255_1_388
10
24.2967696
20
44.9664737
11
24.2967696
21
44.8300355
0
LINE
8
DEFAULT_255_1_388
10
24.2967696
20
44.8300355
11
23.8558301
21
44.8300355
0
LINE
8
DEFAULT_255_1_388
10
23.8558301
20
44.8300355
11
23.8558301
21
44.9664737
0
LINE
8
DEFAULT_255_1_388
10
23.8558301
20
44.9664737
11
24.2967696
21
44.9664737
0
LINE
8
DEFAULT_255_1_388
10
21.7506342
20
37.0569842
11
21.7506342
21
36.5744808
0
LINE
8
DEFAULT_255_1_388
10
20.7368349
20
36.9964454
11
20.7368349
21
37.1111981
0
LINE
8
DEFAULT_255_1_388
10
21.7506342
20
37.3316678
11
21.5771498
21
37.3316678
0
LINE
8
DEFAULT_255_1_388
10
20.9112228
20
37.1157159
11
20.9112228
21
37.0081917
0
LINE
8
DEFAULT_255_1_388
10
21.5780534
20
36.6205626
11
21.5780534
21
36.9160282
0
LINE
8
DEFAULT_255_1_388
10
21.5780534
20
36.9160282
11
21.2735521
21
36.9160282
0
LINE
8
DEFAULT_255_1_388
10
21.2735521
20
36.9160282
11
21.2735521
21
37.0569842
0
LINE
8
DEFAULT_255_1_388
10
21.2735521
20
37.0569842
11
21.7506342
21
37.0569842
0
ARC
8
DEFAULT_255_1_388
10
21.4320942
20
36.7987284
40
0.3895571
50
295.8437277
51
324.8549962
0
ARC
8
DEFAULT_255_1_388
10
21.3853325
20
36.8833619
40
0.4861381
50
291.5691164
51
296.4556269
0
ARC
8
DEFAULT_255_1_388
10
21.3278327
20
37.0369801
40
0.6501442
50
278.6622213
51
291.3047061
0
ARC
8
DEFAULT_255_1_388
10
21.2896359
20
37.2786557
40
0.8948168
50
270.0200506
51
278.7494673
0
ARC
8
DEFAULT_255_1_388
10
21.2852563
20
37.4632453
40
1.0794166
50
270.0022372
51
270.2490917
0
ARC
8
DEFAULT_255_1_388
10
21.2810456
20
36.9673827
40
0.5835695
50
253.5785313
51
270.4175629
0
ARC
8
DEFAULT_255_1_388
10
21.2615452
20
36.8918625
40
0.5056241
50
238.8203954
51
253.2788387
0
ARC
8
DEFAULT_255_1_388
10
21.2593367
20
36.8861224
40
0.4995712
50
206.7883476
51
238.696262
0
ARC
8
DEFAULT_255_1_388
10
21.3468763
20
36.9385847
40
0.6014056
50
206.1137778
51
207.4912776
0
ARC
8
DEFAULT_255_1_388
10
21.4135599
20
36.9669284
40
0.6737692
50
188.6922336
51
205.782076
0
ARC
8
DEFAULT_255_1_388
10
21.6223958
20
37.0024455
40
0.8855812
50
180.3881972
51
188.9218085
0
ARC
8
DEFAULT_255_1_388
10
21.7605116
20
37.1175622
40
1.0236965
50
170.2024645
51
180.3561986
0
ARC
8
DEFAULT_255_1_388
10
21.4046266
20
37.1812101
40
0.6621746
50
154.2856519
51
170.3893388
0
ARC
8
DEFAULT_255_1_388
10
21.260423
20
37.2472192
40
0.5036209
50
139.8400879
51
153.9334639
0
ARC
8
DEFAULT_255_1_388
10
21.2200133
20
37.2795716
40
0.4518751
50
98.4190017
51
139.6707015
0
ARC
8
DEFAULT_255_1_388
10
21.2627101
20
37.0719755
40
0.6635912
50
89.7660128
51
99.4415389
0
ARC
8
DEFAULT_255_1_388
10
21.2700497
20
37.0793517
40
0.6562258
50
78.0552044
51
90.4042252
0
ARC
8
DEFAULT_255_1_388
10
21.3155561
20
37.2839661
40
0.4466287
50
54.6380186
51
78.3338577
0
ARC
8
DEFAULT_255_1_388
10
21.3369859
20
37.3200444
40
0.4048184
50
50.0313964
51
54.1562739
0
ARC
8
DEFAULT_255_1_388
10
21.3248753
20
37.3091798
40
0.4209308
50
18.1092229
51
49.7179911
0
ARC
8
DEFAULT_255_1_388
10
21.1609833
20
37.2491399
40
0.5953982
50
7.967396
51
18.698492
0
ARC
8
DEFAULT_255_1_388
10
21.1779094
20
37.2630236
40
0.4050986
50
9.7558763
51
27.3214087
0
ARC
8
DEFAULT_255_1_388
10
21.3047559
20
37.3264087
40
0.2633168
50
27.736147
51
84.5257861
0
ARC
8
DEFAULT_255_1_388
10
21.2678968
20
37.1414988
40
0.4513019
50
82.1064239
51
90.1997295
0
ARC
8
DEFAULT_255_1_388
10
21.2622985
20
37.1986501
40
0.3941684
50
89.4148952
51
105.5824837
0
ARC
8
DEFAULT_255_1_388
10
21.2333865
20
37.3039043
40
0.2850167
50
105.6678541
51
144.2649156
0
ARC
8
DEFAULT_255_1_388
10
21.3338758
20
37.2324024
40
0.4083468
50
144.3560675
51
162.8564185
0
ARC
8
DEFAULT_255_1_388
10
21.56832
20
37.1571083
40
0.6545749
50
162.6076338
51
173.6779811
0
ARC
8
DEFAULT_255_1_388
10
21.9127315
20
37.1152422
40
1.0015089
50
173.4670996
51
179.9729015
0
ARC
8
DEFAULT_255_1_388
10
21.6980186
20
37.0034636
40
0.78681
50
179.6556955
51
190.007958
0
ARC
8
DEFAULT_255_1_388
10
21.4374468
20
36.955666
40
0.5218997
50
189.8117884
51
206.6795375
0
ARC
8
DEFAULT_255_1_388
10
21.3423914
20
36.9113514
40
0.4170788
50
207.1031171
51
217.7074698
0
ARC
8
DEFAULT_255_1_388
10
21.2710344
20
36.8492596
40
0.3226945
50
216.7345117
51
265.6812141
0
ARC
8
DEFAULT_255_1_388
10
21.2857486
20
36.951003
40
0.4253149
50
264.7367524
51
270.0610826
0
ARC
8
DEFAULT_255_1_388
10
21.2883672
20
37.2705173
40
0.7448321
50
269.8334494
51
276.0538364
0
ARC
8
DEFAULT_255_1_388
10
21.3116534
20
37.0565924
40
0.5296446
50
275.9894423
51
284.4615914
0
ARC
8
DEFAULT_255_1_388
10
21.3338047
20
36.963357
40
0.4338353
50
284.7038488
51
286.4938196
0
ARC
8
DEFAULT_255_1_388
10
21.3797196
20
36.8154371
40
0.2789738
50
286.0770429
51
304.2629628
0
ARC
8
DEFAULT_255_1_388
10
21.3947354
20
36.790868
40
0.2502188
50
304.5886247
51
317.1074126
0
LINE
8
DEFAULT_255_1_388
10
23.0508634
20
37.7174898
11
23.0508634
21
36.4019
0
LINE
8
DEFAULT_255_1_388
10
23.0508634
20
36.4019
11
22.8764755
21
36.4019
0
LINE
8
DEFAULT_255_1_388
10
22.8764755
20
36.4019
11
22.2141627
21
37.4156993
0
LINE
8
DEFAULT_255_1_388
10
22.2141627
20
37.4156993
11
22.2141627
21
36.4019
0
LINE
8
DEFAULT_255_1_388
10
22.2141627
20
36.4019
11
22.0397748
21
36.4019
0
LINE
8
DEFAULT_255_1_388
10
22.0397748
20
36.4019
11
22.0397748
21
37.7174898
0
LINE
8
DEFAULT_255_1_388
10
22.0397748
20
37.7174898
11
22.2141627
21
37.7174898
0
LINE
8
DEFAULT_255_1_388
10
22.2141627
20
37.7174898
11
22.8782826
21
36.6991727
0
LINE
8
DEFAULT_255_1_388
10
22.8782826
20
36.6991727
11
22.8782826
21
37.7174898
0
LINE
8
DEFAULT_255_1_388
10
22.8782826
20
37.7174898
11
23.0508634
21
37.7174898
0
LINE
8
DEFAULT_255_1_388
10
23.7231154
20
36.4019
11
23.3589789
21
36.4019
0
LINE
8
DEFAULT_255_1_388
10
23.3589789
20
36.4019
11
23.3589789
21
37.7174898
0
LINE
8
DEFAULT_255_1_388
10
23.3589789
20
37.7174898
11
23.7303439
21
37.7174898
0
LINE
8
DEFAULT_255_1_388
10
24.3104323
20
37.1039696
11
24.3104323
21
37.0199381
0
LINE
8
DEFAULT_255_1_388
10
23.7348617
20
37.5747267
11
23.5324633
21
37.5747267
0
LINE
8
DEFAULT_255_1_388
10
23.5324633
20
37.5747267
11
23.5324633
21
36.5437596
0
LINE
8
DEFAULT_255_1_388
10
23.5324633
20
36.5437596
11
23.7149833
21
36.5437596
0
LINE
8
DEFAULT_255_1_388
10
24.138755
20
37.0235523
11
24.138755
21
37.1003553
0
ARC
8
DEFAULT_255_1_388
10
23.7347234
20
37.0576436
40
0.6598608
50
75.4100343
51
90.3802731
0
ARC
8
DEFAULT_255_1_388
10
23.7605479
20
37.1652691
40
0.5492049
50
60.1455157
51
75.1889627
0
ARC
8
DEFAULT_255_1_388
10
23.7784071
20
37.1963914
40
0.5133226
50
26.525419
51
60.1451222
0
ARC
8
DEFAULT_255_1_388
10
23.6523857
20
37.1295642
40
0.6559324
50
7.4029944
51
26.832209
0
ARC
8
DEFAULT_255_1_388
10
23.4730254
20
37.1016229
40
0.8374103
50
0.1605597
51
7.7176135
0
ARC
8
DEFAULT_255_1_388
10
23.4914654
20
37.0156321
40
0.8189782
50
348.7289744
51
0.30125
0
ARC
8
DEFAULT_255_1_388
10
23.6778118
20
36.9786156
40
0.628991
50
333.0706936
51
348.7181455
0
ARC
8
DEFAULT_255_1_388
10
23.7865747
20
36.9195449
40
0.5052808
50
299.2531435
51
333.4571133
0
ARC
8
DEFAULT_255_1_388
10
23.7459777
20
36.9966629
40
0.5924066
50
278.1072193
51
299.0340218
0
ARC
8
DEFAULT_255_1_388
10
23.7171826
20
37.1662979
40
0.7644209
50
270.4446841
51
278.4508355
0
ARC
8
DEFAULT_255_1_388
10
23.719531
20
37.06173
40
0.5179903
50
269.4969684
51
284.0204874
0
ARC
8
DEFAULT_255_1_388
10
23.7595028
20
36.9081415
40
0.3592968
50
283.7699076
51
318.1557121
0
ARC
8
DEFAULT_255_1_388
10
23.7215573
20
36.9365399
40
0.4065308
50
318.7417595
51
343.687252
0
ARC
8
DEFAULT_255_1_388
10
23.5186152
20
36.9999275
40
0.6191194
50
343.3324891
51
355.8548594
0
ARC
8
DEFAULT_255_1_388
10
23.282519
20
37.0223719
40
0.856237
50
355.4988754
51
0.0789913
0
ARC
8
DEFAULT_255_1_388
10
23.3705989
20
37.105108
40
0.7681709
50
359.6455047
51
9.8607559
0
ARC
8
DEFAULT_255_1_388
10
23.6361712
20
37.1530664
40
0.498312
50
9.6573037
51
26.1931522
0
ARC
8
DEFAULT_255_1_388
10
23.7405787
20
37.2015587
40
0.3832303
50
26.5777895
51
40.1533752
0
ARC
8
DEFAULT_255_1_388
10
23.7693452
20
37.224002
40
0.3467742
50
40.3839958
51
80.1430923
0
ARC
8
DEFAULT_255_1_388
10
23.7325708
20
37.0609486
40
0.5137832
50
79.2153636
51
89.7445174
0
ENDSEC
0
EOF