0
SECTION
2
HEADER
9
$MEASUREMENT
70
1
0
ENDSEC
0
SECTION
2
TABLES
0
TABLE
2
LTYPE
0
LTYPE
72
65
70
64
2
CONTINUOUS
3
______
73
0
40
0
0
ENDTAB
0
TABLE
2
LAYER
0
LAYER
2
DEFAULT_255_2_778
70
0
62
255
6
CONTINUOUS
0
LAYER
2
DEFAULT_255_1_234
70
0
62
255
6
CONTINUOUS
0
ENDTAB
0
ENDSEC
0
SECTION
2
ENTITIES
0
ARC
8
DEFAULT_255_2_778
10
3.5700693
20
36.1176536
40
0.7914215
50
129.1312896
51
180.1450914
0
ARC
8
DEFAULT_255_2_778
10
3.5703345
20
36.1181407
40
0.7912112
50
89.854026
51
129.1684493
0
ARC
8
DEFAULT_255_2_778
10
25.7993937
20
36.1178272
40
0.7915249
50
39.4792447
51
90.147911
0
ARC
8
DEFAULT_255_2_778
10
25.7999935
20
36.1176739
40
0.7911595
50
359.8533901
51
39.5154338
0
ARC
8
DEFAULT_255_2_778
10
25.7996693
20
-1.9863987
40
0.7914836
50
309.4761667
51
0.1482649
0
ARC
8
DEFAULT_255_2_778
10
25.799398
20
-1.9868298
40
0.7913235
50
269.8517415
51
309.511178
0
ARC
8
DEFAULT_255_2_778
10
3.570342
20
-1.9867716
40
0.7913815
50
219.1282118
51
270.1454017
0
ARC
8
DEFAULT_255_2_778
10
3.5700247
20
-1.9863891
40
0.7913769
50
179.8524075
51
219.1641908
0
LINE
8
DEFAULT_255_2_778
10
3.5723503
20
36.9093494
11
25.7973503
21
36.9093494
0
LINE
8
DEFAULT_255_2_778
10
26.5911503
20
36.1156494
11
26.5911503
21
-1.9843506
0
LINE
8
DEFAULT_255_2_778
10
25.7973503
20
-2.7781506
11
3.5723503
21
-2.7781506
0
LINE
8
DEFAULT_255_2_778
10
2.7786503
20
-1.9843506
11
2.7786503
21
36.1156494
0
LINE
8
DEFAULT_255_1_234
10
8.306685
20
-0.0087609
11
8.306685
21
-0.1348592
0
LINE
8
DEFAULT_255_1_234
10
8.306685
20
-0.1348592
11
7.8159458
21
-0.1348592
0
LINE
8
DEFAULT_255_1_234
10
7.8159458
20
-0.1348592
11
7.8159458
21
-0.6513
0
LINE
8
DEFAULT_255_1_234
10
7.8159458
20
-0.6513
11
7.6617364
21
-0.6513
0
LINE
8
DEFAULT_255_1_234
10
7.6617364
20
-0.6513
11
7.6617364
21
0.5181211
0
LINE
8
DEFAULT_255_1_234
10
7.6617364
20
0.5181211
11
8.3861992
21
0.5181211
0
LINE
8
DEFAULT_255_1_234
10
8.3861992
20
0.5181211
11
8.3861992
21
0.3912196
0
LINE
8
DEFAULT_255_1_234
10
8.3861992
20
0.3912196
11
7.8159458
21
0.3912196
0
LINE
8
DEFAULT_255_1_234
10
7.8159458
20
0.3912196
11
7.8159458
21
-0.0087609
0
LINE
8
DEFAULT_255_1_234
10
7.8159458
20
-0.0087609
11
8.306685
21
-0.0087609
0
LINE
8
DEFAULT_255_1_234
10
8.6705227
20
0.5181211
11
8.9524367
21
0.0699501
0
LINE
8
DEFAULT_255_1_234
10
8.9524367
20
0.0699501
11
9.2327444
21
0.5181211
0
LINE
8
DEFAULT_255_1_234
10
9.2327444
20
0.5181211
11
9.4142617
21
0.5181211
0
LINE
8
DEFAULT_255_1_234
10
9.4142617
20
0.5181211
11
9.0448017
21
-0.0617704
0
LINE
8
DEFAULT_255_1_234
10
9.0448017
20
-0.0617704
11
9.4230966
21
-0.6513
0
LINE
8
DEFAULT_255_1_234
10
9.4230966
20
-0.6513
11
9.2399729
21
-0.6513
0
LINE
8
DEFAULT_255_1_234
10
9.2399729
20
-0.6513
11
8.9524367
21
-0.1950973
0
LINE
8
DEFAULT_255_1_234
10
8.9524367
20
-0.1950973
11
8.6632941
21
-0.6513
0
LINE
8
DEFAULT_255_1_234
10
8.6632941
20
-0.6513
11
8.4809737
21
-0.6513
0
LINE
8
DEFAULT_255_1_234
10
8.4809737
20
-0.6513
11
8.8600717
21
-0.0617704
0
LINE
8
DEFAULT_255_1_234
10
8.8600717
20
-0.0617704
11
8.4898086
21
0.5181211
0
LINE
8
DEFAULT_255_1_234
10
8.4898086
20
0.5181211
11
8.6705227
21
0.5181211
0
LINE
8
DEFAULT_255_1_234
10
9.7797058
20
-0.1155831
11
9.7797058
21
0.0056962
0
LINE
8
DEFAULT_255_1_234
10
9.7797058
20
0.0056962
11
9.8913469
21
0.0056962
0
LINE
8
DEFAULT_255_1_234
10
9.7009947
20
0.2113087
11
9.5524076
21
0.2113087
0
LINE
8
DEFAULT_255_1_234
10
9.5419663
20
-0.3428812
11
9.6913566
21
-0.3428812
0
LINE
8
DEFAULT_255_1_234
10
9.8913469
20
-0.1155831
11
9.7797058
21
-0.1155831
0
ARC
8
DEFAULT_255_1_234
10
9.8884336
20
0.3449713
40
0.3392876
50
270.4919872
51
281.8951556
0
ARC
8
DEFAULT_255_1_234
10
9.9125597
20
0.2347702
40
0.2264817
50
281.6691735
51
301.2943132
0
ARC
8
DEFAULT_255_1_234
10
9.9295808
20
0.2036304
40
0.1910381
50
301.7833094
51
311.7545298
0
ARC
8
DEFAULT_255_1_234
10
9.9387383
20
0.1934748
40
0.1773635
50
311.7323931
51
354.2802411
0
ARC
8
DEFAULT_255_1_234
10
9.8661009
20
0.2059722
40
0.2509385
50
353.0937916
51
0.1181479
0
ARC
8
DEFAULT_255_1_234
10
9.8199793
20
0.2107386
40
0.2970898
50
359.1805295
51
15.0453146
0
ARC
8
DEFAULT_255_1_234
10
9.954563
20
0.2499992
40
0.1569564
50
13.9577229
51
77.6713066
0
ARC
8
DEFAULT_255_1_234
10
9.915916
20
0.1114949
40
0.3006298
50
76.1116566
51
90.7026153
0
ARC
8
DEFAULT_255_1_234
10
9.9099998
20
0.1388545
40
0.2732568
50
89.5324876
51
103.531937
0
ARC
8
DEFAULT_255_1_234
10
9.8899442
20
0.2187884
40
0.1908508
50
103.2931773
51
133.5619022
0
ARC
8
DEFAULT_255_1_234
10
9.885493
20
0.2247375
40
0.1834746
50
133.8349307
51
173.5344437
0
ARC
8
DEFAULT_255_1_234
10
9.9577973
20
0.2119213
40
0.2568033
50
172.5096846
51
180.1366907
0
ARC
8
DEFAULT_255_1_234
10
9.8626867
20
0.2153622
40
0.3103056
50
155.3484492
51
180.7484736
0
ARC
8
DEFAULT_255_1_234
10
9.8577956
20
0.2124846
40
0.3070957
50
131.5744599
51
154.4798489
0
ARC
8
DEFAULT_255_1_234
10
9.8891104
20
0.180831
40
0.3515643
50
96.9875458
51
131.9690667
0
ARC
8
DEFAULT_255_1_234
10
9.9110584
20
0.0562636
40
0.4779224
50
89.8596053
51
97.7825159
0
ARC
8
DEFAULT_255_1_234
10
9.9158647
20
0.0300616
40
0.5041361
50
78.3655447
51
90.4131539
0
ARC
8
DEFAULT_255_1_234
10
9.9516565
20
0.1959887
40
0.3344039
50
56.6229102
51
78.638727
0
ARC
8
DEFAULT_255_1_234
10
9.9731508
20
0.2335805
40
0.2912001
50
47.0253525
51
56.0854072
0
ARC
8
DEFAULT_255_1_234
10
9.9751288
20
0.2375223
40
0.2869704
50
10.9208013
51
46.7778124
0
ARC
8
DEFAULT_255_1_234
10
9.8387355
20
0.2059857
40
0.426899
50
359.6364486
51
11.6087304
0
ARC
8
DEFAULT_255_1_234
10
10.0222199
20
0.2044752
40
0.243409
50
332.3549906
51
359.7179418
0
ARC
8
DEFAULT_255_1_234
10
9.95718
20
0.2353142
40
0.3153459
50
325.2333722
51
332.8745602
0
ARC
8
DEFAULT_255_1_234
10
9.9724424
20
0.2246828
40
0.2967456
50
292.9802137
51
325.2392345
0
ARC
8
DEFAULT_255_1_234
10
9.9449798
20
0.2780863
40
0.3566604
50
292.5402179
51
293.6924929
0
ARC
8
DEFAULT_255_1_234
10
9.9842394
20
-0.3673909
40
0.3307468
50
57.6435486
51
72.8625112
0
ARC
8
DEFAULT_255_1_234
10
10.0196894
20
-0.3099451
40
0.2632492
50
36.7248896
51
57.4697979
0
ARC
8
DEFAULT_255_1_234
10
10.0185526
20
-0.308678
40
0.2634081
50
8.0545065
51
36.356114
0
ARC
8
DEFAULT_255_1_234
10
9.9322712
20
-0.3241826
40
0.3510261
50
359.8320645
51
8.5869982
0
ARC
8
DEFAULT_255_1_234
10
9.8947488
20
-0.3289899
40
0.3885653
50
343.9829931
51
0.5571613
0
ARC
8
DEFAULT_255_1_234
10
9.9833685
20
-0.3532562
40
0.2966924
50
311.6359546
51
343.7651759
0
ARC
8
DEFAULT_255_1_234
10
9.9455254
20
-0.3105898
40
0.3537231
50
279.7829875
51
311.6255694
0
ARC
8
DEFAULT_255_1_234
10
9.915403
20
-0.166872
40
0.5004971
50
269.7286406
51
280.3856417
0
ARC
8
DEFAULT_255_1_234
10
9.9092103
20
-0.1710004
40
0.4963778
50
256.6828919
51
270.4412052
0
ARC
8
DEFAULT_255_1_234
10
9.8753399
20
-0.3094606
40
0.3538406
50
229.4223008
51
256.8556159
0
ARC
8
DEFAULT_255_1_234
10
9.8338792
20
-0.3561264
40
0.2914296
50
181.818294
51
229.6455059
0
ARC
8
DEFAULT_255_1_234
10
9.9378748
20
-0.3430504
40
0.3959084
50
179.9755256
51
183.2323064
0
ARC
8
DEFAULT_255_1_234
10
9.9206494
20
-0.3450963
40
0.2293034
50
179.4465117
51
196.2869258
0
ARC
8
DEFAULT_255_1_234
10
9.8718902
20
-0.3584349
40
0.1787621
50
196.5661473
51
227.705904
0
ARC
8
DEFAULT_255_1_234
10
9.8882996
20
-0.3400845
40
0.2033784
50
227.7652068
51
257.8762805
0
ARC
8
DEFAULT_255_1_234
10
9.9107967
20
-0.2457844
40
0.3003081
50
257.4584385
51
270.426602
0
ARC
8
DEFAULT_255_1_234
10
9.9153533
20
-0.2168004
40
0.329292
50
269.5962073
51
280.8789248
0
ARC
8
DEFAULT_255_1_234
10
9.9383062
20
-0.3314315
40
0.2123908
50
280.6346389
51
299.8595945
0
ARC
8
DEFAULT_255_1_234
10
9.9573968
20
-0.3676788
40
0.171457
50
300.3576302
51
314.5517981
0
ARC
8
DEFAULT_255_1_234
10
9.9491028
20
-0.3616081
40
0.1816095
50
315.0728369
51
345.0431014
0
ARC
8
DEFAULT_255_1_234
10
9.8567843
20
-0.3347159
40
0.2777492
50
344.5986631
51
357.9269593
0
ARC
8
DEFAULT_255_1_234
10
9.7672169
20
-0.3285724
40
0.3674917
50
357.4748886
51
0.0231117
0
ARC
8
DEFAULT_255_1_234
10
9.8695278
20
-0.3261321
40
0.2651907
50
359.5047933
51
13.4239635
0
ARC
8
DEFAULT_255_1_234
10
9.9561922
20
-0.3039522
40
0.1757509
50
12.9498199
51
48.7551375
0
ARC
8
DEFAULT_255_1_234
10
9.9379656
20
-0.32886
40
0.2065134
50
49.5088623
51
72.1836453
0
ARC
8
DEFAULT_255_1_234
10
9.9021808
20
-0.4350709
40
0.3185836
50
71.9010081
51
84.3554254
0
ARC
8
DEFAULT_255_1_234
10
9.886044
20
-0.5711674
40
0.4556151
50
84.0193428
51
89.333121
0
LINE
8
DEFAULT_255_1_234
10
11.1940949
20
0.5181211
11
11.3491074
21
0.5181211
0
LINE
8
DEFAULT_255_1_234
10
11.3491074
20
0.5181211
11
11.3491074
21
-0.277021
0
LINE
8
DEFAULT_255_1_234
10
10.9651903
20
-0.6657571
11
10.9242285
21
-0.6673635
0
LINE
8
DEFAULT_255_1_234
10
10.5025622
20
-0.2786273
11
10.5025622
21
0.5181211
0
LINE
8
DEFAULT_255_1_234
10
10.5025622
20
0.5181211
11
10.6551652
21
0.5181211
0
LINE
8
DEFAULT_255_1_234
10
10.6551652
20
0.5181211
11
10.6551652
21
-0.2738083
0
LINE
8
DEFAULT_255_1_234
10
11.1940949
20
-0.2746115
11
11.1940949
21
0.5181211
0
ARC
8
DEFAULT_255_1_234
10
10.9137973
20
-0.2790072
40
0.4353147
50
343.0898354
51
0.2614217
0
ARC
8
DEFAULT_255_1_234
10
10.9966374
20
-0.3021163
40
0.3493402
50
315.3345598
51
342.7641223
0
ARC
8
DEFAULT_255_1_234
10
10.9742823
20
-0.2789318
40
0.3815385
50
284.6606969
51
315.2182466
0
ARC
8
DEFAULT_255_1_234
10
10.9287536
20
-0.1243245
40
0.5426573
50
273.8500273
51
285.1797701
0
ARC
8
DEFAULT_255_1_234
10
10.9199586
20
-0.0901525
40
0.5772268
50
257.6317484
51
270.4238298
0
ARC
8
DEFAULT_255_1_234
10
10.8774784
20
-0.2722802
40
0.3902347
50
230.6087562
51
257.9964012
0
ARC
8
DEFAULT_255_1_234
10
10.8642786
20
-0.2929198
40
0.3659186
50
227.7440991
51
230.1551448
0
ARC
8
DEFAULT_255_1_234
10
10.8508618
20
-0.3090529
40
0.3449568
50
189.2524587
51
227.5916061
0
ARC
8
DEFAULT_255_1_234
10
11.0030304
20
-0.2762987
40
0.5004737
50
180.2665968
51
190.1525252
0
ARC
8
DEFAULT_255_1_234
10
11.0252324
20
-0.2766082
40
0.3700778
50
179.5665184
51
191.9952995
0
ARC
8
DEFAULT_255_1_234
10
10.9024431
20
-0.3039957
40
0.2442808
50
191.6974072
51
215.1404042
0
ARC
8
DEFAULT_255_1_234
10
10.8786345
20
-0.3181892
40
0.2166522
50
215.6950207
51
224.8513522
0
ARC
8
DEFAULT_255_1_234
10
10.8842089
20
-0.3102303
40
0.2262237
50
225.2846858
51
255.0111758
0
ARC
8
DEFAULT_255_1_234
10
10.9166049
20
-0.1988545
40
0.3421979
50
254.5944985
51
267.9129803
0
ARC
8
DEFAULT_255_1_234
10
10.924053
20
-0.0904097
40
0.4508556
50
267.4689655
51
270.0223026
0
ARC
8
DEFAULT_255_1_234
10
10.9270675
20
-0.1493151
40
0.3919604
50
269.5849941
51
281.1843768
0
ARC
8
DEFAULT_255_1_234
10
10.954944
20
-0.2845941
40
0.2538457
50
280.9344262
51
300.9743589
0
ARC
8
DEFAULT_255_1_234
10
10.9762045
20
-0.3237312
40
0.2093566
50
301.4980046
51
315.1466847
0
ARC
8
DEFAULT_255_1_234
10
10.9617584
20
-0.3118764
40
0.2279656
50
315.5952539
51
345.6678731
0
ARC
8
DEFAULT_255_1_234
10
10.84981
20
-0.2806991
40
0.3441564
50
345.2524969
51
358.6304371
0
ARC
8
DEFAULT_255_1_234
10
10.7480454
20
-0.2747084
40
0.4460494
50
358.1735671
51
0.0124524
0
LINE
8
DEFAULT_255_1_234
10
11.878399
20
-0.0938974
11
11.878399
21
-0.2151766
0
LINE
8
DEFAULT_255_1_234
10
11.878399
20
-0.2151766
11
11.4864501
21
-0.2151766
0
LINE
8
DEFAULT_255_1_234
10
11.4864501
20
-0.2151766
11
11.4864501
21
-0.0938974
0
LINE
8
DEFAULT_255_1_234
10
11.4864501
20
-0.0938974
11
11.878399
21
-0.0938974
0
LINE
8
DEFAULT_255_1_234
10
12.6349887
20
0.5181211
11
12.6349887
21
-0.258548
0
LINE
8
DEFAULT_255_1_234
10
12.6349887
20
-0.258548
11
12.7972298
21
-0.258548
0
LINE
8
DEFAULT_255_1_234
10
12.7972298
20
-0.258548
11
12.7972298
21
-0.3798272
0
LINE
8
DEFAULT_255_1_234
10
12.7972298
20
-0.3798272
11
12.6349887
21
-0.3798272
0
LINE
8
DEFAULT_255_1_234
10
12.6349887
20
-0.3798272
11
12.6349887
21
-0.6513
0
LINE
8
DEFAULT_255_1_234
10
12.6349887
20
-0.6513
11
12.4855984
21
-0.6513
0
LINE
8
DEFAULT_255_1_234
10
12.4855984
20
-0.6513
11
12.4855984
21
-0.3798272
0
LINE
8
DEFAULT_255_1_234
10
12.4855984
20
-0.3798272
11
11.9530941
21
-0.3798272
0
LINE
8
DEFAULT_255_1_234
10
11.9530941
20
-0.3798272
11
11.9530941
21
-0.2922813
0
LINE
8
DEFAULT_255_1_234
10
11.9530941
20
-0.2922813
11
12.4767635
21
0.5181211
0
LINE
8
DEFAULT_255_1_234
10
12.4767635
20
0.5181211
11
12.6349887
21
0.5181211
0
LINE
8
DEFAULT_255_1_234
10
12.4679286
20
0.2827912
11
12.1217606
21
-0.258548
0
LINE
8
DEFAULT_255_1_234
10
12.1217606
20
-0.258548
11
12.4855984
21
-0.258548
0
LINE
8
DEFAULT_255_1_234
10
12.4855984
20
-0.258548
11
12.4855984
21
0.3149181
0
LINE
8
DEFAULT_255_1_234
10
12.4855984
20
0.3149181
11
12.4679286
21
0.2827912
0
ARC
8
DEFAULT_255_1_234
10
13.3583382
20
0.2103703
40
0.2822356
50
338.8763615
51
0.5166041
0
ARC
8
DEFAULT_255_1_234
10
13.3752037
20
0.2058208
40
0.2648703
50
325.8412414
51
338.4795939
0
ARC
8
DEFAULT_255_1_234
10
13.3361404
20
0.2329042
40
0.3124019
50
296.7586019
51
325.753654
0
ARC
8
DEFAULT_255_1_234
10
13.3073513
20
0.2813789
40
0.368668
50
296.0902311
51
297.3618122
0
ARC
8
DEFAULT_255_1_234
10
13.333097
20
-0.3740959
40
0.3518806
50
47.9009248
51
67.1946869
0
ARC
8
DEFAULT_255_1_234
10
13.3527212
20
-0.3494605
40
0.320451
50
35.236241
51
47.551371
0
ARC
8
DEFAULT_255_1_234
10
13.378883
20
-0.3320007
40
0.2890103
50
359.2759738
51
35.4014081
0
ARC
8
DEFAULT_255_1_234
10
13.3043861
20
-0.3393174
40
0.3635026
50
343.1294516
51
0.5776525
0
ARC
8
DEFAULT_255_1_234
10
13.3768406
20
-0.359267
40
0.2883832
50
310.8497458
51
342.744803
0
ARC
8
DEFAULT_255_1_234
10
13.335052
20
-0.3115706
40
0.3517954
50
281.5473923
51
310.9169905
0
ARC
8
DEFAULT_255_1_234
10
13.2993969
20
-0.1562916
40
0.5110832
50
269.6192722
51
281.9789957
0
ARC
8
DEFAULT_255_1_234
10
13.2921758
20
-0.1562172
40
0.5111606
50
257.4584469
51
270.4287458
0
ARC
8
DEFAULT_255_1_234
10
13.2540901
20
-0.3165656
40
0.3463762
50
228.7553743
51
257.8484423
0
ARC
8
DEFAULT_255_1_234
10
13.2231099
20
-0.3538558
40
0.297916
50
184.0104442
51
228.5071787
0
ARC
8
DEFAULT_255_1_234
10
13.3394043
20
-0.3361488
40
0.4152734
50
179.9315461
51
185.3254504
0
ARC
8
DEFAULT_255_1_234
10
13.2217689
20
-0.3324008
40
0.2976554
50
145.6795913
51
180.6259649
0
ARC
8
DEFAULT_255_1_234
10
13.2381038
20
-0.3438071
40
0.3175776
50
115.5537925
51
145.6416199
0
ARC
8
DEFAULT_255_1_234
10
13.2721969
20
-0.4048972
40
0.3874232
50
113.2437915
51
116.2054627
0
ARC
8
DEFAULT_255_1_234
10
13.2569181
20
0.234958
40
0.3154751
50
222.9548379
51
244.1372485
0
ARC
8
DEFAULT_255_1_234
10
13.2447256
20
0.2212834
40
0.2972382
50
213.3439227
51
222.6271327
0
ARC
8
DEFAULT_255_1_234
10
13.2255191
20
0.2082308
40
0.274019
50
180.4316517
51
213.2713999
0
ARC
8
DEFAULT_255_1_234
10
13.2830192
20
0.212911
40
0.33158
50
179.9992944
51
181.1655061
0
ARC
8
DEFAULT_255_1_234
10
13.3239609
20
0.2163561
40
0.3725376
50
164.6186108
51
180.5292368
0
ARC
8
DEFAULT_255_1_234
10
13.2341472
20
0.2405101
40
0.2795349
50
132.2454369
51
164.5092287
0
ARC
8
DEFAULT_255_1_234
10
13.2628576
20
0.2080028
40
0.3229019
50
100.7052766
51
132.1387266
0
ARC
8
DEFAULT_255_1_234
10
13.2933549
20
0.0702086
40
0.4639835
50
89.6732617
51
101.2449487
0
ARC
8
DEFAULT_255_1_234
10
13.2995747
20
0.087699
40
0.4464999
50
76.2876631
51
90.4586123
0
ARC
8
DEFAULT_255_1_234
10
13.3301978
20
0.209922
40
0.3205023
50
47.8240157
51
76.4266918
0
ARC
8
DEFAULT_255_1_234
10
13.3524528
20
0.235959
40
0.2862661
50
6.9168658
51
47.6261438
0
ARC
8
DEFAULT_255_1_234
10
13.2337931
20
0.214037
40
0.4067708
50
359.8419705
51
7.9694496
0
ARC
8
DEFAULT_255_1_234
10
13.2679828
20
-0.3300075
40
0.2513121
50
359.4454068
51
16.9256425
0
ARC
8
DEFAULT_255_1_234
10
13.3148639
20
-0.3170967
40
0.2027071
50
17.292259
51
45.462717
0
ARC
8
DEFAULT_255_1_234
10
13.3094575
20
-0.3217566
40
0.2098212
50
45.3028762
51
83.1921472
0
ARC
8
DEFAULT_255_1_234
10
13.2951259
20
-0.4019105
40
0.2911472
50
82.2614531
51
90.143954
0
ARC
8
DEFAULT_255_1_234
10
13.2920379
20
-0.378605
40
0.2678513
50
89.4959189
51
104.8579811
0
ARC
8
DEFAULT_255_1_234
10
13.2743638
20
-0.311611
40
0.1985654
50
104.8855873
51
135.2448349
0
ARC
8
DEFAULT_255_1_234
10
13.2793411
20
-0.3160664
40
0.2052373
50
135.3398955
51
172.104394
0
ARC
8
DEFAULT_255_1_234
10
13.3600469
20
-0.3315075
40
0.2873299
50
171.2651929
51
180.1859362
0
ARC
8
DEFAULT_255_1_234
10
13.343117
20
-0.3347267
40
0.2704083
50
179.515471
51
193.6466734
0
ARC
8
DEFAULT_255_1_234
10
13.2614939
20
-0.3555223
40
0.1861855
50
193.3540587
51
225.8256931
0
ARC
8
DEFAULT_255_1_234
10
13.2655697
20
-0.3484476
40
0.1941102
50
226.418029
51
255.8553723
0
ARC
8
DEFAULT_255_1_234
10
13.2912129
20
-0.2548002
40
0.2911917
50
255.4655572
51
268.7985967
0
ARC
8
DEFAULT_255_1_234
10
13.2959321
20
-0.1709509
40
0.3751331
50
268.3464808
51
270.0104874
0
ARC
8
DEFAULT_255_1_234
10
13.2982709
20
-0.2393862
40
0.3067064
50
269.575914
51
282.0823146
0
ARC
8
DEFAULT_255_1_234
10
13.3207618
20
-0.3388197
40
0.2047712
50
281.7522535
51
306.6056425
0
ARC
8
DEFAULT_255_1_234
10
13.3306045
20
-0.3549513
40
0.1859604
50
307.1350025
51
314.0277951
0
ARC
8
DEFAULT_255_1_234
10
13.3270129
20
-0.3523234
40
0.1903475
50
314.2553419
51
350.169324
0
ARC
8
DEFAULT_255_1_234
10
13.2418597
20
-0.3338591
40
0.2774269
50
349.4145679
51
0.2930737
0
ARC
8
DEFAULT_255_1_234
10
13.293903
20
0.1820353
40
0.2300764
50
89.477591
51
105.729794
0
ARC
8
DEFAULT_255_1_234
10
13.2802944
20
0.2325637
40
0.1777519
50
105.922966
51
135.1662921
0
ARC
8
DEFAULT_255_1_234
10
13.2823446
20
0.2311419
40
0.1802087
50
135.3053131
51
168.9882338
0
ARC
8
DEFAULT_255_1_234
10
13.3651019
20
0.2121721
40
0.2650806
50
168.3802067
51
180.3602358
0
ARC
8
DEFAULT_255_1_234
10
13.3422598
20
0.2084041
40
0.2422425
50
179.5029707
51
194.9126783
0
ARC
8
DEFAULT_255_1_234
10
13.2837259
20
0.193011
40
0.1817188
50
194.9722181
51
224.1943972
0
ARC
8
DEFAULT_255_1_234
10
13.2809126
20
0.1907169
40
0.1781027
50
224.2961434
51
262.0157375
0
ARC
8
DEFAULT_255_1_234
10
13.2951369
20
0.2638661
40
0.2525492
50
261.1250369
51
270.1959853
0
ARC
8
DEFAULT_255_1_234
10
13.2981124
20
0.2451339
40
0.233825
50
269.4825617
51
285.0988277
0
ARC
8
DEFAULT_255_1_234
10
13.3135283
20
0.187299
40
0.1739712
50
285.1585659
51
315.9484648
0
ARC
8
DEFAULT_255_1_234
10
13.3046295
20
0.1954886
40
0.1860616
50
316.0412958
51
351.9162715
0
ARC
8
DEFAULT_255_1_234
10
13.231325
20
0.2096245
40
0.2606517
50
351.1056823
51
0.1936567
0
ARC
8
DEFAULT_255_1_234
10
13.2576079
20
0.2126369
40
0.234377
50
359.4789506
51
16.0679113
0
ARC
8
DEFAULT_255_1_234
10
13.3052038
20
0.225481
40
0.1850875
50
16.3251951
51
44.791304
0
ARC
8
DEFAULT_255_1_234
10
13.3034319
20
0.2255339
40
0.186312
50
44.3958661
51
88.2498933
0
ARC
8
DEFAULT_255_1_234
10
13.2960873
20
0.1644154
40
0.2476868
50
86.9833827
51
90.0200148
0
LINE
8
DEFAULT_255_1_234
10
14.0421493
20
-0.0955037
11
13.9232795
21
-0.0649831
0
LINE
8
DEFAULT_255_1_234
10
13.9232795
20
-0.0649831
11
13.9827144
21
0.5181211
0
LINE
8
DEFAULT_255_1_234
10
13.9827144
20
0.5181211
11
14.5818821
21
0.5181211
0
LINE
8
DEFAULT_255_1_234
10
14.5818821
20
0.5181211
11
14.5818821
21
0.3807784
0
LINE
8
DEFAULT_255_1_234
10
14.5818821
20
0.3807784
11
14.1088127
21
0.3807784
0
LINE
8
DEFAULT_255_1_234
10
14.1088127
20
0.3807784
11
14.073473
21
0.0619184
0
LINE
8
DEFAULT_255_1_234
10
13.8815145
20
-0.3436844
11
14.0220699
21
-0.3436844
0
LINE
8
DEFAULT_255_1_234
10
14.0815048
20
-0.0633768
11
14.0421493
21
-0.0955037
0
ARC
8
DEFAULT_255_1_234
10
14.2589514
20
-0.256077
40
0.3681349
50
93.7182161
51
120.2538958
0
ARC
8
DEFAULT_255_1_234
10
14.2683777
20
-0.3368606
40
0.449379
50
89.9660152
51
94.2496022
0
ARC
8
DEFAULT_255_1_234
10
14.2724511
20
-0.2779451
40
0.390482
50
73.8043271
51
90.5585896
0
ARC
8
DEFAULT_255_1_234
10
14.2959408
20
-0.1921398
40
0.3015334
50
41.3071453
51
73.5430202
0
ARC
8
DEFAULT_255_1_234
10
14.2543236
20
-0.2279676
40
0.3564457
50
13.5075983
51
41.2174222
0
ARC
8
DEFAULT_255_1_234
10
14.0901439
20
-0.2709514
40
0.5261351
50
1.1331335
51
13.8829381
0
ARC
8
DEFAULT_255_1_234
10
13.9489808
20
-0.2785335
40
0.6674378
50
359.9919444
51
1.544251
0
ARC
8
DEFAULT_255_1_234
10
14.0766635
20
-0.282672
40
0.5397702
50
347.8572367
51
0.4293338
0
ARC
8
DEFAULT_255_1_234
10
14.2516952
20
-0.3223264
40
0.3603188
50
323.673004
51
348.1672506
0
ARC
8
DEFAULT_255_1_234
10
14.281146
20
-0.3402832
40
0.3259678
50
316.8171152
51
323.1492751
0
ARC
8
DEFAULT_255_1_234
10
14.2872649
20
-0.343954
40
0.3189975
50
281.8396411
51
316.5457803
0
ARC
8
DEFAULT_255_1_234
10
14.2496913
20
-0.1884238
40
0.4789527
50
269.5770101
51
282.4214771
0
ARC
8
DEFAULT_255_1_234
10
14.2425725
20
-0.2097875
40
0.45759
50
256.2427136
51
270.4486331
0
ARC
8
DEFAULT_255_1_234
10
14.2126627
20
-0.3297771
40
0.3339303
50
228.9023911
51
256.3314342
0
ARC
8
DEFAULT_255_1_234
10
14.205286
20
-0.3414254
40
0.32031
50
193.753695
51
228.5271154
0
ARC
8
DEFAULT_255_1_234
10
14.3290814
20
-0.30512
40
0.4492253
50
184.924711
51
194.497588
0
ARC
8
DEFAULT_255_1_234
10
14.348338
20
-0.3015409
40
0.3289787
50
187.3600538
51
198.6732863
0
ARC
8
DEFAULT_255_1_234
10
14.2433674
20
-0.3379326
40
0.217884
50
198.4451669
51
217.794479
0
ARC
8
DEFAULT_255_1_234
10
14.213785
20
-0.3588915
40
0.1816698
50
218.2887171
51
228.5612368
0
ARC
8
DEFAULT_255_1_234
10
14.2235637
20
-0.3457037
40
0.1980329
50
228.9654866
51
258.1234728
0
ARC
8
DEFAULT_255_1_234
10
14.2441347
20
-0.2576167
40
0.2884748
50
257.7258293
51
270.401361
0
ARC
8
DEFAULT_255_1_234
10
14.2486233
20
-0.3021179
40
0.2439788
50
269.4204404
51
286.4209037
0
ARC
8
DEFAULT_255_1_234
10
14.263472
20
-0.3560343
40
0.1880666
50
286.7251356
51
320.600362
0
ARC
8
DEFAULT_255_1_234
10
14.2251545
20
-0.3249405
40
0.2374121
50
320.6712579
51
344.5441685
0
ARC
8
DEFAULT_255_1_234
10
14.1094872
20
-0.2909955
40
0.3579479
50
344.2412205
51
356.7357071
0
ARC
8
DEFAULT_255_1_234
10
13.984602
20
-0.2806556
40
0.4832297
50
356.3548756
51
0.0500261
0
ARC
8
DEFAULT_255_1_234
10
14.1182529
20
-0.277535
40
0.3495889
50
359.5576869
51
12.953486
0
ARC
8
DEFAULT_255_1_234
10
14.2237427
20
-0.2519566
40
0.2410532
50
12.6490276
51
41.6081334
0
ARC
8
DEFAULT_255_1_234
10
14.2467798
20
-0.2323679
40
0.2108218
50
41.7850273
51
85.9892764
0
ARC
8
DEFAULT_255_1_234
10
14.2344534
20
-0.3136538
40
0.2928454
50
84.6957577
51
90.0676183
0
ARC
8
DEFAULT_255_1_234
10
14.2321018
20
-0.3805284
40
0.3597255
50
89.6804936
51
99.1614436
0
ARC
8
DEFAULT_255_1_234
10
14.211565
20
-0.2577869
40
0.235281
50
98.9830931
51
113.8908934
0
ARC
8
DEFAULT_255_1_234
10
14.188606
20
-0.2036413
40
0.176479
50
114.1950727
51
127.3641004
0
LINE
8
DEFAULT_255_1_234
10
15.5746049
20
-0.6513
11
15.4629638
21
-0.3460939
0
LINE
8
DEFAULT_255_1_234
10
15.4629638
20
-0.3460939
11
14.9730277
21
-0.3460939
0
LINE
8
DEFAULT_255_1_234
10
14.9730277
20
-0.3460939
11
14.8629929
21
-0.6513
0
LINE
8
DEFAULT_255_1_234
10
14.8629929
20
-0.6513
11
14.7039645
21
-0.6513
0
LINE
8
DEFAULT_255_1_234
10
14.7039645
20
-0.6513
11
15.1505292
21
0.5181211
0
LINE
8
DEFAULT_255_1_234
10
15.1505292
20
0.5181211
11
15.2854624
21
0.5181211
0
LINE
8
DEFAULT_255_1_234
10
15.2854624
20
0.5181211
11
15.7328302
21
-0.6513
0
LINE
8
DEFAULT_255_1_234
10
15.7328302
20
-0.6513
11
15.5746049
21
-0.6513
0
LINE
8
DEFAULT_255_1_234
10
15.2179958
20
0.3277689
11
15.0196118
21
-0.2191925
0
LINE
8
DEFAULT_255_1_234
10
15.0196118
20
-0.2191925
11
15.4171829
21
-0.2191925
0
LINE
8
DEFAULT_255_1_234
10
15.4171829
20
-0.2191925
11
15.2179958
21
0.3277689
0
LINE
8
DEFAULT_255_1_234
10
16.2139313
20
-0.6513
11
15.8902522
21
-0.6513
0
LINE
8
DEFAULT_255_1_234
10
15.8902522
20
-0.6513
11
15.8902522
21
0.5181211
0
LINE
8
DEFAULT_255_1_234
10
15.8902522
20
0.5181211
11
16.2203567
21
0.5181211
0
LINE
8
DEFAULT_255_1_234
10
16.7359943
20
-0.0272339
11
16.7359943
21
-0.1019291
0
LINE
8
DEFAULT_255_1_234
10
16.2243726
20
0.3912196
11
16.0444616
21
0.3912196
0
LINE
8
DEFAULT_255_1_234
10
16.0444616
20
0.3912196
11
16.0444616
21
-0.5252017
0
LINE
8
DEFAULT_255_1_234
10
16.0444616
20
-0.5252017
11
16.2067027
21
-0.5252017
0
LINE
8
DEFAULT_255_1_234
10
16.5833913
20
-0.0987164
11
16.5833913
21
-0.0304466
0
ARC
8
DEFAULT_255_1_234
10
16.2242509
20
-0.0684106
40
0.5865446
50
75.4101064
51
90.3804066
0
ARC
8
DEFAULT_255_1_234
10
16.2472023
20
0.0272492
40
0.4881916
50
60.145586
51
75.1888407
0
ARC
8
DEFAULT_255_1_234
10
16.2630798
20
0.0549199
40
0.4562893
50
26.5253612
51
60.1450928
0
ARC
8
DEFAULT_255_1_234
10
16.1510548
20
-0.0044842
40
0.5830602
50
7.4030428
51
26.8320788
0
ARC
8
DEFAULT_255_1_234
10
15.9916304
20
-0.0293196
40
0.7443669
50
0.1605367
51
7.7176192
0
ARC
8
DEFAULT_255_1_234
10
16.0080209
20
-0.1057566
40
0.7279835
50
348.7289388
51
0.3012466
0
ARC
8
DEFAULT_255_1_234
10
16.1736639
20
-0.1386614
40
0.559104
50
333.0706509
51
348.7181832
0
ARC
8
DEFAULT_255_1_234
10
16.2703397
20
-0.1911681
40
0.4491417
50
299.2531685
51
333.4571258
0
ARC
8
DEFAULT_255_1_234
10
16.2342537
20
-0.1226172
40
0.5265881
50
278.107187
51
299.0339503
0
ARC
8
DEFAULT_255_1_234
10
16.2086616
20
0.0281216
40
0.679442
50
270.4443897
51
278.4511052
0
ARC
8
DEFAULT_255_1_234
10
16.2107445
20
-0.0647787
40
0.4604407
50
269.4970433
51
284.0205042
0
ARC
8
DEFAULT_255_1_234
10
16.2462746
20
-0.2013022
40
0.3193797
50
283.7700273
51
318.1555492
0
ARC
8
DEFAULT_255_1_234
10
16.2125505
20
-0.1760633
40
0.3613588
50
318.7415601
51
343.6873628
0
ARC
8
DEFAULT_255_1_234
10
16.0321528
20
-0.1197168
40
0.5503313
50
343.3325091
51
355.8548958
0
ARC
8
DEFAULT_255_1_234
10
15.8223212
20
-0.0997681
40
0.7610708
50
355.4988528
51
0.0791727
0
ARC
8
DEFAULT_255_1_234
10
15.9005835
20
-0.026222
40
0.6828208
50
359.6455037
51
9.8607896
0
ARC
8
DEFAULT_255_1_234
10
16.1366533
20
0.0164099
40
0.4429406
50
9.6571907
51
26.1932807
0
ARC
8
DEFAULT_255_1_234
10
16.2294521
20
0.0595118
40
0.3406537
50
26.5777228
51
40.1532208
0
ARC
8
DEFAULT_255_1_234
10
16.2550248
20
0.0794619
40
0.308246
50
40.3840491
51
80.1431104
0
ARC
8
DEFAULT_255_1_234
10
16.2223365
20
-0.0654667
40
0.4566909
50
79.2152159
51
89.7445637
0
LINE
8
DEFAULT_255_1_234
10
17.3986127
20
-0.1934909
11
17.1231241
21
-0.1934909
0
LINE
8
DEFAULT_255_1_234
10
17.1231241
20
-0.1934909
11
17.1231241
21
-0.6513
0
LINE
8
DEFAULT_255_1_234
10
17.1231241
20
-0.6513
11
16.9689147
21
-0.6513
0
LINE
8
DEFAULT_255_1_234
10
16.9689147
20
-0.6513
11
16.9689147
21
0.5181211
0
LINE
8
DEFAULT_255_1_234
10
16.9689147
20
0.5181211
11
17.400219
21
0.5181211
0
LINE
8
DEFAULT_255_1_234
10
17.1231241
20
0.3912196
11
17.1231241
21
-0.0673926
0
LINE
8
DEFAULT_255_1_234
10
17.1231241
20
-0.0673926
11
17.400219
21
-0.0673926
0
LINE
8
DEFAULT_255_1_234
10
17.409054
20
0.3912196
11
17.1231241
21
0.3912196
0
ARC
8
DEFAULT_255_1_234
10
17.4044317
20
-0.0877805
40
0.6059162
50
78.8378113
51
90.3983573
0
ARC
8
DEFAULT_255_1_234
10
17.4460331
20
0.1142879
40
0.3996205
50
58.9632738
51
79.0810598
0
ARC
8
DEFAULT_255_1_234
10
17.4761873
20
0.1702721
40
0.3361177
50
48.0197965
51
58.447194
0
ARC
8
DEFAULT_255_1_234
10
17.4850734
20
0.1788225
40
0.3238191
50
3.3375044
51
48.1766626
0
ARC
8
DEFAULT_255_1_234
10
17.3620574
20
0.1611171
40
0.4477806
50
359.9477528
51
4.6829065
0
ARC
8
DEFAULT_255_1_234
10
17.3743891
20
0.1568628
40
0.4354656
50
346.1877825
51
0.5060252
0
ARC
8
DEFAULT_255_1_234
10
17.5102758
20
0.1215731
40
0.295089
50
310.8831995
51
346.5426355
0
ARC
8
DEFAULT_255_1_234
10
17.4794178
20
0.1632695
40
0.3468331
50
286.6925341
51
310.2288297
0
ARC
8
DEFAULT_255_1_234
10
17.4225009
20
0.3422882
40
0.5346654
50
274.6850312
51
287.0245141
0
ARC
8
DEFAULT_255_1_234
10
17.3999732
20
0.5631932
40
0.7566852
50
269.8969846
51
275.018904
0
ARC
8
DEFAULT_255_1_234
10
17.4027323
20
0.3552707
40
0.4226708
50
269.6593078
51
279.4153575
0
ARC
8
DEFAULT_255_1_234
10
17.4284599
20
0.2062133
40
0.2714146
50
279.2049762
51
294.9900808
0
ARC
8
DEFAULT_255_1_234
10
17.4574924
20
0.1414508
40
0.2004525
50
295.2888114
51
311.2911209
0
ARC
8
DEFAULT_255_1_234
10
17.4645818
20
0.130922
40
0.1878703
50
311.7854996
51
347.2861051
0
ARC
8
DEFAULT_255_1_234
10
17.3661977
20
0.1562092
40
0.2894234
50
346.6893224
51
0.1059443
0
ARC
8
DEFAULT_255_1_234
10
17.2906872
20
0.1590685
40
0.3649409
50
359.6350983
51
0.0053152
0
ARC
8
DEFAULT_255_1_234
10
17.38772
20
0.1615937
40
0.2679199
50
359.4672059
51
15.5933957
0
ARC
8
DEFAULT_255_1_234
10
17.4502089
20
0.1784779
40
0.2031932
50
15.7442113
51
46.6203375
0
ARC
8
DEFAULT_255_1_234
10
17.435431
20
0.1614484
40
0.2257226
50
46.8628658
51
75.6676503
0
ARC
8
DEFAULT_255_1_234
10
17.4060131
20
0.0555718
40
0.3355939
50
75.276167
51
88.2915297
0
ARC
8
DEFAULT_255_1_234
10
17.4001837
20
-0.0322476
40
0.4235602
50
87.8575022
51
88.8000139
0
LINE
8
DEFAULT_255_1_234
10
18.2925452
20
-0.0938974
11
18.2925452
21
-0.2151766
0
LINE
8
DEFAULT_255_1_234
10
18.2925452
20
-0.2151766
11
17.9005963
21
-0.2151766
0
LINE
8
DEFAULT_255_1_234
10
17.9005963
20
-0.2151766
11
17.9005963
21
-0.0938974
0
LINE
8
DEFAULT_255_1_234
10
17.9005963
20
-0.0938974
11
18.2925452
21
-0.0938974
0
LINE
8
DEFAULT_255_1_234
10
18.4604085
20
0.5181211
11
18.6595956
21
0.5181211
0
LINE
8
DEFAULT_255_1_234
10
18.6595956
20
0.5181211
11
19.0419063
21
-0.4360494
0
LINE
8
DEFAULT_255_1_234
10
19.0419063
20
-0.4360494
11
19.4242171
21
0.5181211
0
LINE
8
DEFAULT_255_1_234
10
19.4242171
20
0.5181211
11
19.6242074
21
0.5181211
0
LINE
8
DEFAULT_255_1_234
10
19.6242074
20
0.5181211
11
19.6242074
21
-0.6513
0
LINE
8
DEFAULT_255_1_234
10
19.6242074
20
-0.6513
11
19.469998
21
-0.6513
0
LINE
8
DEFAULT_255_1_234
10
19.469998
20
-0.6513
11
19.469998
21
-0.1959004
0
LINE
8
DEFAULT_255_1_234
10
19.469998
20
-0.1959004
11
19.4844551
21
0.2956419
0
LINE
8
DEFAULT_255_1_234
10
19.4844551
20
0.2956419
11
19.100538
21
-0.6513
0
LINE
8
DEFAULT_255_1_234
10
19.100538
20
-0.6513
11
18.9824715
21
-0.6513
0
LINE
8
DEFAULT_255_1_234
10
18.9824715
20
-0.6513
11
18.5993576
21
0.2932324
0
LINE
8
DEFAULT_255_1_234
10
18.5993576
20
0.2932324
11
18.6146179
21
-0.1959004
0
LINE
8
DEFAULT_255_1_234
10
18.6146179
20
-0.1959004
11
18.6146179
21
-0.6513
0
LINE
8
DEFAULT_255_1_234
10
18.6146179
20
-0.6513
11
18.4604085
21
-0.6513
0
LINE
8
DEFAULT_255_1_234
10
18.4604085
20
-0.6513
11
18.4604085
21
0.5181211
0
LINE
8
DEFAULT_255_1_234
10
20.3020861
20
-0.6513
11
19.8964833
21
-0.6513
0
LINE
8
DEFAULT_255_1_234
10
19.8964833
20
-0.6513
11
19.8964833
21
0.5181211
0
LINE
8
DEFAULT_255_1_234
10
19.8964833
20
0.5181211
11
20.278794
21
0.5181211
0
LINE
8
DEFAULT_255_1_234
10
20.3077083
20
-0.1043386
11
20.0506927
21
-0.1043386
0
LINE
8
DEFAULT_255_1_234
10
20.0506927
20
-0.1043386
11
20.0506927
21
-0.5252017
0
LINE
8
DEFAULT_255_1_234
10
20.0506927
20
-0.5252017
11
20.3052988
21
-0.5252017
0
LINE
8
DEFAULT_255_1_234
10
20.0506927
20
0.3912196
11
20.0506927
21
0.0193501
0
LINE
8
DEFAULT_255_1_234
10
20.0506927
20
0.0193501
11
20.2836131
21
0.0193501
0
LINE
8
DEFAULT_255_1_234
10
20.278794
20
0.3912196
11
20.0506927
21
0.3912196
0
ARC
8
DEFAULT_255_1_234
10
20.2825649
20
-0.2186099
40
0.7367406
50
82.1257326
51
90.2932599
0
ARC
8
DEFAULT_255_1_234
10
20.3214604
20
0.0532013
40
0.4621653
50
69.9044149
51
82.2857423
0
ARC
8
DEFAULT_255_1_234
10
20.3785282
20
0.2074637
40
0.2976871
50
51.1838526
51
70.0181538
0
ARC
8
DEFAULT_255_1_234
10
20.4040248
20
0.244524
40
0.2528517
50
12.1017251
51
50.4214761
0
ARC
8
DEFAULT_255_1_234
10
20.2656122
20
0.2097676
40
0.3955061
50
359.5251267
51
12.8211707
0
ARC
8
DEFAULT_255_1_234
10
20.4236049
20
0.2028344
40
0.2375281
50
323.4908128
51
0.8817314
0
ARC
8
DEFAULT_255_1_234
10
20.3817735
20
0.235155
40
0.2903817
50
298.6825083
51
323.2756573
0
ARC
8
DEFAULT_255_1_234
10
20.3456098
20
0.2952649
40
0.3604842
50
293.1999386
51
299.1396394
0
ARC
8
DEFAULT_255_1_234
10
20.4129071
20
-0.3132874
40
0.2871098
50
54.0011765
51
74.9167975
0
ARC
8
DEFAULT_255_1_234
10
20.424543
20
-0.2935668
40
0.2643248
50
36.3580696
51
53.5291921
0
ARC
8
DEFAULT_255_1_234
10
20.4118672
20
-0.3026002
40
0.2798884
50
4.8189881
51
36.3089977
0
ARC
8
DEFAULT_255_1_234
10
20.3339508
20
-0.313573
40
0.358478
50
359.9370252
51
5.5204067
0
ARC
8
DEFAULT_255_1_234
10
20.3015029
20
-0.3176333
40
0.3909429
50
344.7478609
51
0.5373281
0
ARC
8
DEFAULT_255_1_234
10
20.4006
20
-0.3443456
40
0.2883093
50
311.1786488
51
344.6886812
0
ARC
8
DEFAULT_255_1_234
10
20.3714048
20
-0.3080013
40
0.3348923
50
286.0418249
51
310.8441291
0
ARC
8
DEFAULT_255_1_234
10
20.3206879
20
-0.1433193
40
0.5071869
50
274.1042341
51
286.4071509
0
ARC
8
DEFAULT_255_1_234
10
20.3030135
20
0.0450229
40
0.6963234
50
269.9236873
51
274.445647
0
ARC
8
DEFAULT_255_1_234
10
20.3076136
20
-0.1889463
40
0.3362634
50
269.6055768
51
281.3740047
0
ARC
8
DEFAULT_255_1_234
10
20.3306774
20
-0.2982647
40
0.224546
50
281.1055983
51
302.5132223
0
ARC
8
DEFAULT_255_1_234
10
20.3453673
20
-0.3246177
40
0.1944357
50
303.0368945
51
311.8811219
0
ARC
8
DEFAULT_255_1_234
10
20.352508
20
-0.333111
40
0.1833454
50
311.9916004
51
351.7143462
0
ARC
8
DEFAULT_255_1_234
10
20.270831
20
-0.316607
40
0.2665871
50
350.7339597
51
0.2221581
0
ARC
8
DEFAULT_255_1_234
10
20.2600756
20
-0.3109533
40
0.2773789
50
359.0456241
51
17.2296242
0
ARC
8
DEFAULT_255_1_234
10
20.3639873
20
-0.2800837
40
0.1689915
50
17.6685481
51
78.9940892
0
ARC
8
DEFAULT_255_1_234
10
20.3123037
20
-0.4655776
40
0.3612658
50
76.5635957
51
90.6980921
0
LINE
8
DEFAULT_255_1_234
10
20.3079021
20
-0.1043387
11
20.3077083
21
-0.1043386
0
ARC
8
DEFAULT_255_1_234
10
20.2858697
20
0.3479036
40
0.3285612
50
269.6064736
51
281.4533503
0
ARC
8
DEFAULT_255_1_234
10
20.3081517
20
0.2427688
40
0.2210975
50
281.2041486
51
302.5148063
0
ARC
8
DEFAULT_255_1_234
10
20.3218367
20
0.2181241
40
0.1929674
50
303.021671
51
309.8369575
0
ARC
8
DEFAULT_255_1_234
10
20.3401829
20
0.1975488
40
0.1654181
50
309.5228395
51
356.9509836
0
ARC
8
DEFAULT_255_1_234
10
20.2738411
20
0.2070932
40
0.2322512
50
355.4701227
51
0.0492546
0
ARC
8
DEFAULT_255_1_234
10
20.2459502
20
0.2093094
40
0.2601498
50
359.5558597
51
11.2096359
0
ARC
8
DEFAULT_255_1_234
10
20.3416792
20
0.229123
40
0.1623975
50
10.9182341
51
31.3230275
0
ARC
8
DEFAULT_255_1_234
10
20.3702525
20
0.2450214
40
0.1297302
50
31.8852677
51
52.1412565
0
ARC
8
DEFAULT_255_1_234
10
20.3428258
20
0.206275
40
0.1771663
50
52.8285564
51
71.9850297
0
ARC
8
DEFAULT_255_1_234
10
20.3052435
20
0.0956664
40
0.2939794
50
71.6863486
51
82.8455995
0
ARC
8
DEFAULT_255_1_234
10
20.2812971
20
-0.0852851
40
0.476506
50
82.6984714
51
90.1729175
0
ARC
8
DEFAULT_255_1_234
10
20.2790605
20
0.0370623
40
0.3541573
50
89.8708275
51
90.0431131
0
LINE
8
DEFAULT_255_1_234
10
12.016385
20
31.0797391
11
12.016385
21
30.9536408
0
LINE
8
DEFAULT_255_1_234
10
12.016385
20
30.9536408
11
11.5256458
21
30.9536408
0
LINE
8
DEFAULT_255_1_234
10
11.5256458
20
30.9536408
11
11.5256458
21
30.4372
0
LINE
8
DEFAULT_255_1_234
10
11.5256458
20
30.4372
11
11.3714364
21
30.4372
0
LINE
8
DEFAULT_255_1_234
10
11.3714364
20
30.4372
11
11.3714364
21
31.6066211
0
LINE
8
DEFAULT_255_1_234
10
11.3714364
20
31.6066211
11
12.0958992
21
31.6066211
0
LINE
8
DEFAULT_255_1_234
10
12.0958992
20
31.6066211
11
12.0958992
21
31.4797196
0
LINE
8
DEFAULT_255_1_234
10
12.0958992
20
31.4797196
11
11.5256458
21
31.4797196
0
LINE
8
DEFAULT_255_1_234
10
11.5256458
20
31.4797196
11
11.5256458
21
31.0797391
0
LINE
8
DEFAULT_255_1_234
10
11.5256458
20
31.0797391
11
12.016385
21
31.0797391
0
LINE
8
DEFAULT_255_1_234
10
13.4637042
20
31.2684849
11
13.3086917
21
31.2684849
0
LINE
8
DEFAULT_255_1_234
10
12.6163558
20
30.7761394
11
12.7713684
21
30.7761394
0
ARC
8
DEFAULT_255_1_234
10
13.3745729
20
32.1631768
40
1.252368
50
248.9199003
51
254.1439814
0
ARC
8
DEFAULT_255_1_234
10
13.2065224
20
31.7305234
40
0.788226
50
241.633709
51
249.0064503
0
ARC
8
DEFAULT_255_1_234
10
13.0536619
20
31.4504317
40
0.4691427
50
230.498225
51
241.8087113
0
ARC
8
DEFAULT_255_1_234
10
12.9752193
20
31.3504906
40
0.3421437
50
227.4064532
51
229.9881192
0
ARC
8
DEFAULT_255_1_234
10
12.9264713
20
31.3029088
40
0.2741476
50
200.6781896
51
228.1763934
0
ARC
8
DEFAULT_255_1_234
10
12.9337024
20
31.3014077
40
0.2804109
50
179.5061581
51
199.8694617
0
ARC
8
DEFAULT_255_1_234
10
12.9327776
20
31.308821
40
0.2795204
50
132.4834203
51
181.0242172
0
ARC
8
DEFAULT_255_1_234
10
12.9923358
20
31.2525704
40
0.3612768
50
129.2532479
51
133.4242687
0
ARC
8
DEFAULT_255_1_234
10
13.0069808
20
31.2305965
40
0.3875675
50
101.98776
51
128.8742646
0
ARC
8
DEFAULT_255_1_234
10
13.0468418
20
31.0584741
40
0.5642249
50
89.5906553
51
102.3169264
0
ARC
8
DEFAULT_255_1_234
10
13.0538911
20
31.0903148
40
0.5323783
50
77.2360837
51
90.3248275
0
ARC
8
DEFAULT_255_1_234
10
13.074599
20
31.18704
40
0.4334697
50
63.837784
51
77.0809408
0
ARC
8
DEFAULT_255_1_234
10
13.1023751
20
31.2387911
40
0.3747796
50
45.9864267
51
64.1607727
0
ARC
8
DEFAULT_255_1_234
10
13.1284633
20
31.2685866
40
0.3352302
50
32.2747395
51
45.6547121
0
ARC
8
DEFAULT_255_1_234
10
13.1351073
20
31.270488
40
0.328603
50
359.6507365
51
32.6130309
0
ARC
8
DEFAULT_255_1_234
10
13.0408169
20
31.270966
40
0.2678863
50
359.469343
51
14.9832209
0
ARC
8
DEFAULT_255_1_234
10
13.1113231
20
31.2898539
40
0.1948938
50
14.9781179
51
48.2004265
0
ARC
8
DEFAULT_255_1_234
10
13.0948875
20
31.2691983
40
0.2212521
50
48.5927837
51
74.1241538
0
ARC
8
DEFAULT_255_1_234
10
13.0615365
20
31.1591248
40
0.3362561
50
73.7888341
51
86.6652678
0
ARC
8
DEFAULT_255_1_234
10
13.051293
20
31.0383881
40
0.4573953
50
86.2640471
51
90.0526343
0
ARC
8
DEFAULT_255_1_234
10
13.0484643
20
31.0779192
40
0.4178709
50
89.6697524
51
99.2309573
0
ARC
8
DEFAULT_255_1_234
10
13.0242094
20
31.2223964
40
0.2713749
50
99.069534
51
113.7658566
0
ARC
8
DEFAULT_255_1_234
10
12.9968285
20
31.2869677
40
0.2012469
50
114.0401004
51
127.9850673
0
ARC
8
DEFAULT_255_1_234
10
12.9727849
20
31.316573
40
0.1631167
50
127.7287463
51
176.7105154
0
ARC
8
DEFAULT_255_1_234
10
13.0406566
20
31.3064693
40
0.2315392
50
175.1779447
51
180.0581938
0
ARC
8
DEFAULT_255_1_234
10
12.9563413
20
31.3052428
40
0.1472271
50
179.6142195
51
228.1246017
0
ARC
8
DEFAULT_255_1_234
10
13.0005082
20
31.3461308
40
0.2072299
50
226.5779593
51
230.8800004
0
ARC
8
DEFAULT_255_1_234
10
13.047616
20
31.4086636
40
0.2854818
50
231.4635071
51
241.9260842
0
ARC
8
DEFAULT_255_1_234
10
13.1673338
20
31.62898
40
0.53622
50
241.7178533
51
248.3259551
0
ARC
8
DEFAULT_255_1_234
10
13.305871
20
31.9722064
40
0.9063478
50
248.2007737
51
252.4528373
0
ARC
8
DEFAULT_255_1_234
10
13.4262435
20
32.3443441
40
1.2974635
50
252.3391078
51
254.3469452
0
ARC
8
DEFAULT_255_1_234
10
12.6720138
20
29.6466148
40
1.5037162
50
71.0197183
51
74.4087047
0
ARC
8
DEFAULT_255_1_234
10
12.8414823
20
30.1358111
40
0.9859993
50
66.1847285
51
71.086374
0
ARC
8
DEFAULT_255_1_234
10
12.9971135
20
30.48622
40
0.6025855
50
59.3536294
51
66.2691831
0
ARC
8
DEFAULT_255_1_234
10
13.0859788
20
30.6365609
40
0.4279449
50
49.1020879
51
59.3293958
0
ARC
8
DEFAULT_255_1_234
10
13.1678528
20
30.7298834
40
0.3038015
50
32.7919921
51
49.2505539
0
ARC
8
DEFAULT_255_1_234
10
13.1999618
20
30.7527191
40
0.264448
50
31.1181161
51
32.4005348
0
ARC
8
DEFAULT_255_1_234
10
13.1911155
20
30.7491779
40
0.2738556
50
8.1116974
51
30.7958831
0
ARC
8
DEFAULT_255_1_234
10
13.1100823
20
30.7353753
40
0.3560327
50
359.8389159
51
8.4706516
0
ARC
8
DEFAULT_255_1_234
10
13.1726615
20
30.7305137
40
0.2934776
50
337.4731098
51
0.7537279
0
ARC
8
DEFAULT_255_1_234
10
13.190531
20
30.7285387
40
0.2762607
50
307.5917067
51
336.4315538
0
ARC
8
DEFAULT_255_1_234
10
13.1445138
20
30.7798102
40
0.3449979
50
307.6551545
51
308.4529766
0
ARC
8
DEFAULT_255_1_234
10
13.1214857
20
30.815325
40
0.3871988
50
284.3734338
51
307.1424381
0
ARC
8
DEFAULT_255_1_234
10
13.0719687
20
30.9974932
40
0.5759636
50
272.4382747
51
284.646547
0
ARC
8
DEFAULT_255_1_234
10
13.0592895
20
31.1774893
40
0.7563528
50
269.9708387
51
272.8178037
0
ARC
8
DEFAULT_255_1_234
10
13.0549935
20
30.9736716
40
0.5525489
50
248.2707594
51
270.4055579
0
ARC
8
DEFAULT_255_1_234
10
13.0495676
20
30.9546192
40
0.5328452
50
246.1383403
51
248.0542782
0
ARC
8
DEFAULT_255_1_234
10
13.0077055
20
30.8666843
40
0.4355005
50
233.1670131
51
246.4950969
0
ARC
8
DEFAULT_255_1_234
10
12.952296
20
30.7918812
40
0.3424126
50
215.3403242
51
233.0843104
0
ARC
8
DEFAULT_255_1_234
10
12.9250391
20
30.7720549
40
0.3087104
50
179.2419209
51
215.2648451
0
ARC
8
DEFAULT_255_1_234
10
13.0017985
20
30.7734666
40
0.2304457
50
179.335461
51
199.1045811
0
ARC
8
DEFAULT_255_1_234
10
12.9685662
20
30.7647766
40
0.1962176
50
199.8828939
51
232.7063202
0
ARC
8
DEFAULT_255_1_234
10
13.015793
20
30.8241788
40
0.2720938
50
232.3738199
51
255.5136649
0
ARC
8
DEFAULT_255_1_234
10
13.0498797
20
30.9485835
40
0.4010747
50
255.2446292
51
267.5320849
0
ARC
8
DEFAULT_255_1_234
10
13.058642
20
31.0718702
40
0.5246356
50
267.1557994
51
270.0286766
0
ARC
8
DEFAULT_255_1_234
10
13.0614192
20
31.027495
40
0.4802668
50
269.7000017
51
278.1660162
0
ARC
8
DEFAULT_255_1_234
10
13.0870197
20
30.8544515
40
0.3053425
50
278.0231263
51
290.625471
0
ARC
8
DEFAULT_255_1_234
10
13.1217884
20
30.7617025
40
0.206291
50
290.6619762
51
307.0370976
0
ARC
8
DEFAULT_255_1_234
10
13.1518274
20
30.7248504
40
0.1587906
50
306.3943566
51
355.3030547
0
ARC
8
DEFAULT_255_1_234
10
13.1006205
20
30.7325113
40
0.2104809
50
354.3660432
51
0.0698737
0
ARC
8
DEFAULT_255_1_234
10
13.114855
20
30.7347617
40
0.1962563
50
359.417946
51
16.1971788
0
ARC
8
DEFAULT_255_1_234
10
13.160386
20
30.7472418
40
0.149053
50
16.4723299
51
52.6262157
0
ARC
8
DEFAULT_255_1_234
10
13.0782914
20
30.6388433
40
0.2850296
50
52.7386432
51
62.4979148
0
ARC
8
DEFAULT_255_1_234
10
12.9397991
20
30.3782283
40
0.5801521
50
62.2515216
51
68.1220564
0
ARC
8
DEFAULT_255_1_234
10
12.7677902
20
29.9554872
40
1.0365451
50
68.0062803
51
71.8053402
0
ARC
8
DEFAULT_255_1_234
10
12.5882274
20
29.4169758
40
1.6042013
50
71.7183119
51
73.9258742
0
LINE
8
DEFAULT_255_1_234
10
13.6026533
20
30.8476218
11
13.6026533
21
30.8749297
0
LINE
8
DEFAULT_255_1_234
10
14.3399668
20
30.8909932
11
14.3399668
21
30.8291488
0
LINE
8
DEFAULT_255_1_234
10
14.3399668
20
30.8291488
11
13.7512404
21
30.8291488
0
LINE
8
DEFAULT_255_1_234
10
14.2379638
20
30.6596792
11
14.3287224
21
30.5889999
0
LINE
8
DEFAULT_255_1_234
10
13.7560595
20
30.9512313
11
14.1913797
21
30.9512313
0
LINE
8
DEFAULT_255_1_234
10
14.1913797
20
30.9512313
11
14.1913797
21
30.9624757
0
ARC
8
DEFAULT_255_1_234
10
13.9965898
20
30.8587332
40
0.4376191
50
252.3266134
51
270.5810217
0
ARC
8
DEFAULT_255_1_234
10
13.9760987
20
30.7846644
40
0.3608374
50
223.3000567
51
251.8561855
0
ARC
8
DEFAULT_255_1_234
10
13.9972348
20
30.8051937
40
0.3902993
50
190.9374509
51
223.3654032
0
ARC
8
DEFAULT_255_1_234
10
14.169732
20
30.8441885
40
0.5670891
50
179.6531105
51
191.4989439
0
ARC
8
DEFAULT_255_1_234
10
14.1819332
20
30.8781417
40
0.5792888
50
167.4007466
51
180.3176909
0
ARC
8
DEFAULT_255_1_234
10
14.0767394
20
30.9003885
40
0.471777
50
154.1835823
51
167.250763
0
ARC
8
DEFAULT_255_1_234
10
14.0135861
20
30.9336417
40
0.4004528
50
134.3149965
51
154.5315275
0
ARC
8
DEFAULT_255_1_234
10
13.9918356
20
30.9527228
40
0.371612
50
122.8616532
51
133.9707695
0
ARC
8
DEFAULT_255_1_234
10
13.981493
20
30.9749703
40
0.3473289
50
89.8249009
51
123.4199222
0
ARC
8
DEFAULT_255_1_234
10
13.9864971
20
30.9102967
40
0.4120197
50
74.7876118
51
90.5482747
0
ARC
8
DEFAULT_255_1_234
10
14.0158715
20
31.018803
40
0.2996077
50
39.8178249
51
74.7633718
0
ARC
8
DEFAULT_255_1_234
10
13.9646035
20
30.9788351
40
0.3645855
50
16.8990863
51
39.4829761
0
ARC
8
DEFAULT_255_1_234
10
13.7751331
20
30.9181526
40
0.5635218
50
4.9636328
51
17.2026414
0
ARC
8
DEFAULT_255_1_234
10
13.5333401
20
30.892634
40
0.8066286
50
359.8834553
51
5.2834307
0
ARC
8
DEFAULT_255_1_234
10
14.1370926
20
30.8357803
40
0.3859091
50
180.9846213
51
194.9401313
0
ARC
8
DEFAULT_255_1_234
10
14.0321204
20
30.8070849
40
0.2770883
50
194.80314
51
222.0412631
0
ARC
8
DEFAULT_255_1_234
10
14.0017085
20
30.7769116
40
0.2343055
50
221.5417084
51
268.8614402
0
ARC
8
DEFAULT_255_1_234
10
14.009008
20
30.8445686
40
0.3021528
50
267.732405
51
270.0097136
0
ARC
8
DEFAULT_255_1_234
10
14.010789
20
30.8647105
40
0.3222994
50
269.6924892
51
280.4117579
0
ARC
8
DEFAULT_255_1_234
10
14.0284297
20
30.7728193
40
0.2287344
50
280.2255091
51
298.6338936
0
ARC
8
DEFAULT_255_1_234
10
14.0401089
20
30.7484223
40
0.2017294
50
299.0430333
51
300.4643464
0
ARC
8
DEFAULT_255_1_234
10
13.9721094
20
30.8618038
40
0.3339357
50
300.6577328
51
322.0378878
0
ARC
8
DEFAULT_255_1_234
10
13.9370633
20
30.8922021
40
0.3802736
50
321.6750233
51
322.3046845
0
ARC
8
DEFAULT_255_1_234
10
14.0301595
20
30.775537
40
0.3520454
50
276.9728461
51
328.0035423
0
ARC
8
DEFAULT_255_1_234
10
14.0024648
20
30.9235841
40
0.5024498
50
269.8361028
51
278.0581756
0
ARC
8
DEFAULT_255_1_234
10
13.9797385
20
30.9980757
40
0.202159
50
89.2018686
51
117.2851756
0
ARC
8
DEFAULT_255_1_234
10
13.9850554
20
30.9938752
40
0.2083484
50
118.0551165
51
137.4540413
0
ARC
8
DEFAULT_255_1_234
10
14.0225294
20
30.9598304
40
0.2589774
50
137.5109581
51
158.8516286
0
ARC
8
DEFAULT_255_1_234
10
14.136313
20
30.9139074
40
0.38167
50
158.5845963
51
170.1721436
0
ARC
8
DEFAULT_255_1_234
10
14.2532519
20
30.8906823
40
0.5008657
50
169.8376422
51
173.0566086
0
ARC
8
DEFAULT_255_1_234
10
13.7835593
20
30.9417509
40
0.4083467
50
2.9091802
51
12.8847116
0
ARC
8
DEFAULT_255_1_234
10
13.9206269
20
30.9740101
40
0.2675383
50
12.6957781
51
28.6404489
0
ARC
8
DEFAULT_255_1_234
10
13.974794
20
31.0020458
40
0.2065654
50
29.0169854
51
41.1487595
0
ARC
8
DEFAULT_255_1_234
10
13.9950725
20
31.0197003
40
0.1796786
50
41.1646065
51
85.0013516
0
ARC
8
DEFAULT_255_1_234
10
13.9829822
20
30.9462431
40
0.2539726
50
83.7280015
51
90.0964893
0
LINE
8
DEFAULT_255_1_234
10
14.931906
20
31.3110531
11
14.931906
21
31.1729072
0
LINE
8
DEFAULT_255_1_234
10
14.6604332
20
31.0540375
11
14.6604332
21
30.4372
0
LINE
8
DEFAULT_255_1_234
10
14.6604332
20
30.4372
11
14.511846
21
30.4372
0
LINE
8
DEFAULT_255_1_234
10
14.511846
20
30.4372
11
14.511846
21
31.3062341
0
LINE
8
DEFAULT_255_1_234
10
14.511846
20
31.3062341
11
14.6564173
21
31.3062341
0
LINE
8
DEFAULT_255_1_234
10
14.6564173
20
31.3062341
11
14.6588269
21
31.2058374
0
ARC
8
DEFAULT_255_1_234
10
14.8652465
20
30.7669342
40
0.4114092
50
80.6754243
51
86.8932892
0
ARC
8
DEFAULT_255_1_234
10
14.8591999
20
30.67017
40
0.5083596
50
86.8038578
51
90.0431435
0
ARC
8
DEFAULT_255_1_234
10
14.855498
20
30.9158866
40
0.2626638
50
89.2759698
51
106.6213787
0
ARC
8
DEFAULT_255_1_234
10
14.8350544
20
30.990183
40
0.1856317
50
107.1346045
51
157.6458115
0
ARC
8
DEFAULT_255_1_234
10
14.9042146
20
30.9518311
40
0.2643398
50
155.6586782
51
157.2539184
0
ARC
8
DEFAULT_255_1_234
10
14.8837348
20
31.0687157
40
0.2634121
50
127.8165941
51
148.6302098
0
ARC
8
DEFAULT_255_1_234
10
14.8583817
20
31.0947218
40
0.2273596
50
91.3329982
51
126.7875809
0
ARC
8
DEFAULT_255_1_234
10
14.8659757
20
31.0232195
40
0.299078
50
89.986594
51
92.4688449
0
ARC
8
DEFAULT_255_1_234
10
14.8668152
20
31.0507078
40
0.2715908
50
85.3589899
51
90.1623399
0
ARC
8
DEFAULT_255_1_234
10
14.8752668
20
31.1511164
40
0.1708278
50
78.401942
51
85.4594656
0
ARC
8
DEFAULT_255_1_234
10
14.8897552
20
31.2202236
40
0.1002194
50
67.7858312
51
78.5728455
0
ARC
8
DEFAULT_255_1_234
10
14.9005404
20
31.2481887
40
0.0702548
50
63.4835954
51
67.3062642
0
LINE
8
DEFAULT_255_1_234
10
15.2298834
20
31.3062341
11
15.2298834
21
30.4372
0
LINE
8
DEFAULT_255_1_234
10
15.2298834
20
30.4372
11
15.0812963
21
30.4372
0
LINE
8
DEFAULT_255_1_234
10
15.0812963
20
30.4372
11
15.0812963
21
31.3062341
0
LINE
8
DEFAULT_255_1_234
10
15.0812963
20
31.3062341
11
15.2298834
21
31.3062341
0
ARC
8
DEFAULT_255_1_234
10
15.1671112
20
31.5376889
40
0.097867
50
161.415052
51
180.5526306
0
ARC
8
DEFAULT_255_1_234
10
15.154689
20
31.5411077
40
0.0850062
50
138.1827368
51
160.9307106
0
ARC
8
DEFAULT_255_1_234
10
15.1436835
20
31.5506588
40
0.0704362
50
104.6368899
51
138.0039868
0
ARC
8
DEFAULT_255_1_234
10
15.154399
20
31.5139963
40
0.1086221
50
92.0600725
51
105.2189128
0
ARC
8
DEFAULT_255_1_234
10
15.1567338
20
31.4797117
40
0.1429728
50
89.9756393
51
92.5012496
0
ARC
8
DEFAULT_255_1_234
10
15.1577358
20
31.5022731
40
0.1204151
50
78.0235316
51
90.4478182
0
ARC
8
DEFAULT_255_1_234
10
15.166945
20
31.5436295
40
0.0780493
50
55.051506
51
78.3369085
0
ARC
8
DEFAULT_255_1_234
10
15.1719724
20
31.5520711
40
0.0682538
50
42.0501187
51
54.4513741
0
ARC
8
DEFAULT_255_1_234
10
15.1584591
20
31.5396798
40
0.0865878
50
1.7497075
51
42.1496013
0
ARC
8
DEFAULT_255_1_234
10
15.1329924
20
31.5367738
40
0.1121515
50
359.9852656
51
2.8364544
0
ARC
8
DEFAULT_255_1_234
10
15.1495916
20
31.5358229
40
0.0955566
50
342.1070653
51
0.552888
0
ARC
8
DEFAULT_255_1_234
10
15.1638614
20
31.5318904
40
0.0807713
50
316.7107116
51
341.6516965
0
ARC
8
DEFAULT_255_1_234
10
15.1705651
20
31.5258823
40
0.0717724
50
285.4397031
51
316.5324284
0
ARC
8
DEFAULT_255_1_234
10
15.1595568
20
31.5624554
40
0.1099597
50
272.3547054
51
285.8953117
0
ARC
8
DEFAULT_255_1_234
10
15.1568726
20
31.5990048
40
0.1465932
50
269.9695369
51
272.8160237
0
ARC
8
DEFAULT_255_1_234
10
15.1558907
20
31.5770863
40
0.1246779
50
258.8431134
51
270.4153935
0
ARC
8
DEFAULT_255_1_234
10
15.1468949
20
31.5335414
40
0.0802162
50
238.5431189
51
259.1288175
0
ARC
8
DEFAULT_255_1_234
10
15.1400834
20
31.5211856
40
0.0661247
50
222.5062634
51
237.9906969
0
ARC
8
DEFAULT_255_1_234
10
15.1528422
20
31.5327889
40
0.0833707
50
184.1069131
51
222.460413
0
ARC
8
DEFAULT_255_1_234
10
15.1797662
20
31.5366349
40
0.1105176
50
179.9429482
51
185.0960898
0
LINE
8
DEFAULT_255_1_234
10
15.4298737
20
30.8476218
11
15.4298737
21
30.8749297
0
LINE
8
DEFAULT_255_1_234
10
16.1671873
20
30.8909932
11
16.1671873
21
30.8291488
0
LINE
8
DEFAULT_255_1_234
10
16.1671873
20
30.8291488
11
15.5784609
21
30.8291488
0
LINE
8
DEFAULT_255_1_234
10
16.0651842
20
30.6596792
11
16.1559429
21
30.5889999
0
LINE
8
DEFAULT_255_1_234
10
15.5832799
20
30.9512313
11
16.0186001
21
30.9512313
0
LINE
8
DEFAULT_255_1_234
10
16.0186001
20
30.9512313
11
16.0186001
21
30.9624757
0
ARC
8
DEFAULT_255_1_234
10
15.8238102
20
30.8587332
40
0.4376191
50
252.3266134
51
270.5810217
0
ARC
8
DEFAULT_255_1_234
10
15.8033192
20
30.7846644
40
0.3608374
50
223.3000567
51
251.8561855
0
ARC
8
DEFAULT_255_1_234
10
15.8244552
20
30.8051937
40
0.3902993
50
190.9374509
51
223.3654032
0
ARC
8
DEFAULT_255_1_234
10
15.9969524
20
30.8441885
40
0.5670891
50
179.6531105
51
191.4989439
0
ARC
8
DEFAULT_255_1_234
10
16.0091537
20
30.8781417
40
0.5792888
50
167.4007466
51
180.3176909
0
ARC
8
DEFAULT_255_1_234
10
15.9039598
20
30.9003885
40
0.471777
50
154.1835823
51
167.250763
0
ARC
8
DEFAULT_255_1_234
10
15.8408066
20
30.9336417
40
0.4004528
50
134.3149965
51
154.5315275
0
ARC
8
DEFAULT_255_1_234
10
15.8190561
20
30.9527228
40
0.371612
50
122.8616532
51
133.9707695
0
ARC
8
DEFAULT_255_1_234
10
15.8087135
20
30.9749703
40
0.3473289
50
89.8249009
51
123.4199222
0
ARC
8
DEFAULT_255_1_234
10
15.8137176
20
30.9102967
40
0.4120197
50
74.7876118
51
90.5482747
0
ARC
8
DEFAULT_255_1_234
10
15.8430919
20
31.018803
40
0.2996077
50
39.8178249
51
74.7633718
0
ARC
8
DEFAULT_255_1_234
10
15.7918239
20
30.9788351
40
0.3645855
50
16.8990863
51
39.4829761
0
ARC
8
DEFAULT_255_1_234
10
15.6023536
20
30.9181526
40
0.5635218
50
4.9636328
51
17.2026414
0
ARC
8
DEFAULT_255_1_234
10
15.3605606
20
30.892634
40
0.8066286
50
359.8834553
51
5.2834307
0
ARC
8
DEFAULT_255_1_234
10
15.9643131
20
30.8357803
40
0.3859091
50
180.9846213
51
194.9401313
0
ARC
8
DEFAULT_255_1_234
10
15.8593408
20
30.8070849
40
0.2770883
50
194.80314
51
222.0412631
0
ARC
8
DEFAULT_255_1_234
10
15.828929
20
30.7769116
40
0.2343055
50
221.5417084
51
268.8614402
0
ARC
8
DEFAULT_255_1_234
10
15.8362285
20
30.8445686
40
0.3021528
50
267.732405
51
270.0097136
0
ARC
8
DEFAULT_255_1_234
10
15.8380095
20
30.8647105
40
0.3222994
50
269.6924892
51
280.4117579
0
ARC
8
DEFAULT_255_1_234
10
15.8556502
20
30.7728193
40
0.2287344
50
280.2255091
51
298.6338936
0
ARC
8
DEFAULT_255_1_234
10
15.8673294
20
30.7484223
40
0.2017294
50
299.0430333
51
300.4643464
0
ARC
8
DEFAULT_255_1_234
10
15.7993299
20
30.8618038
40
0.3339357
50
300.6577328
51
322.0378878
0
ARC
8
DEFAULT_255_1_234
10
15.7642838
20
30.8922021
40
0.3802736
50
321.6750233
51
322.3046845
0
ARC
8
DEFAULT_255_1_234
10
15.8573799
20
30.775537
40
0.3520454
50
276.9728461
51
328.0035423
0
ARC
8
DEFAULT_255_1_234
10
15.8296852
20
30.9235841
40
0.5024498
50
269.8361028
51
278.0581756
0
ARC
8
DEFAULT_255_1_234
10
15.806959
20
30.9980757
40
0.202159
50
89.2018686
51
117.2851756
0
ARC
8
DEFAULT_255_1_234
10
15.8122759
20
30.9938752
40
0.2083484
50
118.0551165
51
137.4540413
0
ARC
8
DEFAULT_255_1_234
10
15.8497499
20
30.9598304
40
0.2589774
50
137.5109581
51
158.8516286
0
ARC
8
DEFAULT_255_1_234
10
15.9635334
20
30.9139074
40
0.38167
50
158.5845963
51
170.1721436
0
ARC
8
DEFAULT_255_1_234
10
16.0804723
20
30.8906823
40
0.5008657
50
169.8376422
51
173.0566086
0
ARC
8
DEFAULT_255_1_234
10
15.6107797
20
30.9417509
40
0.4083467
50
2.9091802
51
12.8847116
0
ARC
8
DEFAULT_255_1_234
10
15.7478474
20
30.9740101
40
0.2675383
50
12.6957781
51
28.6404489
0
ARC
8
DEFAULT_255_1_234
10
15.8020145
20
31.0020458
40
0.2065654
50
29.0169854
51
41.1487595
0
ARC
8
DEFAULT_255_1_234
10
15.822293
20
31.0197003
40
0.1796786
50
41.1646065
51
85.0013516
0
ARC
8
DEFAULT_255_1_234
10
15.8102027
20
30.9462431
40
0.2539726
50
83.7280015
51
90.0964893
0
LINE
8
DEFAULT_255_1_234
10
16.9856214
20
31.0508248
11
16.8362311
21
31.0508248
0
LINE
8
DEFAULT_255_1_234
10
16.3029237
20
30.7046569
11
16.4515108
21
30.7046569
0
ARC
8
DEFAULT_255_1_234
10
16.717413
20
30.6691959
40
0.1276617
50
359.3334982
51
18.5871358
0
ARC
8
DEFAULT_255_1_234
10
16.7382767
20
30.6747133
40
0.1061371
50
19.3540742
51
54.6485071
0
ARC
8
DEFAULT_255_1_234
10
16.6878669
20
30.6051919
40
0.1920087
50
54.3827097
51
65.0622807
0
ARC
8
DEFAULT_255_1_234
10
16.6110065
20
30.44349
40
0.3710447
50
64.8282493
51
71.4200025
0
ARC
8
DEFAULT_255_1_234
10
16.5207941
20
30.1788107
40
0.6506741
50
71.3164301
51
75.8006402
0
ARC
8
DEFAULT_255_1_234
10
16.4366761
20
29.8547561
40
0.9854641
50
75.6809531
51
78.0061883
0
ARC
8
DEFAULT_255_1_234
10
16.8815294
20
31.952677
40
1.1591028
50
254.6901892
51
258.0466452
0
ARC
8
DEFAULT_255_1_234
10
16.7777202
20
31.5767781
40
0.7691345
50
249.9010773
51
254.755261
0
ARC
8
DEFAULT_255_1_234
10
16.6773544
20
31.3041982
40
0.478665
50
243.3097214
51
249.9709442
0
ARC
8
DEFAULT_255_1_234
10
16.6144565
20
31.1787778
40
0.3383568
50
234.4047477
51
243.2862168
0
ARC
8
DEFAULT_255_1_234
10
16.5522089
20
31.0928232
40
0.2322322
50
220.8667099
51
234.5493881
0
ARC
8
DEFAULT_255_1_234
10
16.518003
20
31.0616817
40
0.1859923
50
214.3062465
51
220.5065136
0
ARC
8
DEFAULT_255_1_234
10
16.5154109
20
31.058588
40
0.1821108
50
186.912965
51
213.9618616
0
ARC
8
DEFAULT_255_1_234
10
16.5686204
20
31.0672009
40
0.2359799
50
179.8808832
51
187.4339886
0
ARC
8
DEFAULT_255_1_234
10
16.5531337
20
31.0692088
40
0.2204978
50
132.005434
51
180.3942919
0
ARC
8
DEFAULT_255_1_234
10
16.6187951
20
31.0086083
40
0.3095791
50
129.2319861
51
133.5302299
0
ARC
8
DEFAULT_255_1_234
10
16.6241459
20
30.9991928
40
0.3202615
50
100.4410011
51
128.9081242
0
ARC
8
DEFAULT_255_1_234
10
16.6515343
20
30.8706455
40
0.4516583
50
89.6985377
51
100.9026564
0
ARC
8
DEFAULT_255_1_234
10
16.6572384
20
30.8546166
40
0.4676928
50
77.6965325
51
90.4076836
0
ARC
8
DEFAULT_255_1_234
10
16.6903369
20
30.9973413
40
0.3211988
50
50.7276602
51
78.0399361
0
ARC
8
DEFAULT_255_1_234
10
16.7347827
20
31.0491296
40
0.2529778
50
25.7545084
51
51.0957453
0
ARC
8
DEFAULT_255_1_234
10
16.7349052
20
31.0541206
40
0.250738
50
359.2468627
51
24.7394243
0
ARC
8
DEFAULT_255_1_234
10
16.7064504
20
31.0512664
40
0.1297815
50
359.8050318
51
45.1544908
0
ARC
8
DEFAULT_255_1_234
10
16.6657646
20
31.0164794
40
0.1831883
50
43.8047702
51
49.6271585
0
ARC
8
DEFAULT_255_1_234
10
16.6665547
20
31.0165678
40
0.18261
50
49.7980766
51
82.1218353
0
ARC
8
DEFAULT_255_1_234
10
16.6546519
20
30.9518998
40
0.2483163
50
81.4465357
51
90.1710293
0
ARC
8
DEFAULT_255_1_234
10
16.6522122
20
30.899288
40
0.300932
50
89.6766211
51
99.1264602
0
ARC
8
DEFAULT_255_1_234
10
16.6350584
20
31.0026537
40
0.1961547
50
98.968313
51
113.4570237
0
ARC
8
DEFAULT_255_1_234
10
16.6154669
20
31.0494965
40
0.1453859
50
113.722589
51
127.4763106
0
ARC
8
DEFAULT_255_1_234
10
16.5986315
20
31.0695124
40
0.1192639
50
126.9083309
51
150.3165862
0
ARC
8
DEFAULT_255_1_234
10
16.5938648
20
31.0745981
40
0.112623
50
151.3635175
51
180.0701457
0
ARC
8
DEFAULT_255_1_234
10
16.6247432
20
31.072499
40
0.1435149
50
179.2169974
51
179.9954013
0
ARC
8
DEFAULT_255_1_234
10
16.5886489
20
31.0712056
40
0.1074286
50
179.3040112
51
198.4225446
0
ARC
8
DEFAULT_255_1_234
10
16.5694623
20
31.0662127
40
0.0876573
50
199.2895851
51
238.6034594
0
ARC
8
DEFAULT_255_1_234
10
16.629747
20
31.160845
40
0.1998512
50
237.9846301
51
246.8744712
0
ARC
8
DEFAULT_255_1_234
10
16.7155415
20
31.3571205
40
0.4140547
50
246.6234531
51
251.8168941
0
ARC
8
DEFAULT_255_1_234
10
16.8185958
20
31.6665905
40
0.7402308
50
251.713434
51
255.0778414
0
ARC
8
DEFAULT_255_1_234
10
16.9385221
20
32.1132563
40
1.2027155
50
255.0367487
51
257.4705983
0
ARC
8
DEFAULT_255_1_234
10
16.4277231
20
29.8118863
40
1.1546601
50
73.6837552
51
77.5016755
0
ARC
8
DEFAULT_255_1_234
10
16.5366005
20
30.1818581
40
0.7690009
50
68.7044154
51
73.7249639
0
ARC
8
DEFAULT_255_1_234
10
16.6269026
20
30.4145654
40
0.5193873
50
63.590599
51
68.6626804
0
ARC
8
DEFAULT_255_1_234
10
16.7040045
20
30.5683123
40
0.3473927
50
54.7106439
51
63.7013633
0
ARC
8
DEFAULT_255_1_234
10
16.76645
20
30.65554
40
0.2401192
50
41.0622434
51
54.8487496
0
ARC
8
DEFAULT_255_1_234
10
16.8005886
20
30.6868592
40
0.1938094
50
34.4950568
51
40.7105546
0
ARC
8
DEFAULT_255_1_234
10
16.8052693
20
30.6917078
40
0.1872106
50
9.3763373
51
34.0833615
0
ARC
8
DEFAULT_255_1_234
10
16.7399564
20
30.6791728
40
0.2536988
50
359.7694872
51
9.7663171
0
ARC
8
DEFAULT_255_1_234
10
16.7597065
20
30.6748764
40
0.2339696
50
335.8654732
51
0.8022045
0
ARC
8
DEFAULT_255_1_234
10
16.7672109
20
30.6762197
40
0.2277108
50
307.7357725
51
334.7849066
0
ARC
8
DEFAULT_255_1_234
10
16.7271285
20
30.7212645
40
0.2878951
50
307.0241536
51
308.5578354
0
ARC
8
DEFAULT_255_1_234
10
16.7013616
20
30.7598801
40
0.3342515
50
282.9362969
51
306.5646424
0
ARC
8
DEFAULT_255_1_234
10
16.6651914
20
30.9066108
40
0.4853615
50
271.1026298
51
283.2200835
0
ARC
8
DEFAULT_255_1_234
10
16.6588157
20
31.0307418
40
0.6096052
50
269.9919117
51
271.4772449
0
ARC
8
DEFAULT_255_1_234
10
16.6561913
20
30.9229436
40
0.5018135
50
259.0723564
51
270.289833
0
ARC
8
DEFAULT_255_1_234
10
16.6349645
20
30.8112271
40
0.388099
50
245.4963068
51
259.0227342
0
ARC
8
DEFAULT_255_1_234
10
16.6071601
20
30.7530615
40
0.3236422
50
228.9684658
51
245.7044727
0
ARC
8
DEFAULT_255_1_234
10
16.5806045
20
30.7203575
40
0.2815426
50
214.4011705
51
228.6759915
0
ARC
8
DEFAULT_255_1_234
10
16.5516785
20
30.704529
40
0.2487548
50
179.9705531
51
215.1572795
0
ARC
8
DEFAULT_255_1_234
10
16.6217385
20
30.7118806
40
0.1703809
50
182.4299387
51
203.0329699
0
ARC
8
DEFAULT_255_1_234
10
16.6033043
20
30.7062396
40
0.1512226
50
203.798802
51
232.548466
0
ARC
8
DEFAULT_255_1_234
10
16.6309564
20
30.7413826
40
0.1959374
50
232.3782728
51
256.3934612
0
ARC
8
DEFAULT_255_1_234
10
16.6539926
20
30.8303842
40
0.2878639
50
256.104506
51
268.4626716
0
ARC
8
DEFAULT_255_1_234
10
16.658641
20
30.9100487
40
0.3676329
50
268.0715632
51
270.0138206
0
ARC
8
DEFAULT_255_1_234
10
16.6604935
20
30.8828083
40
0.3403971
50
269.7031147
51
278.8341955
0
ARC
8
DEFAULT_255_1_234
10
16.6787028
20
30.7697876
40
0.2259217
50
278.6728789
51
292.8232582
0
ARC
8
DEFAULT_255_1_234
10
16.6987566
20
30.7196449
40
0.171929
50
293.1452328
51
303.6655899
0
ARC
8
DEFAULT_255_1_234
10
16.7252445
20
30.6820204
40
0.1259367
50
303.1248165
51
321.742847
0
ARC
8
DEFAULT_255_1_234
10
16.7438325
20
30.6657156
40
0.1012531
50
322.4748573
51
1.1291126
0
LINE
8
DEFAULT_255_2_778
10
10.5738396
20
32.9618073
11
9.3932396
21
32.9618073
0
LINE
8
DEFAULT_255_2_778
10
9.3932396
20
32.9618073
11
9.9837396
21
33.9844073
0
LINE
8
DEFAULT_255_2_778
10
9.9837396
20
33.9844073
11
11.1643396
21
33.9844073
0
LINE
8
DEFAULT_255_2_778
10
11.1643396
20
33.9844073
11
10.5738396
21
32.9618073
0
LINE
8
DEFAULT_255_2_778
10
10.5738396
20
32.9618073
11
10.5738396
21
32.9618073
0
LINE
8
DEFAULT_255_2_778
10
11.7546396
20
32.9618073
11
12.9354396
21
32.9618073
0
LINE
8
DEFAULT_255_2_778
10
12.9354396
20
32.9618073
11
12.3451396
21
33.9844073
0
LINE
8
DEFAULT_255_2_778
10
12.3451396
20
33.9844073
11
11.1643396
21
33.9844073
0
LINE
8
DEFAULT_255_2_778
10
11.1643396
20
33.9844073
11
11.7546396
21
32.9618073
0
LINE
8
DEFAULT_255_2_778
10
11.7546396
20
32.9618073
11
11.7546396
21
32.9618073
0
LINE
8
DEFAULT_255_2_778
10
11.7545823
20
35.0070146
11
11.1642823
21
36.0296146
0
LINE
8
DEFAULT_255_2_778
10
11.1642823
20
36.0296146
11
10.5737823
21
35.0070146
0
LINE
8
DEFAULT_255_2_778
10
10.5737823
20
35.0070146
11
11.1642823
21
33.9844146
0
LINE
8
DEFAULT_255_2_778
10
11.1642823
20
33.9844146
11
11.7545823
21
35.0070146
0
LINE
8
DEFAULT_255_2_778
10
11.7545823
20
35.0070146
11
11.7545823
21
35.0070146
0
ARC
8
DEFAULT_255_2_778
10
16.5183731
20
34.6532426
40
0.5650491
50
268.7543645
51
289.1417717
0
ARC
8
DEFAULT_255_2_778
10
16.606208
20
34.3980531
40
0.2951681
50
289.2776255
51
3.7648372
0
ARC
8
DEFAULT_255_2_778
10
16.3901618
20
34.4246085
40
0.5106278
50
359.1949826
51
0.0020862
0
ARC
8
DEFAULT_255_2_778
10
16.547449
20
34.4105832
40
0.1541914
50
280.2616216
51
358.5297855
0
ARC
8
DEFAULT_255_2_778
10
16.5080075
20
34.523155
40
0.2726346
50
269.5969454
51
284.2065679
0
ARC
8
DEFAULT_255_2_778
10
16.4981967
20
34.5075316
40
0.2571258
50
246.5290903
51
271.7590909
0
ARC
8
DEFAULT_255_2_778
10
16.4527148
20
34.3995009
40
0.1399248
50
188.1071678
51
245.9934684
0
ARC
8
DEFAULT_255_2_778
10
16.4829007
20
34.4064617
40
0.1708111
50
179.9445314
51
188.990814
0
ARC
8
DEFAULT_255_2_778
10
16.4924507
20
34.4132849
40
0.3763411
50
178.2272621
51
205.8283807
0
ARC
8
DEFAULT_255_2_778
10
16.4132476
20
34.3955833
40
0.2979176
50
209.4028057
51
263.0375728
0
ARC
8
DEFAULT_255_2_778
10
16.5005111
20
34.7702629
40
0.6816586
50
259.5722942
51
270.4689037
0
ARC
8
DEFAULT_255_2_778
10
17.411252
20
34.8264767
40
0.1217154
50
2.0482843
51
87.015299
0
ARC
8
DEFAULT_255_2_778
10
17.4060617
20
34.8308852
40
0.126828
50
353.0600847
51
359.9737428
0
ARC
8
DEFAULT_255_2_778
10
17.4110442
20
34.8277555
40
0.1215295
50
270.5739762
51
354.2410513
0
ARC
8
DEFAULT_255_2_778
10
17.4065059
20
34.8639297
40
0.1578027
50
269.9941256
51
272.0902921
0
ARC
8
DEFAULT_255_2_778
10
17.414084
20
34.4130295
40
0.1400686
50
358.2807293
51
95.6106825
0
ARC
8
DEFAULT_255_2_778
10
17.4103233
20
34.4091963
40
0.1437669
50
266.9962473
51
359.8528392
0
ARC
8
DEFAULT_255_2_778
10
17.4725249
20
34.4494988
40
0.3335288
50
268.2414507
51
302.0223478
0
ARC
8
DEFAULT_255_2_778
10
17.5091261
20
34.374183
40
0.2504234
50
304.0600275
51
2.0468005
0
ARC
8
DEFAULT_255_2_778
10
17.4832788
20
34.3808521
40
0.2761203
50
0.4720601
51
65.8403529
0
ARC
8
DEFAULT_255_2_778
10
17.5191655
20
34.4456061
40
0.2024466
50
67.606893
51
75.8693222
0
ARC
8
DEFAULT_255_2_778
10
17.5042026
20
34.853222
40
0.2208874
50
286.9473417
51
358.0074963
0
ARC
8
DEFAULT_255_2_778
10
17.4710866
20
34.8620045
40
0.2544031
50
356.2897886
51
0.0050857
0
ARC
8
DEFAULT_255_2_778
10
17.497262
20
34.8670946
40
0.2282839
50
358.7280137
51
81.8073164
0
ARC
8
DEFAULT_255_2_778
10
17.4216369
20
34.6156283
40
0.4895182
50
77.2355086
51
90.5088275
0
ARC
8
DEFAULT_255_2_778
10
17.5842747
20
33.6510989
40
0.1302704
50
89.9972707
51
92.6773048
0
ARC
8
DEFAULT_255_2_778
10
17.5844071
20
33.65187
40
0.1294993
50
45.0546048
51
90.0558451
0
ARC
8
DEFAULT_255_2_778
10
17.5844118
20
33.651719
40
0.1296029
50
0.001866
51
45.1031959
0
ARC
8
DEFAULT_255_2_778
10
17.5845123
20
33.6517202
40
0.1295026
50
357.4803735
51
0.0013544
0
ARC
8
DEFAULT_255_2_778
10
17.5901979
20
33.6478512
40
0.1237052
50
339.8672523
51
359.1550732
0
ARC
8
DEFAULT_255_2_778
10
17.5794513
20
33.6450079
40
0.1329691
50
272.0853006
51
342.6124646
0
ARC
8
DEFAULT_255_2_778
10
17.6596145
20
33.6832661
40
0.2575135
50
286.787355
51
290.6121696
0
ARC
8
DEFAULT_255_2_778
10
17.6689461
20
33.6689533
40
0.24086
50
289.7330405
51
342.3216972
0
ARC
8
DEFAULT_255_2_778
10
17.641261
20
33.6737954
40
0.268735
50
343.130572
51
0.3905272
0
ARC
8
DEFAULT_255_2_778
10
17.6578783
20
33.6911767
40
0.2525904
50
356.4706028
51
80.1788963
0
ARC
8
DEFAULT_255_2_778
10
17.5921649
20
33.4642163
40
0.4881286
50
77.1212301
51
90.4900821
0
ARC
8
DEFAULT_255_2_778
10
17.5166337
20
33.166536
40
0.1865405
50
50.1507009
51
92.9634648
0
ARC
8
DEFAULT_255_2_778
10
17.5301354
20
33.1948678
40
0.1563319
50
12.621233
51
47.2950617
0
ARC
8
DEFAULT_255_2_778
10
16.8485884
20
33.0619726
40
0.8506657
50
2.8173892
51
11.3253986
0
ARC
8
DEFAULT_255_2_778
10
-29.2295733
20
29.5656175
40
47.060992
50
4.3048394
51
4.3117143
0
ARC
8
DEFAULT_255_2_778
10
18.5500859
20
33.138084
40
0.8523717
50
182.6850102
51
191.2954256
0
ARC
8
DEFAULT_255_2_778
10
17.9656837
20
33.0317399
40
0.2586603
50
193.5512904
51
195.3825538
0
ARC
8
DEFAULT_255_2_778
10
19.3507425
20
33.2906408
40
1.4700994
50
182.6283124
51
192.8725697
0
ARC
8
DEFAULT_255_2_778
10
17.6207606
20
33.2177215
40
0.261487
50
1.2064311
51
30.4123358
0
ARC
8
DEFAULT_255_2_778
10
17.6663626
20
33.232776
40
0.2147766
50
33.1081154
51
71.7312197
0
LINE
8
DEFAULT_255_2_778
10
13.4657897
20
33.3973271
11
13.9385897
21
33.3973271
0
LINE
8
DEFAULT_255_2_778
10
13.9385897
20
33.3973271
11
13.9385897
21
33.5687271
0
LINE
8
DEFAULT_255_2_778
10
13.9385897
20
33.5687271
11
13.4657897
21
33.5687271
0
LINE
8
DEFAULT_255_2_778
10
13.4657897
20
33.5687271
11
13.4657897
21
33.7796271
0
LINE
8
DEFAULT_255_2_778
10
13.4657897
20
33.7796271
11
13.9977897
21
33.7796271
0
LINE
8
DEFAULT_255_2_778
10
13.9977897
20
33.7796271
11
13.9977897
21
33.9510271
0
LINE
8
DEFAULT_255_2_778
10
13.9977897
20
33.9510271
11
13.4657897
21
33.9510271
0
LINE
8
DEFAULT_255_2_778
10
13.4657897
20
33.9510271
11
13.2651897
21
33.9510271
0
LINE
8
DEFAULT_255_2_778
10
13.2651897
20
33.9510271
11
13.2651897
21
33.7796271
0
LINE
8
DEFAULT_255_2_778
10
13.2651897
20
33.7796271
11
13.2651897
21
33.1332271
0
LINE
8
DEFAULT_255_2_778
10
13.2651897
20
33.1332271
11
13.2651897
21
32.9617271
0
LINE
8
DEFAULT_255_2_778
10
13.2651897
20
32.9617271
11
13.4657897
21
32.9617271
0
LINE
8
DEFAULT_255_2_778
10
13.4657897
20
32.9617271
11
14.0118897
21
32.9617271
0
LINE
8
DEFAULT_255_2_778
10
14.0118897
20
32.9617271
11
14.0118897
21
33.1332271
0
LINE
8
DEFAULT_255_2_778
10
14.0118897
20
33.1332271
11
13.4657897
21
33.1332271
0
LINE
8
DEFAULT_255_2_778
10
13.4657897
20
33.1332271
11
13.4657897
21
33.3970271
0
LINE
8
DEFAULT_255_2_778
10
13.4657897
20
33.3970271
11
13.4657897
21
33.3973271
0
LINE
8
DEFAULT_255_2_778
10
13.4519897
20
34.8514271
11
13.6620897
21
34.1161271
0
LINE
8
DEFAULT_255_2_778
10
13.6620897
20
34.1161271
11
13.6704897
21
34.1161271
0
LINE
8
DEFAULT_255_2_778
10
13.6704897
20
34.1161271
11
13.8464897
21
34.1161271
0
LINE
8
DEFAULT_255_2_778
10
13.8464897
20
34.1161271
11
13.8546897
21
34.1161271
0
LINE
8
DEFAULT_255_2_778
10
13.8546897
20
34.1161271
11
14.0647897
21
34.8514271
0
LINE
8
DEFAULT_255_2_778
10
14.0647897
20
34.8514271
11
14.0647897
21
34.1161271
0
LINE
8
DEFAULT_255_2_778
10
14.0647897
20
34.1161271
11
14.2515897
21
34.1161271
0
LINE
8
DEFAULT_255_2_778
10
14.2515897
20
34.1161271
11
14.2515897
21
35.1054271
0
LINE
8
DEFAULT_255_2_778
10
14.2515897
20
35.1054271
11
14.1496897
21
35.1054271
0
LINE
8
DEFAULT_255_2_778
10
14.1496897
20
35.1054271
11
14.0615897
21
35.1054271
0
LINE
8
DEFAULT_255_2_778
10
14.0615897
20
35.1054271
11
13.9655897
21
35.1054271
0
LINE
8
DEFAULT_255_2_778
10
13.9655897
20
35.1054271
11
13.7583897
21
34.4111271
0
LINE
8
DEFAULT_255_2_778
10
13.7583897
20
34.4111271
11
13.5511897
21
35.1054271
0
LINE
8
DEFAULT_255_2_778
10
13.5511897
20
35.1054271
11
13.4551897
21
35.1054271
0
LINE
8
DEFAULT_255_2_778
10
13.4551897
20
35.1054271
11
13.3670897
21
35.1054271
0
LINE
8
DEFAULT_255_2_778
10
13.3670897
20
35.1054271
11
13.2651897
21
35.1054271
0
LINE
8
DEFAULT_255_2_778
10
13.2651897
20
35.1054271
11
13.2651897
21
34.1161271
0
LINE
8
DEFAULT_255_2_778
10
13.2651897
20
34.1161271
11
13.4519897
21
34.1161271
0
LINE
8
DEFAULT_255_2_778
10
13.4519897
20
34.1161271
11
13.4519897
21
34.8514271
0
LINE
8
DEFAULT_255_2_778
10
13.4519897
20
34.8514271
11
13.4519897
21
34.8514271
0
LINE
8
DEFAULT_255_2_778
10
18.0056897
20
35.1054271
11
17.8064897
21
35.1054271
0
LINE
8
DEFAULT_255_2_778
10
17.8064897
20
35.1054271
11
17.8064897
21
34.1161271
0
LINE
8
DEFAULT_255_2_778
10
17.8064897
20
34.1161271
11
18.0056897
21
34.1161271
0
LINE
8
DEFAULT_255_2_778
10
18.0056897
20
34.1161271
11
18.0056897
21
35.1054271
0
LINE
8
DEFAULT_255_2_778
10
18.0056897
20
35.1054271
11
18.0056897
21
35.1054271
0
LINE
8
DEFAULT_255_2_778
10
18.1681897
20
33.9513271
11
17.9689897
21
33.9513271
0
LINE
8
DEFAULT_255_2_778
10
17.9689897
20
33.9513271
11
17.9689897
21
32.9620271
0
LINE
8
DEFAULT_255_2_778
10
17.9689897
20
32.9620271
11
18.1681897
21
32.9620271
0
LINE
8
DEFAULT_255_2_778
10
18.1681897
20
32.9620271
11
18.1681897
21
33.9513271
0
LINE
8
DEFAULT_255_2_778
10
18.1681897
20
33.9513271
11
18.1681897
21
33.9513271
0
LINE
8
DEFAULT_255_2_778
10
19.9765897
20
35.1054271
11
19.7773897
21
35.1054271
0
LINE
8
DEFAULT_255_2_778
10
19.7773897
20
35.1054271
11
19.7773897
21
34.1161271
0
LINE
8
DEFAULT_255_2_778
10
19.7773897
20
34.1161271
11
19.9765897
21
34.1161271
0
LINE
8
DEFAULT_255_2_778
10
19.9765897
20
34.1161271
11
19.9765897
21
35.1054271
0
LINE
8
DEFAULT_255_2_778
10
19.9765897
20
35.1054271
11
19.9765897
21
35.1054271
0
LINE
8
DEFAULT_255_2_778
10
14.5298897
20
35.1054271
11
14.3306897
21
35.1054271
0
LINE
8
DEFAULT_255_2_778
10
14.3306897
20
35.1054271
11
14.3306897
21
34.1161271
0
LINE
8
DEFAULT_255_2_778
10
14.3306897
20
34.1161271
11
14.5298897
21
34.1161271
0
LINE
8
DEFAULT_255_2_778
10
14.5298897
20
34.1161271
11
14.5298897
21
35.1054271
0
LINE
8
DEFAULT_255_2_778
10
14.5298897
20
35.1054271
11
14.5298897
21
35.1054271
0
LINE
8
DEFAULT_255_2_778
10
19.4989897
20
34.7194271
11
19.1029897
21
34.7194271
0
LINE
8
DEFAULT_255_2_778
10
19.1029897
20
34.7194271
11
19.1029897
21
35.1051271
0
LINE
8
DEFAULT_255_2_778
10
19.1029897
20
35.1051271
11
18.9068897
21
35.1051271
0
LINE
8
DEFAULT_255_2_778
10
18.9068897
20
35.1051271
11
18.9068897
21
34.1161271
0
LINE
8
DEFAULT_255_2_778
10
18.9068897
20
34.1161271
11
19.1029897
21
34.1161271
0
LINE
8
DEFAULT_255_2_778
10
19.1029897
20
34.1161271
11
19.1029897
21
34.5479271
0
LINE
8
DEFAULT_255_2_778
10
19.1029897
20
34.5479271
11
19.4989897
21
34.5479271
0
LINE
8
DEFAULT_255_2_778
10
19.4989897
20
34.5479271
11
19.4989897
21
34.1161271
0
LINE
8
DEFAULT_255_2_778
10
19.4989897
20
34.1161271
11
19.6950897
21
34.1161271
0
LINE
8
DEFAULT_255_2_778
10
19.6950897
20
34.1161271
11
19.6950897
21
35.1051271
0
LINE
8
DEFAULT_255_2_778
10
19.6950897
20
35.1051271
11
19.4989897
21
35.1051271
0
LINE
8
DEFAULT_255_2_778
10
19.4989897
20
35.1051271
11
19.4989897
21
34.7194271
0
LINE
8
DEFAULT_255_2_778
10
19.4989897
20
34.7194271
11
19.4989897
21
34.7194271
0
LINE
8
DEFAULT_255_2_778
10
14.8246897
20
34.1161271
11
15.0280897
21
34.1161271
0
LINE
8
DEFAULT_255_2_778
10
15.0280897
20
34.1161271
11
15.0280897
21
34.9340271
0
LINE
8
DEFAULT_255_2_778
10
15.0280897
20
34.9340271
11
15.2696897
21
34.9340271
0
LINE
8
DEFAULT_255_2_778
10
15.2696897
20
34.9340271
11
15.2696897
21
35.1054271
0
LINE
8
DEFAULT_255_2_778
10
15.2696897
20
35.1054271
11
15.0280897
21
35.1054271
0
LINE
8
DEFAULT_255_2_778
10
15.0280897
20
35.1054271
11
14.8246897
21
35.1054271
0
LINE
8
DEFAULT_255_2_778
10
14.8246897
20
35.1054271
11
14.5830897
21
35.1054271
0
LINE
8
DEFAULT_255_2_778
10
14.5830897
20
35.1054271
11
14.5830897
21
34.9340271
0
LINE
8
DEFAULT_255_2_778
10
14.5830897
20
34.9340271
11
14.8246897
21
34.9340271
0
LINE
8
DEFAULT_255_2_778
10
14.8246897
20
34.9340271
11
14.8246897
21
34.1161271
0
LINE
8
DEFAULT_255_2_778
10
14.8246897
20
34.1161271
11
14.8246897
21
34.1161271
0
LINE
8
DEFAULT_255_2_778
10
16.6422897
20
32.9620271
11
16.8454897
21
32.9620271
0
LINE
8
DEFAULT_255_2_778
10
16.8454897
20
32.9620271
11
16.8454897
21
33.7798271
0
LINE
8
DEFAULT_255_2_778
10
16.8454897
20
33.7798271
11
17.0873897
21
33.7798271
0
LINE
8
DEFAULT_255_2_778
10
17.0873897
20
33.7798271
11
17.0873897
21
33.9516271
0
LINE
8
DEFAULT_255_2_778
10
17.0873897
20
33.9516271
11
16.8454897
21
33.9516271
0
LINE
8
DEFAULT_255_2_778
10
16.8454897
20
33.9516271
11
16.6422897
21
33.9516271
0
LINE
8
DEFAULT_255_2_778
10
16.6422897
20
33.9516271
11
16.4004897
21
33.9516271
0
LINE
8
DEFAULT_255_2_778
10
16.4004897
20
33.9516271
11
16.4004897
21
33.7798271
0
LINE
8
DEFAULT_255_2_778
10
16.4004897
20
33.7798271
11
16.6422897
21
33.7798271
0
LINE
8
DEFAULT_255_2_778
10
16.6422897
20
33.7798271
11
16.6422897
21
32.9620271
0
LINE
8
DEFAULT_255_2_778
10
16.6422897
20
32.9620271
11
16.6422897
21
32.9620271
0
LINE
8
DEFAULT_255_2_778
10
16.9007897
20
34.4246271
11
16.9007897
21
35.1051271
0
LINE
8
DEFAULT_255_2_778
10
16.9007897
20
35.1051271
11
16.7015897
21
35.1051271
0
LINE
8
DEFAULT_255_2_778
10
16.7015897
20
35.1051271
11
16.7015897
21
34.4066271
0
LINE
8
DEFAULT_255_2_778
10
16.3120897
20
34.4066271
11
16.3120897
21
35.1051271
0
LINE
8
DEFAULT_255_2_778
10
16.3120897
20
35.1051271
11
16.1162897
21
35.1051271
0
LINE
8
DEFAULT_255_2_778
10
16.1162897
20
35.1051271
11
16.1162897
21
34.4249271
0
LINE
8
DEFAULT_255_2_778
10
15.0000897
20
33.3973271
11
15.4730897
21
33.3973271
0
LINE
8
DEFAULT_255_2_778
10
15.4730897
20
33.3973271
11
15.4730897
21
33.5687271
0
LINE
8
DEFAULT_255_2_778
10
15.4730897
20
33.5687271
11
15.0000897
21
33.5687271
0
LINE
8
DEFAULT_255_2_778
10
15.0000897
20
33.5687271
11
15.0000897
21
33.7796271
0
LINE
8
DEFAULT_255_2_778
10
15.0000897
20
33.7796271
11
15.5320897
21
33.7796271
0
LINE
8
DEFAULT_255_2_778
10
15.5320897
20
33.7796271
11
15.5320897
21
33.9510271
0
LINE
8
DEFAULT_255_2_778
10
15.5320897
20
33.9510271
11
15.0000897
21
33.9510271
0
LINE
8
DEFAULT_255_2_778
10
15.0000897
20
33.9510271
11
14.7997897
21
33.9510271
0
LINE
8
DEFAULT_255_2_778
10
14.7997897
20
33.9510271
11
14.7997897
21
33.7796271
0
LINE
8
DEFAULT_255_2_778
10
14.7997897
20
33.7796271
11
14.7997897
21
33.1332271
0
LINE
8
DEFAULT_255_2_778
10
14.7997897
20
33.1332271
11
14.7997897
21
32.9617271
0
LINE
8
DEFAULT_255_2_778
10
14.7997897
20
32.9617271
11
15.0000897
21
32.9617271
0
LINE
8
DEFAULT_255_2_778
10
15.0000897
20
32.9617271
11
15.5461897
21
32.9617271
0
LINE
8
DEFAULT_255_2_778
10
15.5461897
20
32.9617271
11
15.5461897
21
33.1332271
0
LINE
8
DEFAULT_255_2_778
10
15.5461897
20
33.1332271
11
15.0000897
21
33.1332271
0
LINE
8
DEFAULT_255_2_778
10
15.0000897
20
33.1332271
11
15.0000897
21
33.3970271
0
LINE
8
DEFAULT_255_2_778
10
15.0000897
20
33.3970271
11
15.0000897
21
33.3973271
0
LINE
8
DEFAULT_255_2_778
10
17.4064897
20
34.7061271
11
17.1690897
21
34.7061271
0
LINE
8
DEFAULT_255_2_778
10
17.1690897
20
34.7061271
11
17.1690897
21
34.9477271
0
LINE
8
DEFAULT_255_2_778
10
17.1690897
20
34.9477271
11
17.4175897
21
34.9477271
0
LINE
8
DEFAULT_255_2_778
10
17.4175897
20
34.9477271
11
17.4175897
21
34.9480271
0
LINE
8
DEFAULT_255_2_778
10
17.4027897
20
34.2653271
11
17.1690897
21
34.2653271
0
LINE
8
DEFAULT_255_2_778
10
17.1690897
20
34.2653271
11
17.1690897
21
34.5524271
0
LINE
8
DEFAULT_255_2_778
10
17.1690897
20
34.5524271
11
17.4003897
21
34.5524271
0
LINE
8
DEFAULT_255_2_778
10
17.1767897
20
34.1161271
11
17.4622897
21
34.1161271
0
LINE
8
DEFAULT_255_2_778
10
17.4172897
20
35.1051271
11
17.1770897
21
35.1051271
0
LINE
8
DEFAULT_255_2_778
10
17.1770897
20
35.1051271
11
16.9722897
21
35.1051271
0
LINE
8
DEFAULT_255_2_778
10
16.9722897
20
35.1051271
11
16.9711897
21
35.1051271
0
LINE
8
DEFAULT_255_2_778
10
16.9711897
20
35.1051271
11
16.9711897
21
34.1161271
0
LINE
8
DEFAULT_255_2_778
10
16.9711897
20
34.1161271
11
16.9722897
21
34.1161271
0
LINE
8
DEFAULT_255_2_778
10
16.9722897
20
34.1161271
11
17.1770897
21
34.1161271
0
LINE
8
DEFAULT_255_2_778
10
17.1770897
20
34.1161271
11
17.1767897
21
34.1161271
0
LINE
8
DEFAULT_255_2_778
10
17.3368897
20
33.5118271
11
17.3368897
21
33.7812271
0
LINE
8
DEFAULT_255_2_778
10
17.3368897
20
33.7812271
11
17.5781897
21
33.7812271
0
LINE
8
DEFAULT_255_2_778
10
17.5842897
20
33.5121271
11
17.3370897
21
33.5121271
0
LINE
8
DEFAULT_255_2_778
10
17.3370897
20
33.5121271
11
17.3368897
21
33.5118271
0
LINE
8
DEFAULT_255_2_778
10
17.5879897
20
33.9523271
11
17.3368897
21
33.9523271
0
LINE
8
DEFAULT_255_2_778
10
17.3368897
20
33.9523271
11
17.1383897
21
33.9523271
0
LINE
8
DEFAULT_255_2_778
10
17.1383897
20
33.9523271
11
17.1362897
21
33.9523271
0
LINE
8
DEFAULT_255_2_778
10
17.1362897
20
33.9523271
11
17.1362897
21
32.9631271
0
LINE
8
DEFAULT_255_2_778
10
17.1362897
20
32.9631271
11
17.3368897
21
32.9631271
0
LINE
8
DEFAULT_255_2_778
10
17.3368897
20
32.9631271
11
17.3368897
21
33.3528271
0
LINE
8
DEFAULT_255_2_778
10
17.3368897
20
33.3528271
11
17.5069897
21
33.3528271
0
LINE
8
DEFAULT_255_2_778
10
17.7162897
20
32.9631271
11
17.9175897
21
32.9631271
0
LINE
8
DEFAULT_255_2_778
10
14.2763897
20
33.9513271
11
14.0760897
21
33.9513271
0
LINE
8
DEFAULT_255_2_778
10
14.0760897
20
33.9513271
11
14.0760897
21
33.1335271
0
LINE
8
DEFAULT_255_2_778
10
14.0760897
20
33.1335271
11
14.0760897
21
32.9620271
0
LINE
8
DEFAULT_255_2_778
10
14.0760897
20
32.9620271
11
14.2763897
21
32.9620271
0
LINE
8
DEFAULT_255_2_778
10
14.2763897
20
32.9620271
11
14.7428897
21
32.9620271
0
LINE
8
DEFAULT_255_2_778
10
14.7428897
20
32.9620271
11
14.7428897
21
33.1335271
0
LINE
8
DEFAULT_255_2_778
10
14.7428897
20
33.1335271
11
14.2763897
21
33.1335271
0
LINE
8
DEFAULT_255_2_778
10
14.2763897
20
33.1335271
11
14.2763897
21
33.9513271
0
LINE
8
DEFAULT_255_2_778
10
14.2763897
20
33.9513271
11
14.2763897
21
33.9513271
0
ARC
8
DEFAULT_255_2_778
10
15.4584271
20
33.5771969
40
0.9681224
50
72.4822103
51
81.3184214
0
ARC
8
DEFAULT_255_2_778
10
15.7160297
20
34.3538918
40
0.1503783
50
28.8883513
51
77.0092434
0
ARC
8
DEFAULT_255_2_778
10
15.7432379
20
34.3828196
40
0.113238
50
358.9917455
51
22.7117017
0
ARC
8
DEFAULT_255_2_778
10
15.7394861
20
34.3869918
40
0.1171346
50
289.2958104
51
356.9831562
0
ARC
8
DEFAULT_255_2_778
10
15.6668261
20
34.5444882
40
0.2902651
50
268.4665462
51
292.5613311
0
ARC
8
DEFAULT_255_2_778
10
15.6496856
20
34.4854179
40
0.2312808
50
236.4956947
51
272.3225735
0
ARC
8
DEFAULT_255_2_778
10
15.6106646
20
34.4171839
40
0.1529307
50
178.9722202
51
234.5742435
0
ARC
8
DEFAULT_255_2_778
10
15.5656113
20
34.4076079
40
0.3002058
50
177.6481608
51
245.5596397
0
ARC
8
DEFAULT_255_2_778
10
15.6409971
20
34.5798561
40
0.488217
50
245.8690375
51
267.169035
0
ARC
8
DEFAULT_255_2_778
10
15.6671503
20
34.8308916
40
0.7403648
50
266.1069867
51
270.0547972
0
ARC
8
DEFAULT_255_2_778
10
15.6772894
20
34.6621135
40
0.5716642
50
269.0547216
51
287.7147747
0
ARC
8
DEFAULT_255_2_778
10
15.7598889
20
34.4164091
40
0.3125017
50
286.995984
51
325.1221533
0
ARC
8
DEFAULT_255_2_778
10
15.7678294
20
34.399861
40
0.2966627
50
326.8673922
51
0.8625726
0
ARC
8
DEFAULT_255_2_778
10
15.7898286
20
34.4084409
40
0.2746606
50
359.1417932
51
76.9739731
0
ARC
8
DEFAULT_255_2_778
10
15.6705461
20
34.1275719
40
0.577616
50
71.7185727
51
79.1315439
0
ARC
8
DEFAULT_255_2_778
10
14.2492968
20
26.773967
40
8.0673056
50
79.0662148
51
79.6216572
0
ARC
8
DEFAULT_255_2_778
10
16.4356585
20
38.6516581
40
4.0099443
50
259.1227669
51
259.4665204
0
ARC
8
DEFAULT_255_2_778
10
15.7836732
20
35.3566142
40
0.6513291
50
249.9945768
51
260.7485895
0
ARC
8
DEFAULT_255_2_778
10
15.5880401
20
34.8455999
40
0.1046098
50
178.6705173
51
254.9333545
0
ARC
8
DEFAULT_255_2_778
10
15.6049957
20
34.8421688
40
0.1216785
50
93.288632
51
177.2403935
0
ARC
8
DEFAULT_255_2_778
10
15.6585677
20
34.6551752
40
0.3143588
50
89.6189463
51
101.1057977
0
ARC
8
DEFAULT_255_2_778
10
15.6722733
20
34.767016
40
0.2028439
50
53.5634072
51
93.2825843
0
ARC
8
DEFAULT_255_2_778
10
15.7018505
20
34.8252144
40
0.1388739
50
357.1985816
51
49.1152298
0
ARC
8
DEFAULT_255_2_778
10
15.7254907
20
34.8184274
40
0.3087677
50
359.9999335
51
2.3703878
0
ARC
8
DEFAULT_255_2_778
10
15.7353555
20
34.8199337
40
0.298851
50
2.1600756
51
60.1092229
0
ARC
8
DEFAULT_255_2_778
10
15.6766212
20
34.7133133
40
0.4205645
50
60.4106856
51
86.1444419
0
ARC
8
DEFAULT_255_2_778
10
15.6536151
20
34.5366228
40
0.5985046
50
85.0843314
51
90.0628677
0
ARC
8
DEFAULT_255_2_778
10
15.6529718
20
34.6600466
40
0.4750804
50
90.001616
51
92.2300394
0
ARC
8
DEFAULT_255_2_778
10
15.6281193
20
34.765187
40
0.3696351
50
89.0131319
51
149.6364996
0
ARC
8
DEFAULT_255_2_778
10
15.5505461
20
34.8374055
40
0.2671974
50
154.5962367
51
180.4885883
0
ARC
8
DEFAULT_255_2_778
10
15.5651524
20
34.835884
40
0.281795
50
180.1539064
51
255.1120325
0
ARC
8
DEFAULT_255_2_778
10
15.7094242
20
35.158732
40
0.6333958
50
249.9962237
51
260.4976723
0
ARC
8
DEFAULT_255_2_778
10
18.2470963
20
33.5783351
40
0.967002
50
72.4685023
51
81.3064395
0
ARC
8
DEFAULT_255_2_778
10
18.5045397
20
34.353927
40
0.1503535
50
28.8782248
51
76.9904304
0
ARC
8
DEFAULT_255_2_778
10
18.5317197
20
34.3828189
40
0.1132561
50
358.9922779
51
22.7082666
0
ARC
8
DEFAULT_255_2_778
10
18.5280402
20
34.3869088
40
0.1170763
50
289.2761556
51
357.0223042
0
ARC
8
DEFAULT_255_2_778
10
18.4553612
20
34.5447836
40
0.2905613
50
268.4611814
51
292.5289055
0
ARC
8
DEFAULT_255_2_778
10
18.4381801
20
34.4863175
40
0.2321799
50
236.6698634
51
272.3149402
0
ARC
8
DEFAULT_255_2_778
10
18.39878
20
34.4171762
40
0.1528464
50
178.9687581
51
234.7686008
0
ARC
8
DEFAULT_255_2_778
10
18.3540113
20
34.4076079
40
0.3002058
50
177.6481608
51
245.5596397
0
ARC
8
DEFAULT_255_2_778
10
18.4293971
20
34.5798561
40
0.488217
50
245.8690375
51
267.169035
0
ARC
8
DEFAULT_255_2_778
10
18.4555503
20
34.8308916
40
0.7403648
50
266.1069867
51
270.0547972
0
ARC
8
DEFAULT_255_2_778
10
18.4656836
20
34.6627451
40
0.5722957
50
269.0563423
51
287.7048702
0
ARC
8
DEFAULT_255_2_778
10
18.548344
20
34.4167682
40
0.312856
50
286.9832601
51
325.0871916
0
ARC
8
DEFAULT_255_2_778
10
18.5567708
20
34.3998856
40
0.2964208
50
326.8311942
51
0.8585267
0
ARC
8
DEFAULT_255_2_778
10
18.5785756
20
34.4085282
40
0.2746149
50
359.1234265
51
76.9343785
0
ARC
8
DEFAULT_255_2_778
10
18.4596421
20
34.1286965
40
0.5764934
50
71.6999697
51
79.1198353
0
ARC
8
DEFAULT_255_2_778
10
17.0173657
20
26.6519392
40
8.1910887
50
79.0843627
51
79.6321368
0
ARC
8
DEFAULT_255_2_778
10
19.2200266
20
38.6314177
40
3.9892176
50
259.1314419
51
259.4772924
0
ARC
8
DEFAULT_255_2_778
10
18.5723251
20
35.3560131
40
0.6507003
50
249.9919323
51
260.7592458
0
ARC
8
DEFAULT_255_2_778
10
18.376901
20
34.8455546
40
0.1045718
50
178.6452075
51
254.9151907
0
ARC
8
DEFAULT_255_2_778
10
18.3939581
20
34.8421016
40
0.121744
50
93.2745253
51
177.21023
0
ARC
8
DEFAULT_255_2_778
10
18.4475726
20
34.6550052
40
0.3145287
50
89.6200387
51
101.1027534
0
ARC
8
DEFAULT_255_2_778
10
18.4613489
20
34.7683453
40
0.2015212
50
53.1490002
51
93.3256649
0
ARC
8
DEFAULT_255_2_778
10
18.4902753
20
34.8251519
40
0.1391457
50
357.2298288
51
48.6469881
0
ARC
8
DEFAULT_255_2_778
10
18.5137232
20
34.8184226
40
0.3092351
50
0.0008291
51
2.3676985
0
ARC
8
DEFAULT_255_2_778
10
18.5240744
20
34.8199868
40
0.2988304
50
2.1500394
51
60.0956838
0
ARC
8
DEFAULT_255_2_778
10
18.4654399
20
34.7134909
40
0.4203859
50
60.40452
51
86.1455285
0
ARC
8
DEFAULT_255_2_778
10
18.4424157
20
34.5366686
40
0.5984588
50
85.0841409
51
90.0629301
0
ARC
8
DEFAULT_255_2_778
10
18.4417778
20
34.6596392
40
0.4754878
50
90.0023409
51
92.3231329
0
ARC
8
DEFAULT_255_2_778
10
18.4167555
20
34.7649604
40
0.3698206
50
89.1093915
51
149.6400816
0
ARC
8
DEFAULT_255_2_778
10
18.338761
20
34.8373917
40
0.2669122
50
154.6001925
51
180.486137
0
ARC
8
DEFAULT_255_2_778
10
18.3537607
20
34.8360152
40
0.2819037
50
180.1805176
51
255.132702
0
ARC
8
DEFAULT_255_2_778
10
18.4982264
20
35.1592784
40
0.6339516
50
250.0026216
51
260.4967164
0
ARC
8
DEFAULT_255_2_778
10
16.008917
20
33.3664283
40
0.2519711
50
190.2626864
51
267.3480013
0
ARC
8
DEFAULT_255_2_778
10
16.2443543
20
33.4577548
40
0.5022041
50
179.6723028
51
195.7380858
0
ARC
8
DEFAULT_255_2_778
10
16.1790511
20
33.4732671
40
0.4370755
50
148.7005643
51
181.6572045
0
ARC
8
DEFAULT_255_2_778
10
15.9957576
20
33.5833723
40
0.2232598
50
89.6148479
51
148.4074796
0
ARC
8
DEFAULT_255_2_778
10
16.0060936
20
33.605449
40
0.201372
50
41.9769772
51
92.5146611
0
ARC
8
DEFAULT_255_2_778
10
15.9522078
20
33.5677523
40
0.2667646
50
15.1848537
51
40.2549591
0
ARC
8
DEFAULT_255_2_778
10
16.028123
20
33.5780326
40
0.3935735
50
8.7091682
51
82.0550801
0
ARC
8
DEFAULT_255_2_778
10
15.9931241
20
33.4315871
40
0.543642
50
80.5350289
51
90.1544743
0
ARC
8
DEFAULT_255_2_778
10
15.9818804
20
33.5202192
40
0.4551129
50
88.7689246
51
119.6437418
0
ARC
8
DEFAULT_255_2_778
10
16.0077717
20
33.5239647
40
0.4653013
50
122.644121
51
173.3997839
0
ARC
8
DEFAULT_255_2_778
10
16.2711934
20
33.4596568
40
0.7351371
50
170.7798304
51
180.1348114
0
ARC
8
DEFAULT_255_2_778
10
16.1377257
20
33.4442615
40
0.6018225
50
178.6988735
51
210.5289552
0
ARC
8
DEFAULT_255_2_778
10
15.970325
20
33.3534953
40
0.4115783
50
211.4828222
51
265.8686737
0
ARC
8
DEFAULT_255_2_778
10
15.9909864
20
33.4782011
40
0.5375742
50
264.6297133
51
270.0503073
0
ARC
8
DEFAULT_255_2_778
10
16.0020995
20
33.4100749
40
0.4695684
50
268.7014824
51
300.1403067
0
ARC
8
DEFAULT_255_2_778
10
16.0350333
20
33.3316852
40
0.385394
50
301.7580058
51
353.77968
0
ARC
8
DEFAULT_255_2_778
10
16.0012256
20
33.3260219
40
0.2113379
50
268.8430278
51
350.1661143
0
ARC
8
DEFAULT_255_2_778
10
18.6896799
20
33.3663824
40
0.2519281
50
190.2538303
51
267.3332171
0
ARC
8
DEFAULT_255_2_778
10
18.9252249
20
33.4577581
40
0.5022746
50
179.672724
51
195.7362088
0
ARC
8
DEFAULT_255_2_778
10
18.8600432
20
33.4732917
40
0.4372682
50
148.7196987
51
181.6596982
0
ARC
8
DEFAULT_255_2_778
10
18.676443
20
33.5834906
40
0.2231415
50
89.6108896
51
148.4244661
0
ARC
8
DEFAULT_255_2_778
10
18.686876
20
33.605467
40
0.2013576
50
42.5913083
51
92.5383066
0
ARC
8
DEFAULT_255_2_778
10
18.6345542
20
33.5690973
40
0.2646316
50
15.0085433
51
40.7215892
0
ARC
8
DEFAULT_255_2_778
10
18.708623
20
33.5780326
40
0.3935735
50
8.7091682
51
82.0550801
0
ARC
8
DEFAULT_255_2_778
10
18.6736241
20
33.4315871
40
0.543642
50
80.5350289
51
90.1544743
0
ARC
8
DEFAULT_255_2_778
10
18.6623804
20
33.5202192
40
0.4551129
50
88.7689246
51
119.6437418
0
ARC
8
DEFAULT_255_2_778
10
18.6882717
20
33.5239647
40
0.4653013
50
122.644121
51
173.3997839
0
ARC
8
DEFAULT_255_2_778
10
18.9516934
20
33.4596568
40
0.7351371
50
170.7798304
51
180.1348114
0
ARC
8
DEFAULT_255_2_778
10
18.8177822
20
33.44432
40
0.6013778
50
178.7034849
51
210.5604279
0
ARC
8
DEFAULT_255_2_778
10
18.6511312
20
33.3538377
40
0.4119265
50
211.5090145
51
265.8592607
0
ARC
8
DEFAULT_255_2_778
10
18.6716883
20
33.4779521
40
0.5373252
50
264.628472
51
270.0501277
0
ARC
8
DEFAULT_255_2_778
10
18.682837
20
33.4098685
40
0.4693629
50
268.6963312
51
300.2191972
0
ARC
8
DEFAULT_255_2_778
10
18.7155684
20
33.3319124
40
0.3856821
50
301.8465101
51
353.7503927
0
ARC
8
DEFAULT_255_2_778
10
18.6820648
20
33.3258604
40
0.2111733
50
268.8857714
51
350.2028431
0
LINE
8
DEFAULT_255_2_778
10
15.4577584
20
34.4199271
11
15.2656584
21
34.4199271
0
LINE
8
DEFAULT_255_2_778
10
15.8405584
20
34.8184271
11
16.0342584
21
34.8184271
0
LINE
8
DEFAULT_255_2_778
10
18.2459584
20
34.4199271
11
18.0540584
21
34.4199271
0
LINE
8
DEFAULT_255_2_778
10
18.6292584
20
34.8184271
11
18.8229584
21
34.8184271
0
LINE
8
DEFAULT_255_2_778
10
16.2096584
20
33.6376271
11
16.4171584
21
33.6376271
0
LINE
8
DEFAULT_255_2_778
10
16.4181584
20
33.2899271
11
16.2094584
21
33.2899271
0
LINE
8
DEFAULT_255_2_778
10
18.8901584
20
33.6376271
11
19.0976584
21
33.6376271
0
LINE
8
DEFAULT_255_2_778
10
19.0989584
20
33.2899271
11
18.8901584
21
33.2899271
0
LINE
8
DEFAULT_255_1_234
10
4.8781119
20
28.5741792
11
4.8781119
21
28.4529
0
LINE
8
DEFAULT_255_1_234
10
4.8781119
20
28.4529
11
4.111884
21
28.4529
0
LINE
8
DEFAULT_255_1_234
10
4.111884
20
28.4529
11
4.111884
21
28.5597221
0
LINE
8
DEFAULT_255_1_234
10
4.111884
20
28.5597221
11
4.5166836
21
29.0094995
0
LINE
8
DEFAULT_255_1_234
10
4.2379823
20
29.2777595
11
4.0893952
21
29.2777595
0
LINE
8
DEFAULT_255_1_234
10
4.6042296
20
28.9139218
11
4.2909918
21
28.5741792
0
LINE
8
DEFAULT_255_1_234
10
4.2909918
20
28.5741792
11
4.8781119
21
28.5741792
0
ARC
8
DEFAULT_255_1_234
10
3.167667
20
30.2024527
40
1.8008286
50
318.5132453
51
320.7828378
0
ARC
8
DEFAULT_255_1_234
10
3.6963644
20
29.7721426
40
1.1191493
50
320.7372736
51
323.9737074
0
ARC
8
DEFAULT_255_1_234
10
4.0883501
20
29.4881361
40
0.6350923
50
323.8961724
51
328.6421089
0
ARC
8
DEFAULT_255_1_234
10
4.2930096
20
29.3619031
40
0.3946393
50
328.8299013
51
331.789948
0
ARC
8
DEFAULT_255_1_234
10
4.3927274
20
29.3104509
40
0.2824501
50
331.4255242
51
352.9364833
0
ARC
8
DEFAULT_255_1_234
10
4.4063775
20
29.3073976
40
0.2685315
50
353.2248685
51
0.0169286
0
ARC
8
DEFAULT_255_1_234
10
4.4273652
20
29.309695
40
0.2475536
50
359.4866256
51
15.9339782
0
ARC
8
DEFAULT_255_1_234
10
4.4780637
20
29.3233286
40
0.1950618
50
16.1714718
51
43.5284424
0
ARC
8
DEFAULT_255_1_234
10
4.4857946
20
29.3310573
40
0.184134
50
43.4415429
51
83.1661404
0
ARC
8
DEFAULT_255_1_234
10
4.4723864
20
29.2573771
40
0.258926
50
82.160215
51
90.1505798
0
ARC
8
DEFAULT_255_1_234
10
4.4692291
20
29.2036865
40
0.3126255
50
89.5460705
51
102.5418777
0
ARC
8
DEFAULT_255_1_234
10
4.4449377
20
29.3067665
40
0.2067346
50
102.1739365
51
129.2061916
0
ARC
8
DEFAULT_255_1_234
10
4.4370449
20
29.3192094
40
0.1921118
50
129.7279328
51
135.7542026
0
ARC
8
DEFAULT_255_1_234
10
4.4491977
20
29.3095045
40
0.2075944
50
136.175737
51
166.3674722
0
ARC
8
DEFAULT_255_1_234
10
4.5498896
20
29.2825182
40
0.3118201
50
165.9092917
51
178.8683903
0
ARC
8
DEFAULT_255_1_234
10
4.6363757
20
29.2778179
40
0.3983935
50
178.438168
51
180.0083905
0
ARC
8
DEFAULT_255_1_234
10
4.4962359
20
29.2817231
40
0.4068601
50
163.2878735
51
180.5581814
0
ARC
8
DEFAULT_255_1_234
10
4.4160621
20
29.303784
40
0.3237344
50
133.454115
51
162.9470031
0
ARC
8
DEFAULT_255_1_234
10
4.4339162
20
29.2848
40
0.349795
50
100.7869394
51
133.4384016
0
ARC
8
DEFAULT_255_1_234
10
4.4686934
20
29.1299319
40
0.5084616
50
89.6605301
51
101.3704185
0
ARC
8
DEFAULT_255_1_234
10
4.4753273
20
29.1360496
40
0.502348
50
78.2171172
51
90.4130393
0
ARC
8
DEFAULT_255_1_234
10
4.5108351
20
29.2984637
40
0.3361092
50
55.9268222
51
78.4888551
0
ARC
8
DEFAULT_255_1_234
10
4.5304791
20
29.3323324
40
0.2970617
50
47.9292255
51
55.4054003
0
ARC
8
DEFAULT_255_1_234
10
4.5406352
20
29.3426502
40
0.2825983
50
4.3347696
51
48.0560701
0
ARC
8
DEFAULT_255_1_234
10
4.4310745
20
29.3256601
40
0.393225
50
359.925209
51
5.5967654
0
ARC
8
DEFAULT_255_1_234
10
4.4739637
20
29.3312816
40
0.3503892
50
337.8914096
51
358.9967724
0
ARC
8
DEFAULT_255_1_234
10
4.2026049
20
29.4359706
40
0.6412172
50
326.9135351
51
338.3505194
0
ARC
8
DEFAULT_255_1_234
10
3.8040353
20
29.6914284
40
1.1146189
50
319.6472867
51
327.095818
0
ARC
8
DEFAULT_255_1_234
10
3.4207356
20
30.0076
40
1.6114559
50
317.2586784
51
319.9046139
0
LINE
8
DEFAULT_255_1_234
10
5.6628127
20
29.6223211
11
5.6628127
21
28.845652
0
LINE
8
DEFAULT_255_1_234
10
5.6628127
20
28.845652
11
5.8250538
21
28.845652
0
LINE
8
DEFAULT_255_1_234
10
5.8250538
20
28.845652
11
5.8250538
21
28.7243728
0
LINE
8
DEFAULT_255_1_234
10
5.8250538
20
28.7243728
11
5.6628127
21
28.7243728
0
LINE
8
DEFAULT_255_1_234
10
5.6628127
20
28.7243728
11
5.6628127
21
28.4529
0
LINE
8
DEFAULT_255_1_234
10
5.6628127
20
28.4529
11
5.5134224
21
28.4529
0
LINE
8
DEFAULT_255_1_234
10
5.5134224
20
28.4529
11
5.5134224
21
28.7243728
0
LINE
8
DEFAULT_255_1_234
10
5.5134224
20
28.7243728
11
4.9809181
21
28.7243728
0
LINE
8
DEFAULT_255_1_234
10
4.9809181
20
28.7243728
11
4.9809181
21
28.8119187
0
LINE
8
DEFAULT_255_1_234
10
4.9809181
20
28.8119187
11
5.5045875
21
29.6223211
0
LINE
8
DEFAULT_255_1_234
10
5.5045875
20
29.6223211
11
5.6628127
21
29.6223211
0
LINE
8
DEFAULT_255_1_234
10
5.4957525
20
29.3869912
11
5.1495846
21
28.845652
0
LINE
8
DEFAULT_255_1_234
10
5.1495846
20
28.845652
11
5.5134224
21
28.845652
0
LINE
8
DEFAULT_255_1_234
10
5.5134224
20
28.845652
11
5.5134224
21
29.4191181
0
LINE
8
DEFAULT_255_1_234
10
5.5134224
20
29.4191181
11
5.4957525
21
29.3869912
0
LINE
8
DEFAULT_255_1_234
10
6.4001263
20
29.4215276
11
6.4001263
21
29.0801788
0
LINE
8
DEFAULT_255_1_234
10
6.4001263
20
29.0801788
11
6.7262148
21
29.0801788
0
LINE
8
DEFAULT_255_1_234
10
6.7262148
20
29.0801788
11
6.7262148
21
28.9396233
0
LINE
8
DEFAULT_255_1_234
10
6.7262148
20
28.9396233
11
6.4001263
21
28.9396233
0
LINE
8
DEFAULT_255_1_234
10
6.4001263
20
28.9396233
11
6.4001263
21
28.5701634
0
LINE
8
DEFAULT_255_1_234
10
6.4001263
20
28.5701634
11
6.2507359
21
28.5701634
0
LINE
8
DEFAULT_255_1_234
10
6.2507359
20
28.5701634
11
6.2507359
21
28.9396233
0
LINE
8
DEFAULT_255_1_234
10
6.2507359
20
28.9396233
11
5.9246474
21
28.9396233
0
LINE
8
DEFAULT_255_1_234
10
5.9246474
20
28.9396233
11
5.9246474
21
29.0801788
0
LINE
8
DEFAULT_255_1_234
10
5.9246474
20
29.0801788
11
6.2507359
21
29.0801788
0
LINE
8
DEFAULT_255_1_234
10
6.2507359
20
29.0801788
11
6.2507359
21
29.4215276
0
LINE
8
DEFAULT_255_1_234
10
6.2507359
20
29.4215276
11
6.4001263
21
29.4215276
0
LINE
8
DEFAULT_255_1_234
10
4.8136341
20
4.6404
11
4.5598312
21
5.1134694
0
LINE
8
DEFAULT_255_1_234
10
4.5598312
20
5.1134694
11
4.2851458
21
5.1134694
0
LINE
8
DEFAULT_255_1_234
10
4.2851458
20
5.1134694
11
4.2851458
21
4.6404
0
LINE
8
DEFAULT_255_1_234
10
4.2851458
20
4.6404
11
4.1301332
21
4.6404
0
LINE
8
DEFAULT_255_1_234
10
4.1301332
20
4.6404
11
4.1301332
21
5.8098211
0
LINE
8
DEFAULT_255_1_234
10
4.1301332
20
5.8098211
11
4.517263
21
5.8098211
0
LINE
8
DEFAULT_255_1_234
10
4.7044025
20
5.1463995
11
4.9790879
21
4.6500381
0
LINE
8
DEFAULT_255_1_234
10
4.9790879
20
4.6500381
11
4.9790879
21
4.6404
0
LINE
8
DEFAULT_255_1_234
10
4.9790879
20
4.6404
11
4.8136341
21
4.6404
0
LINE
8
DEFAULT_255_1_234
10
4.2851458
20
5.6829196
11
4.2851458
21
5.2395677
0
LINE
8
DEFAULT_255_1_234
10
4.2851458
20
5.2395677
11
4.522082
21
5.2395677
0
LINE
8
DEFAULT_255_1_234
10
4.5212789
20
5.6829196
11
4.2851458
21
5.6829196
0
ARC
8
DEFAULT_255_1_234
10
4.5214269
20
5.1136761
40
0.6961575
50
80.653586
51
90.3427061
0
ARC
8
DEFAULT_255_1_234
10
4.5633744
20
5.3599348
40
0.4463577
50
65.6987447
51
80.8329603
0
ARC
8
DEFAULT_255_1_234
10
4.6111385
20
5.4694322
40
0.3269094
50
50.0017161
51
65.4305835
0
ARC
8
DEFAULT_255_1_234
10
4.6329849
20
5.4989482
40
0.2902647
50
11.628416
51
49.5603263
0
ARC
8
DEFAULT_255_1_234
10
4.4794185
20
5.4614299
40
0.4482792
50
359.5655735
51
12.3691
0
ARC
8
DEFAULT_255_1_234
10
4.5871045
20
5.4551644
40
0.3405924
50
341.9983148
51
0.4822259
0
ARC
8
DEFAULT_255_1_234
10
4.6265885
20
5.4444471
40
0.2997359
50
323.8609373
51
341.61416
0
ARC
8
DEFAULT_255_1_234
10
4.5964129
20
5.4677484
40
0.3378487
50
296.7018614
51
323.6876402
0
ARC
8
DEFAULT_255_1_234
10
4.5523024
20
5.5466235
40
0.4281516
50
290.8086567
51
297.2323311
0
ARC
8
DEFAULT_255_1_234
10
4.5246554
20
5.5989351
40
0.3593766
50
269.589728
51
281.8058135
0
ARC
8
DEFAULT_255_1_234
10
4.5497453
20
5.4841743
40
0.2419125
50
281.5501019
51
303.9357432
0
ARC
8
DEFAULT_255_1_234
10
4.5634641
20
5.4603936
40
0.2145323
50
304.4415616
51
311.2106213
0
ARC
8
DEFAULT_255_1_234
10
4.5766746
20
5.4464632
40
0.1953505
50
310.9875673
51
356.2715578
0
ARC
8
DEFAULT_255_1_234
10
4.5010395
20
5.4577422
40
0.2716331
50
354.9348262
51
0.0609027
0
ARC
8
DEFAULT_255_1_234
10
4.4823269
20
5.4604435
40
0.2903554
50
359.5239371
51
12.8808918
0
ARC
8
DEFAULT_255_1_234
10
4.5800824
20
5.4843728
40
0.1897315
50
12.4173452
51
43.1022135
0
ARC
8
DEFAULT_255_1_234
10
4.5862429
20
5.4880724
40
0.1827118
50
43.5751728
51
48.203944
0
ARC
8
DEFAULT_255_1_234
10
4.5692921
20
5.4659302
40
0.2105272
50
48.7809703
51
72.6969569
0
ARC
8
DEFAULT_255_1_234
10
4.5338546
20
5.358382
40
0.3237537
50
72.3702241
51
84.8791103
0
ARC
8
DEFAULT_255_1_234
10
4.5191022
20
5.2241769
40
0.4587478
50
84.5400526
51
89.7281406
0
LINE
8
DEFAULT_255_1_234
10
5.4674176
20
4.6404
11
5.1437386
21
4.6404
0
LINE
8
DEFAULT_255_1_234
10
5.1437386
20
4.6404
11
5.1437386
21
5.8098211
0
LINE
8
DEFAULT_255_1_234
10
5.1437386
20
5.8098211
11
5.473843
21
5.8098211
0
LINE
8
DEFAULT_255_1_234
10
5.9894806
20
5.2644661
11
5.9894806
21
5.1897709
0
LINE
8
DEFAULT_255_1_234
10
5.4778589
20
5.6829196
11
5.2979479
21
5.6829196
0
LINE
8
DEFAULT_255_1_234
10
5.2979479
20
5.6829196
11
5.2979479
21
4.7664983
0
LINE
8
DEFAULT_255_1_234
10
5.2979479
20
4.7664983
11
5.4601891
21
4.7664983
0
LINE
8
DEFAULT_255_1_234
10
5.8368776
20
5.1929836
11
5.8368776
21
5.2612534
0
ARC
8
DEFAULT_255_1_234
10
5.4777373
20
5.2232894
40
0.5865446
50
75.4101064
51
90.3804066
0
ARC
8
DEFAULT_255_1_234
10
5.5006886
20
5.3189492
40
0.4881916
50
60.145586
51
75.1888407
0
ARC
8
DEFAULT_255_1_234
10
5.5165662
20
5.3466199
40
0.4562893
50
26.5253612
51
60.1450928
0
ARC
8
DEFAULT_255_1_234
10
5.4045411
20
5.2872158
40
0.5830602
50
7.4030428
51
26.8320788
0
ARC
8
DEFAULT_255_1_234
10
5.2451168
20
5.2623804
40
0.7443669
50
0.1605367
51
7.7176192
0
ARC
8
DEFAULT_255_1_234
10
5.2615072
20
5.1859434
40
0.7279835
50
348.7289388
51
0.3012466
0
ARC
8
DEFAULT_255_1_234
10
5.4271503
20
5.1530386
40
0.559104
50
333.0706509
51
348.7181832
0
ARC
8
DEFAULT_255_1_234
10
5.523826
20
5.1005319
40
0.4491417
50
299.2531685
51
333.4571258
0
ARC
8
DEFAULT_255_1_234
10
5.48774
20
5.1690828
40
0.5265881
50
278.107187
51
299.0339503
0
ARC
8
DEFAULT_255_1_234
10
5.4621479
20
5.3198216
40
0.679442
50
270.4443897
51
278.4511052
0
ARC
8
DEFAULT_255_1_234
10
5.4642309
20
5.2269213
40
0.4604407
50
269.4970433
51
284.0205042
0
ARC
8
DEFAULT_255_1_234
10
5.499761
20
5.0903978
40
0.3193797
50
283.7700273
51
318.1555492
0
ARC
8
DEFAULT_255_1_234
10
5.4660368
20
5.1156367
40
0.3613588
50
318.7415601
51
343.6873628
0
ARC
8
DEFAULT_255_1_234
10
5.2856391
20
5.1719832
40
0.5503313
50
343.3325091
51
355.8548958
0
ARC
8
DEFAULT_255_1_234
10
5.0758076
20
5.1919319
40
0.7610708
50
355.4988528
51
0.0791727
0
ARC
8
DEFAULT_255_1_234
10
5.1540698
20
5.265478
40
0.6828208
50
359.6455037
51
9.8607896
0
ARC
8
DEFAULT_255_1_234
10
5.3901396
20
5.3081099
40
0.4429406
50
9.6571907
51
26.1932807
0
ARC
8
DEFAULT_255_1_234
10
5.4829385
20
5.3512118
40
0.3406537
50
26.5777228
51
40.1532208
0
ARC
8
DEFAULT_255_1_234
10
5.5085111
20
5.3711619
40
0.308246
50
40.3840491
51
80.1431104
0
ARC
8
DEFAULT_255_1_234
10
5.4758229
20
5.2262333
40
0.4566909
50
79.2152159
51
89.7445637
0
LINE
8
DEFAULT_255_1_234
10
4.9046023
20
13.4091849
11
4.7495897
21
13.4091849
0
LINE
8
DEFAULT_255_1_234
10
4.0572539
20
12.9168394
11
4.2122665
21
12.9168394
0
ARC
8
DEFAULT_255_1_234
10
4.815471
20
14.3038768
40
1.252368
50
248.9199003
51
254.1439814
0
ARC
8
DEFAULT_255_1_234
10
4.6474205
20
13.8712234
40
0.788226
50
241.633709
51
249.0064503
0
ARC
8
DEFAULT_255_1_234
10
4.49456
20
13.5911317
40
0.4691427
50
230.498225
51
241.8087113
0
ARC
8
DEFAULT_255_1_234
10
4.4161174
20
13.4911906
40
0.3421437
50
227.4064532
51
229.9881192
0
ARC
8
DEFAULT_255_1_234
10
4.3673694
20
13.4436088
40
0.2741476
50
200.6781896
51
228.1763934
0
ARC
8
DEFAULT_255_1_234
10
4.3746005
20
13.4421077
40
0.2804109
50
179.5061581
51
199.8694617
0
ARC
8
DEFAULT_255_1_234
10
4.3736757
20
13.449521
40
0.2795204
50
132.4834203
51
181.0242172
0
ARC
8
DEFAULT_255_1_234
10
4.4332339
20
13.3932704
40
0.3612768
50
129.2532479
51
133.4242687
0
ARC
8
DEFAULT_255_1_234
10
4.4478789
20
13.3712965
40
0.3875675
50
101.98776
51
128.8742646
0
ARC
8
DEFAULT_255_1_234
10
4.4877399
20
13.1991741
40
0.5642249
50
89.5906553
51
102.3169264
0
ARC
8
DEFAULT_255_1_234
10
4.4947891
20
13.2310148
40
0.5323783
50
77.2360837
51
90.3248275
0
ARC
8
DEFAULT_255_1_234
10
4.5154971
20
13.32774
40
0.4334697
50
63.837784
51
77.0809408
0
ARC
8
DEFAULT_255_1_234
10
4.5432732
20
13.3794911
40
0.3747796
50
45.9864267
51
64.1607727
0
ARC
8
DEFAULT_255_1_234
10
4.5693614
20
13.4092866
40
0.3352302
50
32.2747395
51
45.6547121
0
ARC
8
DEFAULT_255_1_234
10
4.5760054
20
13.411188
40
0.328603
50
359.6507365
51
32.6130309
0
ARC
8
DEFAULT_255_1_234
10
4.481715
20
13.411666
40
0.2678863
50
359.469343
51
14.9832209
0
ARC
8
DEFAULT_255_1_234
10
4.5522212
20
13.4305539
40
0.1948938
50
14.9781179
51
48.2004265
0
ARC
8
DEFAULT_255_1_234
10
4.5357856
20
13.4098983
40
0.2212521
50
48.5927837
51
74.1241538
0
ARC
8
DEFAULT_255_1_234
10
4.5024346
20
13.2998248
40
0.3362561
50
73.7888341
51
86.6652678
0
ARC
8
DEFAULT_255_1_234
10
4.4921911
20
13.1790881
40
0.4573953
50
86.2640471
51
90.0526343
0
ARC
8
DEFAULT_255_1_234
10
4.4893624
20
13.2186192
40
0.4178709
50
89.6697524
51
99.2309573
0
ARC
8
DEFAULT_255_1_234
10
4.4651075
20
13.3630964
40
0.2713749
50
99.069534
51
113.7658566
0
ARC
8
DEFAULT_255_1_234
10
4.4377266
20
13.4276677
40
0.2012469
50
114.0401004
51
127.9850673
0
ARC
8
DEFAULT_255_1_234
10
4.413683
20
13.457273
40
0.1631167
50
127.7287463
51
176.7105154
0
ARC
8
DEFAULT_255_1_234
10
4.4815547
20
13.4471693
40
0.2315392
50
175.1779447
51
180.0581938
0
ARC
8
DEFAULT_255_1_234
10
4.3972394
20
13.4459428
40
0.1472271
50
179.6142195
51
228.1246017
0
ARC
8
DEFAULT_255_1_234
10
4.4414063
20
13.4868308
40
0.2072299
50
226.5779593
51
230.8800004
0
ARC
8
DEFAULT_255_1_234
10
4.4885141
20
13.5493636
40
0.2854818
50
231.4635071
51
241.9260842
0
ARC
8
DEFAULT_255_1_234
10
4.6082319
20
13.76968
40
0.53622
50
241.7178533
51
248.3259551
0
ARC
8
DEFAULT_255_1_234
10
4.7467691
20
14.1129064
40
0.9063478
50
248.2007737
51
252.4528373
0
ARC
8
DEFAULT_255_1_234
10
4.8671416
20
14.4850441
40
1.2974635
50
252.3391078
51
254.3469452
0
ARC
8
DEFAULT_255_1_234
10
4.1129119
20
11.7873148
40
1.5037162
50
71.0197183
51
74.4087047
0
ARC
8
DEFAULT_255_1_234
10
4.2823804
20
12.2765111
40
0.9859993
50
66.1847285
51
71.086374
0
ARC
8
DEFAULT_255_1_234
10
4.4380116
20
12.62692
40
0.6025855
50
59.3536294
51
66.2691831
0
ARC
8
DEFAULT_255_1_234
10
4.5268769
20
12.7772609
40
0.4279449
50
49.1020879
51
59.3293958
0
ARC
8
DEFAULT_255_1_234
10
4.6087509
20
12.8705834
40
0.3038015
50
32.7919921
51
49.2505539
0
ARC
8
DEFAULT_255_1_234
10
4.6408599
20
12.8934191
40
0.264448
50
31.1181161
51
32.4005348
0
ARC
8
DEFAULT_255_1_234
10
4.6320136
20
12.8898779
40
0.2738556
50
8.1116974
51
30.7958831
0
ARC
8
DEFAULT_255_1_234
10
4.5509804
20
12.8760753
40
0.3560327
50
359.8389159
51
8.4706516
0
ARC
8
DEFAULT_255_1_234
10
4.6135596
20
12.8712137
40
0.2934776
50
337.4731098
51
0.7537279
0
ARC
8
DEFAULT_255_1_234
10
4.6314291
20
12.8692387
40
0.2762607
50
307.5917067
51
336.4315538
0
ARC
8
DEFAULT_255_1_234
10
4.5854119
20
12.9205102
40
0.3449979
50
307.6551545
51
308.4529766
0
ARC
8
DEFAULT_255_1_234
10
4.5623838
20
12.956025
40
0.3871988
50
284.3734338
51
307.1424381
0
ARC
8
DEFAULT_255_1_234
10
4.5128668
20
13.1381932
40
0.5759636
50
272.4382747
51
284.646547
0
ARC
8
DEFAULT_255_1_234
10
4.5001876
20
13.3181893
40
0.7563528
50
269.9708387
51
272.8178037
0
ARC
8
DEFAULT_255_1_234
10
4.4958916
20
13.1143716
40
0.5525489
50
248.2707594
51
270.4055579
0
ARC
8
DEFAULT_255_1_234
10
4.4904657
20
13.0953192
40
0.5328452
50
246.1383403
51
248.0542782
0
ARC
8
DEFAULT_255_1_234
10
4.4486036
20
13.0073843
40
0.4355005
50
233.1670131
51
246.4950969
0
ARC
8
DEFAULT_255_1_234
10
4.3931941
20
12.9325812
40
0.3424126
50
215.3403242
51
233.0843104
0
ARC
8
DEFAULT_255_1_234
10
4.3659372
20
12.9127549
40
0.3087104
50
179.2419209
51
215.2648451
0
ARC
8
DEFAULT_255_1_234
10
4.4426966
20
12.9141666
40
0.2304457
50
179.335461
51
199.1045811
0
ARC
8
DEFAULT_255_1_234
10
4.4094643
20
12.9054766
40
0.1962176
50
199.8828939
51
232.7063202
0
ARC
8
DEFAULT_255_1_234
10
4.4566911
20
12.9648788
40
0.2720938
50
232.3738199
51
255.5136649
0
ARC
8
DEFAULT_255_1_234
10
4.4907778
20
13.0892835
40
0.4010747
50
255.2446292
51
267.5320849
0
ARC
8
DEFAULT_255_1_234
10
4.4995401
20
13.2125702
40
0.5246356
50
267.1557994
51
270.0286766
0
ARC
8
DEFAULT_255_1_234
10
4.5023173
20
13.168195
40
0.4802668
50
269.7000017
51
278.1660162
0
ARC
8
DEFAULT_255_1_234
10
4.5279178
20
12.9951515
40
0.3053425
50
278.0231263
51
290.625471
0
ARC
8
DEFAULT_255_1_234
10
4.5626865
20
12.9024025
40
0.206291
50
290.6619762
51
307.0370976
0
ARC
8
DEFAULT_255_1_234
10
4.5927254
20
12.8655504
40
0.1587906
50
306.3943566
51
355.3030547
0
ARC
8
DEFAULT_255_1_234
10
4.5415186
20
12.8732113
40
0.2104809
50
354.3660432
51
0.0698737
0
ARC
8
DEFAULT_255_1_234
10
4.5557531
20
12.8754617
40
0.1962563
50
359.417946
51
16.1971788
0
ARC
8
DEFAULT_255_1_234
10
4.6012841
20
12.8879418
40
0.149053
50
16.4723299
51
52.6262157
0
ARC
8
DEFAULT_255_1_234
10
4.5191895
20
12.7795433
40
0.2850296
50
52.7386432
51
62.4979148
0
ARC
8
DEFAULT_255_1_234
10
4.3806972
20
12.5189283
40
0.5801521
50
62.2515216
51
68.1220564
0
ARC
8
DEFAULT_255_1_234
10
4.2086883
20
12.0961872
40
1.0365451
50
68.0062803
51
71.8053402
0
ARC
8
DEFAULT_255_1_234
10
4.0291255
20
11.5576758
40
1.6042013
50
71.7183119
51
73.9258742
0
LINE
8
DEFAULT_255_1_234
10
5.4282716
20
12.5779
11
5.1045926
21
12.5779
0
LINE
8
DEFAULT_255_1_234
10
5.1045926
20
12.5779
11
5.1045926
21
13.7473211
0
LINE
8
DEFAULT_255_1_234
10
5.1045926
20
13.7473211
11
5.434697
21
13.7473211
0
LINE
8
DEFAULT_255_1_234
10
5.9503346
20
13.2019661
11
5.9503346
21
13.1272709
0
LINE
8
DEFAULT_255_1_234
10
5.4387129
20
13.6204196
11
5.258802
21
13.6204196
0
LINE
8
DEFAULT_255_1_234
10
5.258802
20
13.6204196
11
5.258802
21
12.7039983
0
LINE
8
DEFAULT_255_1_234
10
5.258802
20
12.7039983
11
5.4210431
21
12.7039983
0
LINE
8
DEFAULT_255_1_234
10
5.7977316
20
13.1304836
11
5.7977316
21
13.1987534
0
ARC
8
DEFAULT_255_1_234
10
5.4385913
20
13.1607894
40
0.5865446
50
75.4101064
51
90.3804066
0
ARC
8
DEFAULT_255_1_234
10
5.4615426
20
13.2564492
40
0.4881916
50
60.145586
51
75.1888407
0
ARC
8
DEFAULT_255_1_234
10
5.4774202
20
13.2841199
40
0.4562893
50
26.5253612
51
60.1450928
0
ARC
8
DEFAULT_255_1_234
10
5.3653951
20
13.2247158
40
0.5830602
50
7.4030428
51
26.8320788
0
ARC
8
DEFAULT_255_1_234
10
5.2059708
20
13.1998804
40
0.7443669
50
0.1605367
51
7.7176192
0
ARC
8
DEFAULT_255_1_234
10
5.2223612
20
13.1234434
40
0.7279835
50
348.7289388
51
0.3012466
0
ARC
8
DEFAULT_255_1_234
10
5.3880043
20
13.0905386
40
0.559104
50
333.0706509
51
348.7181832
0
ARC
8
DEFAULT_255_1_234
10
5.48468
20
13.0380319
40
0.4491417
50
299.2531685
51
333.4571258
0
ARC
8
DEFAULT_255_1_234
10
5.448594
20
13.1065828
40
0.5265881
50
278.107187
51
299.0339503
0
ARC
8
DEFAULT_255_1_234
10
5.4230019
20
13.2573216
40
0.679442
50
270.4443897
51
278.4511052
0
ARC
8
DEFAULT_255_1_234
10
5.4250849
20
13.1644213
40
0.4604407
50
269.4970433
51
284.0205042
0
ARC
8
DEFAULT_255_1_234
10
5.460615
20
13.0278978
40
0.3193797
50
283.7700273
51
318.1555492
0
ARC
8
DEFAULT_255_1_234
10
5.4268908
20
13.0531367
40
0.3613588
50
318.7415601
51
343.6873628
0
ARC
8
DEFAULT_255_1_234
10
5.2464931
20
13.1094832
40
0.5503313
50
343.3325091
51
355.8548958
0
ARC
8
DEFAULT_255_1_234
10
5.0366616
20
13.1294319
40
0.7610708
50
355.4988528
51
0.0791727
0
ARC
8
DEFAULT_255_1_234
10
5.1149238
20
13.202978
40
0.6828208
50
359.6455037
51
9.8607896
0
ARC
8
DEFAULT_255_1_234
10
5.3509936
20
13.2456099
40
0.4429406
50
9.6571907
51
26.1932807
0
ARC
8
DEFAULT_255_1_234
10
5.4437925
20
13.2887118
40
0.3406537
50
26.5777228
51
40.1532208
0
ARC
8
DEFAULT_255_1_234
10
5.4693651
20
13.3086619
40
0.308246
50
40.3840491
51
80.1431104
0
ARC
8
DEFAULT_255_1_234
10
5.4366769
20
13.1637333
40
0.4566909
50
79.2152159
51
89.7445637
0
LINE
8
DEFAULT_255_1_234
10
4.9632341
20
20.5154
11
4.7094312
21
20.9884694
0
LINE
8
DEFAULT_255_1_234
10
4.7094312
20
20.9884694
11
4.4347458
21
20.9884694
0
LINE
8
DEFAULT_255_1_234
10
4.4347458
20
20.9884694
11
4.4347458
21
20.5154
0
LINE
8
DEFAULT_255_1_234
10
4.4347458
20
20.5154
11
4.2797332
21
20.5154
0
LINE
8
DEFAULT_255_1_234
10
4.2797332
20
20.5154
11
4.2797332
21
21.6848211
0
LINE
8
DEFAULT_255_1_234
10
4.2797332
20
21.6848211
11
4.666863
21
21.6848211
0
LINE
8
DEFAULT_255_1_234
10
4.8540025
20
21.0213995
11
5.1286879
21
20.5250381
0
LINE
8
DEFAULT_255_1_234
10
5.1286879
20
20.5250381
11
5.1286879
21
20.5154
0
LINE
8
DEFAULT_255_1_234
10
5.1286879
20
20.5154
11
4.9632341
21
20.5154
0
LINE
8
DEFAULT_255_1_234
10
4.4347458
20
21.5579196
11
4.4347458
21
21.1145677
0
LINE
8
DEFAULT_255_1_234
10
4.4347458
20
21.1145677
11
4.671682
21
21.1145677
0
LINE
8
DEFAULT_255_1_234
10
4.6708789
20
21.5579196
11
4.4347458
21
21.5579196
0
ARC
8
DEFAULT_255_1_234
10
4.6710269
20
20.9886761
40
0.6961575
50
80.653586
51
90.3427061
0
ARC
8
DEFAULT_255_1_234
10
4.7129744
20
21.2349348
40
0.4463577
50
65.6987447
51
80.8329603
0
ARC
8
DEFAULT_255_1_234
10
4.7607385
20
21.3444322
40
0.3269094
50
50.0017161
51
65.4305835
0
ARC
8
DEFAULT_255_1_234
10
4.7825849
20
21.3739482
40
0.2902647
50
11.628416
51
49.5603263
0
ARC
8
DEFAULT_255_1_234
10
4.6290185
20
21.3364299
40
0.4482792
50
359.5655735
51
12.3691
0
ARC
8
DEFAULT_255_1_234
10
4.7367045
20
21.3301644
40
0.3405924
50
341.9983148
51
0.4822259
0
ARC
8
DEFAULT_255_1_234
10
4.7761885
20
21.3194471
40
0.2997359
50
323.8609373
51
341.61416
0
ARC
8
DEFAULT_255_1_234
10
4.7460129
20
21.3427484
40
0.3378487
50
296.7018614
51
323.6876402
0
ARC
8
DEFAULT_255_1_234
10
4.7019024
20
21.4216235
40
0.4281516
50
290.8086567
51
297.2323311
0
ARC
8
DEFAULT_255_1_234
10
4.6742554
20
21.4739351
40
0.3593766
50
269.589728
51
281.8058135
0
ARC
8
DEFAULT_255_1_234
10
4.6993453
20
21.3591743
40
0.2419125
50
281.5501019
51
303.9357432
0
ARC
8
DEFAULT_255_1_234
10
4.7130641
20
21.3353936
40
0.2145323
50
304.4415616
51
311.2106213
0
ARC
8
DEFAULT_255_1_234
10
4.7262746
20
21.3214632
40
0.1953505
50
310.9875673
51
356.2715578
0
ARC
8
DEFAULT_255_1_234
10
4.6506395
20
21.3327422
40
0.2716331
50
354.9348262
51
0.0609027
0
ARC
8
DEFAULT_255_1_234
10
4.6319269
20
21.3354435
40
0.2903554
50
359.5239371
51
12.8808918
0
ARC
8
DEFAULT_255_1_234
10
4.7296824
20
21.3593728
40
0.1897315
50
12.4173452
51
43.1022135
0
ARC
8
DEFAULT_255_1_234
10
4.7358429
20
21.3630724
40
0.1827118
50
43.5751728
51
48.203944
0
ARC
8
DEFAULT_255_1_234
10
4.7188921
20
21.3409302
40
0.2105272
50
48.7809703
51
72.6969569
0
ARC
8
DEFAULT_255_1_234
10
4.6834546
20
21.233382
40
0.3237537
50
72.3702241
51
84.8791103
0
ARC
8
DEFAULT_255_1_234
10
4.6687022
20
21.0991769
40
0.4587478
50
84.5400526
51
89.7281406
0
LINE
8
DEFAULT_255_1_234
10
6.0692045
20
21.3466849
11
5.9141919
21
21.3466849
0
LINE
8
DEFAULT_255_1_234
10
5.2218561
20
20.8543394
11
5.3768687
21
20.8543394
0
ARC
8
DEFAULT_255_1_234
10
5.9800732
20
22.2413768
40
1.252368
50
248.9199003
51
254.1439814
0
ARC
8
DEFAULT_255_1_234
10
5.8120227
20
21.8087234
40
0.788226
50
241.633709
51
249.0064503
0
ARC
8
DEFAULT_255_1_234
10
5.6591621
20
21.5286317
40
0.4691427
50
230.498225
51
241.8087113
0
ARC
8
DEFAULT_255_1_234
10
5.5807196
20
21.4286906
40
0.3421437
50
227.4064532
51
229.9881192
0
ARC
8
DEFAULT_255_1_234
10
5.5319716
20
21.3811088
40
0.2741476
50
200.6781896
51
228.1763934
0
ARC
8
DEFAULT_255_1_234
10
5.5392027
20
21.3796077
40
0.2804109
50
179.5061581
51
199.8694617
0
ARC
8
DEFAULT_255_1_234
10
5.5382779
20
21.387021
40
0.2795204
50
132.4834203
51
181.0242172
0
ARC
8
DEFAULT_255_1_234
10
5.5978361
20
21.3307704
40
0.3612768
50
129.2532479
51
133.4242687
0
ARC
8
DEFAULT_255_1_234
10
5.6124811
20
21.3087965
40
0.3875675
50
101.98776
51
128.8742646
0
ARC
8
DEFAULT_255_1_234
10
5.6523421
20
21.1366741
40
0.5642249
50
89.5906553
51
102.3169264
0
ARC
8
DEFAULT_255_1_234
10
5.6593913
20
21.1685148
40
0.5323783
50
77.2360837
51
90.3248275
0
ARC
8
DEFAULT_255_1_234
10
5.6800993
20
21.26524
40
0.4334697
50
63.837784
51
77.0809408
0
ARC
8
DEFAULT_255_1_234
10
5.7078754
20
21.3169911
40
0.3747796
50
45.9864267
51
64.1607727
0
ARC
8
DEFAULT_255_1_234
10
5.7339636
20
21.3467866
40
0.3352302
50
32.2747395
51
45.6547121
0
ARC
8
DEFAULT_255_1_234
10
5.7406076
20
21.348688
40
0.328603
50
359.6507365
51
32.6130309
0
ARC
8
DEFAULT_255_1_234
10
5.6463172
20
21.349166
40
0.2678863
50
359.469343
51
14.9832209
0
ARC
8
DEFAULT_255_1_234
10
5.7168234
20
21.3680539
40
0.1948938
50
14.9781179
51
48.2004265
0
ARC
8
DEFAULT_255_1_234
10
5.7003878
20
21.3473983
40
0.2212521
50
48.5927837
51
74.1241538
0
ARC
8
DEFAULT_255_1_234
10
5.6670368
20
21.2373248
40
0.3362561
50
73.7888341
51
86.6652678
0
ARC
8
DEFAULT_255_1_234
10
5.6567933
20
21.1165881
40
0.4573953
50
86.2640471
51
90.0526343
0
ARC
8
DEFAULT_255_1_234
10
5.6539646
20
21.1561192
40
0.4178709
50
89.6697524
51
99.2309573
0
ARC
8
DEFAULT_255_1_234
10
5.6297097
20
21.3005964
40
0.2713749
50
99.069534
51
113.7658566
0
ARC
8
DEFAULT_255_1_234
10
5.6023288
20
21.3651677
40
0.2012469
50
114.0401004
51
127.9850673
0
ARC
8
DEFAULT_255_1_234
10
5.5782852
20
21.394773
40
0.1631167
50
127.7287463
51
176.7105154
0
ARC
8
DEFAULT_255_1_234
10
5.6461569
20
21.3846693
40
0.2315392
50
175.1779447
51
180.0581938
0
ARC
8
DEFAULT_255_1_234
10
5.5618416
20
21.3834428
40
0.1472271
50
179.6142195
51
228.1246017
0
ARC
8
DEFAULT_255_1_234
10
5.6060085
20
21.4243308
40
0.2072299
50
226.5779593
51
230.8800004
0
ARC
8
DEFAULT_255_1_234
10
5.6531163
20
21.4868636
40
0.2854818
50
231.4635071
51
241.9260842
0
ARC
8
DEFAULT_255_1_234
10
5.7728341
20
21.70718
40
0.53622
50
241.7178533
51
248.3259551
0
ARC
8
DEFAULT_255_1_234
10
5.9113713
20
22.0504064
40
0.9063478
50
248.2007737
51
252.4528373
0
ARC
8
DEFAULT_255_1_234
10
6.0317438
20
22.4225441
40
1.2974635
50
252.3391078
51
254.3469452
0
ARC
8
DEFAULT_255_1_234
10
5.2775141
20
19.7248148
40
1.5037162
50
71.0197183
51
74.4087047
0
ARC
8
DEFAULT_255_1_234
10
5.4469826
20
20.2140111
40
0.9859993
50
66.1847285
51
71.086374
0
ARC
8
DEFAULT_255_1_234
10
5.6026138
20
20.56442
40
0.6025855
50
59.3536294
51
66.2691831
0
ARC
8
DEFAULT_255_1_234
10
5.6914791
20
20.7147609
40
0.4279449
50
49.1020879
51
59.3293958
0
ARC
8
DEFAULT_255_1_234
10
5.7733531
20
20.8080834
40
0.3038015
50
32.7919921
51
49.2505539
0
ARC
8
DEFAULT_255_1_234
10
5.8054621
20
20.8309191
40
0.264448
50
31.1181161
51
32.4005348
0
ARC
8
DEFAULT_255_1_234
10
5.7966158
20
20.8273779
40
0.2738556
50
8.1116974
51
30.7958831
0
ARC
8
DEFAULT_255_1_234
10
5.7155826
20
20.8135753
40
0.3560327
50
359.8389159
51
8.4706516
0
ARC
8
DEFAULT_255_1_234
10
5.7781618
20
20.8087137
40
0.2934776
50
337.4731098
51
0.7537279
0
ARC
8
DEFAULT_255_1_234
10
5.7960313
20
20.8067387
40
0.2762607
50
307.5917067
51
336.4315538
0
ARC
8
DEFAULT_255_1_234
10
5.7500141
20
20.8580102
40
0.3449979
50
307.6551545
51
308.4529766
0
ARC
8
DEFAULT_255_1_234
10
5.726986
20
20.893525
40
0.3871988
50
284.3734338
51
307.1424381
0
ARC
8
DEFAULT_255_1_234
10
5.677469
20
21.0756932
40
0.5759636
50
272.4382747
51
284.646547
0
ARC
8
DEFAULT_255_1_234
10
5.6647898
20
21.2556893
40
0.7563528
50
269.9708387
51
272.8178037
0
ARC
8
DEFAULT_255_1_234
10
5.6604938
20
21.0518716
40
0.5525489
50
248.2707594
51
270.4055579
0
ARC
8
DEFAULT_255_1_234
10
5.6550679
20
21.0328192
40
0.5328452
50
246.1383403
51
248.0542782
0
ARC
8
DEFAULT_255_1_234
10
5.6132058
20
20.9448843
40
0.4355005
50
233.1670131
51
246.4950969
0
ARC
8
DEFAULT_255_1_234
10
5.5577963
20
20.8700812
40
0.3424126
50
215.3403242
51
233.0843104
0
ARC
8
DEFAULT_255_1_234
10
5.5305394
20
20.8502549
40
0.3087104
50
179.2419209
51
215.2648451
0
ARC
8
DEFAULT_255_1_234
10
5.6072988
20
20.8516666
40
0.2304457
50
179.335461
51
199.1045811
0
ARC
8
DEFAULT_255_1_234
10
5.5740665
20
20.8429766
40
0.1962176
50
199.8828939
51
232.7063202
0
ARC
8
DEFAULT_255_1_234
10
5.6212933
20
20.9023788
40
0.2720938
50
232.3738199
51
255.5136649
0
ARC
8
DEFAULT_255_1_234
10
5.65538
20
21.0267835
40
0.4010747
50
255.2446292
51
267.5320849
0
ARC
8
DEFAULT_255_1_234
10
5.6641423
20
21.1500702
40
0.5246356
50
267.1557994
51
270.0286766
0
ARC
8
DEFAULT_255_1_234
10
5.6669195
20
21.105695
40
0.4802668
50
269.7000017
51
278.1660162
0
ARC
8
DEFAULT_255_1_234
10
5.69252
20
20.9326515
40
0.3053425
50
278.0231263
51
290.625471
0
ARC
8
DEFAULT_255_1_234
10
5.7272887
20
20.8399025
40
0.206291
50
290.6619762
51
307.0370976
0
ARC
8
DEFAULT_255_1_234
10
5.7573276
20
20.8030504
40
0.1587906
50
306.3943566
51
355.3030547
0
ARC
8
DEFAULT_255_1_234
10
5.7061208
20
20.8107113
40
0.2104809
50
354.3660432
51
0.0698737
0
ARC
8
DEFAULT_255_1_234
10
5.7203553
20
20.8129617
40
0.1962563
50
359.417946
51
16.1971788
0
ARC
8
DEFAULT_255_1_234
10
5.7658863
20
20.8254418
40
0.149053
50
16.4723299
51
52.6262157
0
ARC
8
DEFAULT_255_1_234
10
5.6837917
20
20.7170433
40
0.2850296
50
52.7386432
51
62.4979148
0
ARC
8
DEFAULT_255_1_234
10
5.5452994
20
20.4564283
40
0.5801521
50
62.2515216
51
68.1220564
0
ARC
8
DEFAULT_255_1_234
10
5.3732905
20
20.0336872
40
1.0365451
50
68.0062803
51
71.8053402
0
ARC
8
DEFAULT_255_1_234
10
5.1937277
20
19.4951758
40
1.6042013
50
71.7183119
51
73.9258742
0
LINE
8
DEFAULT_255_1_234
10
6.9968703
20
20.6366792
11
6.9968703
21
20.5154
0
LINE
8
DEFAULT_255_1_234
10
6.9968703
20
20.5154
11
6.2306424
21
20.5154
0
LINE
8
DEFAULT_255_1_234
10
6.2306424
20
20.5154
11
6.2306424
21
20.6222221
0
LINE
8
DEFAULT_255_1_234
10
6.2306424
20
20.6222221
11
6.635442
21
21.0719995
0
LINE
8
DEFAULT_255_1_234
10
6.3567407
20
21.3402595
11
6.2081536
21
21.3402595
0
LINE
8
DEFAULT_255_1_234
10
6.722988
20
20.9764218
11
6.4097502
21
20.6366792
0
LINE
8
DEFAULT_255_1_234
10
6.4097502
20
20.6366792
11
6.9968703
21
20.6366792
0
ARC
8
DEFAULT_255_1_234
10
5.2864254
20
22.2649527
40
1.8008286
50
318.5132453
51
320.7828378
0
ARC
8
DEFAULT_255_1_234
10
5.8151228
20
21.8346426
40
1.1191493
50
320.7372736
51
323.9737074
0
ARC
8
DEFAULT_255_1_234
10
6.2071084
20
21.5506361
40
0.6350923
50
323.8961724
51
328.6421089
0
ARC
8
DEFAULT_255_1_234
10
6.411768
20
21.4244031
40
0.3946393
50
328.8299013
51
331.789948
0
ARC
8
DEFAULT_255_1_234
10
6.5114858
20
21.3729509
40
0.2824501
50
331.4255242
51
352.9364833
0
ARC
8
DEFAULT_255_1_234
10
6.5251359
20
21.3698976
40
0.2685315
50
353.2248685
51
0.0169286
0
ARC
8
DEFAULT_255_1_234
10
6.5461236
20
21.372195
40
0.2475536
50
359.4866256
51
15.9339782
0
ARC
8
DEFAULT_255_1_234
10
6.5968221
20
21.3858286
40
0.1950618
50
16.1714718
51
43.5284424
0
ARC
8
DEFAULT_255_1_234
10
6.604553
20
21.3935573
40
0.184134
50
43.4415429
51
83.1661404
0
ARC
8
DEFAULT_255_1_234
10
6.5911448
20
21.3198771
40
0.258926
50
82.160215
51
90.1505798
0
ARC
8
DEFAULT_255_1_234
10
6.5879875
20
21.2661865
40
0.3126255
50
89.5460705
51
102.5418777
0
ARC
8
DEFAULT_255_1_234
10
6.5636961
20
21.3692665
40
0.2067346
50
102.1739365
51
129.2061916
0
ARC
8
DEFAULT_255_1_234
10
6.5558033
20
21.3817094
40
0.1921118
50
129.7279328
51
135.7542026
0
ARC
8
DEFAULT_255_1_234
10
6.5679561
20
21.3720045
40
0.2075944
50
136.175737
51
166.3674722
0
ARC
8
DEFAULT_255_1_234
10
6.668648
20
21.3450182
40
0.3118201
50
165.9092917
51
178.8683903
0
ARC
8
DEFAULT_255_1_234
10
6.7551341
20
21.3403179
40
0.3983935
50
178.438168
51
180.0083905
0
ARC
8
DEFAULT_255_1_234
10
6.6149943
20
21.3442231
40
0.4068601
50
163.2878735
51
180.5581814
0
ARC
8
DEFAULT_255_1_234
10
6.5348205
20
21.366284
40
0.3237344
50
133.454115
51
162.9470031
0
ARC
8
DEFAULT_255_1_234
10
6.5526746
20
21.3473
40
0.349795
50
100.7869394
51
133.4384016
0
ARC
8
DEFAULT_255_1_234
10
6.5874518
20
21.1924319
40
0.5084616
50
89.6605301
51
101.3704185
0
ARC
8
DEFAULT_255_1_234
10
6.5940856
20
21.1985496
40
0.502348
50
78.2171172
51
90.4130393
0
ARC
8
DEFAULT_255_1_234
10
6.6295935
20
21.3609637
40
0.3361092
50
55.9268222
51
78.4888551
0
ARC
8
DEFAULT_255_1_234
10
6.6492375
20
21.3948324
40
0.2970617
50
47.9292255
51
55.4054003
0
ARC
8
DEFAULT_255_1_234
10
6.6593936
20
21.4051502
40
0.2825983
50
4.3347696
51
48.0560701
0
ARC
8
DEFAULT_255_1_234
10
6.5498329
20
21.3881601
40
0.393225
50
359.925209
51
5.5967654
0
ARC
8
DEFAULT_255_1_234
10
6.5927221
20
21.3937816
40
0.3503892
50
337.8914096
51
358.9967724
0
ARC
8
DEFAULT_255_1_234
10
6.3213633
20
21.4984706
40
0.6412172
50
326.9135351
51
338.3505194
0
ARC
8
DEFAULT_255_1_234
10
5.9227937
20
21.7539284
40
1.1146189
50
319.6472867
51
327.095818
0
ARC
8
DEFAULT_255_1_234
10
5.539494
20
22.0701
40
1.6114559
50
317.2586784
51
319.9046139
0
LINE
8
DEFAULT_255_1_234
10
7.3703461
20
21.0511169
11
7.3703461
21
21.1723962
0
LINE
8
DEFAULT_255_1_234
10
7.3703461
20
21.1723962
11
7.4819873
21
21.1723962
0
LINE
8
DEFAULT_255_1_234
10
7.2916351
20
21.3780087
11
7.1430479
21
21.3780087
0
LINE
8
DEFAULT_255_1_234
10
7.1326066
20
20.8238188
11
7.281997
21
20.8238188
0
LINE
8
DEFAULT_255_1_234
10
7.4819873
20
21.0511169
11
7.3703461
21
21.0511169
0
ARC
8
DEFAULT_255_1_234
10
7.4790739
20
21.5116713
40
0.3392876
50
270.4919872
51
281.8951556
0
ARC
8
DEFAULT_255_1_234
10
7.5032001
20
21.4014702
40
0.2264817
50
281.6691735
51
301.2943132
0
ARC
8
DEFAULT_255_1_234
10
7.5202211
20
21.3703304
40
0.1910381
50
301.7833094
51
311.7545298
0
ARC
8
DEFAULT_255_1_234
10
7.5293787
20
21.3601748
40
0.1773635
50
311.7323931
51
354.2802411
0
ARC
8
DEFAULT_255_1_234
10
7.4567412
20
21.3726722
40
0.2509385
50
353.0937916
51
0.1181479
0
ARC
8
DEFAULT_255_1_234
10
7.4106197
20
21.3774386
40
0.2970898
50
359.1805295
51
15.0453146
0
ARC
8
DEFAULT_255_1_234
10
7.5452034
20
21.4166992
40
0.1569564
50
13.9577229
51
77.6713066
0
ARC
8
DEFAULT_255_1_234
10
7.5065563
20
21.2781949
40
0.3006298
50
76.1116566
51
90.7026153
0
ARC
8
DEFAULT_255_1_234
10
7.5006401
20
21.3055545
40
0.2732568
50
89.5324876
51
103.531937
0
ARC
8
DEFAULT_255_1_234
10
7.4805845
20
21.3854884
40
0.1908508
50
103.2931773
51
133.5619022
0
ARC
8
DEFAULT_255_1_234
10
7.4761334
20
21.3914375
40
0.1834746
50
133.8349307
51
173.5344437
0
ARC
8
DEFAULT_255_1_234
10
7.5484377
20
21.3786213
40
0.2568033
50
172.5096846
51
180.1366907
0
ARC
8
DEFAULT_255_1_234
10
7.4533271
20
21.3820622
40
0.3103056
50
155.3484492
51
180.7484736
0
ARC
8
DEFAULT_255_1_234
10
7.448436
20
21.3791846
40
0.3070957
50
131.5744599
51
154.4798489
0
ARC
8
DEFAULT_255_1_234
10
7.4797507
20
21.347531
40
0.3515643
50
96.9875458
51
131.9690667
0
ARC
8
DEFAULT_255_1_234
10
7.5016987
20
21.2229636
40
0.4779224
50
89.8596053
51
97.7825159
0
ARC
8
DEFAULT_255_1_234
10
7.506505
20
21.1967616
40
0.5041361
50
78.3655447
51
90.4131539
0
ARC
8
DEFAULT_255_1_234
10
7.5422968
20
21.3626887
40
0.3344039
50
56.6229102
51
78.638727
0
ARC
8
DEFAULT_255_1_234
10
7.5637912
20
21.4002805
40
0.2912001
50
47.0253525
51
56.0854072
0
ARC
8
DEFAULT_255_1_234
10
7.5657692
20
21.4042223
40
0.2869704
50
10.9208013
51
46.7778124
0
ARC
8
DEFAULT_255_1_234
10
7.4293758
20
21.3726857
40
0.426899
50
359.6364486
51
11.6087304
0
ARC
8
DEFAULT_255_1_234
10
7.6128602
20
21.3711752
40
0.243409
50
332.3549906
51
359.7179418
0
ARC
8
DEFAULT_255_1_234
10
7.5478204
20
21.4020142
40
0.3153459
50
325.2333722
51
332.8745602
0
ARC
8
DEFAULT_255_1_234
10
7.5630827
20
21.3913828
40
0.2967456
50
292.9802137
51
325.2392345
0
ARC
8
DEFAULT_255_1_234
10
7.5356201
20
21.4447863
40
0.3566604
50
292.5402179
51
293.6924929
0
ARC
8
DEFAULT_255_1_234
10
7.5748797
20
20.7993091
40
0.3307468
50
57.6435486
51
72.8625112
0
ARC
8
DEFAULT_255_1_234
10
7.6103297
20
20.8567549
40
0.2632492
50
36.7248896
51
57.4697979
0
ARC
8
DEFAULT_255_1_234
10
7.609193
20
20.858022
40
0.2634081
50
8.0545065
51
36.356114
0
ARC
8
DEFAULT_255_1_234
10
7.5229115
20
20.8425174
40
0.3510261
50
359.8320645
51
8.5869982
0
ARC
8
DEFAULT_255_1_234
10
7.4853891
20
20.8377101
40
0.3885653
50
343.9829931
51
0.5571613
0
ARC
8
DEFAULT_255_1_234
10
7.5740088
20
20.8134438
40
0.2966924
50
311.6359546
51
343.7651759
0
ARC
8
DEFAULT_255_1_234
10
7.5361657
20
20.8561102
40
0.3537231
50
279.7829875
51
311.6255694
0
ARC
8
DEFAULT_255_1_234
10
7.5060434
20
20.999828
40
0.5004971
50
269.7286406
51
280.3856417
0
ARC
8
DEFAULT_255_1_234
10
7.4998506
20
20.9956996
40
0.4963778
50
256.6828919
51
270.4412052
0
ARC
8
DEFAULT_255_1_234
10
7.4659802
20
20.8572394
40
0.3538406
50
229.4223008
51
256.8556159
0
ARC
8
DEFAULT_255_1_234
10
7.4245195
20
20.8105736
40
0.2914296
50
181.818294
51
229.6455059
0
ARC
8
DEFAULT_255_1_234
10
7.5285151
20
20.8236496
40
0.3959084
50
179.9755256
51
183.2323064
0
ARC
8
DEFAULT_255_1_234
10
7.5112897
20
20.8216037
40
0.2293034
50
179.4465117
51
196.2869258
0
ARC
8
DEFAULT_255_1_234
10
7.4625305
20
20.8082651
40
0.1787621
50
196.5661473
51
227.705904
0
ARC
8
DEFAULT_255_1_234
10
7.47894
20
20.8266155
40
0.2033784
50
227.7652068
51
257.8762805
0
ARC
8
DEFAULT_255_1_234
10
7.501437
20
20.9209156
40
0.3003081
50
257.4584385
51
270.426602
0
ARC
8
DEFAULT_255_1_234
10
7.5059936
20
20.9498996
40
0.329292
50
269.5962073
51
280.8789248
0
ARC
8
DEFAULT_255_1_234
10
7.5289465
20
20.8352685
40
0.2123908
50
280.6346389
51
299.8595945
0
ARC
8
DEFAULT_255_1_234
10
7.5480372
20
20.7990212
40
0.171457
50
300.3576302
51
314.5517981
0
ARC
8
DEFAULT_255_1_234
10
7.5397432
20
20.8050919
40
0.1816095
50
315.0728369
51
345.0431014
0
ARC
8
DEFAULT_255_1_234
10
7.4474246
20
20.8319841
40
0.2777492
50
344.5986631
51
357.9269593
0
ARC
8
DEFAULT_255_1_234
10
7.3578572
20
20.8381276
40
0.3674917
50
357.4748886
51
0.0231117
0
ARC
8
DEFAULT_255_1_234
10
7.4601682
20
20.8405679
40
0.2651907
50
359.5047933
51
13.4239635
0
ARC
8
DEFAULT_255_1_234
10
7.5468325
20
20.8627478
40
0.1757509
50
12.9498199
51
48.7551375
0
ARC
8
DEFAULT_255_1_234
10
7.5286059
20
20.83784
40
0.2065134
50
49.5088623
51
72.1836453
0
ARC
8
DEFAULT_255_1_234
10
7.4928212
20
20.7316291
40
0.3185836
50
71.9010081
51
84.3554254
0
ARC
8
DEFAULT_255_1_234
10
7.4766844
20
20.5955326
40
0.4556151
50
84.0193428
51
89.333121
0
LINE
8
DEFAULT_255_1_234
10
8.8441701
20
20.6366792
11
8.8441701
21
20.5154
0
LINE
8
DEFAULT_255_1_234
10
8.8441701
20
20.5154
11
8.0779422
21
20.5154
0
LINE
8
DEFAULT_255_1_234
10
8.0779422
20
20.5154
11
8.0779422
21
20.6222221
0
LINE
8
DEFAULT_255_1_234
10
8.0779422
20
20.6222221
11
8.4827418
21
21.0719995
0
LINE
8
DEFAULT_255_1_234
10
8.2040405
20
21.3402595
11
8.0554534
21
21.3402595
0
LINE
8
DEFAULT_255_1_234
10
8.5702878
20
20.9764218
11
8.25705
21
20.6366792
0
LINE
8
DEFAULT_255_1_234
10
8.25705
20
20.6366792
11
8.8441701
21
20.6366792
0
ARC
8
DEFAULT_255_1_234
10
7.1337252
20
22.2649527
40
1.8008286
50
318.5132453
51
320.7828378
0
ARC
8
DEFAULT_255_1_234
10
7.6624226
20
21.8346426
40
1.1191493
50
320.7372736
51
323.9737074
0
ARC
8
DEFAULT_255_1_234
10
8.0544083
20
21.5506361
40
0.6350923
50
323.8961724
51
328.6421089
0
ARC
8
DEFAULT_255_1_234
10
8.2590678
20
21.4244031
40
0.3946393
50
328.8299013
51
331.789948
0
ARC
8
DEFAULT_255_1_234
10
8.3587857
20
21.3729509
40
0.2824501
50
331.4255242
51
352.9364833
0
ARC
8
DEFAULT_255_1_234
10
8.3724357
20
21.3698976
40
0.2685315
50
353.2248685
51
0.0169286
0
ARC
8
DEFAULT_255_1_234
10
8.3934234
20
21.372195
40
0.2475536
50
359.4866256
51
15.9339782
0
ARC
8
DEFAULT_255_1_234
10
8.4441219
20
21.3858286
40
0.1950618
50
16.1714718
51
43.5284424
0
ARC
8
DEFAULT_255_1_234
10
8.4518528
20
21.3935573
40
0.184134
50
43.4415429
51
83.1661404
0
ARC
8
DEFAULT_255_1_234
10
8.4384446
20
21.3198771
40
0.258926
50
82.160215
51
90.1505798
0
ARC
8
DEFAULT_255_1_234
10
8.4352873
20
21.2661865
40
0.3126255
50
89.5460705
51
102.5418777
0
ARC
8
DEFAULT_255_1_234
10
8.410996
20
21.3692665
40
0.2067346
50
102.1739365
51
129.2061916
0
ARC
8
DEFAULT_255_1_234
10
8.4031031
20
21.3817094
40
0.1921118
50
129.7279328
51
135.7542026
0
ARC
8
DEFAULT_255_1_234
10
8.4152559
20
21.3720045
40
0.2075944
50
136.175737
51
166.3674722
0
ARC
8
DEFAULT_255_1_234
10
8.5159478
20
21.3450182
40
0.3118201
50
165.9092917
51
178.8683903
0
ARC
8
DEFAULT_255_1_234
10
8.6024339
20
21.3403179
40
0.3983935
50
178.438168
51
180.0083905
0
ARC
8
DEFAULT_255_1_234
10
8.4622942
20
21.3442231
40
0.4068601
50
163.2878735
51
180.5581814
0
ARC
8
DEFAULT_255_1_234
10
8.3821203
20
21.366284
40
0.3237344
50
133.454115
51
162.9470031
0
ARC
8
DEFAULT_255_1_234
10
8.3999744
20
21.3473
40
0.349795
50
100.7869394
51
133.4384016
0
ARC
8
DEFAULT_255_1_234
10
8.4347516
20
21.1924319
40
0.5084616
50
89.6605301
51
101.3704185
0
ARC
8
DEFAULT_255_1_234
10
8.4413855
20
21.1985496
40
0.502348
50
78.2171172
51
90.4130393
0
ARC
8
DEFAULT_255_1_234
10
8.4768933
20
21.3609637
40
0.3361092
50
55.9268222
51
78.4888551
0
ARC
8
DEFAULT_255_1_234
10
8.4965373
20
21.3948324
40
0.2970617
50
47.9292255
51
55.4054003
0
ARC
8
DEFAULT_255_1_234
10
8.5066934
20
21.4051502
40
0.2825983
50
4.3347696
51
48.0560701
0
ARC
8
DEFAULT_255_1_234
10
8.3971327
20
21.3881601
40
0.393225
50
359.925209
51
5.5967654
0
ARC
8
DEFAULT_255_1_234
10
8.4400219
20
21.3937816
40
0.3503892
50
337.8914096
51
358.9967724
0
ARC
8
DEFAULT_255_1_234
10
8.1686631
20
21.4984706
40
0.6412172
50
326.9135351
51
338.3505194
0
ARC
8
DEFAULT_255_1_234
10
7.7700935
20
21.7539284
40
1.1146189
50
319.6472867
51
327.095818
0
ARC
8
DEFAULT_255_1_234
10
7.3867938
20
22.0701
40
1.6114559
50
317.2586784
51
319.9046139
0
LINE
8
DEFAULT_255_1_234
10
22.8308119
20
28.5741792
11
22.8308119
21
28.4529
0
LINE
8
DEFAULT_255_1_234
10
22.8308119
20
28.4529
11
22.064584
21
28.4529
0
LINE
8
DEFAULT_255_1_234
10
22.064584
20
28.4529
11
22.064584
21
28.5597221
0
LINE
8
DEFAULT_255_1_234
10
22.064584
20
28.5597221
11
22.4693836
21
29.0094995
0
LINE
8
DEFAULT_255_1_234
10
22.1906823
20
29.2777595
11
22.0420952
21
29.2777595
0
LINE
8
DEFAULT_255_1_234
10
22.5569296
20
28.9139218
11
22.2436918
21
28.5741792
0
LINE
8
DEFAULT_255_1_234
10
22.2436918
20
28.5741792
11
22.8308119
21
28.5741792
0
ARC
8
DEFAULT_255_1_234
10
21.120367
20
30.2024527
40
1.8008286
50
318.5132453
51
320.7828378
0
ARC
8
DEFAULT_255_1_234
10
21.6490644
20
29.7721426
40
1.1191493
50
320.7372736
51
323.9737074
0
ARC
8
DEFAULT_255_1_234
10
22.0410501
20
29.4881361
40
0.6350923
50
323.8961724
51
328.6421089
0
ARC
8
DEFAULT_255_1_234
10
22.2457096
20
29.3619031
40
0.3946393
50
328.8299013
51
331.789948
0
ARC
8
DEFAULT_255_1_234
10
22.3454274
20
29.3104509
40
0.2824501
50
331.4255242
51
352.9364833
0
ARC
8
DEFAULT_255_1_234
10
22.3590775
20
29.3073976
40
0.2685315
50
353.2248685
51
0.0169286
0
ARC
8
DEFAULT_255_1_234
10
22.3800652
20
29.309695
40
0.2475536
50
359.4866256
51
15.9339782
0
ARC
8
DEFAULT_255_1_234
10
22.4307637
20
29.3233286
40
0.1950618
50
16.1714718
51
43.5284424
0
ARC
8
DEFAULT_255_1_234
10
22.4384946
20
29.3310573
40
0.184134
50
43.4415429
51
83.1661404
0
ARC
8
DEFAULT_255_1_234
10
22.4250864
20
29.2573771
40
0.258926
50
82.160215
51
90.1505798
0
ARC
8
DEFAULT_255_1_234
10
22.4219291
20
29.2036865
40
0.3126255
50
89.5460705
51
102.5418777
0
ARC
8
DEFAULT_255_1_234
10
22.3976377
20
29.3067665
40
0.2067346
50
102.1739365
51
129.2061916
0
ARC
8
DEFAULT_255_1_234
10
22.3897449
20
29.3192094
40
0.1921118
50
129.7279328
51
135.7542026
0
ARC
8
DEFAULT_255_1_234
10
22.4018977
20
29.3095045
40
0.2075944
50
136.175737
51
166.3674722
0
ARC
8
DEFAULT_255_1_234
10
22.5025896
20
29.2825182
40
0.3118201
50
165.9092917
51
178.8683903
0
ARC
8
DEFAULT_255_1_234
10
22.5890757
20
29.2778179
40
0.3983935
50
178.438168
51
180.0083905
0
ARC
8
DEFAULT_255_1_234
10
22.4489359
20
29.2817231
40
0.4068601
50
163.2878735
51
180.5581814
0
ARC
8
DEFAULT_255_1_234
10
22.3687621
20
29.303784
40
0.3237344
50
133.454115
51
162.9470031
0
ARC
8
DEFAULT_255_1_234
10
22.3866162
20
29.2848
40
0.349795
50
100.7869394
51
133.4384016
0
ARC
8
DEFAULT_255_1_234
10
22.4213934
20
29.1299319
40
0.5084616
50
89.6605301
51
101.3704185
0
ARC
8
DEFAULT_255_1_234
10
22.4280273
20
29.1360496
40
0.502348
50
78.2171172
51
90.4130393
0
ARC
8
DEFAULT_255_1_234
10
22.4635351
20
29.2984637
40
0.3361092
50
55.9268222
51
78.4888551
0
ARC
8
DEFAULT_255_1_234
10
22.4831791
20
29.3323324
40
0.2970617
50
47.9292255
51
55.4054003
0
ARC
8
DEFAULT_255_1_234
10
22.4933352
20
29.3426502
40
0.2825983
50
4.3347696
51
48.0560701
0
ARC
8
DEFAULT_255_1_234
10
22.3837745
20
29.3256601
40
0.393225
50
359.925209
51
5.5967654
0
ARC
8
DEFAULT_255_1_234
10
22.4266637
20
29.3312816
40
0.3503892
50
337.8914096
51
358.9967724
0
ARC
8
DEFAULT_255_1_234
10
22.1553049
20
29.4359706
40
0.6412172
50
326.9135351
51
338.3505194
0
ARC
8
DEFAULT_255_1_234
10
21.7567353
20
29.6914284
40
1.1146189
50
319.6472867
51
327.095818
0
ARC
8
DEFAULT_255_1_234
10
21.3734356
20
30.0076
40
1.6114559
50
317.2586784
51
319.9046139
0
LINE
8
DEFAULT_255_1_234
10
23.6155127
20
29.6223211
11
23.6155127
21
28.845652
0
LINE
8
DEFAULT_255_1_234
10
23.6155127
20
28.845652
11
23.7777538
21
28.845652
0
LINE
8
DEFAULT_255_1_234
10
23.7777538
20
28.845652
11
23.7777538
21
28.7243728
0
LINE
8
DEFAULT_255_1_234
10
23.7777538
20
28.7243728
11
23.6155127
21
28.7243728
0
LINE
8
DEFAULT_255_1_234
10
23.6155127
20
28.7243728
11
23.6155127
21
28.4529
0
LINE
8
DEFAULT_255_1_234
10
23.6155127
20
28.4529
11
23.4661224
21
28.4529
0
LINE
8
DEFAULT_255_1_234
10
23.4661224
20
28.4529
11
23.4661224
21
28.7243728
0
LINE
8
DEFAULT_255_1_234
10
23.4661224
20
28.7243728
11
22.9336181
21
28.7243728
0
LINE
8
DEFAULT_255_1_234
10
22.9336181
20
28.7243728
11
22.9336181
21
28.8119187
0
LINE
8
DEFAULT_255_1_234
10
22.9336181
20
28.8119187
11
23.4572875
21
29.6223211
0
LINE
8
DEFAULT_255_1_234
10
23.4572875
20
29.6223211
11
23.6155127
21
29.6223211
0
LINE
8
DEFAULT_255_1_234
10
23.4484525
20
29.3869912
11
23.1022846
21
28.845652
0
LINE
8
DEFAULT_255_1_234
10
23.1022846
20
28.845652
11
23.4661224
21
28.845652
0
LINE
8
DEFAULT_255_1_234
10
23.4661224
20
28.845652
11
23.4661224
21
29.4191181
0
LINE
8
DEFAULT_255_1_234
10
23.4661224
20
29.4191181
11
23.4484525
21
29.3869912
0
LINE
8
DEFAULT_255_1_234
10
24.2363661
20
29.0103026
11
24.2363661
21
28.8890234
0
LINE
8
DEFAULT_255_1_234
10
24.2363661
20
28.8890234
11
23.8444172
21
28.8890234
0
LINE
8
DEFAULT_255_1_234
10
23.8444172
20
28.8890234
11
23.8444172
21
29.0103026
0
LINE
8
DEFAULT_255_1_234
10
23.8444172
20
29.0103026
11
24.2363661
21
29.0103026
0
LINE
8
DEFAULT_255_1_234
10
21.8627482
20
21.097701
11
21.8627482
21
20.6688062
0
LINE
8
DEFAULT_255_1_234
10
20.9615872
20
21.0438884
11
20.9615872
21
21.1458915
0
LINE
8
DEFAULT_255_1_234
10
21.8627482
20
21.3418659
11
21.7085389
21
21.3418659
0
LINE
8
DEFAULT_255_1_234
10
21.1165998
20
21.1499073
11
21.1165998
21
21.0543296
0
LINE
8
DEFAULT_255_1_234
10
21.709342
20
20.7097681
11
21.709342
21
20.9724059
0
LINE
8
DEFAULT_255_1_234
10
21.709342
20
20.9724059
11
21.4386725
21
20.9724059
0
LINE
8
DEFAULT_255_1_234
10
21.4386725
20
20.9724059
11
21.4386725
21
21.097701
0
LINE
8
DEFAULT_255_1_234
10
21.4386725
20
21.097701
11
21.8627482
21
21.097701
0
ARC
8
DEFAULT_255_1_234
10
21.5795989
20
20.8681396
40
0.3462765
50
295.8437914
51
324.8549609
0
ARC
8
DEFAULT_255_1_234
10
21.5379956
20
20.9434567
40
0.4322211
50
291.5695085
51
296.4549398
0
ARC
8
DEFAULT_255_1_234
10
21.4869207
20
21.0799275
40
0.5779178
50
278.6622409
51
291.3045483
0
ARC
8
DEFAULT_255_1_234
10
21.4529699
20
21.2947408
40
0.7953952
50
270.020006
51
278.7494541
0
ARC
8
DEFAULT_255_1_234
10
21.4491623
20
21.4264036
40
0.927067
50
269.9969998
51
270.2524872
0
ARC
8
DEFAULT_255_1_234
10
21.4453336
20
21.0180589
40
0.5187361
50
253.5786322
51
270.4175299
0
ARC
8
DEFAULT_255_1_234
10
21.4279992
20
20.9509236
40
0.4494451
50
238.8203306
51
253.2788235
0
ARC
8
DEFAULT_255_1_234
10
21.4260365
20
20.9458231
40
0.4440665
50
206.7883783
51
238.6962764
0
ARC
8
DEFAULT_255_1_234
10
21.5034275
20
20.9922405
40
0.5341121
50
206.1129412
51
207.4916643
0
ARC
8
DEFAULT_255_1_234
10
21.563119
20
21.0176488
40
0.5989041
50
188.6921119
51
205.7821245
0
ARC
8
DEFAULT_255_1_234
10
21.7487552
20
21.049223
40
0.7871862
50
180.3882829
51
188.9219216
0
ARC
8
DEFAULT_255_1_234
10
21.8715366
20
21.1515464
40
0.909967
50
170.2024264
51
180.3560651
0
ARC
8
DEFAULT_255_1_234
10
21.5551884
20
21.2081237
40
0.5886083
50
154.2857445
51
170.3893044
0
ARC
8
DEFAULT_255_1_234
10
21.4270087
20
21.266795
40
0.4476743
50
139.8401567
51
153.9332699
0
ARC
8
DEFAULT_255_1_234
10
21.3910823
20
21.2955577
40
0.4016697
50
98.4190291
51
139.6707122
0
ARC
8
DEFAULT_255_1_234
10
21.4290341
20
21.1110328
40
0.5898566
50
89.7659205
51
99.4415478
0
ARC
8
DEFAULT_255_1_234
10
21.435559
20
21.1175844
40
0.5833147
50
78.0551672
51
90.4042112
0
ARC
8
DEFAULT_255_1_234
10
21.47601
20
21.2994644
40
0.3970055
50
54.6380464
51
78.3339173
0
ARC
8
DEFAULT_255_1_234
10
21.4950156
20
21.3314795
40
0.3599102
50
50.031736
51
54.1558201
0
ARC
8
DEFAULT_255_1_234
10
21.4842944
20
21.3218766
40
0.3741624
50
18.1092409
51
49.7180913
0
ARC
8
DEFAULT_255_1_234
10
21.3386144
20
21.2685089
40
0.5292424
50
7.9672797
51
18.6984571
0
ARC
8
DEFAULT_255_1_234
10
21.3536622
20
21.2808504
40
0.3600838
50
9.7557294
51
27.3215714
0
ARC
8
DEFAULT_255_1_234
10
21.4664094
20
21.3371912
40
0.2340608
50
27.7361077
51
84.5257964
0
ARC
8
DEFAULT_255_1_234
10
21.4336481
20
21.172864
40
0.4011215
50
82.106034
51
90.2001166
0
ARC
8
DEFAULT_255_1_234
10
21.4286698
20
21.2236215
40
0.3503799
50
89.4150119
51
105.5823402
0
ARC
8
DEFAULT_255_1_234
10
21.4029696
20
21.3171867
40
0.2533503
50
105.6678618
51
144.2648758
0
ARC
8
DEFAULT_255_1_234
10
21.4922951
20
21.2536289
40
0.3629787
50
144.3561283
51
162.8564086
0
ARC
8
DEFAULT_255_1_234
10
21.700686
20
21.1867017
40
0.5818441
50
162.6076014
51
173.6780284
0
ARC
8
DEFAULT_255_1_234
10
22.0068004
20
21.149489
40
0.8902007
50
173.4670142
51
179.9730753
0
ARC
8
DEFAULT_255_1_234
10
21.8159675
20
21.050126
40
0.6993804
50
179.6556203
51
190.0080463
0
ARC
8
DEFAULT_255_1_234
10
21.5843504
20
21.0076375
40
0.4639066
50
189.8116607
51
206.6796816
0
ARC
8
DEFAULT_255_1_234
10
21.4998656
20
20.9682503
40
0.3707421
50
207.1031645
51
217.7074368
0
ARC
8
DEFAULT_255_1_234
10
21.4364345
20
20.9130559
40
0.2868417
50
216.7345547
51
265.6812148
0
ARC
8
DEFAULT_255_1_234
10
21.4495136
20
21.0034855
40
0.3780509
50
264.7366618
51
270.0611241
0
ARC
8
DEFAULT_255_1_234
10
21.4518399
20
21.2875111
40
0.662079
50
269.8335834
51
276.0539546
0
ARC
8
DEFAULT_255_1_234
10
21.4725404
20
21.097356
40
0.4708016
50
275.9894168
51
284.4615085
0
ARC
8
DEFAULT_255_1_234
10
21.4923411
20
21.0140663
40
0.3852094
50
284.7034461
51
286.4953897
0
ARC
8
DEFAULT_255_1_234
10
21.5330424
20
20.8829965
40
0.2479842
50
286.0770838
51
304.2625829
0
ARC
8
DEFAULT_255_1_234
10
21.5463838
20
20.8611594
40
0.2224291
50
304.5891602
51
317.1073298
0
LINE
8
DEFAULT_255_1_234
10
23.0185154
20
21.6848211
11
23.0185154
21
20.5154
0
LINE
8
DEFAULT_255_1_234
10
23.0185154
20
20.5154
11
22.8635028
21
20.5154
0
LINE
8
DEFAULT_255_1_234
10
22.8635028
20
20.5154
11
22.2747764
21
21.416561
0
LINE
8
DEFAULT_255_1_234
10
22.2747764
20
21.416561
11
22.2747764
21
20.5154
0
LINE
8
DEFAULT_255_1_234
10
22.2747764
20
20.5154
11
22.1197639
21
20.5154
0
LINE
8
DEFAULT_255_1_234
10
22.1197639
20
20.5154
11
22.1197639
21
21.6848211
0
LINE
8
DEFAULT_255_1_234
10
22.1197639
20
21.6848211
11
22.2747764
21
21.6848211
0
LINE
8
DEFAULT_255_1_234
10
22.2747764
20
21.6848211
11
22.8651092
21
20.7796442
0
LINE
8
DEFAULT_255_1_234
10
22.8651092
20
20.7796442
11
22.8651092
21
21.6848211
0
LINE
8
DEFAULT_255_1_234
10
22.8651092
20
21.6848211
11
23.0185154
21
21.6848211
0
LINE
8
DEFAULT_255_1_234
10
23.6160767
20
20.5154
11
23.2923977
21
20.5154
0
LINE
8
DEFAULT_255_1_234
10
23.2923977
20
20.5154
11
23.2923977
21
21.6848211
0
LINE
8
DEFAULT_255_1_234
10
23.2923977
20
21.6848211
11
23.6225021
21
21.6848211
0
LINE
8
DEFAULT_255_1_234
10
24.1381397
20
21.1394661
11
24.1381397
21
21.0647709
0
LINE
8
DEFAULT_255_1_234
10
23.626518
20
21.5579196
11
23.446607
21
21.5579196
0
LINE
8
DEFAULT_255_1_234
10
23.446607
20
21.5579196
11
23.446607
21
20.6414983
0
LINE
8
DEFAULT_255_1_234
10
23.446607
20
20.6414983
11
23.6088481
21
20.6414983
0
LINE
8
DEFAULT_255_1_234
10
23.9855367
20
21.0679836
11
23.9855367
21
21.1362534
0
ARC
8
DEFAULT_255_1_234
10
23.6263963
20
21.0982894
40
0.5865446
50
75.4101064
51
90.3804066
0
ARC
8
DEFAULT_255_1_234
10
23.6493477
20
21.1939492
40
0.4881916
50
60.145586
51
75.1888407
0
ARC
8
DEFAULT_255_1_234
10
23.6652252
20
21.2216199
40
0.4562893
50
26.5253612
51
60.1450928
0
ARC
8
DEFAULT_255_1_234
10
23.5532002
20
21.1622158
40
0.5830602
50
7.4030428
51
26.8320788
0
ARC
8
DEFAULT_255_1_234
10
23.3937758
20
21.1373804
40
0.7443669
50
0.1605367
51
7.7176192
0
ARC
8
DEFAULT_255_1_234
10
23.4101663
20
21.0609434
40
0.7279835
50
348.7289388
51
0.3012466
0
ARC
8
DEFAULT_255_1_234
10
23.5758093
20
21.0280386
40
0.559104
50
333.0706509
51
348.7181832
0
ARC
8
DEFAULT_255_1_234
10
23.6724851
20
20.9755319
40
0.4491417
50
299.2531685
51
333.4571258
0
ARC
8
DEFAULT_255_1_234
10
23.6363991
20
21.0440828
40
0.5265881
50
278.107187
51
299.0339503
0
ARC
8
DEFAULT_255_1_234
10
23.610807
20
21.1948216
40
0.679442
50
270.4443897
51
278.4511052
0
ARC
8
DEFAULT_255_1_234
10
23.61289
20
21.1019213
40
0.4604407
50
269.4970433
51
284.0205042
0
ARC
8
DEFAULT_255_1_234
10
23.6484201
20
20.9653978
40
0.3193797
50
283.7700273
51
318.1555492
0
ARC
8
DEFAULT_255_1_234
10
23.6146959
20
20.9906367
40
0.3613588
50
318.7415601
51
343.6873628
0
ARC
8
DEFAULT_255_1_234
10
23.4342982
20
21.0469832
40
0.5503313
50
343.3325091
51
355.8548958
0
ARC
8
DEFAULT_255_1_234
10
23.2244666
20
21.0669319
40
0.7610708
50
355.4988528
51
0.0791727
0
ARC
8
DEFAULT_255_1_234
10
23.3027289
20
21.140478
40
0.6828208
50
359.6455037
51
9.8607896
0
ARC
8
DEFAULT_255_1_234
10
23.5387987
20
21.1831099
40
0.4429406
50
9.6571907
51
26.1932807
0
ARC
8
DEFAULT_255_1_234
10
23.6315975
20
21.2262118
40
0.3406537
50
26.5777228
51
40.1532208
0
ARC
8
DEFAULT_255_1_234
10
23.6571702
20
21.2461619
40
0.308246
50
40.3840491
51
80.1431104
0
ARC
8
DEFAULT_255_1_234
10
23.624482
20
21.1012333
40
0.4566909
50
79.2152159
51
89.7445637
0
ENDSEC
0
EOF