0
SECTION
2
HEADER
9
$MEASUREMENT
70
1
0
ENDSEC
0
SECTION
2
TABLES
0
TABLE
2
LTYPE
0
LTYPE
72
65
70
64
2
CONTINUOUS
3
______
73
0
40
0
0
ENDTAB
0
TABLE
2
LAYER
0
LAYER
2
DEFAULT_255_2_778
70
0
62
255
6
CONTINUOUS
0
ENDTAB
0
ENDSEC
0
SECTION
2
ENTITIES
0
ARC
8
DEFAULT_255_2_778
10
59.9376329
20
74.4523694
40
0.2202126
50
89.6814893
51
90.0090991
0
ARC
8
DEFAULT_255_2_778
10
59.9377923
20
74.4485225
40
0.2240584
50
44.8289184
51
89.7277343
0
ARC
8
DEFAULT_255_2_778
10
59.9317697
20
74.4424641
40
0.2326009
50
30.004954
51
44.8414335
0
ARC
8
DEFAULT_255_2_778
10
59.9370784
20
74.4470389
40
0.2257196
50
0.0870712
51
29.6731977
0
ARC
8
DEFAULT_255_2_778
10
36.1460162
20
74.5191395
40
0.1535747
50
108.3774206
51
143.9199426
0
ARC
8
DEFAULT_255_2_778
10
35.4128751
20
75.047026
40
0.749844
50
270.0017439
51
324.3113709
0
ARC
8
DEFAULT_255_2_778
10
35.4129152
20
75.0472103
40
0.7500283
50
215.69585
51
269.9986756
0
ARC
8
DEFAULT_255_2_778
10
34.6820209
20
74.5221951
40
0.149887
50
35.6630975
51
90.0852275
0
ARC
8
DEFAULT_255_2_778
10
33.8964172
20
74.5188016
40
0.1537374
50
108.3969228
51
143.9005586
0
LINE
8
DEFAULT_255_2_778
10
60.1627979
20
74.447382
11
60.0616979
21
74.346582
0
LINE
8
DEFAULT_255_2_778
10
60.0616979
20
74.346582
11
60.0616979
21
55.123282
0
LINE
8
DEFAULT_255_2_778
10
60.0616979
20
55.123282
11
57.2867979
21
55.123282
0
LINE
8
DEFAULT_255_2_778
10
57.2867979
20
55.123282
11
57.2867979
21
54.898382
0
LINE
8
DEFAULT_255_2_778
10
57.2867979
20
54.898382
11
59.8367979
21
54.898382
0
LINE
8
DEFAULT_255_2_778
10
59.8367979
20
54.898382
11
59.8367979
21
74.571482
0
LINE
8
DEFAULT_255_2_778
10
59.8367979
20
74.571482
11
59.9375979
21
74.672282
0
LINE
8
DEFAULT_255_2_778
10
59.9375979
20
74.672282
11
36.1436979
21
74.672282
0
LINE
8
DEFAULT_255_2_778
10
36.1436979
20
74.672282
11
36.0975979
21
74.664882
0
LINE
8
DEFAULT_255_2_778
10
34.6817979
20
74.672082
11
33.8938979
21
74.672082
0
LINE
8
DEFAULT_255_2_778
10
33.8938979
20
74.672082
11
33.8478979
21
74.664682
0
ARC
8
DEFAULT_255_2_778
10
57.3822604
20
54.5722405
40
0.2202126
50
179.6814893
51
180.0090991
0
ARC
8
DEFAULT_255_2_778
10
57.3857957
20
54.5724306
40
0.2237468
50
134.7597057
51
179.7351906
0
ARC
8
DEFAULT_255_2_778
10
57.3876091
20
54.5722536
40
0.2251522
50
90.0919335
51
135.0556613
0
LINE
8
DEFAULT_255_2_778
10
57.3872478
20
27.0471056
11
57.3868715
21
27.0471053
0
ARC
8
DEFAULT_255_2_778
10
57.386868
20
27.2716752
40
0.22457
50
224.9547989
51
270.0008908
0
ARC
8
DEFAULT_255_2_778
10
57.3872832
20
27.2722011
40
0.2252354
50
179.9734328
51
224.9748463
0
ARC
8
DEFAULT_255_2_778
10
59.9373656
20
26.8251515
40
0.2224541
50
89.3617596
51
90.0045823
0
ARC
8
DEFAULT_255_2_778
10
59.937649
20
26.8240363
40
0.2235663
50
44.7771866
51
89.437563
0
ARC
8
DEFAULT_255_2_778
10
59.941414
20
26.825242
40
0.2200518
50
27.0766414
51
45.2448355
0
ARC
8
DEFAULT_255_2_778
10
59.9353049
20
26.8221495
40
0.2271429
50
0.0141559
51
18.6284182
0
LINE
8
DEFAULT_255_2_778
10
60.1373478
20
26.9254056
11
60.1505478
21
26.8947056
0
LINE
8
DEFAULT_255_2_778
10
60.1624478
20
26.8222056
11
60.1624478
21
-0.1398944
0
LINE
8
DEFAULT_255_2_778
10
60.1624478
20
-0.1398944
11
58.0624478
21
-0.1403944
0
LINE
8
DEFAULT_255_2_778
10
58.0624478
20
-0.1403944
11
58.0624478
21
3.4222056
0
LINE
8
DEFAULT_255_2_778
10
58.0624478
20
3.4222056
11
57.0874478
21
3.4222056
0
LINE
8
DEFAULT_255_2_778
10
57.0874478
20
3.4222056
11
53.9373478
21
6.5721056
0
LINE
8
DEFAULT_255_2_778
10
53.9373478
20
6.5721056
11
53.9373478
21
7.1721056
0
ARC
8
DEFAULT_255_2_778
10
59.0699108
20
27.1615865
40
0.6712445
50
124.8364376
51
134.1845904
0
ARC
8
DEFAULT_255_2_778
10
36.0617123
20
7.4301358
40
0.1567252
50
225.1967135
51
268.9981512
0
ARC
8
DEFAULT_255_2_778
10
9.3471267
20
70.3382343
40
5.0127109
50
140.7273929
51
150.8902986
0
ARC
8
DEFAULT_255_2_778
10
7.9403015
20
71.4741298
40
3.2046124
50
132.5709644
51
140.5273216
0
ARC
8
DEFAULT_255_2_778
10
7.3252958
20
72.1456448
40
2.2940292
50
121.4852608
51
132.6051083
0
ARC
8
DEFAULT_255_2_778
10
7.0350316
20
72.6162503
40
1.7411108
50
106.7561154
51
121.4279206
0
ARC
8
DEFAULT_255_2_778
10
6.9726845
20
72.7855725
40
1.5610413
50
92.4656419
51
106.3566103
0
ARC
8
DEFAULT_255_2_778
10
6.973114
20
72.7879679
40
1.5586666
50
90.001543
51
92.4852036
0
ARC
8
DEFAULT_255_2_778
10
6.9738393
20
9.0621582
40
1.5641237
50
253.6438971
51
269.9828847
0
ARC
8
DEFAULT_255_2_778
10
7.031181
20
9.2192363
40
1.7310262
50
238.5291026
51
253.286857
0
ARC
8
DEFAULT_255_2_778
10
7.328381
20
9.7051896
40
2.3006563
50
227.4422761
51
238.534478
0
ARC
8
DEFAULT_255_2_778
10
7.9248638
20
10.3559148
40
3.183399
50
219.446127
51
227.4555896
0
ARC
8
DEFAULT_255_2_778
10
9.3471189
20
11.5064307
40
5.0127021
50
209.1097033
51
219.2726269
0
ARC
8
DEFAULT_255_2_778
10
12.2817182
20
13.1869849
40
8.3942917
50
203.3217461
51
209.3871597
0
LINE
8
DEFAULT_255_2_778
10
3.534072
20
68.5882346
11
3.740172
21
69.4523346
0
LINE
8
DEFAULT_255_2_778
10
3.740172
20
69.4523346
11
3.975872
21
70.3088346
0
LINE
8
DEFAULT_255_2_778
10
3.975872
20
70.3088346
11
4.249472
21
71.1539346
0
LINE
8
DEFAULT_255_2_778
10
4.249472
20
71.1539346
11
4.573272
21
71.9810346
0
LINE
8
DEFAULT_255_2_778
10
4.573272
20
71.9810346
11
4.967572
21
72.7768346
0
LINE
8
DEFAULT_255_2_778
10
4.573272
20
9.8637346
11
4.249472
21
10.6908346
0
LINE
8
DEFAULT_255_2_778
10
4.249472
20
10.6908346
11
3.975572
21
11.5358346
0
LINE
8
DEFAULT_255_2_778
10
3.975572
20
11.5358346
11
3.739872
21
12.3923346
0
LINE
8
DEFAULT_255_2_778
10
3.739872
20
12.3923346
11
3.533772
21
13.2564346
0
LINE
8
DEFAULT_255_2_778
10
32.515972
20
7.2731346
11
32.457272
21
7.2062346
0
LINE
8
DEFAULT_255_2_778
10
32.457272
20
7.2062346
11
32.431572
21
7.1723346
0
ARC
8
DEFAULT_255_2_778
10
32.5138775
20
7.4259652
40
0.1531932
50
285.6995139
51
315.7073934
0
LINE
8
DEFAULT_255_2_778
10
32.5156304
20
7.273187
11
32.5553304
21
7.278487
0
LINE
8
DEFAULT_255_2_778
10
30.2656322
20
7.2732047
11
30.2069322
21
7.2063047
0
LINE
8
DEFAULT_255_2_778
10
30.2069322
20
7.2063047
11
30.1815322
21
7.1724047
0
ARC
8
DEFAULT_255_2_778
10
30.263546
20
7.4267806
40
0.1540657
50
285.7332472
51
315.6002944
0
LINE
8
DEFAULT_255_2_778
10
30.2656224
20
7.273187
11
30.3053224
21
7.278487
0
LINE
8
DEFAULT_255_2_778
10
28.0158989
20
7.2732047
11
27.9571989
21
7.2063047
0
LINE
8
DEFAULT_255_2_778
10
27.9571989
20
7.2063047
11
27.9314989
21
7.1724047
0
ARC
8
DEFAULT_255_2_778
10
28.0138735
20
7.4259652
40
0.1531932
50
285.6995139
51
315.7073934
0
LINE
8
DEFAULT_255_2_778
10
28.0156264
20
7.273187
11
28.0553264
21
7.278487
0
LINE
8
DEFAULT_255_2_778
10
25.7655989
20
7.2732047
11
25.7068989
21
7.2063047
0
LINE
8
DEFAULT_255_2_778
10
25.7068989
20
7.2063047
11
25.6811989
21
7.1724047
0
ARC
8
DEFAULT_255_2_778
10
25.7638735
20
7.4259652
40
0.1531932
50
285.6995139
51
315.7073934
0
LINE
8
DEFAULT_255_2_778
10
25.7656264
20
7.273187
11
25.8053264
21
7.278487
0
LINE
8
DEFAULT_255_2_778
10
34.7653949
20
7.2732047
11
34.7066949
21
7.2063047
0
LINE
8
DEFAULT_255_2_778
10
34.7066949
20
7.2063047
11
34.6809949
21
7.1724047
0
ARC
8
DEFAULT_255_2_778
10
34.763546
20
7.4267806
40
0.1540657
50
285.7332472
51
315.6002944
0
LINE
8
DEFAULT_255_2_778
10
34.7656224
20
7.273187
11
34.8053224
21
7.278487
0
ARC
8
DEFAULT_255_2_778
10
48.9305008
20
10.1207849
40
3.549533
50
268.6355717
51
282.0885726
0
ARC
8
DEFAULT_255_2_778
10
49.226826
20
8.5178063
40
1.9205926
50
283.4594172
51
289.5964925
0
ARC
8
DEFAULT_255_2_778
10
48.8893699
20
9.2263636
40
2.7024817
50
291.298438
51
309.2567501
0
ARC
8
DEFAULT_255_2_778
10
47.1390291
20
11.6075189
40
5.6558915
50
307.7221701
51
308.3122499
0
ARC
8
DEFAULT_255_2_778
10
49.0287634
20
72.3122807
40
2.9548057
50
79.5266809
51
86.0194229
0
LINE
8
DEFAULT_255_2_778
10
48.845981
20
75.2723584
11
49.233881
21
75.2599584
0
ARC
8
DEFAULT_255_2_778
10
48.7789045
20
72.4337099
40
2.9168829
50
50.2084188
51
66.7687219
0
ARC
8
DEFAULT_255_2_778
10
49.2630989
20
73.4367164
40
1.8048863
50
68.3341396
51
70.3106955
0
ARC
8
DEFAULT_255_2_778
10
49.035156
20
72.5845672
40
2.6849905
50
71.857766
51
89.7568687
0
ARC
8
DEFAULT_255_2_778
10
48.853993
20
68.7625237
40
6.5098583
50
88.3049873
51
90.0685863
0
ARC
8
DEFAULT_255_2_778
10
2.8868153
20
63.5828901
40
0.7498687
50
128.569433
51
169.8856249
0
ARC
8
DEFAULT_255_2_778
10
35.4105558
20
75.0434529
40
0.8961152
50
224.0695237
51
253.8641226
0
ARC
8
DEFAULT_255_2_778
10
35.4124384
20
75.050088
40
0.9030121
50
253.8663793
51
270.0035939
0
ARC
8
DEFAULT_255_2_778
10
35.4124809
20
75.0530447
40
0.9059687
50
270.0008944
51
270.8504534
0
ARC
8
DEFAULT_255_2_778
10
35.4132395
20
75.043626
40
0.8965399
50
270.8109115
51
303.3214493
0
ARC
8
DEFAULT_255_2_778
10
35.4069623
20
75.0530525
40
0.9078652
50
303.325671
51
308.886392
0
ARC
8
DEFAULT_255_2_778
10
36.0611512
20
74.4171257
40
0.1546502
50
105.7394445
51
135.4189744
0
ARC
8
DEFAULT_255_2_778
10
33.1576479
20
75.19285
40
0.8934686
50
215.6366076
51
223.8946544
0
ARC
8
DEFAULT_255_2_778
10
35.4248554
20
75.2074189
40
0.9161875
50
215.7391669
51
223.7920951
0
ARC
8
DEFAULT_255_2_778
10
58.0629078
20
82.5466698
40
0.3756082
50
90.107921
51
179.892079
0
ARC
8
DEFAULT_255_2_778
10
6.8929102
20
72.8988138
40
1.7734635
50
90.0100131
51
96.5568466
0
ARC
8
DEFAULT_255_2_778
10
6.8975489
20
72.8653083
40
1.8072798
50
96.5816502
51
110.9177574
0
ARC
8
DEFAULT_255_2_778
10
6.9808082
20
72.6665843
40
2.022644
50
111.1110082
51
123.9064207
0
ARC
8
DEFAULT_255_2_778
10
7.3238254
20
72.150627
40
2.6422126
50
123.8384698
51
133.6240726
0
ARC
8
DEFAULT_255_2_778
10
7.9585399
20
71.4826467
40
3.5636563
50
133.6016103
51
140.8560922
0
ARC
8
DEFAULT_255_2_778
10
9.3193643
20
70.4068745
40
5.298222
50
141.1234089
51
150.8716547
0
ARC
8
DEFAULT_255_2_778
10
12.2423882
20
68.7391219
40
8.6634502
50
150.6467873
51
156.6044358
0
ARC
8
DEFAULT_255_2_778
10
26.4112944
20
75.0433383
40
0.8961962
50
231.049375
51
256.9360701
0
ARC
8
DEFAULT_255_2_778
10
26.4120873
20
75.0477718
40
0.9006941
50
256.9506893
51
269.1774582
0
ARC
8
DEFAULT_255_2_778
10
26.4122178
20
75.0486856
40
0.9016096
50
269.169999
51
270.0008463
0
ARC
8
DEFAULT_255_2_778
10
26.4130715
20
75.0453455
40
0.8982699
50
269.9463925
51
309.9282192
0
ARC
8
DEFAULT_255_2_778
10
26.4066892
20
75.0522764
40
0.9076815
50
309.9563625
51
315.8620194
0
LINE
8
DEFAULT_255_2_778
10
50.4470003
20
74.8241773
11
50.6457003
21
74.6749773
0
LINE
8
DEFAULT_255_2_778
10
48.8462003
20
75.2723773
11
45.9094003
21
75.2723773
0
LINE
8
DEFAULT_255_2_778
10
45.3125003
20
74.9866773
11
41.4125003
21
75.0053773
0
LINE
8
DEFAULT_255_2_778
10
48.4991003
20
74.6780773
11
48.4970003
21
74.8233773
0
LINE
8
DEFAULT_255_2_778
10
48.4970003
20
74.8233773
11
48.4949003
21
74.9556773
0
LINE
8
DEFAULT_255_2_778
10
48.4949003
20
74.9556773
11
48.4925003
21
75.0675773
0
LINE
8
DEFAULT_255_2_778
10
48.4925003
20
75.0675773
11
48.4901003
21
75.1551773
0
LINE
8
DEFAULT_255_2_778
10
48.4901003
20
75.1551773
11
48.4875003
21
75.2167773
0
LINE
8
DEFAULT_255_2_778
10
48.4875003
20
75.2167773
11
48.4848003
21
75.2525773
0
LINE
8
DEFAULT_255_2_778
10
48.4848003
20
75.2525773
11
48.4822003
21
75.2683773
0
LINE
8
DEFAULT_255_2_778
10
48.4822003
20
75.2683773
11
48.4795003
21
75.2720773
0
LINE
8
DEFAULT_255_2_778
10
41.4125003
20
6.8386773
11
45.3125003
21
6.8577773
0
LINE
8
DEFAULT_255_2_778
10
5.2392003
20
7.6310773
11
5.2411003
21
8.0748773
0
LINE
8
DEFAULT_255_2_778
10
4.5275003
20
8.1883773
11
5.0418003
21
8.3266773
0
LINE
8
DEFAULT_255_2_778
10
48.4991003
20
7.1662773
11
48.4970003
21
7.0209773
0
LINE
8
DEFAULT_255_2_778
10
48.4970003
20
7.0209773
11
48.4949003
21
6.8889773
0
LINE
8
DEFAULT_255_2_778
10
48.4949003
20
6.8889773
11
48.4925003
21
6.7770773
0
LINE
8
DEFAULT_255_2_778
10
48.4925003
20
6.7770773
11
48.4901003
21
6.6894773
0
LINE
8
DEFAULT_255_2_778
10
48.4901003
20
6.6894773
11
48.4875003
21
6.6277773
0
LINE
8
DEFAULT_255_2_778
10
48.4875003
20
6.6277773
11
48.4848003
21
6.5920773
0
LINE
8
DEFAULT_255_2_778
10
48.4848003
20
6.5920773
11
48.4822003
21
6.5762773
0
LINE
8
DEFAULT_255_2_778
10
48.4822003
20
6.5762773
11
48.4795003
21
6.5724773
0
LINE
8
DEFAULT_255_2_778
10
35.9769003
20
74.3463773
11
36.0055003
21
74.4180773
0
LINE
8
DEFAULT_255_2_778
10
36.0055003
20
74.4180773
11
36.0589003
21
74.5712773
0
LINE
8
DEFAULT_255_2_778
10
36.0589003
20
74.5712773
11
36.0192003
21
74.5659773
0
LINE
8
DEFAULT_255_2_778
10
57.6873003
20
82.5473773
11
57.6873003
21
78.4222773
0
LINE
8
DEFAULT_255_2_778
10
4.2912003
20
72.1791773
11
3.9618003
21
71.3409773
0
LINE
8
DEFAULT_255_2_778
10
3.9618003
20
71.3409773
11
3.6835003
21
70.4844773
0
LINE
8
DEFAULT_255_2_778
10
3.6835003
20
70.4844773
11
3.2342003
21
68.7405773
0
LINE
8
DEFAULT_255_2_778
10
25.7656003
20
74.5712773
11
25.8037003
21
74.4603773
0
LINE
8
DEFAULT_255_2_778
10
25.8037003
20
74.4603773
11
25.8479003
21
74.3463773
0
ARC
8
DEFAULT_255_2_778
10
30.1813892
20
74.5217398
40
0.1506165
50
35.8526776
51
89.9701552
0
ARC
8
DEFAULT_255_2_778
10
30.9128272
20
75.0478164
40
0.7503603
50
215.6994357
51
269.9725427
0
ARC
8
DEFAULT_255_2_778
10
30.9122559
20
75.0477236
40
0.7502674
50
270.0161709
51
324.3041887
0
ARC
8
DEFAULT_255_2_778
10
31.6460628
20
74.518998
40
0.1541832
50
108.449888
51
143.8474962
0
ARC
8
DEFAULT_255_2_778
10
32.4311602
20
74.5218787
40
0.1504776
50
35.8256492
51
89.9971681
0
ARC
8
DEFAULT_255_2_778
10
33.1624799
20
75.0477239
40
0.7502679
50
215.6958088
51
269.9837917
0
ARC
8
DEFAULT_255_2_778
10
33.1622684
20
75.0473097
40
0.7498534
50
269.999942
51
324.3204014
0
LINE
8
DEFAULT_255_2_778
10
31.5972676
20
74.6652563
11
31.6432676
21
74.6723563
0
LINE
8
DEFAULT_255_2_778
10
31.6432676
20
74.6723563
11
32.4311676
21
74.6723563
0
ARC
8
DEFAULT_255_2_778
10
27.9314034
20
74.5217398
40
0.1506165
50
35.8526776
51
89.9701552
0
ARC
8
DEFAULT_255_2_778
10
28.662487
20
75.0471255
40
0.7496694
50
215.6723585
51
269.9996061
0
ARC
8
DEFAULT_255_2_778
10
28.6625533
20
75.0471716
40
0.7497153
50
269.9945452
51
324.3258274
0
ARC
8
DEFAULT_255_2_778
10
29.396077
20
74.518998
40
0.1541832
50
108.449888
51
143.8474962
0
ARC
8
DEFAULT_255_2_778
10
30.9167629
20
75.1994031
40
0.9048263
50
215.6254419
51
223.7804785
0
LINE
8
DEFAULT_255_2_778
10
29.3472819
20
74.6652563
11
29.3932819
21
74.6723563
0
LINE
8
DEFAULT_255_2_778
10
29.3932819
20
74.6723563
11
30.1812819
21
74.6723563
0
ARC
8
DEFAULT_255_2_778
10
25.6804328
20
74.5191186
40
0.1531744
50
53.9047305
51
89.6111138
0
ARC
8
DEFAULT_255_2_778
10
25.67981
20
74.5205876
40
0.1523605
50
35.7431816
51
53.3900304
0
ARC
8
DEFAULT_255_2_778
10
26.4124776
20
75.046759
40
0.7496696
50
215.6723715
51
269.9996015
0
ARC
8
DEFAULT_255_2_778
10
26.4125436
20
75.0468055
40
0.749716
50
269.9945575
51
324.3257931
0
ARC
8
DEFAULT_255_2_778
10
27.1456907
20
74.519147
40
0.1535747
50
108.3774206
51
143.9199426
0
ARC
8
DEFAULT_255_2_778
10
28.6748166
20
75.2071226
40
0.9161737
50
215.7391325
51
223.7921827
0
ARC
8
DEFAULT_255_2_778
10
31.5596207
20
74.4170855
40
0.1532691
50
98.1953323
51
135.3024846
0
ARC
8
DEFAULT_255_2_778
10
32.5149025
20
74.414565
40
0.1558425
50
45.0661914
51
89.1286734
0
LINE
8
DEFAULT_255_2_778
10
27.0972724
20
74.6648895
11
27.1432724
21
74.6719895
0
LINE
8
DEFAULT_255_2_778
10
27.1432724
20
74.6719895
11
27.9311724
21
74.6719895
0
LINE
8
DEFAULT_255_2_778
10
31.6435724
20
74.6722895
11
31.5893724
21
74.6039895
0
LINE
8
DEFAULT_255_2_778
10
31.5893724
20
74.6039895
11
31.5581724
21
74.5701895
0
LINE
8
DEFAULT_255_2_778
10
31.5581724
20
74.5701895
11
31.5377724
21
74.5687895
0
LINE
8
DEFAULT_255_2_778
10
31.4506724
20
74.5248895
11
31.5583724
21
74.4203895
0
LINE
8
DEFAULT_255_2_778
10
31.5583724
20
74.4203895
11
31.5583724
21
74.5703895
0
LINE
8
DEFAULT_255_2_778
10
31.5583724
20
74.5703895
11
32.5172724
21
74.5703895
0
LINE
8
DEFAULT_255_2_778
10
32.5172724
20
74.5703895
11
32.5172724
21
74.4203895
0
LINE
8
DEFAULT_255_2_778
10
32.5172724
20
74.4203895
11
32.6249724
21
74.5248895
0
ARC
8
DEFAULT_255_2_778
10
30.264068
20
74.4139973
40
0.1562997
50
45.1330946
51
89.0235513
0
LINE
8
DEFAULT_255_2_778
10
30.3743315
20
74.5247743
11
30.2667315
21
74.4202743
0
LINE
8
DEFAULT_255_2_778
10
30.2667315
20
74.4202743
11
30.2667315
21
74.5702743
0
LINE
8
DEFAULT_255_2_778
10
30.2667315
20
74.5702743
11
29.3078315
21
74.5702743
0
LINE
8
DEFAULT_255_2_778
10
29.3078315
20
74.5702743
11
29.3673315
21
74.6379743
0
LINE
8
DEFAULT_255_2_778
10
29.3673315
20
74.6379743
11
29.3933315
21
74.6723743
0
ARC
8
DEFAULT_255_2_778
10
28.6625215
20
75.0466255
40
0.8993337
50
224.151101
51
270.0014819
0
ARC
8
DEFAULT_255_2_778
10
28.66264
20
75.0464556
40
0.8991637
50
269.9939345
51
315.8534747
0
ARC
8
DEFAULT_255_2_778
10
30.9124837
20
75.0463793
40
0.8994876
50
224.1463637
51
269.997518
0
ARC
8
DEFAULT_255_2_778
10
30.9123381
20
75.0467772
40
0.8998853
50
270.0067901
51
315.8428964
0
ARC
8
DEFAULT_255_2_778
10
33.1624832
20
75.0463789
40
0.8994869
50
224.1463706
51
269.9975547
0
ARC
8
DEFAULT_255_2_778
10
33.1624104
20
75.0466058
40
0.8997139
50
270.0021907
51
315.8475193
0
ARC
8
DEFAULT_255_2_778
10
27.0594522
20
74.4172141
40
0.153082
50
98.0387574
51
135.4048325
0
LINE
8
DEFAULT_255_2_778
10
34.7667448
20
74.4201919
11
33.8079448
21
74.4201919
0
LINE
8
DEFAULT_255_2_778
10
29.3078448
20
74.4201919
11
30.2672448
21
74.4201919
0
LINE
8
DEFAULT_255_2_778
10
27.0581448
20
74.4201919
11
28.0172448
21
74.4201919
0
LINE
8
DEFAULT_255_2_778
10
27.1435448
20
74.6722919
11
27.0893448
21
74.6039919
0
LINE
8
DEFAULT_255_2_778
10
27.0893448
20
74.6039919
11
27.0581448
21
74.5701919
0
LINE
8
DEFAULT_255_2_778
10
27.0581448
20
74.5701919
11
27.0380448
21
74.5687919
0
LINE
8
DEFAULT_255_2_778
10
26.9504448
20
74.5246919
11
27.0581448
21
74.4201919
0
LINE
8
DEFAULT_255_2_778
10
27.0581448
20
74.4201919
11
27.0581448
21
74.5701919
0
LINE
8
DEFAULT_255_2_778
10
27.0581448
20
74.5701919
11
28.0169448
21
74.5701919
0
ARC
8
DEFAULT_255_2_778
10
31.5601879
20
74.4168655
40
0.1537128
50
98.4255553
51
135.4398773
0
ARC
8
DEFAULT_255_2_778
10
32.5146895
20
74.4141441
40
0.1560948
50
45.1036451
51
89.0911868
0
ARC
8
DEFAULT_255_2_778
10
30.264111
20
74.4139585
40
0.1562816
50
45.1312686
51
89.0634873
0
ARC
8
DEFAULT_255_2_778
10
2.4162712
20
53.6727327
40
1.685207
50
153.695455
51
180.0058924
0
ARC
8
DEFAULT_255_2_778
10
2.4188603
20
53.6725603
40
1.687796
50
180.0000293
51
182.5526745
0
ARC
8
DEFAULT_255_2_778
10
2.4210974
20
53.6727081
40
1.6900375
50
182.5543026
51
191.5639966
0
ARC
8
DEFAULT_255_2_778
10
33.8932933
20
7.3223502
40
0.1499312
50
215.7187853
51
270.1039601
0
ARC
8
DEFAULT_255_2_778
10
31.6434151
20
7.3231745
40
0.1507553
50
215.8795437
51
269.9430764
0
ARC
8
DEFAULT_255_2_778
10
30.9120244
20
6.7971901
40
0.7501291
50
35.6903949
51
89.9892398
0
ARC
8
DEFAULT_255_2_778
10
30.9121699
20
6.7976507
40
0.7496686
50
90.0003499
51
144.3276573
0
ARC
8
DEFAULT_255_2_778
10
30.179047
20
7.3252617
40
0.1535747
50
288.3774206
51
323.9199426
0
ARC
8
DEFAULT_255_2_778
10
28.6590768
20
6.6456475
40
0.9037782
50
35.6516068
51
43.811228
0
LINE
8
DEFAULT_255_2_778
10
31.6435653
20
74.6723192
11
31.5892653
21
74.6041192
0
LINE
8
DEFAULT_255_2_778
10
31.5892653
20
74.6041192
11
31.5580653
21
74.5702192
0
LINE
8
DEFAULT_255_2_778
10
31.5580653
20
74.5702192
11
31.5376653
21
74.5689192
0
LINE
8
DEFAULT_255_2_778
10
31.4506653
20
74.5247192
11
31.5583653
21
74.4202192
0
LINE
8
DEFAULT_255_2_778
10
31.5583653
20
74.4202192
11
31.5583653
21
74.5702192
0
LINE
8
DEFAULT_255_2_778
10
31.5583653
20
74.5702192
11
32.5171653
21
74.5702192
0
LINE
8
DEFAULT_255_2_778
10
32.5171653
20
74.5702192
11
32.5171653
21
74.4202192
0
LINE
8
DEFAULT_255_2_778
10
32.5171653
20
74.4202192
11
32.6248653
21
74.5247192
0
LINE
8
DEFAULT_255_2_778
10
30.3743653
20
74.5247192
11
30.2666653
21
74.4202192
0
LINE
8
DEFAULT_255_2_778
10
30.2666653
20
74.4202192
11
30.2666653
21
74.5702192
0
LINE
8
DEFAULT_255_2_778
10
30.2666653
20
74.5702192
11
29.3077653
21
74.5702192
0
LINE
8
DEFAULT_255_2_778
10
29.3077653
20
74.5702192
11
29.3672653
21
74.6382192
0
LINE
8
DEFAULT_255_2_778
10
29.3672653
20
74.6382192
11
29.3932653
21
74.6726192
0
LINE
8
DEFAULT_255_2_778
10
30.2274653
20
7.1795192
11
30.1814653
21
7.1724192
0
LINE
8
DEFAULT_255_2_778
10
30.1814653
20
7.1724192
11
29.3934653
21
7.1724192
0
ARC
8
DEFAULT_255_2_778
10
33.1620514
20
6.7969912
40
0.7502691
50
35.6958764
51
89.9837581
0
ARC
8
DEFAULT_255_2_778
10
33.1622636
20
6.7974066
40
0.7498537
50
89.9999586
51
144.3203954
0
ARC
8
DEFAULT_255_2_778
10
32.4291741
20
7.3249398
40
0.1533162
50
288.3983601
51
323.9711081
0
ARC
8
DEFAULT_255_2_778
10
30.8983985
20
6.6359618
40
0.9181477
50
35.7477739
51
43.7834816
0
LINE
8
DEFAULT_255_2_778
10
32.4775641
20
7.1794603
11
32.4314641
21
7.1723603
0
LINE
8
DEFAULT_255_2_778
10
32.4314641
20
7.1723603
11
31.6435641
21
7.1723603
0
ARC
8
DEFAULT_255_2_778
10
36.1433701
20
7.3227916
40
0.1504314
50
215.816557
51
269.967953
0
ARC
8
DEFAULT_255_2_778
10
35.4120733
20
6.7969912
40
0.7502691
50
35.6958764
51
89.9837581
0
ARC
8
DEFAULT_255_2_778
10
35.4122854
20
6.7974066
40
0.7498537
50
89.9999586
51
144.3203954
0
ARC
8
DEFAULT_255_2_778
10
34.679196
20
7.3249398
40
0.1533162
50
288.3983601
51
323.9711081
0
ARC
8
DEFAULT_255_2_778
10
33.1744795
20
6.6576463
40
0.8843328
50
35.5939052
51
43.937414
0
LINE
8
DEFAULT_255_2_778
10
34.7275859
20
7.1794603
11
34.6814859
21
7.1723603
0
LINE
8
DEFAULT_255_2_778
10
34.6814859
20
7.1723603
11
33.8935859
21
7.1723603
0
ARC
8
DEFAULT_255_2_778
10
29.3935701
20
7.3227916
40
0.1504314
50
215.816557
51
269.967953
0
ARC
8
DEFAULT_255_2_778
10
28.6622733
20
6.7969912
40
0.7502691
50
35.6958764
51
89.9837581
0
ARC
8
DEFAULT_255_2_778
10
28.6624854
20
6.7974066
40
0.7498537
50
89.9999586
51
144.3203954
0
ARC
8
DEFAULT_255_2_778
10
27.929541
20
7.3248285
40
0.1531335
50
288.3245125
51
323.9728793
0
ARC
8
DEFAULT_255_2_778
10
26.4162131
20
6.6506023
40
0.8953176
50
35.6451097
51
43.8860732
0
LINE
8
DEFAULT_255_2_778
10
27.9776859
20
7.1794603
11
27.9316859
21
7.1723603
0
LINE
8
DEFAULT_255_2_778
10
27.9316859
20
7.1723603
11
27.1437859
21
7.1723603
0
ARC
8
DEFAULT_255_2_778
10
26.413361
20
6.7997354
40
0.897453
50
51.0808788
51
82.2717165
0
ARC
8
DEFAULT_255_2_778
10
26.4125223
20
6.7950869
40
0.9021722
50
82.2586354
51
90.0006912
0
ARC
8
DEFAULT_255_2_778
10
26.4119767
20
6.7992483
40
0.8980109
50
89.9658815
51
126.0794207
0
ARC
8
DEFAULT_255_2_778
10
26.4178548
20
6.7909443
40
0.9081837
50
126.0706138
51
128.8746757
0
ARC
8
DEFAULT_255_2_778
10
25.6788438
20
7.3252255
40
0.1535736
50
288.3772917
51
323.9200792
0
ARC
8
DEFAULT_255_2_778
10
26.4123174
20
6.7969304
40
0.7503536
50
90.0271832
51
144.3008143
0
ARC
8
DEFAULT_255_2_778
10
26.4118949
20
6.7972998
40
0.7499841
50
35.6847101
51
89.9949154
0
ARC
8
DEFAULT_255_2_778
10
27.1429798
20
7.3224465
40
0.1501626
50
215.7171318
51
270.0311575
0
LINE
8
DEFAULT_255_2_778
10
27.0591614
20
7.273084
11
27.0057614
21
7.426284
0
LINE
8
DEFAULT_255_2_778
10
27.0057614
20
7.426284
11
26.9771614
21
7.497984
0
LINE
8
DEFAULT_255_2_778
10
25.8478614
20
7.497984
11
25.8193614
21
7.426284
0
LINE
8
DEFAULT_255_2_778
10
25.8193614
20
7.426284
11
25.7658614
21
7.273084
0
LINE
8
DEFAULT_255_2_778
10
25.7658614
20
7.273084
11
6.9730614
21
7.273084
0
LINE
8
DEFAULT_255_2_778
10
6.9730614
20
7.273084
11
6.8923614
21
7.172284
0
LINE
8
DEFAULT_255_2_778
10
6.8923614
20
7.172284
11
25.6812614
21
7.172284
0
LINE
8
DEFAULT_255_2_778
10
25.6812614
20
7.172284
11
25.7272614
21
7.179484
0
ARC
8
DEFAULT_255_2_778
10
28.663467
20
6.8001357
40
0.8971405
50
51.0745964
51
82.2739421
0
ARC
8
DEFAULT_255_2_778
10
28.662547
20
6.7951117
40
0.9022427
50
82.2589398
51
90.0007553
0
LINE
8
DEFAULT_255_2_778
10
28.6625351
20
7.6973543
11
28.6623219
21
7.6973542
0
ARC
8
DEFAULT_255_2_778
10
28.6619928
20
6.7992531
40
0.8981012
50
89.979003
51
126.0785535
0
ARC
8
DEFAULT_255_2_778
10
28.6676541
20
6.7912747
40
0.9078835
50
126.0707961
51
128.8748109
0
ARC
8
DEFAULT_255_2_778
10
27.061581
20
7.4273621
40
0.1547299
50
224.6201764
51
254.1986319
0
LINE
8
DEFAULT_255_2_778
10
29.3091476
20
7.2731793
11
29.2557476
21
7.4263793
0
LINE
8
DEFAULT_255_2_778
10
29.2557476
20
7.4263793
11
29.2271476
21
7.4980793
0
LINE
8
DEFAULT_255_2_778
10
28.0978476
20
7.4980793
11
28.0693476
21
7.4263793
0
LINE
8
DEFAULT_255_2_778
10
28.0693476
20
7.4263793
11
28.0158476
21
7.2731793
0
LINE
8
DEFAULT_255_2_778
10
28.0158476
20
7.2731793
11
27.0593476
21
7.2731793
0
LINE
8
DEFAULT_255_2_778
10
27.0593476
20
7.2731793
11
27.0194476
21
7.2784793
0
ARC
8
DEFAULT_255_2_778
10
30.9133552
20
6.7998307
40
0.897453
50
51.0808788
51
82.2717165
0
ARC
8
DEFAULT_255_2_778
10
30.9125165
20
6.7951822
40
0.9021722
50
82.2586354
51
90.0006912
0
ARC
8
DEFAULT_255_2_778
10
30.9119709
20
6.7993435
40
0.8980109
50
89.9658815
51
126.0794207
0
ARC
8
DEFAULT_255_2_778
10
30.917849
20
6.7910396
40
0.9081837
50
126.0706138
51
128.8746757
0
ARC
8
DEFAULT_255_2_778
10
29.3107197
20
7.4258915
40
0.1530787
50
224.4569713
51
254.3618678
0
LINE
8
DEFAULT_255_2_778
10
31.5591556
20
7.2731793
11
31.5057556
21
7.4263793
0
LINE
8
DEFAULT_255_2_778
10
31.5057556
20
7.4263793
11
31.4771556
21
7.4980793
0
LINE
8
DEFAULT_255_2_778
10
30.3478556
20
7.4980793
11
30.3193556
21
7.4263793
0
LINE
8
DEFAULT_255_2_778
10
30.3193556
20
7.4263793
11
30.2658556
21
7.2731793
0
LINE
8
DEFAULT_255_2_778
10
30.2658556
20
7.2731793
11
29.3093556
21
7.2731793
0
LINE
8
DEFAULT_255_2_778
10
29.3093556
20
7.2731793
11
29.2694556
21
7.2784793
0
ARC
8
DEFAULT_255_2_778
10
33.163467
20
6.8001357
40
0.8971405
50
51.0745964
51
82.2739421
0
ARC
8
DEFAULT_255_2_778
10
33.162547
20
6.7951117
40
0.9022427
50
82.2589398
51
90.0007553
0
LINE
8
DEFAULT_255_2_778
10
33.1625351
20
7.6973543
11
33.1623219
21
7.6973542
0
ARC
8
DEFAULT_255_2_778
10
33.1619928
20
6.7992531
40
0.8981012
50
89.979003
51
126.0785535
0
ARC
8
DEFAULT_255_2_778
10
33.1676541
20
6.7912747
40
0.9078835
50
126.0707961
51
128.8748109
0
ARC
8
DEFAULT_255_2_778
10
31.561581
20
7.4273621
40
0.1547299
50
224.6201764
51
254.1986319
0
LINE
8
DEFAULT_255_2_778
10
33.8091476
20
7.2731793
11
33.7557476
21
7.4263793
0
LINE
8
DEFAULT_255_2_778
10
33.7557476
20
7.4263793
11
33.7271476
21
7.4980793
0
LINE
8
DEFAULT_255_2_778
10
32.5978476
20
7.4980793
11
32.5693476
21
7.4263793
0
LINE
8
DEFAULT_255_2_778
10
32.5693476
20
7.4263793
11
32.5158476
21
7.2731793
0
LINE
8
DEFAULT_255_2_778
10
32.5158476
20
7.2731793
11
31.5594476
21
7.2731793
0
LINE
8
DEFAULT_255_2_778
10
31.5594476
20
7.2731793
11
31.5194476
21
7.2784793
0
ARC
8
DEFAULT_255_2_778
10
57.2864972
20
27.1714071
40
0.4497587
50
179.9947353
51
270.0052621
0
ARC
8
DEFAULT_255_2_778
10
57.2865612
20
54.6732258
40
0.4498226
50
90.0028835
51
179.9971165
0
ARC
8
DEFAULT_255_2_778
10
127.6627195
20
40.9229414
40
127.3995864
50
188.8260086
51
192.5651332
0
ARC
8
DEFAULT_255_2_778
10
127.6561572
20
40.921785
40
127.3929244
50
183.8581606
51
188.8259475
0
ARC
8
DEFAULT_255_2_778
10
127.6637761
20
40.9223249
40
127.4005624
50
179.9999894
51
183.8581723
0
ARC
8
DEFAULT_255_2_778
10
127.6614178
20
40.9224411
40
127.3982043
50
173.3344347
51
180.0000417
0
ARC
8
DEFAULT_255_2_778
10
127.6554308
20
40.9230087
40
127.3921919
50
169.2812083
51
173.3343757
0
ARC
8
DEFAULT_255_2_778
10
127.6687226
20
40.9205171
40
127.4057152
50
167.4349105
51
169.281219
0
ARC
8
DEFAULT_255_2_778
10
20.3421319
20
65.4694803
40
17.2917104
50
160.2573577
51
163.3265897
0
ARC
8
DEFAULT_255_2_778
10
15.6498666
20
67.1633538
40
12.3030794
50
155.9863302
51
160.3005695
0
ARC
8
DEFAULT_255_2_778
10
11.8249791
20
68.8862854
40
8.1081055
50
149.5607652
51
156.108252
0
ARC
8
DEFAULT_255_2_778
10
9.0579178
20
70.5408936
40
4.8842343
50
138.9749887
51
149.8503768
0
ARC
8
DEFAULT_255_2_778
10
7.7764557
20
71.6341562
40
3.1999065
50
130.3740029
51
138.6821575
0
ARC
8
DEFAULT_255_2_778
10
7.2337353
20
72.2743152
40
2.3606527
50
119.1368884
51
130.4035289
0
ARC
8
DEFAULT_255_2_778
10
7.011092
20
72.6734223
40
1.9036445
50
105.1450667
51
119.1325145
0
ARC
8
DEFAULT_255_2_778
10
6.9723034
20
72.7886129
40
1.7823359
50
90.00359
51
104.9089104
0
LINE
8
DEFAULT_255_2_778
10
6.9721917
20
74.5709488
11
6.9733385
21
74.5709484
0
ARC
8
DEFAULT_255_2_778
10
25.7634897
20
74.4181045
40
0.1539413
50
44.3670639
51
74.2256778
0
ARC
8
DEFAULT_255_2_778
10
127.671785
20
41.2991273
40
127.5092113
50
173.3881594
51
180.0000069
0
ARC
8
DEFAULT_255_2_778
10
127.7463433
20
41.2991132
40
127.5837697
50
180.0000005
51
180.0920913
0
ARC
8
DEFAULT_255_2_778
10
5.252133
20
8.3807383
40
0.7497006
50
194.8697318
51
269.0144934
0
ARC
8
DEFAULT_255_2_778
10
35.3974267
20
6.6363409
40
0.9183502
50
35.685582
51
43.7203266
0
ARC
8
DEFAULT_255_2_778
10
59.8366316
20
7.4973873
40
0.224539
50
269.9762652
51
315.0483657
0
ARC
8
DEFAULT_255_2_778
10
59.8365516
20
7.4977996
40
0.2248869
50
314.9884154
51
359.9869536
0
ARC
8
DEFAULT_255_2_778
10
59.9382246
20
7.3957883
40
0.224017
50
0.0102851
51
0.2967033
0
ARC
8
DEFAULT_255_2_778
10
59.9403576
20
7.3957533
40
0.2218838
50
314.6669656
51
0.0194449
0
ARC
8
DEFAULT_255_2_778
10
59.9373264
20
7.3961611
40
0.2243126
50
270.0030957
51
315.1443809
0
ARC
8
DEFAULT_255_2_778
10
28.0147237
20
74.4146911
40
0.1554731
50
45.0110881
51
89.183762
0
ARC
8
DEFAULT_255_2_778
10
29.311046
20
74.4144999
40
0.1560983
50
98.5870996
51
135.1191317
0
ARC
8
DEFAULT_255_2_778
10
33.809783
20
74.4170946
40
0.1533755
50
98.3391765
51
135.4730104
0
LINE
8
DEFAULT_255_2_778
10
3.2339385
20
13.1043484
11
3.3144385
21
13.2072484
0
LINE
8
DEFAULT_255_2_778
10
3.3144385
20
68.6374484
11
3.5295385
21
69.5383484
0
LINE
8
DEFAULT_255_2_778
10
3.5295385
20
69.5383484
11
3.7774385
21
70.4307484
0
LINE
8
DEFAULT_255_2_778
10
6.9733385
20
74.5709484
11
25.7656385
21
74.5715484
0
LINE
8
DEFAULT_255_2_778
10
25.7656385
20
74.5715484
11
25.8053385
21
74.5662484
0
LINE
8
DEFAULT_255_2_778
10
3.9391385
20
10.4902484
11
4.5275385
21
8.1883484
0
LINE
8
DEFAULT_255_2_778
10
5.2392385
20
7.6311484
11
5.7091385
21
7.6229484
0
LINE
8
DEFAULT_255_2_778
10
36.6254385
20
7.1289484
11
36.6217385
21
7.1723484
0
LINE
8
DEFAULT_255_2_778
10
36.6217385
20
74.6723484
11
36.6254385
21
74.7157484
0
LINE
8
DEFAULT_255_2_778
10
36.1433385
20
7.1720484
11
59.9373385
21
7.1720484
0
LINE
8
DEFAULT_255_2_778
10
59.9373385
20
7.1720484
11
59.8365385
21
7.2728484
0
LINE
8
DEFAULT_255_2_778
10
60.0614385
20
7.4977484
11
60.1622385
21
7.3969484
0
LINE
8
DEFAULT_255_2_778
10
28.9435385
20
74.7826484
11
28.9792385
21
74.3751484
0
LINE
8
DEFAULT_255_2_778
10
32.9398385
20
9.4223484
11
32.9398385
21
8.1616484
0
LINE
8
DEFAULT_255_2_778
10
33.2975385
20
8.1616484
11
33.2975385
21
9.4223484
0
LINE
8
DEFAULT_255_2_778
10
30.9348385
20
72.4223484
11
30.9348385
21
73.6830484
0
LINE
8
DEFAULT_255_2_778
10
32.9398385
20
72.4223484
11
32.9398385
21
73.6830484
0
LINE
8
DEFAULT_255_2_778
10
33.2975385
20
73.6830484
11
33.2975385
21
72.4223484
0
LINE
8
DEFAULT_255_2_778
10
30.9207385
20
70.3881484
11
30.9385385
21
72.4223484
0
LINE
8
DEFAULT_255_2_778
10
30.9385385
20
72.4223484
11
33.5536385
21
72.4223484
0
LINE
8
DEFAULT_255_2_778
10
28.9790385
20
7.4673484
11
28.9435385
21
7.0617484
0
LINE
8
DEFAULT_255_2_778
10
28.1246385
20
74.5246484
11
28.0169385
21
74.4201484
0
LINE
8
DEFAULT_255_2_778
10
28.0169385
20
74.4201484
11
28.0169385
21
74.5701484
0
LINE
8
DEFAULT_255_2_778
10
29.2877385
20
74.5688484
11
29.3081385
21
74.5701484
0
LINE
8
DEFAULT_255_2_778
10
29.3081385
20
74.5701484
11
29.3081385
21
74.4201484
0
LINE
8
DEFAULT_255_2_778
10
29.3081385
20
74.4201484
11
29.2004385
21
74.5246484
0
LINE
8
DEFAULT_255_2_778
10
33.7875385
20
74.5688484
11
33.8079385
21
74.5701484
0
LINE
8
DEFAULT_255_2_778
10
33.8079385
20
74.5701484
11
33.8079385
21
74.4201484
0
LINE
8
DEFAULT_255_2_778
10
33.8079385
20
74.4201484
11
33.7002385
21
74.5246484
0
ARC
8
DEFAULT_255_2_778
10
34.764068
20
74.4139973
40
0.1562997
50
45.1330946
51
89.0235513
0
LINE
8
DEFAULT_255_2_778
10
34.8743315
20
74.5247743
11
34.7667315
21
74.4202743
0
LINE
8
DEFAULT_255_2_778
10
34.7667315
20
74.4202743
11
34.7667315
21
74.5702743
0
LINE
8
DEFAULT_255_2_778
10
34.7667315
20
74.5702743
11
33.8078315
21
74.5702743
0
LINE
8
DEFAULT_255_2_778
10
33.8078315
20
74.5702743
11
33.8673315
21
74.6379743
0
LINE
8
DEFAULT_255_2_778
10
33.8673315
20
74.6379743
11
33.8933315
21
74.6723743
0
ARC
8
DEFAULT_255_2_778
10
57.5377343
20
53.8001992
40
0.3775147
50
89.5431545
51
89.9999293
0
ARC
8
DEFAULT_255_2_778
10
57.5377307
20
53.8021088
40
0.3756052
50
89.9993823
51
134.7188206
0
ARC
8
DEFAULT_255_2_778
10
57.5373838
20
53.8029835
40
0.3747397
50
134.775227
51
180.0583367
0
ARC
8
DEFAULT_255_2_778
10
127.628818
20
41.299984
40
127.466476
50
169.8719016
51
171.811939
0
ARC
8
DEFAULT_255_2_778
10
16.6626164
20
59.1096735
40
0.7500284
50
90.0054967
51
134.9915486
0
ARC
8
DEFAULT_255_2_778
10
16.6633519
20
59.1095902
40
0.7506075
50
135.0267594
51
179.9838403
0
ARC
8
DEFAULT_255_2_778
10
16.6627707
20
22.7349729
40
0.7500263
50
180.0054258
51
224.9916142
0
ARC
8
DEFAULT_255_2_778
10
16.6627599
20
22.7354769
40
0.750375
50
225.0194128
51
269.9835473
0
ARC
8
DEFAULT_255_2_778
10
40.6627177
20
22.7347797
40
0.7496778
50
269.9943968
51
315.0026432
0
ARC
8
DEFAULT_255_2_778
10
40.6620718
20
22.7352579
40
0.7504726
50
315.0116898
51
359.9728201
0
ARC
8
DEFAULT_255_2_778
10
40.6624199
20
59.1093901
40
0.7501245
50
0.0161781
51
44.9993141
0
ARC
8
DEFAULT_255_2_778
10
40.6625008
20
59.1092005
40
0.7502014
50
45.013927
51
89.9890364
0
ARC
8
DEFAULT_255_2_778
10
59.8289957
20
74.3386532
40
0.2327777
50
1.9076078
51
88.0923922
0
LINE
8
DEFAULT_255_2_778
10
60.1624444
20
54.1547019
11
57.5407444
21
54.1777019
0
LINE
8
DEFAULT_255_2_778
10
2.3346444
20
63.6818019
11
2.1486444
21
63.7149019
0
LINE
8
DEFAULT_255_2_778
10
15.9127444
20
59.1098019
11
15.9127444
21
22.7349019
0
LINE
8
DEFAULT_255_2_778
10
16.6625444
20
21.9851019
11
40.6626444
21
21.9851019
0
LINE
8
DEFAULT_255_2_778
10
41.4125444
20
22.7349019
11
41.4125444
21
59.1096019
0
LINE
8
DEFAULT_255_2_778
10
40.6626444
20
59.8594019
11
16.6625444
21
59.8597019
0
LINE
8
DEFAULT_255_2_778
10
25.9420444
20
74.4633019
11
25.8478444
21
74.3464019
0
LINE
8
DEFAULT_255_2_778
10
25.8478444
20
74.3464019
11
6.9732444
21
74.3464019
0
LINE
8
DEFAULT_255_2_778
10
6.9732444
20
74.3464019
11
6.9732444
21
74.5713019
0
LINE
8
DEFAULT_255_2_778
10
6.9732444
20
74.5713019
11
6.8925444
21
74.6721019
0
LINE
8
DEFAULT_255_2_778
10
6.8925444
20
74.6721019
11
25.6814444
21
74.6721019
0
LINE
8
DEFAULT_255_2_778
10
25.6814444
20
74.6721019
11
25.7348444
21
74.6046019
0
LINE
8
DEFAULT_255_2_778
10
25.7348444
20
74.6046019
11
25.7637444
21
74.5731019
0
LINE
8
DEFAULT_255_2_778
10
35.8829444
20
74.4633019
11
35.9771444
21
74.3464019
0
LINE
8
DEFAULT_255_2_778
10
35.9771444
20
74.3464019
11
60.0616444
21
74.3464019
0
LINE
8
DEFAULT_255_2_778
10
59.8367444
20
74.5713019
11
36.0594444
21
74.5713019
0
LINE
8
DEFAULT_255_2_778
10
36.0594444
20
74.5713019
11
36.1181444
21
74.6382019
0
LINE
8
DEFAULT_255_2_778
10
36.1181444
20
74.6382019
11
36.1438444
21
74.6721019
0
LINE
8
DEFAULT_255_2_778
10
30.8948252
20
70.3884842
11
33.5538252
21
70.3884842
0
LINE
8
DEFAULT_255_2_778
10
33.5694252
20
70.3725842
11
30.8789252
21
70.3725842
0
LINE
8
DEFAULT_255_2_778
10
33.5538252
20
73.6830842
11
30.8948252
21
73.6830842
0
LINE
8
DEFAULT_255_2_778
10
30.8948252
20
73.6830842
11
30.8948252
21
73.7719842
0
ARC
8
DEFAULT_255_2_778
10
59.9376293
20
55.0209128
40
0.223817
50
269.9969407
51
270.9349701
0
ARC
8
DEFAULT_255_2_778
10
59.9378484
20
55.020597
40
0.2234976
50
270.8801365
51
315.2660789
0
ARC
8
DEFAULT_255_2_778
10
59.9383636
20
55.0220455
40
0.2241555
50
314.9103597
51
359.8674683
0
ARC
8
DEFAULT_255_2_778
10
59.9162442
20
55.0214629
40
0.2462745
50
0.0149055
51
0.1937679
0
ARC
8
DEFAULT_255_2_778
10
59.836806
20
55.1231071
40
0.2249113
50
270.0028835
51
359.9971165
0
ARC
8
DEFAULT_255_2_778
10
57.2867287
20
54.6732845
40
0.2249113
50
90.0028835
51
179.9971165
0
ARC
8
DEFAULT_255_2_778
10
57.2867287
20
27.1715071
40
0.2249113
50
180.0028835
51
269.9971165
0
ARC
8
DEFAULT_255_2_778
10
59.8289295
20
26.7138078
40
0.2329216
50
1.9407153
51
88.0593119
0
LINE
8
DEFAULT_255_2_778
10
30.9228173
20
70.6366958
11
30.8945173
21
70.6226958
0
LINE
8
DEFAULT_255_2_778
10
30.8945173
20
70.6226958
11
30.8945173
21
70.3887958
0
LINE
8
DEFAULT_255_2_778
10
30.8945173
20
70.3887958
11
30.8789173
21
70.3731958
0
LINE
8
DEFAULT_255_2_778
10
30.8789173
20
70.3731958
11
30.8789173
21
73.7722958
0
LINE
8
DEFAULT_255_2_778
10
30.8789173
20
73.7722958
11
33.5695173
21
73.7722958
0
LINE
8
DEFAULT_255_2_778
10
33.5695173
20
73.7722958
11
33.5695173
21
70.3728958
0
LINE
8
DEFAULT_255_2_778
10
33.5695173
20
70.3728958
11
33.5538173
21
70.3884958
0
LINE
8
DEFAULT_255_2_778
10
33.5538173
20
70.3884958
11
33.5538173
21
73.7722958
0
LINE
8
DEFAULT_255_2_778
10
49.7924173
20
70.6424958
11
49.8599173
21
70.6424958
0
LINE
8
DEFAULT_255_2_778
10
60.1625173
20
55.0222958
11
60.0617173
21
55.1230958
0
LINE
8
DEFAULT_255_2_778
10
59.8368173
20
54.8981958
11
59.9376173
21
54.7973958
0
LINE
8
DEFAULT_255_2_778
10
59.9376173
20
54.7973958
11
57.3875173
21
54.7973958
0
LINE
8
DEFAULT_255_2_778
10
57.3875173
20
54.7973958
11
57.2867173
21
54.8981958
0
LINE
8
DEFAULT_255_2_778
10
57.0618173
20
54.6732958
11
57.1626173
21
54.5724958
0
LINE
8
DEFAULT_255_2_778
10
57.1626173
20
54.5724958
11
57.1626173
21
27.2724958
0
LINE
8
DEFAULT_255_2_778
10
57.1626173
20
27.2724958
11
57.0618173
21
27.1716958
0
LINE
8
DEFAULT_255_2_778
10
57.0618173
20
27.1716958
11
57.0618173
21
54.6732958
0
LINE
8
DEFAULT_255_2_778
10
57.0618173
20
54.6732958
11
56.8369173
21
54.6732958
0
LINE
8
DEFAULT_255_2_778
10
56.8369173
20
54.6732958
11
56.8369173
21
27.1714958
0
LINE
8
DEFAULT_255_2_778
10
56.8369173
20
27.1714958
11
57.0618173
21
27.1714958
0
LINE
8
DEFAULT_255_2_778
10
57.2867173
20
26.9465958
11
59.8368173
21
26.9465958
0
LINE
8
DEFAULT_255_2_778
10
60.0617173
20
26.7216958
11
57.2867173
21
26.7216958
0
LINE
8
DEFAULT_255_2_778
10
57.2867173
20
26.7216958
11
57.2867173
21
26.9465958
0
LINE
8
DEFAULT_255_2_778
10
57.2867173
20
26.9465958
11
57.3875173
21
27.0473958
0
LINE
8
DEFAULT_255_2_778
10
57.3875173
20
27.0473958
11
59.9376173
21
27.0473958
0
LINE
8
DEFAULT_255_2_778
10
59.9376173
20
27.0473958
11
59.8368173
21
26.9465958
0
LINE
8
DEFAULT_255_2_778
10
59.8368173
20
26.9465958
11
59.8368173
21
7.2731958
0
LINE
8
DEFAULT_255_2_778
10
59.8368173
20
7.2731958
11
36.0595173
21
7.2731958
0
LINE
8
DEFAULT_255_2_778
10
36.0595173
20
7.2731958
11
36.0060173
21
7.4263958
0
LINE
8
DEFAULT_255_2_778
10
36.0060173
20
7.4263958
11
35.9774173
21
7.4980958
0
LINE
8
DEFAULT_255_2_778
10
35.9774173
20
7.4980958
11
35.8832173
21
7.3813958
0
LINE
8
DEFAULT_255_2_778
10
25.4375173
20
74.6720958
11
25.6637173
21
74.6739958
0
LINE
8
DEFAULT_255_2_778
10
25.6637173
20
74.6739958
11
25.6624173
21
74.8093958
0
LINE
8
DEFAULT_255_2_778
10
25.6624173
20
74.8093958
11
41.4125173
21
74.6720958
0
LINE
8
DEFAULT_255_2_778
10
41.4125173
20
74.6720958
11
41.4125173
21
75.4221958
0
LINE
8
DEFAULT_255_2_778
10
41.4125173
20
75.4221958
11
45.3125173
21
75.4221958
0
LINE
8
DEFAULT_255_2_778
10
45.3125173
20
75.4221958
11
45.3125173
21
74.6720958
0
ARC
8
DEFAULT_255_2_778
10
6.8951406
20
8.9688659
40
1.7967988
50
263.4574049
51
269.9193068
0
ARC
8
DEFAULT_255_2_778
10
6.8947405
20
8.9633021
40
1.7912257
50
248.9892921
51
263.4498428
0
ARC
8
DEFAULT_255_2_778
10
6.9875477
20
9.1916907
40
2.0377104
50
236.1503056
51
248.8557398
0
ARC
8
DEFAULT_255_2_778
10
7.3198215
20
9.6890142
40
2.6358205
50
226.3640251
51
236.1734168
0
ARC
8
DEFAULT_255_2_778
10
7.9585376
20
10.3619875
40
3.5636394
50
219.1438821
51
226.3983983
0
ARC
8
DEFAULT_255_2_778
10
9.3408825
20
11.4522818
40
5.324074
50
209.1520797
51
218.8528777
0
ARC
8
DEFAULT_255_2_778
10
12.1870724
20
13.0780903
40
8.6017803
50
203.3741828
51
209.3745832
0
ARC
8
DEFAULT_255_2_778
10
127.6637888
20
40.9227065
40
127.5016522
50
188.852057
51
192.6023087
0
ARC
8
DEFAULT_255_2_778
10
127.6577423
20
40.9216288
40
127.495512
50
183.8695247
51
188.8519967
0
ARC
8
DEFAULT_255_2_778
10
127.6656478
20
40.9221945
40
127.5034376
50
179.9999891
51
183.8695386
0
ARC
8
DEFAULT_255_2_778
10
127.6632719
20
40.9223152
40
127.5010618
50
173.3147844
51
180.0000433
0
ARC
8
DEFAULT_255_2_778
10
127.6567593
20
40.9229409
40
127.4945205
50
169.2495361
51
173.3147229
0
ARC
8
DEFAULT_255_2_778
10
127.6701467
20
40.9204166
40
127.5081437
50
167.3977381
51
169.2495439
0
ARC
8
DEFAULT_255_2_778
10
127.6639152
20
40.9213246
40
127.1761283
50
167.4349294
51
171.1728957
0
ARC
8
DEFAULT_255_2_778
10
127.6559742
20
40.922683
40
127.1680729
50
171.1729515
51
176.1392376
0
ARC
8
DEFAULT_255_2_778
10
127.6621771
20
40.9222358
40
127.1742919
50
176.1392248
51
179.9962683
0
ARC
8
DEFAULT_255_2_778
10
86.6000172
20
40.9242938
40
86.112132
50
179.9958581
51
180.0013806
0
ARC
8
DEFAULT_255_2_778
10
127.6581482
20
40.9221056
40
127.1702631
50
179.999949
51
186.6656303
0
ARC
8
DEFAULT_255_2_778
10
127.6508319
20
40.9214056
40
127.1629151
50
186.6656996
51
190.9034566
0
ARC
8
DEFAULT_255_2_778
10
127.6637626
20
40.9238614
40
127.176077
50
190.9034411
51
192.5652828
0
LINE
8
DEFAULT_255_2_778
10
45.3124101
20
75.3472688
11
45.8374101
21
75.3472688
0
LINE
8
DEFAULT_255_2_778
10
45.8374101
20
75.3472688
11
46.4843101
21
74.6722688
0
LINE
8
DEFAULT_255_2_778
10
41.4122101
20
75.0321688
11
40.1748101
21
75.2948688
0
LINE
8
DEFAULT_255_2_778
10
52.4125101
20
70.3884688
11
52.4281101
21
70.3728688
0
LINE
8
DEFAULT_255_2_778
10
4.2912101
20
9.6654688
11
3.9618101
21
10.5036688
0
LINE
8
DEFAULT_255_2_778
10
3.9618101
20
10.5036688
11
3.6834101
21
11.3601688
0
LINE
8
DEFAULT_255_2_778
10
3.6834101
20
11.3601688
11
3.2339101
21
13.1040688
0
LINE
8
DEFAULT_255_2_778
10
3.2339101
20
68.7403688
11
3.3141101
21
68.6371688
0
LINE
8
DEFAULT_255_2_778
10
3.3141101
20
68.6371688
11
3.5337101
21
68.5882688
0
LINE
8
DEFAULT_255_2_778
10
3.5337101
20
13.2564688
11
3.3141101
21
13.2074688
0
LINE
8
DEFAULT_255_2_778
10
57.6873101
20
1.1721688
11
60.1622101
21
1.1721688
0
LINE
8
DEFAULT_255_2_778
10
45.3124101
20
7.1723688
11
45.3124101
21
6.4222688
0
LINE
8
DEFAULT_255_2_778
10
45.3124101
20
6.4222688
11
41.4125101
21
6.4222688
0
LINE
8
DEFAULT_255_2_778
10
41.4125101
20
6.4222688
11
41.4125101
21
7.1723688
0
LINE
8
DEFAULT_255_2_778
10
41.4125101
20
7.1723688
11
25.6624101
21
7.0350688
0
LINE
8
DEFAULT_255_2_778
10
25.6624101
20
7.0350688
11
25.6624101
21
7.1723688
0
LINE
8
DEFAULT_255_2_778
10
32.9104101
20
7.0979688
11
32.9374101
21
6.3246688
0
LINE
8
DEFAULT_255_2_778
10
32.9374101
20
6.3246688
11
39.4998101
21
6.3246688
0
LINE
8
DEFAULT_255_2_778
10
39.4998101
20
6.3246688
11
39.4998101
21
7.0492688
0
ARC
8
DEFAULT_255_2_778
10
49.0286631
20
9.5353365
40
2.9577595
50
273.9838216
51
280.4700727
0
ARC
8
DEFAULT_255_2_778
10
6.9758334
20
9.0742532
40
1.8013312
50
255.1329365
51
269.9179183
0
ARC
8
DEFAULT_255_2_778
10
7.0110063
20
9.1707498
40
1.9036445
50
240.8674855
51
254.8549333
0
ARC
8
DEFAULT_255_2_778
10
7.2361827
20
9.5735053
40
2.3650728
50
229.6070264
51
240.8525426
0
ARC
8
DEFAULT_255_2_778
10
7.7773716
20
10.2132529
40
3.2030217
50
221.3459587
51
229.6498556
0
ARC
8
DEFAULT_255_2_778
10
9.0692007
20
11.3110668
40
4.8981498
50
210.1604331
51
221.0041481
0
ARC
8
DEFAULT_255_2_778
10
11.8612441
20
12.9766414
40
8.1491202
50
203.9082293
51
210.4227267
0
ARC
8
DEFAULT_255_2_778
10
35.4134697
20
6.8003783
40
0.8971435
50
51.0745494
51
82.2734013
0
ARC
8
DEFAULT_255_2_778
10
35.4125639
20
6.7954342
40
0.9021647
50
82.2586118
51
90.0007057
0
ARC
8
DEFAULT_255_2_778
10
35.4119905
20
6.7997962
40
0.8978028
50
89.964115
51
126.0837494
0
ARC
8
DEFAULT_255_2_778
10
35.4174874
20
6.7920762
40
0.9072791
50
126.0771528
51
128.8835186
0
ARC
8
DEFAULT_255_2_778
10
33.810806
20
7.4260863
40
0.1532475
50
224.4737087
51
254.3448932
0
LINE
8
DEFAULT_255_2_778
10
39.4998528
20
6.4747238
11
40.2499528
21
6.4747238
0
LINE
8
DEFAULT_255_2_778
10
40.2499528
20
6.4747238
11
40.2499528
21
7.0430238
0
LINE
8
DEFAULT_255_2_778
10
45.3124528
20
6.4974238
11
45.8373528
21
6.4974238
0
LINE
8
DEFAULT_255_2_778
10
45.8373528
20
6.4974238
11
46.4842528
21
7.1724238
0
LINE
8
DEFAULT_255_2_778
10
45.9093528
20
6.5723238
11
48.8462528
21
6.5723238
0
LINE
8
DEFAULT_255_2_778
10
48.8462528
20
6.5723238
11
49.2341528
21
6.5847238
0
LINE
8
DEFAULT_255_2_778
10
25.9417528
20
7.3811238
11
25.8475528
21
7.4978238
0
LINE
8
DEFAULT_255_2_778
10
25.8475528
20
7.4978238
11
6.9732528
21
7.4978238
0
LINE
8
DEFAULT_255_2_778
10
6.9732528
20
7.4978238
11
6.9732528
21
7.2729238
0
LINE
8
DEFAULT_255_2_778
10
4.4113528
20
9.6740238
11
4.0665528
21
10.5336238
0
LINE
8
DEFAULT_255_2_778
10
4.0665528
20
10.5336238
11
3.7770528
21
11.4134238
0
LINE
8
DEFAULT_255_2_778
10
3.7770528
20
11.4134238
11
3.5291528
21
12.3058238
0
LINE
8
DEFAULT_255_2_778
10
3.5291528
20
12.3058238
11
3.3135528
21
13.2064238
0
LINE
8
DEFAULT_255_2_778
10
60.1354528
20
26.9243238
11
60.1624528
21
26.8973238
0
LINE
8
DEFAULT_255_2_778
10
60.1624528
20
26.8973238
11
60.1624528
21
26.8224238
0
LINE
8
DEFAULT_255_2_778
10
60.1624528
20
26.8224238
11
60.0616528
21
26.7216238
0
LINE
8
DEFAULT_255_2_778
10
60.0616528
20
26.7216238
11
60.0616528
21
7.4983238
0
LINE
8
DEFAULT_255_2_778
10
60.0616528
20
7.4983238
11
35.9771528
21
7.4983238
0
LINE
8
DEFAULT_255_2_778
10
34.8479528
20
7.4983238
11
34.8037528
21
7.3840238
0
LINE
8
DEFAULT_255_2_778
10
34.8037528
20
7.3840238
11
34.7659528
21
7.2732238
0
LINE
8
DEFAULT_255_2_778
10
34.7659528
20
7.2732238
11
33.8094528
21
7.2732238
0
LINE
8
DEFAULT_255_2_778
10
33.8094528
20
7.2732238
11
33.7694528
21
7.2785238
0
LINE
8
DEFAULT_255_2_778
10
33.6330211
20
7.3810751
11
33.7272211
21
7.4980751
0
LINE
8
DEFAULT_255_2_778
10
33.7272211
20
7.4980751
11
34.8480211
21
7.4980751
0
LINE
8
DEFAULT_255_2_778
10
34.8480211
20
7.4980751
11
34.9422211
21
7.3810751
0
LINE
8
DEFAULT_255_2_778
10
31.3829211
20
7.3810751
11
31.4771211
21
7.4980751
0
LINE
8
DEFAULT_255_2_778
10
31.4771211
20
7.4980751
11
32.5979211
21
7.4980751
0
LINE
8
DEFAULT_255_2_778
10
32.5979211
20
7.4980751
11
32.6921211
21
7.3810751
0
LINE
8
DEFAULT_255_2_778
10
29.1329211
20
7.3810751
11
29.2271211
21
7.4980751
0
LINE
8
DEFAULT_255_2_778
10
29.2271211
20
7.4980751
11
30.3479211
21
7.4980751
0
LINE
8
DEFAULT_255_2_778
10
30.3479211
20
7.4980751
11
30.4421211
21
7.3810751
0
LINE
8
DEFAULT_255_2_778
10
26.8829211
20
7.3810751
11
26.9771211
21
7.4980751
0
LINE
8
DEFAULT_255_2_778
10
26.9771211
20
7.4980751
11
28.0979211
21
7.4980751
0
LINE
8
DEFAULT_255_2_778
10
28.0979211
20
7.4980751
11
28.1921211
21
7.3810751
0
LINE
8
DEFAULT_255_2_778
10
33.8927763
20
7.0982403
11
41.1873763
21
7.0344403
0
LINE
8
DEFAULT_255_2_778
10
41.1873763
20
7.0344403
11
41.1873763
21
7.1699403
0
LINE
8
DEFAULT_255_2_778
10
41.4124763
20
7.0215403
11
40.2498763
21
6.7746403
0
LINE
8
DEFAULT_255_2_778
10
49.7722763
20
8.0721403
11
49.7722763
21
8.1613403
0
LINE
8
DEFAULT_255_2_778
10
49.7722763
20
8.1613403
11
52.4463763
21
8.1613403
0
LINE
8
DEFAULT_255_2_778
10
52.461821
20
11.4718154
11
52.461821
21
8.0722154
0
LINE
8
DEFAULT_255_2_778
10
52.461821
20
8.0722154
11
49.756421
21
8.0722154
0
LINE
8
DEFAULT_255_2_778
10
49.756421
20
8.0722154
11
49.756421
21
11.4718154
0
LINE
8
DEFAULT_255_2_778
10
49.756421
20
11.4718154
11
52.461821
21
11.4718154
0
LINE
8
DEFAULT_255_2_778
10
52.461821
20
11.4718154
11
52.446221
21
11.4562154
0
LINE
8
DEFAULT_255_2_778
10
52.446221
20
11.4562154
11
49.772021
21
11.4562154
0
LINE
8
DEFAULT_255_2_778
10
49.772021
20
11.4562154
11
49.772021
21
11.2223154
0
LINE
8
DEFAULT_255_2_778
10
49.772021
20
11.2223154
11
49.812221
21
11.2022154
0
LINE
8
DEFAULT_255_2_778
10
49.812221
20
11.2022154
11
49.860421
21
11.2022154
0
ARC
8
DEFAULT_255_2_778
10
57.8652301
20
0.2349664
40
0.1778995
50
179.9088607
51
180.0303787
0
ARC
8
DEFAULT_255_2_778
10
58.0626288
20
0.234903
40
0.3752981
50
180.0047232
51
224.9736301
0
ARC
8
DEFAULT_255_2_778
10
58.0620777
20
0.2344069
40
0.3745576
50
224.9795269
51
270.0234274
0
ARC
8
DEFAULT_255_2_778
10
58.0207757
20
27.9303948
40
0.1905922
50
275.0736317
51
354.9594809
0
LINE
8
DEFAULT_255_2_778
10
49.8583309
20
11.4568494
11
49.8760309
21
9.4221494
0
LINE
8
DEFAULT_255_2_778
10
49.8760309
20
9.4221494
11
52.4461309
21
9.4221494
0
LINE
8
DEFAULT_255_2_778
10
33.5686309
20
9.4221494
11
30.9384309
21
9.4221494
0
LINE
8
DEFAULT_255_2_778
10
30.9384309
20
9.4221494
11
30.9207309
21
11.4562494
0
LINE
8
DEFAULT_255_2_778
10
60.1624309
20
82.9218494
11
60.1624309
21
52.9223494
0
LINE
8
DEFAULT_255_2_778
10
60.1624309
20
52.9223494
11
59.9375309
21
52.6974494
0
LINE
8
DEFAULT_255_2_778
10
59.9375309
20
52.6974494
11
58.8125309
21
52.6974494
0
LINE
8
DEFAULT_255_2_778
10
58.8125309
20
52.6974494
11
58.0625309
21
53.4475494
0
LINE
8
DEFAULT_255_2_778
10
58.0625309
20
53.4475494
11
58.0625309
21
54.1732494
0
LINE
8
DEFAULT_255_2_778
10
59.2478309
20
27.6291494
11
59.2478309
21
27.8464494
0
LINE
8
DEFAULT_255_2_778
10
59.2478309
20
27.8464494
11
57.3785309
21
27.6829494
0
LINE
8
DEFAULT_255_2_778
10
58.6863309
20
27.6339494
11
58.6863309
21
27.7972494
0
LINE
8
DEFAULT_255_2_778
10
60.1624309
20
82.9223494
11
58.0625309
21
82.9223494
0
LINE
8
DEFAULT_255_2_778
10
58.0625309
20
82.9223494
11
58.0625309
21
78.4223494
0
LINE
8
DEFAULT_255_2_778
10
57.6873309
20
3.4224494
11
57.6873309
21
0.2352494
0
LINE
8
DEFAULT_255_2_778
10
58.2106309
20
27.9136494
11
58.3646309
21
29.6725494
0
LINE
8
DEFAULT_255_2_778
10
58.3646309
20
29.6725494
11
58.9710309
21
29.6831494
0
LINE
8
DEFAULT_255_2_778
10
58.9710309
20
29.6831494
11
60.0960309
21
27.4331494
0
LINE
8
DEFAULT_255_2_778
10
60.0960309
20
27.4331494
11
60.0960309
21
26.9635494
0
LINE
8
DEFAULT_255_2_778
10
30.9149054
20
8.1616115
11
30.9149054
21
11.2022115
0
LINE
8
DEFAULT_255_2_778
10
30.9149054
20
11.2022115
11
30.8747054
21
11.2223115
0
LINE
8
DEFAULT_255_2_778
10
30.8747054
20
11.2223115
11
30.8747054
21
11.4562115
0
LINE
8
DEFAULT_255_2_778
10
30.8747054
20
11.4562115
11
33.5687054
21
11.4562115
0
LINE
8
DEFAULT_255_2_778
10
33.5687054
20
11.4562115
11
33.5687054
21
8.0724115
0
LINE
8
DEFAULT_255_2_778
10
30.8747054
20
8.0722115
11
30.8747054
21
8.1611115
0
LINE
8
DEFAULT_255_2_778
10
30.8747054
20
8.1611115
11
33.5687054
21
8.1611115
0
LINE
8
DEFAULT_255_2_778
10
30.8588735
20
11.471899
11
30.8588735
21
8.072499
0
LINE
8
DEFAULT_255_2_778
10
30.8588735
20
8.072499
11
33.5843735
21
8.072499
0
LINE
8
DEFAULT_255_2_778
10
33.5843735
20
8.072499
11
33.5843735
21
11.471899
0
LINE
8
DEFAULT_255_2_778
10
33.5843735
20
11.471899
11
30.8588735
21
11.471899
0
LINE
8
DEFAULT_255_2_778
10
60.1625735
20
78.422299
11
57.0875735
21
78.422299
0
LINE
8
DEFAULT_255_2_778
10
57.0875735
20
78.422299
11
53.9376735
21
75.272399
0
LINE
8
DEFAULT_255_2_778
10
53.9376735
20
75.272399
11
53.9376735
21
74.672399
0
LINE
8
DEFAULT_255_2_778
10
52.4462735
20
11.456299
11
52.4462735
21
8.072499
0
LINE
8
DEFAULT_255_2_778
10
51.8172735
20
9.422399
11
51.8172735
21
8.161699
0
LINE
8
DEFAULT_255_2_778
10
52.1750735
20
8.161699
11
52.1750735
21
9.422399
0
LINE
8
DEFAULT_255_2_778
10
51.8172735
20
72.422299
11
51.8172735
21
73.683099
0
LINE
8
DEFAULT_255_2_778
10
52.1750735
20
73.683099
11
52.1750735
21
72.422299
0
LINE
8
DEFAULT_255_2_778
10
49.8125735
20
11.202299
11
49.8125735
21
8.161399
0
LINE
8
DEFAULT_255_2_778
10
52.4126735
20
73.683099
11
49.7522735
21
73.683099
0
LINE
8
DEFAULT_255_2_778
10
49.7522735
20
73.683099
11
49.7522735
21
73.772199
0
LINE
8
DEFAULT_255_2_778
10
49.7522083
20
70.3883783
11
52.4126083
21
70.3883783
0
LINE
8
DEFAULT_255_2_778
10
52.4126083
20
70.3883783
11
52.4126083
21
73.7721783
0
LINE
8
DEFAULT_255_2_778
10
49.7921631
20
73.6830154
11
49.7921631
21
70.6422154
0
LINE
8
DEFAULT_255_2_778
10
49.7921631
20
70.6422154
11
49.7519631
21
70.6221154
0
LINE
8
DEFAULT_255_2_778
10
49.7519631
20
70.6221154
11
49.7519631
21
70.3882154
0
LINE
8
DEFAULT_255_2_778
10
49.7519631
20
70.3882154
11
49.7363631
21
70.3726154
0
LINE
8
DEFAULT_255_2_778
10
49.7363631
20
70.3726154
11
49.7363631
21
73.7722154
0
LINE
8
DEFAULT_255_2_778
10
49.7363631
20
73.7722154
11
52.4282631
21
73.7722154
0
LINE
8
DEFAULT_255_2_778
10
52.4282631
20
73.7722154
11
52.4282631
21
70.3726154
0
LINE
8
DEFAULT_255_2_778
10
52.4282631
20
70.3726154
11
49.7363631
21
70.3726154
0
ARC
8
DEFAULT_255_2_778
10
57.5381398
20
28.0198875
40
0.3757212
50
180.1219541
51
269.3868984
0
LINE
8
DEFAULT_255_2_778
10
49.8583194
20
70.3873878
11
49.8760194
21
72.4222878
0
LINE
8
DEFAULT_255_2_778
10
49.8760194
20
72.4222878
11
52.4126194
21
72.4222878
0
LINE
8
DEFAULT_255_2_778
10
57.5341194
20
27.6441878
11
59.4322194
21
27.6274878
0
LINE
8
DEFAULT_255_2_778
10
59.4322194
20
27.6274878
11
60.0395194
21
27.0202878
0
LINE
8
DEFAULT_255_2_778
10
59.2543852
20
29.1163822
11
58.3145852
21
29.0999822
0
LINE
8
DEFAULT_255_2_778
10
41.1873852
20
74.6742822
11
41.1873852
21
74.8096822
0
LINE
8
DEFAULT_255_2_778
10
41.1873852
20
74.8096822
11
33.8927852
21
74.7459822
0
LINE
8
DEFAULT_255_2_778
10
40.1750852
20
74.8012822
11
40.1750852
21
75.5949822
0
LINE
8
DEFAULT_255_2_778
10
40.1750852
20
75.5949822
11
39.4249852
21
75.5949822
0
LINE
8
DEFAULT_255_2_778
10
39.4250077
20
74.7943381
11
39.4250077
21
75.7447381
0
LINE
8
DEFAULT_255_2_778
10
39.4250077
20
75.7447381
11
32.8625077
21
75.7447381
0
LINE
8
DEFAULT_255_2_778
10
32.8625077
20
75.7447381
11
32.8276077
21
74.7472381
0
ENDSEC
0
EOF