0
SECTION
2
HEADER
9
$MEASUREMENT
70
1
0
ENDSEC
0
SECTION
2
TABLES
0
TABLE
2
LTYPE
0
LTYPE
72
65
70
64
2
CONTINUOUS
3
______
73
0
40
0
0
ENDTAB
0
TABLE
2
LAYER
0
LAYER
2
DEFAULT_255_2_778
70
0
62
255
6
CONTINUOUS
0
ENDTAB
0
ENDSEC
0
SECTION
2
ENTITIES
0
ARC
8
DEFAULT_255_2_778
10
14.0234415
20
46.031785
40
7.7248117
50
145.7666209
51
162.3263799
0
LINE
8
DEFAULT_255_2_778
10
15.5966304
20
23.8542946
11
10.4881304
21
23.8542946
0
LINE
8
DEFAULT_255_2_778
10
10.4881304
20
23.8542946
11
10.4881304
21
22.1823946
0
LINE
8
DEFAULT_255_2_778
10
10.4881304
20
22.1823946
11
15.5966304
21
22.1823946
0
LINE
8
DEFAULT_255_2_778
10
15.5966304
20
22.1823946
11
15.5966304
21
23.8542946
0
LINE
8
DEFAULT_255_2_778
10
10.4881304
20
22.4141946
11
15.5966304
21
22.4141946
0
LINE
8
DEFAULT_255_2_778
10
10.4881304
20
23.4322946
11
15.5966304
21
23.4322946
0
LINE
8
DEFAULT_255_2_778
10
15.5966304
20
46.3052946
11
10.4881304
21
46.3052946
0
LINE
8
DEFAULT_255_2_778
10
10.4881304
20
46.3052946
11
10.4881304
21
44.2689946
0
LINE
8
DEFAULT_255_2_778
10
10.4881304
20
44.2689946
11
15.5966304
21
44.2689946
0
LINE
8
DEFAULT_255_2_778
10
15.5966304
20
44.2689946
11
15.5966304
21
46.3052946
0
LINE
8
DEFAULT_255_2_778
10
6.2598304
20
48.1850946
11
6.2587304
21
50.4369946
0
LINE
8
DEFAULT_255_2_778
10
8.1110304
20
50.4369946
11
8.1076304
21
48.1850946
0
LINE
8
DEFAULT_255_2_778
10
8.0306304
20
50.3567946
11
8.0272304
21
48.2118946
0
LINE
8
DEFAULT_255_2_778
10
6.4302304
20
48.3546946
11
6.2600304
21
48.1850946
0
LINE
8
DEFAULT_255_2_778
10
6.2600304
20
48.1850946
11
8.1073304
21
48.1850946
0
LINE
8
DEFAULT_255_2_778
10
8.1073304
20
48.1850946
11
8.0269304
21
48.2118946
0
LINE
8
DEFAULT_255_2_778
10
8.0269304
20
48.2118946
11
7.0196304
21
48.2118946
0
LINE
8
DEFAULT_255_2_778
10
7.0196304
20
48.2118946
11
6.9699304
21
48.3769946
0
LINE
8
DEFAULT_255_2_778
10
6.9699304
20
48.3769946
11
6.9683304
21
48.9036946
0
LINE
8
DEFAULT_255_2_778
10
6.9683304
20
48.9036946
11
6.8908304
21
48.9036946
0
LINE
8
DEFAULT_255_2_778
10
6.2587304
20
50.4369946
11
8.1108304
21
50.4369946
0
LINE
8
DEFAULT_255_2_778
10
8.1108304
20
50.4369946
11
8.0303304
21
50.3567946
0
LINE
8
DEFAULT_255_2_778
10
8.0303304
20
50.3567946
11
6.2854304
21
50.3567946
0
LINE
8
DEFAULT_255_2_778
10
6.2854304
20
50.3567946
11
6.2587304
21
50.4369946
0
LINE
8
DEFAULT_255_2_778
10
7.6856304
20
50.3797946
11
7.6856304
21
48.2115946
0
LINE
8
DEFAULT_255_2_778
10
7.6271304
20
48.2115946
11
7.6271304
21
50.3565946
0
LINE
8
DEFAULT_255_2_778
10
6.9699304
20
48.3766946
11
6.4077304
21
48.3766946
0
LINE
8
DEFAULT_255_2_778
10
6.4077304
20
48.3766946
11
6.4077304
21
48.4441946
0
LINE
8
DEFAULT_255_2_778
10
6.4077304
20
48.4441946
11
6.2865304
21
48.5650946
0
LINE
8
DEFAULT_255_2_778
10
6.2865304
20
48.5650946
11
6.2854304
21
50.3565946
0
ARC
8
DEFAULT_255_2_778
10
14.0261325
20
46.0396393
40
7.7274307
50
200.875
51
217.7814342
0
ARC
8
DEFAULT_255_2_778
10
17.1292333
20
73.0321565
40
1.2620648
50
90.0046887
51
93.1802125
0
ARC
8
DEFAULT_255_2_778
10
17.1309005
20
73.0050867
40
1.2891852
50
93.1874497
51
112.3855871
0
ARC
8
DEFAULT_255_2_778
10
17.1284696
20
73.014499
40
1.2795571
50
112.4454487
51
134.8643967
0
ARC
8
DEFAULT_255_2_778
10
17.1252786
20
73.0203605
40
1.2731529
50
134.948696
51
157.3954137
0
ARC
8
DEFAULT_255_2_778
10
17.1201645
20
73.0237359
40
1.2671347
50
157.447432
51
179.9554462
0
ARC
8
DEFAULT_255_2_778
10
17.1204059
20
73.0255547
40
1.2673761
50
180.0376787
51
202.5503914
0
ARC
8
DEFAULT_255_2_778
10
17.1274695
20
73.0296931
40
1.2754872
50
202.6003902
51
225.0169086
0
ARC
8
DEFAULT_255_2_778
10
17.1273144
20
73.0318522
40
1.2769058
50
225.0903147
51
247.5614883
0
ARC
8
DEFAULT_255_2_778
10
17.1307604
20
73.0436068
40
1.2890864
50
247.6193391
51
269.9275363
0
ARC
8
DEFAULT_255_2_778
10
17.1288139
20
73.028952
40
1.0435694
50
89.9826445
51
129.3469605
0
ARC
8
DEFAULT_255_2_778
10
17.1238608
20
73.0307674
40
1.0390287
50
129.1992113
51
177.5203569
0
ARC
8
DEFAULT_255_2_778
10
17.1412326
20
73.0303485
40
1.0564026
50
177.5384212
51
180.0014759
0
ARC
8
DEFAULT_255_2_778
10
17.1209514
20
73.0290305
40
1.0361221
50
179.9286238
51
221.0355074
0
ARC
8
DEFAULT_255_2_778
10
17.1289591
20
73.0328469
40
1.0446707
50
220.9050495
51
266.7846039
0
ARC
8
DEFAULT_255_2_778
10
17.1305527
20
73.0541276
40
1.0660073
50
266.7632412
51
269.9235341
0
ARC
8
DEFAULT_255_2_778
10
17.126982
20
73.0446115
40
1.0564924
50
270.116494
51
292.4264049
0
ARC
8
DEFAULT_255_2_778
10
17.1291574
20
73.033962
40
1.0458205
50
292.5388171
51
315.0206061
0
ARC
8
DEFAULT_255_2_778
10
17.1268017
20
73.0335383
40
1.0471891
50
315.1281085
51
337.5073961
0
ARC
8
DEFAULT_255_2_778
10
17.1285685
20
73.0311961
40
1.0446618
50
337.5890146
51
359.9629881
0
ARC
8
DEFAULT_255_2_778
10
17.1295709
20
73.0298451
40
1.0436593
50
0.0371221
51
22.4218853
0
ARC
8
DEFAULT_255_2_778
10
17.1280943
20
73.0275107
40
1.0459159
50
22.5092454
51
44.9021881
0
ARC
8
DEFAULT_255_2_778
10
17.1298196
20
73.0267183
40
1.0452547
50
44.9997109
51
67.4876144
0
ARC
8
DEFAULT_255_2_778
10
17.126982
20
73.0157311
40
1.0564924
50
67.5735951
51
89.883506
0
ARC
8
DEFAULT_255_2_778
10
17.1275003
20
73.0048413
40
1.289081
50
67.6192721
51
89.9275648
0
ARC
8
DEFAULT_255_2_778
10
17.1316066
20
73.016927
40
1.2763425
50
45.1069977
51
67.5831438
0
ARC
8
DEFAULT_255_2_778
10
17.13292
20
73.0197338
40
1.2734276
50
22.6153622
51
45.0597287
0
ARC
8
DEFAULT_255_2_778
10
17.1383179
20
73.0237209
40
1.2669125
50
0.0361974
51
22.5427881
0
ARC
8
DEFAULT_255_2_778
10
17.1352008
20
73.0255429
40
1.2700297
50
337.4852404
51
359.9539117
0
ARC
8
DEFAULT_255_2_778
10
17.1311483
20
73.0296583
40
1.2753512
50
314.9664766
51
337.3841598
0
ARC
8
DEFAULT_255_2_778
10
17.1306113
20
73.0317257
40
1.277194
50
292.4494046
51
314.9179792
0
ARC
8
DEFAULT_255_2_778
10
17.1271203
20
73.0452168
40
1.2909971
50
270.0891924
51
292.3639515
0
LINE
8
DEFAULT_255_2_778
10
36.97583
20
101.5087213
11
36.9762071
21
101.5087213
0
ARC
8
DEFAULT_255_2_778
10
36.9760886
20
100.4874093
40
1.021312
50
44.994862
51
89.9933497
0
ARC
8
DEFAULT_255_2_778
10
130.7405453
20
98.669882
40
3.4552882
50
76.9418925
51
85.9924197
0
ARC
8
DEFAULT_255_2_778
10
130.8779062
20
99.368822
40
2.7434925
50
65.0420726
51
76.4383878
0
ARC
8
DEFAULT_255_2_778
10
130.3921566
20
98.3967978
40
3.8298297
50
56.429127
51
64.5896495
0
LINE
8
DEFAULT_255_2_778
10
8.09543
20
43.4731213
11
8.08753
21
41.2491213
0
LINE
8
DEFAULT_255_2_778
10
6.26663
20
41.2491213
11
6.26403
21
43.4731213
0
LINE
8
DEFAULT_255_2_778
10
6.29343
20
41.3290213
11
6.29133
21
43.1019213
0
LINE
8
DEFAULT_255_2_778
10
6.29133
20
43.1019213
11
6.40793
21
43.2186213
0
LINE
8
DEFAULT_255_2_778
10
6.40793
20
43.2186213
11
6.40793
21
43.2861213
0
LINE
8
DEFAULT_255_2_778
10
6.40793
20
43.2861213
11
6.97043
21
43.2861213
0
LINE
8
DEFAULT_255_2_778
10
8.01533
20
43.4464213
11
8.00763
21
41.3290213
0
LINE
8
DEFAULT_255_2_778
10
6.43023
20
43.3083213
11
6.26433
21
43.4737213
0
LINE
8
DEFAULT_255_2_778
10
6.26433
20
43.4737213
11
8.09523
21
43.4737213
0
LINE
8
DEFAULT_255_2_778
10
8.09523
20
43.4737213
11
8.01453
21
43.4470213
0
LINE
8
DEFAULT_255_2_778
10
8.01453
20
43.4470213
11
7.01863
21
43.4470213
0
LINE
8
DEFAULT_255_2_778
10
7.01863
20
43.4470213
11
6.97023
21
43.2861213
0
LINE
8
DEFAULT_255_2_778
10
6.97023
20
43.2861213
11
6.96913
21
42.9641213
0
LINE
8
DEFAULT_255_2_778
10
8.00653
20
41.3298213
11
6.29343
21
41.3298213
0
LINE
8
DEFAULT_255_2_778
10
6.29343
20
41.3298213
11
6.26663
21
41.2498213
0
LINE
8
DEFAULT_255_2_778
10
6.26663
20
41.2498213
11
8.08673
21
41.2498213
0
LINE
8
DEFAULT_255_2_778
10
8.08673
20
41.2498213
11
8.00653
21
41.3298213
0
LINE
8
DEFAULT_255_2_778
10
15.59663
20
67.2129213
11
10.48813
21
67.2129213
0
LINE
8
DEFAULT_255_2_778
10
10.48813
20
67.2129213
11
10.48813
21
65.1766213
0
LINE
8
DEFAULT_255_2_778
10
10.48813
20
65.1766213
11
15.59663
21
65.1766213
0
LINE
8
DEFAULT_255_2_778
10
15.59663
20
65.1766213
11
15.59663
21
67.2129213
0
LINE
8
DEFAULT_255_2_778
10
17.12913
20
74.0722213
11
17.12913
21
74.2939213
0
LINE
8
DEFAULT_255_2_778
10
17.12913
20
71.7542213
11
17.12913
21
71.9881213
0
LINE
8
DEFAULT_255_2_778
10
37.69833
20
101.2095213
11
37.69833
21
101.2095213
0
LINE
8
DEFAULT_255_2_778
10
37.69833
20
101.2095213
11
37.76613
21
101.1420213
0
LINE
8
DEFAULT_255_2_778
10
127.02143
20
98.2464213
11
127.02143
21
98.5766213
0
LINE
8
DEFAULT_255_2_778
10
127.02143
20
98.5766213
11
131.86733
21
98.5766213
0
LINE
8
DEFAULT_255_2_778
10
132.28483
20
99.0235213
11
131.86733
21
99.0235213
0
LINE
8
DEFAULT_255_2_778
10
132.28503
20
100.4049213
11
126.82013
21
100.4049213
0
LINE
8
DEFAULT_255_2_778
10
132.32103
20
100.6083213
11
126.82013
21
100.6083213
0
LINE
8
DEFAULT_255_2_778
10
126.82013
20
102.1355213
11
130.43673
21
102.1355213
0
LINE
8
DEFAULT_255_2_778
10
130.43673
20
102.1355213
11
130.98203
21
102.1167213
0
LINE
8
DEFAULT_255_2_778
10
132.50993
20
101.5878213
11
132.77213
21
101.4068213
0
LINE
8
DEFAULT_255_2_778
10
132.77213
20
101.4068213
11
132.85653
21
101.3449213
0
ARC
8
DEFAULT_255_2_778
10
39.612452
20
98.6475195
40
3.4780513
50
94.0238285
51
103.0096073
0
ARC
8
DEFAULT_255_2_778
10
39.4713713
20
99.3686362
40
2.7437973
50
103.5290372
51
114.9239884
0
ARC
8
DEFAULT_255_2_778
10
39.9223847
20
98.4602008
40
3.7577833
50
115.3231745
51
123.6341785
0
ARC
8
DEFAULT_255_2_778
10
133.3065948
20
100.4163141
40
1.0238831
50
90.0001309
51
134.866224
0
ARC
8
DEFAULT_255_2_778
10
133.3008674
20
100.4220535
40
1.0157748
50
134.8656357
51
179.9975366
0
ARC
8
DEFAULT_255_2_778
10
133.3736456
20
100.4885786
40
1.0200524
50
95.679259
51
135.0291705
0
ARC
8
DEFAULT_255_2_778
10
133.3745923
20
100.4829461
40
1.0257511
50
90.2130749
51
95.7007485
0
ARC
8
DEFAULT_255_2_778
10
133.3745925
20
100.4980966
40
1.0106008
50
90.0000004
51
90.216278
0
LINE
8
DEFAULT_255_2_778
10
43.7752925
20
102.1357972
11
39.9134925
21
102.1357972
0
LINE
8
DEFAULT_255_2_778
10
39.9134925
20
102.1357972
11
39.3683925
21
102.1169972
0
LINE
8
DEFAULT_255_2_778
10
37.8409925
20
101.5888972
11
37.5647925
21
101.3978972
0
LINE
8
DEFAULT_255_2_778
10
37.5647925
20
101.3978972
11
37.4935925
21
101.3454972
0
LINE
8
DEFAULT_255_2_778
10
127.0214925
20
98.6363972
11
127.0214925
21
98.5763972
0
LINE
8
DEFAULT_255_2_778
10
38.0653925
20
97.5539972
11
38.7077925
21
97.5539972
0
LINE
8
DEFAULT_255_2_778
10
38.7077925
20
97.4957972
11
38.0653925
21
97.4957972
0
LINE
8
DEFAULT_255_2_778
10
126.9631925
20
98.2463972
11
126.9631925
21
99.1393972
0
LINE
8
DEFAULT_255_2_778
10
126.9631925
20
99.1393972
11
132.2850925
21
99.1393972
0
LINE
8
DEFAULT_255_2_778
10
126.9632282
20
99.1394741
11
127.0172282
21
99.0857741
0
LINE
8
DEFAULT_255_2_778
10
127.0172282
20
99.0857741
11
131.8675282
21
99.0857741
0
LINE
8
DEFAULT_255_2_778
10
131.8675282
20
99.0857741
11
131.8675282
21
97.8596741
0
LINE
8
DEFAULT_255_2_778
10
131.8675282
20
97.8596741
11
132.2850282
21
97.8596741
0
LINE
8
DEFAULT_255_2_778
10
43.7753282
20
100.0281741
11
126.8201282
21
100.0281741
0
LINE
8
DEFAULT_255_2_778
10
43.7753282
20
98.9237741
11
126.8201282
21
98.9237741
0
LINE
8
DEFAULT_255_2_778
10
43.7753282
20
97.8064741
11
126.8201282
21
97.8064741
0
LINE
8
DEFAULT_255_2_778
10
43.7753282
20
92.3084741
11
126.8201282
21
92.3084741
0
ARC
8
DEFAULT_255_2_778
10
41.231041
20
95.6533565
40
1.981713
50
156.4079205
51
180.0966469
0
ARC
8
DEFAULT_255_2_778
10
41.234283
20
95.6482981
40
1.9867114
50
101.1760607
51
156.3116536
0
ARC
8
DEFAULT_255_2_778
10
41.2404264
20
95.612105
40
2.0234091
50
89.9658943
51
101.1480768
0
ARC
8
DEFAULT_255_2_778
10
41.2451543
20
95.6350067
40
2.0005101
50
66.7336759
51
90.1009126
0
ARC
8
DEFAULT_255_2_778
10
41.2519941
20
95.6521289
40
1.9820788
50
9.2050753
51
66.719808
0
ARC
8
DEFAULT_255_2_778
10
41.224852
20
95.6508452
40
2.009079
50
359.9762863
51
9.1173882
0
ARC
8
DEFAULT_255_2_778
10
41.25221
20
95.6466558
40
1.9817237
50
336.4090526
51
0.097083
0
ARC
8
DEFAULT_255_2_778
10
41.2491695
20
95.6516563
40
1.9865142
50
281.172401
51
336.3119755
0
ARC
8
DEFAULT_255_2_778
10
41.2428393
20
95.6884778
40
2.0238646
50
269.965789
51
281.1462336
0
ARC
8
DEFAULT_255_2_778
10
41.2381171
20
95.6651467
40
2.0005361
50
246.7350167
51
270.1006333
0
ARC
8
DEFAULT_255_2_778
10
41.2312041
20
95.6479684
40
1.9820241
50
189.2072964
51
246.722464
0
ARC
8
DEFAULT_255_2_778
10
41.2581405
20
95.6491796
40
2.0088097
50
179.976211
51
189.1184688
0
LINE
8
DEFAULT_255_2_778
10
43.7753308
20
102.7771137
11
126.8200308
21
102.7771137
0
LINE
8
DEFAULT_255_2_778
10
126.8200308
20
102.7771137
11
126.8200308
21
88.4211137
0
LINE
8
DEFAULT_255_2_778
10
126.8200308
20
88.4211137
11
43.7753308
21
88.4211137
0
LINE
8
DEFAULT_255_2_778
10
43.7753308
20
88.4211137
11
43.7753308
21
102.7771137
0
LINE
8
DEFAULT_255_2_778
10
43.7753308
20
100.6083137
11
38.0653308
21
100.6083137
0
LINE
8
DEFAULT_255_2_778
10
43.7753308
20
100.4048137
11
38.0653308
21
100.4048137
0
LINE
8
DEFAULT_255_2_778
10
39.2493308
20
95.6500137
11
39.2493308
21
95.6500137
0
LINE
8
DEFAULT_255_2_778
10
41.4969823
20
93.8349818
11
41.4969823
21
97.4648818
0
LINE
8
DEFAULT_255_2_778
10
40.9860823
20
97.4648818
11
40.9860823
21
93.8349818
0
LINE
8
DEFAULT_255_2_778
10
42.0589823
20
98.2463818
11
42.0589823
21
99.1393818
0
LINE
8
DEFAULT_255_2_778
10
42.0589823
20
99.1393818
11
42.1129823
21
99.0856818
0
LINE
8
DEFAULT_255_2_778
10
42.1129823
20
99.0856818
11
43.7752823
21
99.0856818
0
LINE
8
DEFAULT_255_2_778
10
42.0589823
20
99.1393818
11
43.7752823
21
99.1393818
0
LINE
8
DEFAULT_255_2_778
10
43.7752823
20
98.5765818
11
42.1171823
21
98.5765818
0
LINE
8
DEFAULT_255_2_778
10
42.1171823
20
98.5765818
11
42.1171823
21
98.2463818
0
ARC
8
DEFAULT_255_2_778
10
41.230471
20
95.6533261
40
1.8278936
50
154.9991318
51
180.1020865
0
ARC
8
DEFAULT_255_2_778
10
41.2350741
20
95.648188
40
1.8342391
50
100.6832981
51
154.9144425
0
ARC
8
DEFAULT_255_2_778
10
41.2406534
20
95.6140275
40
1.868842
50
89.9685202
51
100.6572364
0
ARC
8
DEFAULT_255_2_778
10
41.2451274
20
95.6373982
40
1.8454743
50
65.5119763
51
90.1070238
0
ARC
8
DEFAULT_255_2_778
10
41.2516124
20
95.6522573
40
1.8292637
50
9.0332266
51
65.5039114
0
ARC
8
DEFAULT_255_2_778
10
41.2255234
20
95.6508188
40
1.8552569
50
359.9768517
51
8.9506005
0
ARC
8
DEFAULT_255_2_778
10
41.2527777
20
95.6467691
40
1.8280055
50
334.9999024
51
0.1034365
0
ARC
8
DEFAULT_255_2_778
10
41.2485477
20
95.6518219
40
1.8339768
50
280.6765334
51
334.9126849
0
ARC
8
DEFAULT_255_2_778
10
41.2427122
20
95.6867822
40
1.8694132
50
269.968371
51
280.6537803
0
ARC
8
DEFAULT_255_2_778
10
41.2382351
20
95.6628681
40
1.8455021
50
245.5123005
51
270.1069571
0
ARC
8
DEFAULT_255_2_778
10
41.2317047
20
95.6479609
40
1.8292291
50
189.0350916
51
245.5049096
0
ARC
8
DEFAULT_255_2_778
10
41.2575152
20
95.6493209
40
1.8549351
50
179.976887
51
188.9513816
0
LINE
8
DEFAULT_255_2_778
10
39.4025802
20
95.6500692
11
39.4025802
21
95.6500692
0
ARC
8
DEFAULT_255_2_778
10
39.2177184
20
93.563755
40
0.5100007
50
180.1123318
51
270.1011438
0
ARC
8
DEFAULT_255_2_778
10
39.2175481
20
97.7366262
40
0.5098299
50
89.8796782
51
179.9180824
0
ARC
8
DEFAULT_255_2_778
10
131.377919
20
93.563755
40
0.5100007
50
269.8988562
51
359.8876682
0
ARC
8
DEFAULT_255_2_778
10
131.3780893
20
97.7366264
40
0.50983
50
0.0818904
51
90.1203106
0
LINE
8
DEFAULT_255_2_778
10
43.7753187
20
93.0537551
11
39.2186187
21
93.0537551
0
LINE
8
DEFAULT_255_2_778
10
38.7077187
20
93.5627551
11
38.7077187
21
97.7373551
0
LINE
8
DEFAULT_255_2_778
10
39.2186187
20
98.2464551
11
43.7755187
21
98.2464551
0
LINE
8
DEFAULT_255_2_778
10
126.8200187
20
93.0537551
11
131.3770187
21
93.0537551
0
LINE
8
DEFAULT_255_2_778
10
131.8879187
20
93.5627551
11
131.8879187
21
97.7373551
0
LINE
8
DEFAULT_255_2_778
10
131.3770187
20
98.2464551
11
126.8200187
21
98.2464551
0
ARC
8
DEFAULT_255_2_778
10
129.3434521
20
95.6534243
40
1.9814708
50
156.4064598
51
180.0964141
0
ARC
8
DEFAULT_255_2_778
10
129.3469337
20
95.6482494
40
1.9867354
50
101.1758468
51
156.3098841
0
ARC
8
DEFAULT_255_2_778
10
129.3530807
20
95.6120604
40
2.02343
50
89.9659234
51
101.14799
0
ARC
8
DEFAULT_255_2_778
10
129.3578067
20
95.6349561
40
2.000537
50
66.733977
51
90.1008873
0
ARC
8
DEFAULT_255_2_778
10
129.364688
20
95.6521235
40
1.9820474
50
9.2068274
51
66.720695
0
ARC
8
DEFAULT_255_2_778
10
129.3378227
20
95.6509201
40
2.0087615
50
359.9763235
51
9.1181085
0
ARC
8
DEFAULT_255_2_778
10
129.3647482
20
95.6467396
40
1.9818387
50
336.4097479
51
0.0968609
0
ARC
8
DEFAULT_255_2_778
10
129.3617309
20
95.6516961
40
1.9865903
50
281.1746683
51
336.3135679
0
ARC
8
DEFAULT_255_2_778
10
129.3554926
20
95.6882458
40
2.0236563
50
269.9657847
51
281.147395
0
ARC
8
DEFAULT_255_2_778
10
129.3507763
20
95.6649662
40
2.0003793
50
246.7329048
51
270.100473
0
ARC
8
DEFAULT_255_2_778
10
129.3440037
20
95.6480581
40
1.9821712
50
189.20708
51
246.7196867
0
ARC
8
DEFAULT_255_2_778
10
129.3708436
20
95.6492572
40
2.0088596
50
179.9762469
51
189.1183552
0
ARC
8
DEFAULT_255_2_778
10
129.3429561
20
95.6533548
40
1.8277749
50
154.998306
51
180.1023424
0
ARC
8
DEFAULT_255_2_778
10
129.3475903
20
95.6481664
40
1.8341698
50
100.6809164
51
154.9126012
0
ARC
8
DEFAULT_255_2_778
10
129.3532552
20
95.6137657
40
1.8690248
50
89.9684593
51
100.6561168
0
ARC
8
DEFAULT_255_2_778
10
129.3577292
20
95.6372911
40
1.8455021
50
65.5123005
51
90.1069571
0
ARC
8
DEFAULT_255_2_778
10
129.3642597
20
95.6521983
40
1.8292291
50
9.0350916
51
65.5049096
0
ARC
8
DEFAULT_255_2_778
10
129.3384492
20
95.6508383
40
1.8549351
50
359.976887
51
8.9513816
0
ARC
8
DEFAULT_255_2_778
10
129.3651465
20
95.6467804
40
1.8282406
50
335.0015345
51
0.1037206
0
ARC
8
DEFAULT_255_2_778
10
129.3611508
20
95.6517147
40
1.8339494
50
280.6767217
51
334.914574
0
ARC
8
DEFAULT_255_2_778
10
129.3553171
20
95.6866801
40
1.8693904
50
269.968338
51
280.6538786
0
ARC
8
DEFAULT_255_2_778
10
129.3508369
20
95.662761
40
1.8454743
50
245.5119763
51
270.1070238
0
ARC
8
DEFAULT_255_2_778
10
129.3443519
20
95.6479019
40
1.8292637
50
189.0332266
51
245.5039114
0
ARC
8
DEFAULT_255_2_778
10
129.3704409
20
95.6493404
40
1.8552569
50
179.9768517
51
188.9506005
0
LINE
8
DEFAULT_255_2_778
10
129.0986841
20
97.46509
11
129.0986841
21
93.83529
0
LINE
8
DEFAULT_255_2_778
10
129.6095841
20
93.83529
11
129.6095841
21
97.46509
0
LINE
8
DEFAULT_255_2_778
10
127.3619841
20
95.65009
11
127.3619841
21
95.65009
0
LINE
8
DEFAULT_255_2_778
10
127.5151841
20
95.65009
11
127.5151841
21
95.65009
0
LINE
8
DEFAULT_255_2_778
10
86.0099841
20
88.81189
11
86.6071841
21
88.81189
0
LINE
8
DEFAULT_255_2_778
10
89.1786841
20
88.81189
11
89.7757841
21
88.81189
0
LINE
8
DEFAULT_255_2_778
10
89.1447841
20
88.42109
11
89.1786841
21
88.81189
0
LINE
8
DEFAULT_255_2_778
10
89.1786841
20
88.81189
11
89.1786841
21
90.45739
0
LINE
8
DEFAULT_255_2_778
10
86.8711841
20
90.45739
11
86.8711841
21
88.42109
0
LINE
8
DEFAULT_255_2_778
10
86.6409841
20
88.42109
11
86.6071841
21
88.81189
0
LINE
8
DEFAULT_255_2_778
10
86.6071841
20
88.81189
11
86.6071841
21
90.45739
0
LINE
8
DEFAULT_255_2_778
10
89.7757841
20
90.45739
11
89.7757841
21
88.81189
0
LINE
8
DEFAULT_255_2_778
10
89.7757841
20
88.81189
11
89.9183841
21
90.45739
0
LINE
8
DEFAULT_255_2_778
10
89.9183841
20
90.45739
11
85.8673841
21
90.45739
0
LINE
8
DEFAULT_255_2_778
10
85.8673841
20
90.45739
11
86.0099841
21
88.81189
0
LINE
8
DEFAULT_255_2_778
10
86.0099841
20
88.81189
11
86.0099841
21
90.45739
0
LINE
8
DEFAULT_255_2_778
10
88.9145841
20
88.42109
11
88.9145841
21
90.45739
0
LINE
8
DEFAULT_255_2_778
10
91.2003485
20
88.8119165
11
91.7974485
21
88.8119165
0
LINE
8
DEFAULT_255_2_778
10
94.3689485
20
88.8119165
11
94.9661485
21
88.8119165
0
LINE
8
DEFAULT_255_2_778
10
94.3351485
20
88.4211165
11
94.3689485
21
88.8119165
0
LINE
8
DEFAULT_255_2_778
10
94.3689485
20
88.8119165
11
94.3689485
21
90.4573165
0
LINE
8
DEFAULT_255_2_778
10
92.0615485
20
90.4573165
11
92.0615485
21
88.4211165
0
LINE
8
DEFAULT_255_2_778
10
91.8313485
20
88.4211165
11
91.7974485
21
88.8119165
0
LINE
8
DEFAULT_255_2_778
10
91.7974485
20
88.8119165
11
91.7974485
21
90.4573165
0
LINE
8
DEFAULT_255_2_778
10
94.9661485
20
90.4573165
11
94.9661485
21
88.8119165
0
LINE
8
DEFAULT_255_2_778
10
94.9661485
20
88.8119165
11
95.1087485
21
90.4573165
0
LINE
8
DEFAULT_255_2_778
10
95.1087485
20
90.4573165
11
91.0574485
21
90.4573165
0
LINE
8
DEFAULT_255_2_778
10
91.0574485
20
90.4573165
11
91.2000485
21
88.8119165
0
LINE
8
DEFAULT_255_2_778
10
91.2000485
20
88.8119165
11
91.2000485
21
90.4573165
0
LINE
8
DEFAULT_255_2_778
10
94.1046485
20
88.4211165
11
94.1046485
21
90.4573165
0
LINE
8
DEFAULT_255_2_778
10
96.3903485
20
88.8119165
11
96.9874485
21
88.8119165
0
LINE
8
DEFAULT_255_2_778
10
99.5589485
20
88.8119165
11
100.1561485
21
88.8119165
0
LINE
8
DEFAULT_255_2_778
10
99.5251485
20
88.4211165
11
99.5589485
21
88.8119165
0
LINE
8
DEFAULT_255_2_778
10
99.5589485
20
88.8119165
11
99.5589485
21
90.4573165
0
LINE
8
DEFAULT_255_2_778
10
97.2515485
20
90.4573165
11
97.2515485
21
88.4211165
0
LINE
8
DEFAULT_255_2_778
10
97.0213485
20
88.4211165
11
96.9874485
21
88.8119165
0
LINE
8
DEFAULT_255_2_778
10
96.9874485
20
88.8119165
11
96.9874485
21
90.4573165
0
LINE
8
DEFAULT_255_2_778
10
100.1561485
20
90.4573165
11
100.1561485
21
88.8119165
0
LINE
8
DEFAULT_255_2_778
10
100.1561485
20
88.8119165
11
100.2987485
21
90.4573165
0
LINE
8
DEFAULT_255_2_778
10
100.2987485
20
90.4573165
11
96.2474485
21
90.4573165
0
LINE
8
DEFAULT_255_2_778
10
96.2474485
20
90.4573165
11
96.3900485
21
88.8119165
0
LINE
8
DEFAULT_255_2_778
10
96.3900485
20
88.8119165
11
96.3900485
21
90.4573165
0
LINE
8
DEFAULT_255_2_778
10
99.2946485
20
88.4211165
11
99.2946485
21
90.4573165
0
LINE
8
DEFAULT_255_2_778
10
101.5806777
20
88.8119165
11
102.1778777
21
88.8119165
0
LINE
8
DEFAULT_255_2_778
10
104.7493777
20
88.8119165
11
105.3464777
21
88.8119165
0
LINE
8
DEFAULT_255_2_778
10
104.7154777
20
88.4211165
11
104.7493777
21
88.8119165
0
LINE
8
DEFAULT_255_2_778
10
104.7493777
20
88.8119165
11
104.7493777
21
90.4573165
0
LINE
8
DEFAULT_255_2_778
10
102.4418777
20
90.4573165
11
102.4418777
21
88.4211165
0
LINE
8
DEFAULT_255_2_778
10
102.2116777
20
88.4211165
11
102.1778777
21
88.8119165
0
LINE
8
DEFAULT_255_2_778
10
102.1778777
20
88.8119165
11
102.1778777
21
90.4573165
0
LINE
8
DEFAULT_255_2_778
10
105.3464777
20
90.4573165
11
105.3464777
21
88.8119165
0
LINE
8
DEFAULT_255_2_778
10
105.3464777
20
88.8119165
11
105.4890777
21
90.4573165
0
LINE
8
DEFAULT_255_2_778
10
105.4890777
20
90.4573165
11
101.4380777
21
90.4573165
0
LINE
8
DEFAULT_255_2_778
10
101.4380777
20
90.4573165
11
101.5806777
21
88.8119165
0
LINE
8
DEFAULT_255_2_778
10
101.5806777
20
88.8119165
11
101.5806777
21
90.4573165
0
LINE
8
DEFAULT_255_2_778
10
104.4852777
20
88.4211165
11
104.4852777
21
90.4573165
0
LINE
8
DEFAULT_255_2_778
10
106.7710485
20
88.8119165
11
107.3681485
21
88.8119165
0
LINE
8
DEFAULT_255_2_778
10
109.9396485
20
88.8119165
11
110.5368485
21
88.8119165
0
LINE
8
DEFAULT_255_2_778
10
109.9058485
20
88.4211165
11
109.9396485
21
88.8119165
0
LINE
8
DEFAULT_255_2_778
10
109.9396485
20
88.8119165
11
109.9396485
21
90.4573165
0
LINE
8
DEFAULT_255_2_778
10
107.6322485
20
90.4573165
11
107.6322485
21
88.4211165
0
LINE
8
DEFAULT_255_2_778
10
107.4020485
20
88.4211165
11
107.3681485
21
88.8119165
0
LINE
8
DEFAULT_255_2_778
10
107.3681485
20
88.8119165
11
107.3681485
21
90.4573165
0
LINE
8
DEFAULT_255_2_778
10
110.5368485
20
90.4573165
11
110.5368485
21
88.8119165
0
LINE
8
DEFAULT_255_2_778
10
110.5368485
20
88.8119165
11
110.6794485
21
90.4573165
0
LINE
8
DEFAULT_255_2_778
10
110.6794485
20
90.4573165
11
106.6281485
21
90.4573165
0
LINE
8
DEFAULT_255_2_778
10
106.6281485
20
90.4573165
11
106.7707485
21
88.8119165
0
LINE
8
DEFAULT_255_2_778
10
106.7707485
20
88.8119165
11
106.7707485
21
90.4573165
0
LINE
8
DEFAULT_255_2_778
10
109.6753485
20
88.4211165
11
109.6753485
21
90.4573165
0
LINE
8
DEFAULT_255_2_778
10
111.9613485
20
88.8119165
11
112.5584485
21
88.8119165
0
LINE
8
DEFAULT_255_2_778
10
115.1299485
20
88.8119165
11
115.7271485
21
88.8119165
0
LINE
8
DEFAULT_255_2_778
10
115.0961485
20
88.4211165
11
115.1299485
21
88.8119165
0
LINE
8
DEFAULT_255_2_778
10
115.1299485
20
88.8119165
11
115.1299485
21
90.4573165
0
LINE
8
DEFAULT_255_2_778
10
112.8225485
20
90.4573165
11
112.8225485
21
88.4211165
0
LINE
8
DEFAULT_255_2_778
10
112.5923485
20
88.4211165
11
112.5584485
21
88.8119165
0
LINE
8
DEFAULT_255_2_778
10
112.5584485
20
88.8119165
11
112.5584485
21
90.4573165
0
LINE
8
DEFAULT_255_2_778
10
115.7271485
20
90.4573165
11
115.7271485
21
88.8119165
0
LINE
8
DEFAULT_255_2_778
10
115.7271485
20
88.8119165
11
115.8697485
21
90.4573165
0
LINE
8
DEFAULT_255_2_778
10
115.8697485
20
90.4573165
11
111.8184485
21
90.4573165
0
LINE
8
DEFAULT_255_2_778
10
111.8184485
20
90.4573165
11
111.9610485
21
88.8119165
0
LINE
8
DEFAULT_255_2_778
10
111.9610485
20
88.8119165
11
111.9610485
21
90.4573165
0
LINE
8
DEFAULT_255_2_778
10
114.8656485
20
88.4211165
11
114.8656485
21
90.4573165
0
LINE
8
DEFAULT_255_2_778
10
117.1517485
20
88.8119165
11
117.7488485
21
88.8119165
0
LINE
8
DEFAULT_255_2_778
10
120.3203485
20
88.8119165
11
120.9175485
21
88.8119165
0
LINE
8
DEFAULT_255_2_778
10
120.2865485
20
88.4211165
11
120.3203485
21
88.8119165
0
LINE
8
DEFAULT_255_2_778
10
120.3203485
20
88.8119165
11
120.3203485
21
90.4573165
0
LINE
8
DEFAULT_255_2_778
10
118.0129485
20
90.4573165
11
118.0129485
21
88.4211165
0
LINE
8
DEFAULT_255_2_778
10
117.7827485
20
88.4211165
11
117.7488485
21
88.8119165
0
LINE
8
DEFAULT_255_2_778
10
117.7488485
20
88.8119165
11
117.7488485
21
90.4573165
0
LINE
8
DEFAULT_255_2_778
10
120.9175485
20
90.4573165
11
120.9175485
21
88.8119165
0
LINE
8
DEFAULT_255_2_778
10
120.9175485
20
88.8119165
11
121.0601485
21
90.4573165
0
LINE
8
DEFAULT_255_2_778
10
121.0601485
20
90.4573165
11
117.0088485
21
90.4573165
0
LINE
8
DEFAULT_255_2_778
10
117.0088485
20
90.4573165
11
117.1514485
21
88.8119165
0
LINE
8
DEFAULT_255_2_778
10
117.1514485
20
88.8119165
11
117.1514485
21
90.4573165
0
LINE
8
DEFAULT_255_2_778
10
120.0560485
20
88.4211165
11
120.0560485
21
90.4573165
0
LINE
8
DEFAULT_255_2_778
10
122.3420485
20
88.8119165
11
122.9391485
21
88.8119165
0
LINE
8
DEFAULT_255_2_778
10
125.5106485
20
88.8119165
11
126.1078485
21
88.8119165
0
LINE
8
DEFAULT_255_2_778
10
125.4768485
20
88.4211165
11
125.5106485
21
88.8119165
0
LINE
8
DEFAULT_255_2_778
10
125.5106485
20
88.8119165
11
125.5106485
21
90.4573165
0
LINE
8
DEFAULT_255_2_778
10
123.2032485
20
90.4573165
11
123.2032485
21
88.4211165
0
LINE
8
DEFAULT_255_2_778
10
122.9730485
20
88.4211165
11
122.9391485
21
88.8119165
0
LINE
8
DEFAULT_255_2_778
10
122.9391485
20
88.8119165
11
122.9391485
21
90.4573165
0
LINE
8
DEFAULT_255_2_778
10
126.1078485
20
90.4573165
11
126.1078485
21
88.8119165
0
LINE
8
DEFAULT_255_2_778
10
126.1078485
20
88.8119165
11
126.2504485
21
90.4573165
0
LINE
8
DEFAULT_255_2_778
10
126.2504485
20
90.4573165
11
122.1991485
21
90.4573165
0
LINE
8
DEFAULT_255_2_778
10
122.1991485
20
90.4573165
11
122.3417485
21
88.8119165
0
LINE
8
DEFAULT_255_2_778
10
122.3417485
20
88.8119165
11
122.3417485
21
90.4573165
0
LINE
8
DEFAULT_255_2_778
10
125.2463485
20
88.4211165
11
125.2463485
21
90.4573165
0
LINE
8
DEFAULT_255_2_778
10
80.8196485
20
88.8119165
11
81.4167485
21
88.8119165
0
LINE
8
DEFAULT_255_2_778
10
83.9882485
20
88.8119165
11
84.5854485
21
88.8119165
0
LINE
8
DEFAULT_255_2_778
10
83.9544485
20
88.4211165
11
83.9882485
21
88.8119165
0
LINE
8
DEFAULT_255_2_778
10
83.9882485
20
88.8119165
11
83.9882485
21
90.4573165
0
LINE
8
DEFAULT_255_2_778
10
81.6808485
20
90.4573165
11
81.6808485
21
88.4211165
0
LINE
8
DEFAULT_255_2_778
10
81.4506485
20
88.4211165
11
81.4167485
21
88.8119165
0
LINE
8
DEFAULT_255_2_778
10
81.4167485
20
88.8119165
11
81.4167485
21
90.4573165
0
LINE
8
DEFAULT_255_2_778
10
84.5854485
20
90.4573165
11
84.5854485
21
88.8119165
0
LINE
8
DEFAULT_255_2_778
10
84.5854485
20
88.8119165
11
84.7280485
21
90.4573165
0
LINE
8
DEFAULT_255_2_778
10
84.7280485
20
90.4573165
11
80.6767485
21
90.4573165
0
LINE
8
DEFAULT_255_2_778
10
80.6767485
20
90.4573165
11
80.8193485
21
88.8119165
0
LINE
8
DEFAULT_255_2_778
10
80.8193485
20
88.8119165
11
80.8193485
21
90.4573165
0
LINE
8
DEFAULT_255_2_778
10
83.7239485
20
88.4211165
11
83.7239485
21
90.4573165
0
LINE
8
DEFAULT_255_2_778
10
75.6293485
20
88.8119165
11
76.2264485
21
88.8119165
0
LINE
8
DEFAULT_255_2_778
10
78.7979485
20
88.8119165
11
79.3951485
21
88.8119165
0
LINE
8
DEFAULT_255_2_778
10
78.7641485
20
88.4211165
11
78.7979485
21
88.8119165
0
LINE
8
DEFAULT_255_2_778
10
78.7979485
20
88.8119165
11
78.7979485
21
90.4573165
0
LINE
8
DEFAULT_255_2_778
10
76.4905485
20
90.4573165
11
76.4905485
21
88.4211165
0
LINE
8
DEFAULT_255_2_778
10
76.2603485
20
88.4211165
11
76.2264485
21
88.8119165
0
LINE
8
DEFAULT_255_2_778
10
76.2264485
20
88.8119165
11
76.2264485
21
90.4573165
0
LINE
8
DEFAULT_255_2_778
10
79.3951485
20
90.4573165
11
79.3951485
21
88.8119165
0
LINE
8
DEFAULT_255_2_778
10
79.3951485
20
88.8119165
11
79.5377485
21
90.4573165
0
LINE
8
DEFAULT_255_2_778
10
79.5377485
20
90.4573165
11
75.4864485
21
90.4573165
0
LINE
8
DEFAULT_255_2_778
10
75.4864485
20
90.4573165
11
75.6290485
21
88.8119165
0
LINE
8
DEFAULT_255_2_778
10
75.6290485
20
88.8119165
11
75.6290485
21
90.4573165
0
LINE
8
DEFAULT_255_2_778
10
78.5336485
20
88.4211165
11
78.5336485
21
90.4573165
0
LINE
8
DEFAULT_255_2_778
10
70.4389485
20
88.8119165
11
71.0360485
21
88.8119165
0
LINE
8
DEFAULT_255_2_778
10
73.6075485
20
88.8119165
11
74.2047485
21
88.8119165
0
LINE
8
DEFAULT_255_2_778
10
73.5737485
20
88.4211165
11
73.6075485
21
88.8119165
0
LINE
8
DEFAULT_255_2_778
10
73.6075485
20
88.8119165
11
73.6075485
21
90.4573165
0
LINE
8
DEFAULT_255_2_778
10
71.3001485
20
90.4573165
11
71.3001485
21
88.4211165
0
LINE
8
DEFAULT_255_2_778
10
71.0699485
20
88.4211165
11
71.0360485
21
88.8119165
0
LINE
8
DEFAULT_255_2_778
10
71.0360485
20
88.8119165
11
71.0360485
21
90.4573165
0
LINE
8
DEFAULT_255_2_778
10
74.2047485
20
90.4573165
11
74.2047485
21
88.8119165
0
LINE
8
DEFAULT_255_2_778
10
74.2047485
20
88.8119165
11
74.3473485
21
90.4573165
0
LINE
8
DEFAULT_255_2_778
10
74.3473485
20
90.4573165
11
70.2960485
21
90.4573165
0
LINE
8
DEFAULT_255_2_778
10
70.2960485
20
90.4573165
11
70.4386485
21
88.8119165
0
LINE
8
DEFAULT_255_2_778
10
70.4386485
20
88.8119165
11
70.4386485
21
90.4573165
0
LINE
8
DEFAULT_255_2_778
10
73.3432485
20
88.4211165
11
73.3432485
21
90.4573165
0
LINE
8
DEFAULT_255_2_778
10
65.2486485
20
88.8119165
11
65.8457485
21
88.8119165
0
LINE
8
DEFAULT_255_2_778
10
68.4172485
20
88.8119165
11
69.0144485
21
88.8119165
0
LINE
8
DEFAULT_255_2_778
10
68.3834485
20
88.4211165
11
68.4172485
21
88.8119165
0
LINE
8
DEFAULT_255_2_778
10
68.4172485
20
88.8119165
11
68.4172485
21
90.4573165
0
LINE
8
DEFAULT_255_2_778
10
66.1098485
20
90.4573165
11
66.1098485
21
88.4211165
0
LINE
8
DEFAULT_255_2_778
10
65.8796485
20
88.4211165
11
65.8457485
21
88.8119165
0
LINE
8
DEFAULT_255_2_778
10
65.8457485
20
88.8119165
11
65.8457485
21
90.4573165
0
LINE
8
DEFAULT_255_2_778
10
69.0144485
20
90.4573165
11
69.0144485
21
88.8119165
0
LINE
8
DEFAULT_255_2_778
10
69.0144485
20
88.8119165
11
69.1570485
21
90.4573165
0
LINE
8
DEFAULT_255_2_778
10
69.1570485
20
90.4573165
11
65.1057485
21
90.4573165
0
LINE
8
DEFAULT_255_2_778
10
65.1057485
20
90.4573165
11
65.2483485
21
88.8119165
0
LINE
8
DEFAULT_255_2_778
10
65.2483485
20
88.8119165
11
65.2483485
21
90.4573165
0
LINE
8
DEFAULT_255_2_778
10
68.1529485
20
88.4211165
11
68.1529485
21
90.4573165
0
LINE
8
DEFAULT_255_2_778
10
60.0585485
20
88.8119165
11
60.6556485
21
88.8119165
0
LINE
8
DEFAULT_255_2_778
10
63.2271485
20
88.8119165
11
63.8243485
21
88.8119165
0
LINE
8
DEFAULT_255_2_778
10
63.1933485
20
88.4211165
11
63.2271485
21
88.8119165
0
LINE
8
DEFAULT_255_2_778
10
63.2271485
20
88.8119165
11
63.2271485
21
90.4573165
0
LINE
8
DEFAULT_255_2_778
10
60.9197485
20
90.4573165
11
60.9197485
21
88.4211165
0
LINE
8
DEFAULT_255_2_778
10
60.6895485
20
88.4211165
11
60.6556485
21
88.8119165
0
LINE
8
DEFAULT_255_2_778
10
60.6556485
20
88.8119165
11
60.6556485
21
90.4573165
0
LINE
8
DEFAULT_255_2_778
10
63.8243485
20
90.4573165
11
63.8243485
21
88.8119165
0
LINE
8
DEFAULT_255_2_778
10
63.8243485
20
88.8119165
11
63.9669485
21
90.4573165
0
LINE
8
DEFAULT_255_2_778
10
63.9669485
20
90.4573165
11
59.9156485
21
90.4573165
0
LINE
8
DEFAULT_255_2_778
10
59.9156485
20
90.4573165
11
60.0582485
21
88.8119165
0
LINE
8
DEFAULT_255_2_778
10
60.0582485
20
88.8119165
11
60.0582485
21
90.4573165
0
LINE
8
DEFAULT_255_2_778
10
62.9628485
20
88.4211165
11
62.9628485
21
90.4573165
0
LINE
8
DEFAULT_255_2_778
10
54.8682485
20
88.8119165
11
55.4653485
21
88.8119165
0
LINE
8
DEFAULT_255_2_778
10
58.0368485
20
88.8119165
11
58.6340485
21
88.8119165
0
LINE
8
DEFAULT_255_2_778
10
58.0030485
20
88.4211165
11
58.0368485
21
88.8119165
0
LINE
8
DEFAULT_255_2_778
10
58.0368485
20
88.8119165
11
58.0368485
21
90.4573165
0
LINE
8
DEFAULT_255_2_778
10
55.7294485
20
90.4573165
11
55.7294485
21
88.4211165
0
LINE
8
DEFAULT_255_2_778
10
55.4992485
20
88.4211165
11
55.4653485
21
88.8119165
0
LINE
8
DEFAULT_255_2_778
10
55.4653485
20
88.8119165
11
55.4653485
21
90.4573165
0
LINE
8
DEFAULT_255_2_778
10
58.6340485
20
90.4573165
11
58.6340485
21
88.8119165
0
LINE
8
DEFAULT_255_2_778
10
58.6340485
20
88.8119165
11
58.7766485
21
90.4573165
0
LINE
8
DEFAULT_255_2_778
10
58.7766485
20
90.4573165
11
54.7253485
21
90.4573165
0
LINE
8
DEFAULT_255_2_778
10
54.7253485
20
90.4573165
11
54.8679485
21
88.8119165
0
LINE
8
DEFAULT_255_2_778
10
54.8679485
20
88.8119165
11
54.8679485
21
90.4573165
0
LINE
8
DEFAULT_255_2_778
10
57.7725485
20
88.4211165
11
57.7725485
21
90.4573165
0
LINE
8
DEFAULT_255_2_778
10
49.6779485
20
88.8119165
11
50.2750485
21
88.8119165
0
LINE
8
DEFAULT_255_2_778
10
52.8465485
20
88.8119165
11
53.4437485
21
88.8119165
0
LINE
8
DEFAULT_255_2_778
10
52.8127485
20
88.4211165
11
52.8465485
21
88.8119165
0
LINE
8
DEFAULT_255_2_778
10
52.8465485
20
88.8119165
11
52.8465485
21
90.4573165
0
LINE
8
DEFAULT_255_2_778
10
50.5391485
20
90.4573165
11
50.5391485
21
88.4211165
0
LINE
8
DEFAULT_255_2_778
10
50.3089485
20
88.4211165
11
50.2750485
21
88.8119165
0
LINE
8
DEFAULT_255_2_778
10
50.2750485
20
88.8119165
11
50.2750485
21
90.4573165
0
LINE
8
DEFAULT_255_2_778
10
53.4437485
20
90.4573165
11
53.4437485
21
88.8119165
0
LINE
8
DEFAULT_255_2_778
10
53.4437485
20
88.8119165
11
53.5863485
21
90.4573165
0
LINE
8
DEFAULT_255_2_778
10
53.5863485
20
90.4573165
11
49.5350485
21
90.4573165
0
LINE
8
DEFAULT_255_2_778
10
49.5350485
20
90.4573165
11
49.6776485
21
88.8119165
0
LINE
8
DEFAULT_255_2_778
10
49.6776485
20
88.8119165
11
49.6776485
21
90.4573165
0
LINE
8
DEFAULT_255_2_778
10
52.5822485
20
88.4211165
11
52.5822485
21
90.4573165
0
LINE
8
DEFAULT_255_2_778
10
44.4875485
20
88.8119165
11
45.0846485
21
88.8119165
0
LINE
8
DEFAULT_255_2_778
10
47.6561485
20
88.8119165
11
48.2533485
21
88.8119165
0
LINE
8
DEFAULT_255_2_778
10
47.6223485
20
88.4211165
11
47.6561485
21
88.8119165
0
LINE
8
DEFAULT_255_2_778
10
47.6561485
20
88.8119165
11
47.6561485
21
90.4573165
0
LINE
8
DEFAULT_255_2_778
10
45.3487485
20
90.4573165
11
45.3487485
21
88.4211165
0
LINE
8
DEFAULT_255_2_778
10
45.1185485
20
88.4211165
11
45.0846485
21
88.8119165
0
LINE
8
DEFAULT_255_2_778
10
45.0846485
20
88.8119165
11
45.0846485
21
90.4573165
0
LINE
8
DEFAULT_255_2_778
10
48.2533485
20
90.4573165
11
48.2533485
21
88.8119165
0
LINE
8
DEFAULT_255_2_778
10
48.2533485
20
88.8119165
11
48.3959485
21
90.4573165
0
LINE
8
DEFAULT_255_2_778
10
48.3959485
20
90.4573165
11
44.3446485
21
90.4573165
0
LINE
8
DEFAULT_255_2_778
10
44.3446485
20
90.4573165
11
44.4872485
21
88.8119165
0
LINE
8
DEFAULT_255_2_778
10
44.4872485
20
88.8119165
11
44.4872485
21
90.4573165
0
LINE
8
DEFAULT_255_2_778
10
47.3918485
20
88.4211165
11
47.3918485
21
90.4573165
0
ARC
8
DEFAULT_255_2_778
10
124.2137669
20
95.1439261
40
1.8278936
50
154.9991318
51
180.1020865
0
ARC
8
DEFAULT_255_2_778
10
124.2183701
20
95.138788
40
1.8342391
50
100.6832981
51
154.9144425
0
ARC
8
DEFAULT_255_2_778
10
124.2239494
20
95.1046275
40
1.868842
50
89.9685202
51
100.6572364
0
ARC
8
DEFAULT_255_2_778
10
124.2284234
20
95.1279982
40
1.8454743
50
65.5119763
51
90.1070238
0
ARC
8
DEFAULT_255_2_778
10
124.2349084
20
95.1428573
40
1.8292637
50
9.0332266
51
65.5039114
0
ARC
8
DEFAULT_255_2_778
10
124.2088194
20
95.1414188
40
1.8552569
50
359.9768517
51
8.9506005
0
ARC
8
DEFAULT_255_2_778
10
124.2360737
20
95.1373691
40
1.8280055
50
334.9999024
51
0.1034365
0
ARC
8
DEFAULT_255_2_778
10
124.2318437
20
95.1424219
40
1.8339768
50
280.6765334
51
334.9126849
0
ARC
8
DEFAULT_255_2_778
10
124.2260082
20
95.1773822
40
1.8694132
50
269.968371
51
280.6537803
0
ARC
8
DEFAULT_255_2_778
10
124.2215311
20
95.1534681
40
1.8455021
50
245.5123005
51
270.1069571
0
ARC
8
DEFAULT_255_2_778
10
124.2150006
20
95.1385609
40
1.8292291
50
189.0350916
51
245.5049096
0
ARC
8
DEFAULT_255_2_778
10
124.2408111
20
95.1399209
40
1.8549351
50
179.976887
51
188.9513816
0
ARC
8
DEFAULT_255_2_778
10
124.2183552
20
95.1430634
40
1.5257809
50
150.7989366
51
180.089905
0
ARC
8
DEFAULT_255_2_778
10
124.2254844
20
95.1399962
40
1.5335005
50
97.9565603
51
150.8288546
0
ARC
8
DEFAULT_255_2_778
10
124.2247423
20
95.1268161
40
1.546453
50
89.9839228
51
97.8617349
0
ARC
8
DEFAULT_255_2_778
10
124.2275473
20
95.1475718
40
1.5256992
50
60.7981384
51
90.0890425
0
ARC
8
DEFAULT_255_2_778
10
124.2244336
20
95.1402869
40
1.5335776
50
7.9589553
51
60.8293843
0
ARC
8
DEFAULT_255_2_778
10
124.2115349
20
95.1411018
40
1.5462414
50
359.9839716
51
7.8628695
0
ARC
8
DEFAULT_255_2_778
10
124.2321786
20
95.1383101
40
1.5255995
50
330.7955358
51
0.0885993
0
ARC
8
DEFAULT_255_2_778
10
124.2247031
20
95.1415139
40
1.5336883
50
277.9609959
51
330.8273254
0
ARC
8
DEFAULT_255_2_778
10
124.225607
20
95.1540245
40
1.5459554
50
269.9840344
51
277.8636008
0
ARC
8
DEFAULT_255_2_778
10
124.222794
20
95.1337485
40
1.5256812
50
240.796334
51
270.0894619
0
ARC
8
DEFAULT_255_2_778
10
124.2259513
20
95.1410682
40
1.5336113
50
187.9586009
51
240.8267957
0
ARC
8
DEFAULT_255_2_778
10
124.2387434
20
95.1402371
40
1.5461671
50
179.9839856
51
187.8624661
0
LINE
8
DEFAULT_255_2_778
10
122.3858762
20
95.1406692
11
122.3858762
21
95.1406692
0
LINE
8
DEFAULT_255_2_778
10
122.7139762
20
94.8861692
11
125.7362762
21
94.8861692
0
LINE
8
DEFAULT_255_2_778
10
125.7362762
20
95.3952692
11
122.7139762
21
95.3952692
0
LINE
8
DEFAULT_255_2_778
10
122.6925762
20
95.1406692
11
122.6925762
21
95.1406692
0
ARC
8
DEFAULT_255_2_778
10
46.3593669
20
95.1439261
40
1.8278936
50
154.9991318
51
180.1020865
0
ARC
8
DEFAULT_255_2_778
10
46.3639701
20
95.138788
40
1.8342391
50
100.6832981
51
154.9144425
0
ARC
8
DEFAULT_255_2_778
10
46.3695494
20
95.1046275
40
1.868842
50
89.9685202
51
100.6572364
0
ARC
8
DEFAULT_255_2_778
10
46.3740234
20
95.1279982
40
1.8454743
50
65.5119763
51
90.1070238
0
ARC
8
DEFAULT_255_2_778
10
46.3805084
20
95.1428573
40
1.8292637
50
9.0332266
51
65.5039114
0
ARC
8
DEFAULT_255_2_778
10
46.3544194
20
95.1414188
40
1.8552569
50
359.9768517
51
8.9506005
0
ARC
8
DEFAULT_255_2_778
10
46.3816737
20
95.1373691
40
1.8280055
50
334.9999024
51
0.1034365
0
ARC
8
DEFAULT_255_2_778
10
46.3774437
20
95.1424219
40
1.8339768
50
280.6765334
51
334.9126849
0
ARC
8
DEFAULT_255_2_778
10
46.3716082
20
95.1773822
40
1.8694132
50
269.968371
51
280.6537803
0
ARC
8
DEFAULT_255_2_778
10
46.3671311
20
95.1534681
40
1.8455021
50
245.5123005
51
270.1069571
0
ARC
8
DEFAULT_255_2_778
10
46.3606006
20
95.1385609
40
1.8292291
50
189.0350916
51
245.5049096
0
ARC
8
DEFAULT_255_2_778
10
46.3864111
20
95.1399209
40
1.8549351
50
179.976887
51
188.9513816
0
ARC
8
DEFAULT_255_2_778
10
46.3639552
20
95.1430634
40
1.5257809
50
150.7989366
51
180.089905
0
ARC
8
DEFAULT_255_2_778
10
46.3710844
20
95.1399962
40
1.5335005
50
97.9565603
51
150.8288546
0
ARC
8
DEFAULT_255_2_778
10
46.3703423
20
95.1268161
40
1.546453
50
89.9839228
51
97.8617349
0
ARC
8
DEFAULT_255_2_778
10
46.3731473
20
95.1475718
40
1.5256992
50
60.7981384
51
90.0890425
0
ARC
8
DEFAULT_255_2_778
10
46.3700336
20
95.1402869
40
1.5335776
50
7.9589553
51
60.8293843
0
ARC
8
DEFAULT_255_2_778
10
46.3571349
20
95.1411018
40
1.5462414
50
359.9839716
51
7.8628695
0
ARC
8
DEFAULT_255_2_778
10
46.3777786
20
95.1383101
40
1.5255995
50
330.7955358
51
0.0885993
0
ARC
8
DEFAULT_255_2_778
10
46.3703031
20
95.1415139
40
1.5336883
50
277.9609959
51
330.8273254
0
ARC
8
DEFAULT_255_2_778
10
46.371207
20
95.1540245
40
1.5459554
50
269.9840344
51
277.8636008
0
ARC
8
DEFAULT_255_2_778
10
46.368394
20
95.1337485
40
1.5256812
50
240.796334
51
270.0894619
0
ARC
8
DEFAULT_255_2_778
10
46.3715513
20
95.1410682
40
1.5336113
50
187.9586009
51
240.8267957
0
ARC
8
DEFAULT_255_2_778
10
46.3843434
20
95.1402371
40
1.5461671
50
179.9839856
51
187.8624661
0
LINE
8
DEFAULT_255_2_778
10
44.5314762
20
95.1406692
11
44.5314762
21
95.1406692
0
LINE
8
DEFAULT_255_2_778
10
44.8595762
20
94.8861692
11
47.8818762
21
94.8861692
0
LINE
8
DEFAULT_255_2_778
10
47.8818762
20
95.3952692
11
44.8595762
21
95.3952692
0
LINE
8
DEFAULT_255_2_778
10
44.8381762
20
95.1406692
11
44.8381762
21
95.1406692
0
ARC
8
DEFAULT_255_2_778
10
51.549671
20
95.1439261
40
1.8278936
50
154.9991318
51
180.1020865
0
ARC
8
DEFAULT_255_2_778
10
51.5542741
20
95.138788
40
1.8342391
50
100.6832981
51
154.9144425
0
ARC
8
DEFAULT_255_2_778
10
51.5598534
20
95.1046275
40
1.868842
50
89.9685202
51
100.6572364
0
ARC
8
DEFAULT_255_2_778
10
51.5643274
20
95.1279982
40
1.8454743
50
65.5119763
51
90.1070238
0
ARC
8
DEFAULT_255_2_778
10
51.5708124
20
95.1428573
40
1.8292637
50
9.0332266
51
65.5039114
0
ARC
8
DEFAULT_255_2_778
10
51.5447234
20
95.1414188
40
1.8552569
50
359.9768517
51
8.9506005
0
ARC
8
DEFAULT_255_2_778
10
51.5719777
20
95.1373691
40
1.8280055
50
334.9999024
51
0.1034365
0
ARC
8
DEFAULT_255_2_778
10
51.5677477
20
95.1424219
40
1.8339768
50
280.6765334
51
334.9126849
0
ARC
8
DEFAULT_255_2_778
10
51.5619122
20
95.1773822
40
1.8694132
50
269.968371
51
280.6537803
0
ARC
8
DEFAULT_255_2_778
10
51.5574351
20
95.1534681
40
1.8455021
50
245.5123005
51
270.1069571
0
ARC
8
DEFAULT_255_2_778
10
51.5509047
20
95.1385609
40
1.8292291
50
189.0350916
51
245.5049096
0
ARC
8
DEFAULT_255_2_778
10
51.5767152
20
95.1399209
40
1.8549351
50
179.976887
51
188.9513816
0
ARC
8
DEFAULT_255_2_778
10
51.5542593
20
95.1430634
40
1.5257809
50
150.7989366
51
180.089905
0
ARC
8
DEFAULT_255_2_778
10
51.5613884
20
95.1399962
40
1.5335005
50
97.9565603
51
150.8288546
0
ARC
8
DEFAULT_255_2_778
10
51.5606463
20
95.1268161
40
1.546453
50
89.9839228
51
97.8617349
0
ARC
8
DEFAULT_255_2_778
10
51.5634614
20
95.1477033
40
1.5255677
50
60.7968532
51
90.0894288
0
ARC
8
DEFAULT_255_2_778
10
51.5602692
20
95.1403554
40
1.5335393
50
7.9718842
51
60.8266954
0
ARC
8
DEFAULT_255_2_778
10
51.547155
20
95.1411029
40
1.5464254
50
359.983931
51
7.8770677
0
ARC
8
DEFAULT_255_2_778
10
51.5678507
20
95.1383008
40
1.5257313
50
330.7987005
51
0.0889413
0
ARC
8
DEFAULT_255_2_778
10
51.5606271
20
95.1413536
40
1.5335266
50
277.961011
51
330.8308102
0
ARC
8
DEFAULT_255_2_778
10
51.5615119
20
95.1539834
40
1.5459143
50
269.9840023
51
277.8637031
0
ARC
8
DEFAULT_255_2_778
10
51.558698
20
95.1337485
40
1.5256812
50
240.796334
51
270.0894619
0
ARC
8
DEFAULT_255_2_778
10
51.5618554
20
95.1410682
40
1.5336113
50
187.9586009
51
240.8267957
0
ARC
8
DEFAULT_255_2_778
10
51.5746474
20
95.1402371
40
1.5461671
50
179.9839856
51
187.8624661
0
LINE
8
DEFAULT_255_2_778
10
49.7217802
20
95.1406692
11
49.7217802
21
95.1406692
0
LINE
8
DEFAULT_255_2_778
10
50.0498802
20
94.8861692
11
53.0721802
21
94.8861692
0
LINE
8
DEFAULT_255_2_778
10
53.0721802
20
95.3952692
11
50.0498802
21
95.3952692
0
LINE
8
DEFAULT_255_2_778
10
50.0284802
20
95.1406692
11
50.0284802
21
95.1406692
0
ARC
8
DEFAULT_255_2_778
10
56.7400669
20
95.1439261
40
1.8278936
50
154.9991318
51
180.1020865
0
ARC
8
DEFAULT_255_2_778
10
56.7446701
20
95.138788
40
1.8342391
50
100.6832981
51
154.9144425
0
ARC
8
DEFAULT_255_2_778
10
56.7502494
20
95.1046275
40
1.868842
50
89.9685202
51
100.6572364
0
ARC
8
DEFAULT_255_2_778
10
56.7547234
20
95.1279982
40
1.8454743
50
65.5119763
51
90.1070238
0
ARC
8
DEFAULT_255_2_778
10
56.7612084
20
95.1428573
40
1.8292637
50
9.0332266
51
65.5039114
0
ARC
8
DEFAULT_255_2_778
10
56.7351194
20
95.1414188
40
1.8552569
50
359.9768517
51
8.9506005
0
ARC
8
DEFAULT_255_2_778
10
56.7623737
20
95.1373691
40
1.8280055
50
334.9999024
51
0.1034365
0
ARC
8
DEFAULT_255_2_778
10
56.7581437
20
95.1424219
40
1.8339768
50
280.6765334
51
334.9126849
0
ARC
8
DEFAULT_255_2_778
10
56.7523082
20
95.1773822
40
1.8694132
50
269.968371
51
280.6537803
0
ARC
8
DEFAULT_255_2_778
10
56.7478311
20
95.1534681
40
1.8455021
50
245.5123005
51
270.1069571
0
ARC
8
DEFAULT_255_2_778
10
56.7413006
20
95.1385609
40
1.8292291
50
189.0350916
51
245.5049096
0
ARC
8
DEFAULT_255_2_778
10
56.7671111
20
95.1399209
40
1.8549351
50
179.976887
51
188.9513816
0
ARC
8
DEFAULT_255_2_778
10
56.7446552
20
95.1430634
40
1.5257809
50
150.7989366
51
180.089905
0
ARC
8
DEFAULT_255_2_778
10
56.7517844
20
95.1399962
40
1.5335005
50
97.9565603
51
150.8288546
0
ARC
8
DEFAULT_255_2_778
10
56.7510423
20
95.1268161
40
1.546453
50
89.9839228
51
97.8617349
0
ARC
8
DEFAULT_255_2_778
10
56.7538473
20
95.1475718
40
1.5256992
50
60.7981384
51
90.0890425
0
ARC
8
DEFAULT_255_2_778
10
56.7507336
20
95.1402869
40
1.5335776
50
7.9589553
51
60.8293843
0
ARC
8
DEFAULT_255_2_778
10
56.7378349
20
95.1411018
40
1.5462414
50
359.9839716
51
7.8628695
0
ARC
8
DEFAULT_255_2_778
10
56.7584786
20
95.1383101
40
1.5255995
50
330.7955358
51
0.0885993
0
ARC
8
DEFAULT_255_2_778
10
56.7510031
20
95.1415139
40
1.5336883
50
277.9609959
51
330.8273254
0
ARC
8
DEFAULT_255_2_778
10
56.751907
20
95.1540245
40
1.5459554
50
269.9840344
51
277.8636008
0
ARC
8
DEFAULT_255_2_778
10
56.749094
20
95.1337485
40
1.5256812
50
240.796334
51
270.0894619
0
ARC
8
DEFAULT_255_2_778
10
56.7522513
20
95.1410682
40
1.5336113
50
187.9586009
51
240.8267957
0
ARC
8
DEFAULT_255_2_778
10
56.7650434
20
95.1402371
40
1.5461671
50
179.9839856
51
187.8624661
0
LINE
8
DEFAULT_255_2_778
10
54.9121762
20
95.1406692
11
54.9121762
21
95.1406692
0
LINE
8
DEFAULT_255_2_778
10
55.2402762
20
94.8861692
11
58.2625762
21
94.8861692
0
LINE
8
DEFAULT_255_2_778
10
58.2625762
20
95.3952692
11
55.2402762
21
95.3952692
0
LINE
8
DEFAULT_255_2_778
10
55.2188762
20
95.1406692
11
55.2188762
21
95.1406692
0
ARC
8
DEFAULT_255_2_778
10
61.9303669
20
95.1439261
40
1.8278936
50
154.9991318
51
180.1020865
0
ARC
8
DEFAULT_255_2_778
10
61.9349701
20
95.138788
40
1.8342391
50
100.6832981
51
154.9144425
0
ARC
8
DEFAULT_255_2_778
10
61.9405494
20
95.1046275
40
1.868842
50
89.9685202
51
100.6572364
0
ARC
8
DEFAULT_255_2_778
10
61.9450234
20
95.1279982
40
1.8454743
50
65.5119763
51
90.1070238
0
ARC
8
DEFAULT_255_2_778
10
61.9515084
20
95.1428573
40
1.8292637
50
9.0332266
51
65.5039114
0
ARC
8
DEFAULT_255_2_778
10
61.9254194
20
95.1414188
40
1.8552569
50
359.9768517
51
8.9506005
0
ARC
8
DEFAULT_255_2_778
10
61.9526737
20
95.1373691
40
1.8280055
50
334.9999024
51
0.1034365
0
ARC
8
DEFAULT_255_2_778
10
61.9484437
20
95.1424219
40
1.8339768
50
280.6765334
51
334.9126849
0
ARC
8
DEFAULT_255_2_778
10
61.9426082
20
95.1773822
40
1.8694132
50
269.968371
51
280.6537803
0
ARC
8
DEFAULT_255_2_778
10
61.9381311
20
95.1534681
40
1.8455021
50
245.5123005
51
270.1069571
0
ARC
8
DEFAULT_255_2_778
10
61.9316006
20
95.1385609
40
1.8292291
50
189.0350916
51
245.5049096
0
ARC
8
DEFAULT_255_2_778
10
61.9574111
20
95.1399209
40
1.8549351
50
179.976887
51
188.9513816
0
ARC
8
DEFAULT_255_2_778
10
61.9349552
20
95.1430634
40
1.5257809
50
150.7989366
51
180.089905
0
ARC
8
DEFAULT_255_2_778
10
61.9420844
20
95.1399962
40
1.5335005
50
97.9565603
51
150.8288546
0
ARC
8
DEFAULT_255_2_778
10
61.9413423
20
95.1268161
40
1.546453
50
89.9839228
51
97.8617349
0
ARC
8
DEFAULT_255_2_778
10
61.9441473
20
95.1475718
40
1.5256992
50
60.7981384
51
90.0890425
0
ARC
8
DEFAULT_255_2_778
10
61.9410336
20
95.1402869
40
1.5335776
50
7.9589553
51
60.8293843
0
ARC
8
DEFAULT_255_2_778
10
61.9281349
20
95.1411018
40
1.5462414
50
359.9839716
51
7.8628695
0
ARC
8
DEFAULT_255_2_778
10
61.9487786
20
95.1383101
40
1.5255995
50
330.7955358
51
0.0885993
0
ARC
8
DEFAULT_255_2_778
10
61.9413031
20
95.1415139
40
1.5336883
50
277.9609959
51
330.8273254
0
ARC
8
DEFAULT_255_2_778
10
61.942207
20
95.1540245
40
1.5459554
50
269.9840344
51
277.8636008
0
ARC
8
DEFAULT_255_2_778
10
61.939394
20
95.1337485
40
1.5256812
50
240.796334
51
270.0894619
0
ARC
8
DEFAULT_255_2_778
10
61.9425513
20
95.1410682
40
1.5336113
50
187.9586009
51
240.8267957
0
ARC
8
DEFAULT_255_2_778
10
61.9553434
20
95.1402371
40
1.5461671
50
179.9839856
51
187.8624661
0
LINE
8
DEFAULT_255_2_778
10
60.1024762
20
95.1406692
11
60.1024762
21
95.1406692
0
LINE
8
DEFAULT_255_2_778
10
60.4305762
20
94.8861692
11
63.4528762
21
94.8861692
0
LINE
8
DEFAULT_255_2_778
10
63.4528762
20
95.3952692
11
60.4305762
21
95.3952692
0
LINE
8
DEFAULT_255_2_778
10
60.4091762
20
95.1406692
11
60.4091762
21
95.1406692
0
ARC
8
DEFAULT_255_2_778
10
67.120475
20
95.1439261
40
1.8278936
50
154.9991318
51
180.1020865
0
ARC
8
DEFAULT_255_2_778
10
67.1250782
20
95.138788
40
1.8342391
50
100.6832981
51
154.9144425
0
ARC
8
DEFAULT_255_2_778
10
67.1306575
20
95.1046275
40
1.868842
50
89.9685202
51
100.6572364
0
ARC
8
DEFAULT_255_2_778
10
67.1351315
20
95.1279982
40
1.8454743
50
65.5119763
51
90.1070238
0
ARC
8
DEFAULT_255_2_778
10
67.1416165
20
95.1428573
40
1.8292637
50
9.0332266
51
65.5039114
0
ARC
8
DEFAULT_255_2_778
10
67.1155275
20
95.1414188
40
1.8552569
50
359.9768517
51
8.9506005
0
ARC
8
DEFAULT_255_2_778
10
67.1427818
20
95.1373691
40
1.8280055
50
334.9999024
51
0.1034365
0
ARC
8
DEFAULT_255_2_778
10
67.1385518
20
95.1424219
40
1.8339768
50
280.6765334
51
334.9126849
0
ARC
8
DEFAULT_255_2_778
10
67.1327162
20
95.1773822
40
1.8694132
50
269.968371
51
280.6537803
0
ARC
8
DEFAULT_255_2_778
10
67.1282392
20
95.1534681
40
1.8455021
50
245.5123005
51
270.1069571
0
ARC
8
DEFAULT_255_2_778
10
67.1217087
20
95.1385609
40
1.8292291
50
189.0350916
51
245.5049096
0
ARC
8
DEFAULT_255_2_778
10
67.1475192
20
95.1399209
40
1.8549351
50
179.976887
51
188.9513816
0
ARC
8
DEFAULT_255_2_778
10
67.1250954
20
95.1430607
40
1.525813
50
150.7994986
51
180.0898038
0
ARC
8
DEFAULT_255_2_778
10
67.1321633
20
95.1400544
40
1.5334496
50
97.9586159
51
150.8302806
0
ARC
8
DEFAULT_255_2_778
10
67.1313513
20
95.1271432
40
1.5461259
50
89.9839535
51
97.8625685
0
ARC
8
DEFAULT_255_2_778
10
67.1341784
20
95.1474902
40
1.5257809
50
60.7989366
51
90.089905
0
ARC
8
DEFAULT_255_2_778
10
67.1311112
20
95.140361
40
1.5335005
50
7.9565603
51
60.8288546
0
ARC
8
DEFAULT_255_2_778
10
67.1179311
20
95.1411031
40
1.546453
50
359.9839228
51
7.8617349
0
ARC
8
DEFAULT_255_2_778
10
67.1386869
20
95.1382982
40
1.5256992
50
330.7981384
51
0.0890425
0
ARC
8
DEFAULT_255_2_778
10
67.1314019
20
95.1414118
40
1.5335776
50
277.9589553
51
330.8293843
0
ARC
8
DEFAULT_255_2_778
10
67.1322168
20
95.1543105
40
1.5462414
50
269.9839716
51
277.8628695
0
ARC
8
DEFAULT_255_2_778
10
67.1294151
20
95.1335354
40
1.525468
50
240.7942505
51
270.0889857
0
ARC
8
DEFAULT_255_2_778
10
67.1326937
20
95.1410708
40
1.5336457
50
187.9585219
51
240.8247
0
ARC
8
DEFAULT_255_2_778
10
67.1454514
20
95.1402371
40
1.5461671
50
179.9839855
51
187.862466
0
LINE
8
DEFAULT_255_2_778
10
65.2925843
20
95.1406692
11
65.2925843
21
95.1406692
0
LINE
8
DEFAULT_255_2_778
10
65.6206843
20
94.8861692
11
68.6429843
21
94.8861692
0
LINE
8
DEFAULT_255_2_778
10
68.6429843
20
95.3952692
11
65.6206843
21
95.3952692
0
LINE
8
DEFAULT_255_2_778
10
65.5992843
20
95.1406692
11
65.5992843
21
95.1406692
0
ARC
8
DEFAULT_255_2_778
10
72.310771
20
95.1439261
40
1.8278936
50
154.9991318
51
180.1020865
0
ARC
8
DEFAULT_255_2_778
10
72.3153741
20
95.138788
40
1.8342391
50
100.6832981
51
154.9144425
0
ARC
8
DEFAULT_255_2_778
10
72.3209534
20
95.1046275
40
1.868842
50
89.9685202
51
100.6572364
0
ARC
8
DEFAULT_255_2_778
10
72.3254274
20
95.1279982
40
1.8454743
50
65.5119763
51
90.1070238
0
ARC
8
DEFAULT_255_2_778
10
72.3319124
20
95.1428573
40
1.8292637
50
9.0332266
51
65.5039114
0
ARC
8
DEFAULT_255_2_778
10
72.3058234
20
95.1414188
40
1.8552569
50
359.9768517
51
8.9506005
0
ARC
8
DEFAULT_255_2_778
10
72.3330777
20
95.1373691
40
1.8280055
50
334.9999024
51
0.1034365
0
ARC
8
DEFAULT_255_2_778
10
72.3288477
20
95.1424219
40
1.8339768
50
280.6765334
51
334.9126849
0
ARC
8
DEFAULT_255_2_778
10
72.3230122
20
95.1773822
40
1.8694132
50
269.968371
51
280.6537803
0
ARC
8
DEFAULT_255_2_778
10
72.3185351
20
95.1534681
40
1.8455021
50
245.5123005
51
270.1069571
0
ARC
8
DEFAULT_255_2_778
10
72.3120047
20
95.1385609
40
1.8292291
50
189.0350916
51
245.5049096
0
ARC
8
DEFAULT_255_2_778
10
72.3378152
20
95.1399209
40
1.8549351
50
179.976887
51
188.9513816
0
ARC
8
DEFAULT_255_2_778
10
72.3153593
20
95.1430634
40
1.5257809
50
150.7989366
51
180.089905
0
ARC
8
DEFAULT_255_2_778
10
72.3224884
20
95.1399962
40
1.5335005
50
97.9565603
51
150.8288546
0
ARC
8
DEFAULT_255_2_778
10
72.3217463
20
95.1268161
40
1.546453
50
89.9839228
51
97.8617349
0
ARC
8
DEFAULT_255_2_778
10
72.3245614
20
95.1477033
40
1.5255677
50
60.7968532
51
90.0894288
0
ARC
8
DEFAULT_255_2_778
10
72.3213692
20
95.1403554
40
1.5335393
50
7.9718842
51
60.8266954
0
ARC
8
DEFAULT_255_2_778
10
72.308255
20
95.1411029
40
1.5464254
50
359.983931
51
7.8770677
0
ARC
8
DEFAULT_255_2_778
10
72.3289507
20
95.1383008
40
1.5257313
50
330.7987005
51
0.0889413
0
ARC
8
DEFAULT_255_2_778
10
72.3217271
20
95.1413536
40
1.5335266
50
277.961011
51
330.8308102
0
ARC
8
DEFAULT_255_2_778
10
72.3226119
20
95.1539834
40
1.5459143
50
269.9840023
51
277.8637031
0
ARC
8
DEFAULT_255_2_778
10
72.319798
20
95.1337485
40
1.5256812
50
240.796334
51
270.0894619
0
ARC
8
DEFAULT_255_2_778
10
72.3229554
20
95.1410682
40
1.5336113
50
187.9586009
51
240.8267957
0
ARC
8
DEFAULT_255_2_778
10
72.3357474
20
95.1402371
40
1.5461671
50
179.9839856
51
187.8624661
0
LINE
8
DEFAULT_255_2_778
10
70.4828802
20
95.1406692
11
70.4828802
21
95.1406692
0
LINE
8
DEFAULT_255_2_778
10
70.8109802
20
94.8861692
11
73.8332802
21
94.8861692
0
LINE
8
DEFAULT_255_2_778
10
73.8332802
20
95.3952692
11
70.8109802
21
95.3952692
0
LINE
8
DEFAULT_255_2_778
10
70.7895802
20
95.1406692
11
70.7895802
21
95.1406692
0
ARC
8
DEFAULT_255_2_778
10
77.501071
20
95.1439261
40
1.8278936
50
154.9991318
51
180.1020865
0
ARC
8
DEFAULT_255_2_778
10
77.5056741
20
95.138788
40
1.8342391
50
100.6832981
51
154.9144425
0
ARC
8
DEFAULT_255_2_778
10
77.5112534
20
95.1046275
40
1.868842
50
89.9685202
51
100.6572364
0
ARC
8
DEFAULT_255_2_778
10
77.5157274
20
95.1279982
40
1.8454743
50
65.5119763
51
90.1070238
0
ARC
8
DEFAULT_255_2_778
10
77.5222124
20
95.1428573
40
1.8292637
50
9.0332266
51
65.5039114
0
ARC
8
DEFAULT_255_2_778
10
77.4961234
20
95.1414188
40
1.8552569
50
359.9768517
51
8.9506005
0
ARC
8
DEFAULT_255_2_778
10
77.5233777
20
95.1373691
40
1.8280055
50
334.9999024
51
0.1034365
0
ARC
8
DEFAULT_255_2_778
10
77.5191477
20
95.1424219
40
1.8339768
50
280.6765334
51
334.9126849
0
ARC
8
DEFAULT_255_2_778
10
77.5133122
20
95.1773822
40
1.8694132
50
269.968371
51
280.6537803
0
ARC
8
DEFAULT_255_2_778
10
77.5088351
20
95.1534681
40
1.8455021
50
245.5123005
51
270.1069571
0
ARC
8
DEFAULT_255_2_778
10
77.5023047
20
95.1385609
40
1.8292291
50
189.0350916
51
245.5049096
0
ARC
8
DEFAULT_255_2_778
10
77.5281152
20
95.1399209
40
1.8549351
50
179.976887
51
188.9513816
0
ARC
8
DEFAULT_255_2_778
10
77.5056593
20
95.1430634
40
1.5257809
50
150.7989366
51
180.089905
0
ARC
8
DEFAULT_255_2_778
10
77.5127884
20
95.1399962
40
1.5335005
50
97.9565603
51
150.8288546
0
ARC
8
DEFAULT_255_2_778
10
77.5120463
20
95.1268161
40
1.546453
50
89.9839228
51
97.8617349
0
ARC
8
DEFAULT_255_2_778
10
77.5148614
20
95.1477033
40
1.5255677
50
60.7968532
51
90.0894288
0
ARC
8
DEFAULT_255_2_778
10
77.5116692
20
95.1403554
40
1.5335393
50
7.9718842
51
60.8266954
0
ARC
8
DEFAULT_255_2_778
10
77.498555
20
95.1411029
40
1.5464254
50
359.983931
51
7.8770677
0
ARC
8
DEFAULT_255_2_778
10
77.5192507
20
95.1383008
40
1.5257313
50
330.7987005
51
0.0889413
0
ARC
8
DEFAULT_255_2_778
10
77.5120271
20
95.1413536
40
1.5335266
50
277.961011
51
330.8308102
0
ARC
8
DEFAULT_255_2_778
10
77.5129119
20
95.1539834
40
1.5459143
50
269.9840023
51
277.8637031
0
ARC
8
DEFAULT_255_2_778
10
77.510098
20
95.1337485
40
1.5256812
50
240.796334
51
270.0894619
0
ARC
8
DEFAULT_255_2_778
10
77.5132554
20
95.1410682
40
1.5336113
50
187.9586009
51
240.8267957
0
ARC
8
DEFAULT_255_2_778
10
77.5260474
20
95.1402371
40
1.5461671
50
179.9839856
51
187.8624661
0
LINE
8
DEFAULT_255_2_778
10
75.6731802
20
95.1406692
11
75.6731802
21
95.1406692
0
LINE
8
DEFAULT_255_2_778
10
76.0012802
20
94.8861692
11
79.0235802
21
94.8861692
0
LINE
8
DEFAULT_255_2_778
10
79.0235802
20
95.3952692
11
76.0012802
21
95.3952692
0
LINE
8
DEFAULT_255_2_778
10
75.9798802
20
95.1406692
11
75.9798802
21
95.1406692
0
ARC
8
DEFAULT_255_2_778
10
82.691475
20
95.1439261
40
1.8278936
50
154.9991318
51
180.1020865
0
ARC
8
DEFAULT_255_2_778
10
82.6960782
20
95.138788
40
1.8342391
50
100.6832981
51
154.9144425
0
ARC
8
DEFAULT_255_2_778
10
82.7016575
20
95.1046275
40
1.868842
50
89.9685202
51
100.6572364
0
ARC
8
DEFAULT_255_2_778
10
82.7061315
20
95.1279982
40
1.8454743
50
65.5119763
51
90.1070238
0
ARC
8
DEFAULT_255_2_778
10
82.7126165
20
95.1428573
40
1.8292637
50
9.0332266
51
65.5039114
0
ARC
8
DEFAULT_255_2_778
10
82.6865275
20
95.1414188
40
1.8552569
50
359.9768517
51
8.9506005
0
ARC
8
DEFAULT_255_2_778
10
82.7137818
20
95.1373691
40
1.8280055
50
334.9999024
51
0.1034365
0
ARC
8
DEFAULT_255_2_778
10
82.7095518
20
95.1424219
40
1.8339768
50
280.6765334
51
334.9126849
0
ARC
8
DEFAULT_255_2_778
10
82.7037162
20
95.1773822
40
1.8694132
50
269.968371
51
280.6537803
0
ARC
8
DEFAULT_255_2_778
10
82.6992392
20
95.1534681
40
1.8455021
50
245.5123005
51
270.1069571
0
ARC
8
DEFAULT_255_2_778
10
82.6927087
20
95.1385609
40
1.8292291
50
189.0350916
51
245.5049096
0
ARC
8
DEFAULT_255_2_778
10
82.7185192
20
95.1399209
40
1.8549351
50
179.976887
51
188.9513816
0
ARC
8
DEFAULT_255_2_778
10
82.6958636
20
95.1430514
40
1.5256812
50
150.796334
51
180.0894619
0
ARC
8
DEFAULT_255_2_778
10
82.7031832
20
95.1398941
40
1.5336113
50
97.9586009
51
150.8267957
0
ARC
8
DEFAULT_255_2_778
10
82.7023521
20
95.127102
40
1.5461671
50
89.9839856
51
97.8624661
0
ARC
8
DEFAULT_255_2_778
10
82.7051784
20
95.1474902
40
1.5257809
50
60.7989366
51
90.089905
0
ARC
8
DEFAULT_255_2_778
10
82.7021112
20
95.140361
40
1.5335005
50
7.9565603
51
60.8288546
0
ARC
8
DEFAULT_255_2_778
10
82.6889311
20
95.1411031
40
1.546453
50
359.9839228
51
7.8617349
0
ARC
8
DEFAULT_255_2_778
10
82.7096869
20
95.1382982
40
1.5256992
50
330.7981384
51
0.0890425
0
ARC
8
DEFAULT_255_2_778
10
82.7024019
20
95.1414118
40
1.5335776
50
277.9589553
51
330.8293843
0
ARC
8
DEFAULT_255_2_778
10
82.7032168
20
95.1543105
40
1.5462414
50
269.9839716
51
277.8628695
0
ARC
8
DEFAULT_255_2_778
10
82.7004252
20
95.1336669
40
1.5255995
50
240.7955358
51
270.0885993
0
ARC
8
DEFAULT_255_2_778
10
82.703629
20
95.1411424
40
1.5336883
50
187.9609959
51
240.8273254
0
ARC
8
DEFAULT_255_2_778
10
82.7161396
20
95.1402384
40
1.5459554
50
179.9840344
51
187.8636008
0
LINE
8
DEFAULT_255_2_778
10
80.8635843
20
95.1406692
11
80.8635843
21
95.1406692
0
LINE
8
DEFAULT_255_2_778
10
81.1916843
20
94.8861692
11
84.2139843
21
94.8861692
0
LINE
8
DEFAULT_255_2_778
10
84.2139843
20
95.3952692
11
81.1916843
21
95.3952692
0
LINE
8
DEFAULT_255_2_778
10
81.1701843
20
95.1406692
11
81.1701843
21
95.1406692
0
ARC
8
DEFAULT_255_2_778
10
87.8817669
20
95.1439261
40
1.8278936
50
154.9991318
51
180.1020865
0
ARC
8
DEFAULT_255_2_778
10
87.8863701
20
95.138788
40
1.8342391
50
100.6832981
51
154.9144425
0
ARC
8
DEFAULT_255_2_778
10
87.8919494
20
95.1046275
40
1.868842
50
89.9685202
51
100.6572364
0
ARC
8
DEFAULT_255_2_778
10
87.8964234
20
95.1279982
40
1.8454743
50
65.5119763
51
90.1070238
0
ARC
8
DEFAULT_255_2_778
10
87.9029084
20
95.1428573
40
1.8292637
50
9.0332266
51
65.5039114
0
ARC
8
DEFAULT_255_2_778
10
87.8768194
20
95.1414188
40
1.8552569
50
359.9768517
51
8.9506005
0
ARC
8
DEFAULT_255_2_778
10
87.9040737
20
95.1373691
40
1.8280055
50
334.9999024
51
0.1034365
0
ARC
8
DEFAULT_255_2_778
10
87.8998437
20
95.1424219
40
1.8339768
50
280.6765334
51
334.9126849
0
ARC
8
DEFAULT_255_2_778
10
87.8940082
20
95.1773822
40
1.8694132
50
269.968371
51
280.6537803
0
ARC
8
DEFAULT_255_2_778
10
87.8895311
20
95.1534681
40
1.8455021
50
245.5123005
51
270.1069571
0
ARC
8
DEFAULT_255_2_778
10
87.8830006
20
95.1385609
40
1.8292291
50
189.0350916
51
245.5049096
0
ARC
8
DEFAULT_255_2_778
10
87.9088111
20
95.1399209
40
1.8549351
50
179.976887
51
188.9513816
0
ARC
8
DEFAULT_255_2_778
10
87.8863552
20
95.1430634
40
1.5257809
50
150.7989366
51
180.089905
0
ARC
8
DEFAULT_255_2_778
10
87.8934844
20
95.1399962
40
1.5335005
50
97.9565603
51
150.8288546
0
ARC
8
DEFAULT_255_2_778
10
87.8927423
20
95.1268161
40
1.546453
50
89.9839228
51
97.8617349
0
ARC
8
DEFAULT_255_2_778
10
87.8955473
20
95.1475718
40
1.5256992
50
60.7981384
51
90.0890425
0
ARC
8
DEFAULT_255_2_778
10
87.8924336
20
95.1402869
40
1.5335776
50
7.9589553
51
60.8293843
0
ARC
8
DEFAULT_255_2_778
10
87.8795349
20
95.1411018
40
1.5462414
50
359.9839716
51
7.8628695
0
ARC
8
DEFAULT_255_2_778
10
87.9001786
20
95.1383101
40
1.5255995
50
330.7955358
51
0.0885993
0
ARC
8
DEFAULT_255_2_778
10
87.8927031
20
95.1415139
40
1.5336883
50
277.9609959
51
330.8273254
0
ARC
8
DEFAULT_255_2_778
10
87.893607
20
95.1540245
40
1.5459554
50
269.9840344
51
277.8636008
0
ARC
8
DEFAULT_255_2_778
10
87.890794
20
95.1337485
40
1.5256812
50
240.796334
51
270.0894619
0
ARC
8
DEFAULT_255_2_778
10
87.8939513
20
95.1410682
40
1.5336113
50
187.9586009
51
240.8267957
0
ARC
8
DEFAULT_255_2_778
10
87.9067434
20
95.1402371
40
1.5461671
50
179.9839856
51
187.8624661
0
LINE
8
DEFAULT_255_2_778
10
86.0538762
20
95.1406692
11
86.0538762
21
95.1406692
0
LINE
8
DEFAULT_255_2_778
10
86.3819762
20
94.8861692
11
89.4042762
21
94.8861692
0
LINE
8
DEFAULT_255_2_778
10
89.4042762
20
95.3952692
11
86.3819762
21
95.3952692
0
LINE
8
DEFAULT_255_2_778
10
86.3605762
20
95.1406692
11
86.3605762
21
95.1406692
0
ARC
8
DEFAULT_255_2_778
10
93.0720669
20
95.1439261
40
1.8278936
50
154.9991318
51
180.1020865
0
ARC
8
DEFAULT_255_2_778
10
93.0766701
20
95.138788
40
1.8342391
50
100.6832981
51
154.9144425
0
ARC
8
DEFAULT_255_2_778
10
93.0822494
20
95.1046275
40
1.868842
50
89.9685202
51
100.6572364
0
ARC
8
DEFAULT_255_2_778
10
93.0867234
20
95.1279982
40
1.8454743
50
65.5119763
51
90.1070238
0
ARC
8
DEFAULT_255_2_778
10
93.0932084
20
95.1428573
40
1.8292637
50
9.0332266
51
65.5039114
0
ARC
8
DEFAULT_255_2_778
10
93.0671194
20
95.1414188
40
1.8552569
50
359.9768517
51
8.9506005
0
ARC
8
DEFAULT_255_2_778
10
93.0943737
20
95.1373691
40
1.8280055
50
334.9999024
51
0.1034365
0
ARC
8
DEFAULT_255_2_778
10
93.0901437
20
95.1424219
40
1.8339768
50
280.6765334
51
334.9126849
0
ARC
8
DEFAULT_255_2_778
10
93.0843082
20
95.1773822
40
1.8694132
50
269.968371
51
280.6537803
0
ARC
8
DEFAULT_255_2_778
10
93.0798311
20
95.1534681
40
1.8455021
50
245.5123005
51
270.1069571
0
ARC
8
DEFAULT_255_2_778
10
93.0733006
20
95.1385609
40
1.8292291
50
189.0350916
51
245.5049096
0
ARC
8
DEFAULT_255_2_778
10
93.0991111
20
95.1399209
40
1.8549351
50
179.976887
51
188.9513816
0
ARC
8
DEFAULT_255_2_778
10
93.0766552
20
95.1430634
40
1.5257809
50
150.7989366
51
180.089905
0
ARC
8
DEFAULT_255_2_778
10
93.0837844
20
95.1399962
40
1.5335005
50
97.9565603
51
150.8288546
0
ARC
8
DEFAULT_255_2_778
10
93.0830423
20
95.1268161
40
1.546453
50
89.9839228
51
97.8617349
0
ARC
8
DEFAULT_255_2_778
10
93.0858473
20
95.1475718
40
1.5256992
50
60.7981384
51
90.0890425
0
ARC
8
DEFAULT_255_2_778
10
93.0827336
20
95.1402869
40
1.5335776
50
7.9589553
51
60.8293843
0
ARC
8
DEFAULT_255_2_778
10
93.0698349
20
95.1411018
40
1.5462414
50
359.9839716
51
7.8628695
0
ARC
8
DEFAULT_255_2_778
10
93.0904786
20
95.1383101
40
1.5255995
50
330.7955358
51
0.0885993
0
ARC
8
DEFAULT_255_2_778
10
93.0830031
20
95.1415139
40
1.5336883
50
277.9609959
51
330.8273254
0
ARC
8
DEFAULT_255_2_778
10
93.083907
20
95.1540245
40
1.5459554
50
269.9840344
51
277.8636008
0
ARC
8
DEFAULT_255_2_778
10
93.081094
20
95.1337485
40
1.5256812
50
240.796334
51
270.0894619
0
ARC
8
DEFAULT_255_2_778
10
93.0842513
20
95.1410682
40
1.5336113
50
187.9586009
51
240.8267957
0
ARC
8
DEFAULT_255_2_778
10
93.0970434
20
95.1402371
40
1.5461671
50
179.9839856
51
187.8624661
0
LINE
8
DEFAULT_255_2_778
10
91.2441762
20
95.1406692
11
91.2441762
21
95.1406692
0
LINE
8
DEFAULT_255_2_778
10
91.5722762
20
94.8861692
11
94.5945762
21
94.8861692
0
LINE
8
DEFAULT_255_2_778
10
94.5945762
20
95.3952692
11
91.5722762
21
95.3952692
0
LINE
8
DEFAULT_255_2_778
10
91.5508762
20
95.1406692
11
91.5508762
21
95.1406692
0
ARC
8
DEFAULT_255_2_778
10
98.262175
20
95.1439261
40
1.8278936
50
154.9991318
51
180.1020865
0
ARC
8
DEFAULT_255_2_778
10
98.2667782
20
95.138788
40
1.8342391
50
100.6832981
51
154.9144425
0
ARC
8
DEFAULT_255_2_778
10
98.2723575
20
95.1046275
40
1.868842
50
89.9685202
51
100.6572364
0
ARC
8
DEFAULT_255_2_778
10
98.2768315
20
95.1279982
40
1.8454743
50
65.5119763
51
90.1070238
0
ARC
8
DEFAULT_255_2_778
10
98.2833165
20
95.1428573
40
1.8292637
50
9.0332266
51
65.5039114
0
ARC
8
DEFAULT_255_2_778
10
98.2572275
20
95.1414188
40
1.8552569
50
359.9768517
51
8.9506005
0
ARC
8
DEFAULT_255_2_778
10
98.2844818
20
95.1373691
40
1.8280055
50
334.9999024
51
0.1034365
0
ARC
8
DEFAULT_255_2_778
10
98.2802518
20
95.1424219
40
1.8339768
50
280.6765334
51
334.9126849
0
ARC
8
DEFAULT_255_2_778
10
98.2744162
20
95.1773822
40
1.8694132
50
269.968371
51
280.6537803
0
ARC
8
DEFAULT_255_2_778
10
98.2699392
20
95.1534681
40
1.8455021
50
245.5123005
51
270.1069571
0
ARC
8
DEFAULT_255_2_778
10
98.2634087
20
95.1385609
40
1.8292291
50
189.0350916
51
245.5049096
0
ARC
8
DEFAULT_255_2_778
10
98.2892192
20
95.1399209
40
1.8549351
50
179.976887
51
188.9513816
0
ARC
8
DEFAULT_255_2_778
10
98.2664633
20
95.1430634
40
1.5257809
50
150.7989366
51
180.089905
0
ARC
8
DEFAULT_255_2_778
10
98.2735925
20
95.1399962
40
1.5335005
50
97.9565603
51
150.8288546
0
ARC
8
DEFAULT_255_2_778
10
98.2728503
20
95.1268161
40
1.546453
50
89.9839228
51
97.8617349
0
ARC
8
DEFAULT_255_2_778
10
98.2756553
20
95.1475718
40
1.5256992
50
60.7981384
51
90.0890425
0
ARC
8
DEFAULT_255_2_778
10
98.2725417
20
95.1402869
40
1.5335776
50
7.9589553
51
60.8293843
0
ARC
8
DEFAULT_255_2_778
10
98.259643
20
95.1411018
40
1.5462414
50
359.9839716
51
7.8628695
0
ARC
8
DEFAULT_255_2_778
10
98.2802866
20
95.1383101
40
1.5255995
50
330.7955358
51
0.0885993
0
ARC
8
DEFAULT_255_2_778
10
98.2728111
20
95.1415139
40
1.5336883
50
277.9609959
51
330.8273254
0
ARC
8
DEFAULT_255_2_778
10
98.2737151
20
95.1540245
40
1.5459554
50
269.9840344
51
277.8636008
0
ARC
8
DEFAULT_255_2_778
10
98.2709021
20
95.1337485
40
1.5256812
50
240.796334
51
270.0894619
0
ARC
8
DEFAULT_255_2_778
10
98.2740594
20
95.1410682
40
1.5336113
50
187.9586009
51
240.8267957
0
ARC
8
DEFAULT_255_2_778
10
98.2868514
20
95.1402371
40
1.5461671
50
179.9839856
51
187.8624661
0
LINE
8
DEFAULT_255_2_778
10
96.4342843
20
95.1406692
11
96.4342843
21
95.1406692
0
LINE
8
DEFAULT_255_2_778
10
96.7623843
20
94.8861692
11
99.7844843
21
94.8861692
0
LINE
8
DEFAULT_255_2_778
10
99.7844843
20
95.3952692
11
96.7620843
21
95.3952692
0
LINE
8
DEFAULT_255_2_778
10
96.7406843
20
95.1406692
11
96.7406843
21
95.1406692
0
ARC
8
DEFAULT_255_2_778
10
103.452475
20
95.1439261
40
1.8278936
50
154.9991318
51
180.1020865
0
ARC
8
DEFAULT_255_2_778
10
103.4570782
20
95.138788
40
1.8342391
50
100.6832981
51
154.9144425
0
ARC
8
DEFAULT_255_2_778
10
103.4626575
20
95.1046275
40
1.868842
50
89.9685202
51
100.6572364
0
ARC
8
DEFAULT_255_2_778
10
103.4671315
20
95.1279982
40
1.8454743
50
65.5119763
51
90.1070238
0
ARC
8
DEFAULT_255_2_778
10
103.4736165
20
95.1428573
40
1.8292637
50
9.0332266
51
65.5039114
0
ARC
8
DEFAULT_255_2_778
10
103.4475275
20
95.1414188
40
1.8552569
50
359.9768517
51
8.9506005
0
ARC
8
DEFAULT_255_2_778
10
103.4747818
20
95.1373691
40
1.8280055
50
334.9999024
51
0.1034365
0
ARC
8
DEFAULT_255_2_778
10
103.4705518
20
95.1424219
40
1.8339768
50
280.6765334
51
334.9126849
0
ARC
8
DEFAULT_255_2_778
10
103.4647162
20
95.1773822
40
1.8694132
50
269.968371
51
280.6537803
0
ARC
8
DEFAULT_255_2_778
10
103.4602392
20
95.1534681
40
1.8455021
50
245.5123005
51
270.1069571
0
ARC
8
DEFAULT_255_2_778
10
103.4537087
20
95.1385609
40
1.8292291
50
189.0350916
51
245.5049096
0
ARC
8
DEFAULT_255_2_778
10
103.4795192
20
95.1399209
40
1.8549351
50
179.976887
51
188.9513816
0
ARC
8
DEFAULT_255_2_778
10
103.4570954
20
95.1430607
40
1.525813
50
150.7994986
51
180.0898038
0
ARC
8
DEFAULT_255_2_778
10
103.4641633
20
95.1400544
40
1.5334496
50
97.9586159
51
150.8302806
0
ARC
8
DEFAULT_255_2_778
10
103.4633513
20
95.1271432
40
1.5461259
50
89.9839535
51
97.8625685
0
ARC
8
DEFAULT_255_2_778
10
103.4661784
20
95.1474902
40
1.5257809
50
60.7989366
51
90.089905
0
ARC
8
DEFAULT_255_2_778
10
103.4631112
20
95.140361
40
1.5335005
50
7.9565603
51
60.8288546
0
ARC
8
DEFAULT_255_2_778
10
103.4499311
20
95.1411031
40
1.546453
50
359.9839228
51
7.8617349
0
ARC
8
DEFAULT_255_2_778
10
103.4706869
20
95.1382982
40
1.5256992
50
330.7981384
51
0.0890425
0
ARC
8
DEFAULT_255_2_778
10
103.4634019
20
95.1414118
40
1.5335776
50
277.9589553
51
330.8293843
0
ARC
8
DEFAULT_255_2_778
10
103.4642168
20
95.1543105
40
1.5462414
50
269.9839716
51
277.8628695
0
ARC
8
DEFAULT_255_2_778
10
103.4614151
20
95.1335354
40
1.525468
50
240.7942505
51
270.0889857
0
ARC
8
DEFAULT_255_2_778
10
103.4646937
20
95.1410708
40
1.5336457
50
187.9585219
51
240.8247
0
ARC
8
DEFAULT_255_2_778
10
103.4774514
20
95.1402371
40
1.5461671
50
179.9839855
51
187.862466
0
LINE
8
DEFAULT_255_2_778
10
101.6245843
20
95.1406692
11
101.6245843
21
95.1406692
0
LINE
8
DEFAULT_255_2_778
10
101.9526843
20
94.8861692
11
104.9749843
21
94.8861692
0
LINE
8
DEFAULT_255_2_778
10
104.9749843
20
95.3952692
11
101.9526843
21
95.3952692
0
LINE
8
DEFAULT_255_2_778
10
101.9312843
20
95.1406692
11
101.9312843
21
95.1406692
0
ARC
8
DEFAULT_255_2_778
10
108.642875
20
95.1439261
40
1.8278936
50
154.9991318
51
180.1020865
0
ARC
8
DEFAULT_255_2_778
10
108.6474782
20
95.138788
40
1.8342391
50
100.6832981
51
154.9144425
0
ARC
8
DEFAULT_255_2_778
10
108.6530575
20
95.1046275
40
1.868842
50
89.9685202
51
100.6572364
0
ARC
8
DEFAULT_255_2_778
10
108.6575315
20
95.1279982
40
1.8454743
50
65.5119763
51
90.1070238
0
ARC
8
DEFAULT_255_2_778
10
108.6640165
20
95.1428573
40
1.8292637
50
9.0332266
51
65.5039114
0
ARC
8
DEFAULT_255_2_778
10
108.6379275
20
95.1414188
40
1.8552569
50
359.9768517
51
8.9506005
0
ARC
8
DEFAULT_255_2_778
10
108.6651818
20
95.1373691
40
1.8280055
50
334.9999024
51
0.1034365
0
ARC
8
DEFAULT_255_2_778
10
108.6609518
20
95.1424219
40
1.8339768
50
280.6765334
51
334.9126849
0
ARC
8
DEFAULT_255_2_778
10
108.6551162
20
95.1773822
40
1.8694132
50
269.968371
51
280.6537803
0
ARC
8
DEFAULT_255_2_778
10
108.6506392
20
95.1534681
40
1.8455021
50
245.5123005
51
270.1069571
0
ARC
8
DEFAULT_255_2_778
10
108.6441087
20
95.1385609
40
1.8292291
50
189.0350916
51
245.5049096
0
ARC
8
DEFAULT_255_2_778
10
108.6699192
20
95.1399209
40
1.8549351
50
179.976887
51
188.9513816
0
ARC
8
DEFAULT_255_2_778
10
108.6474954
20
95.1430607
40
1.525813
50
150.7994986
51
180.0898038
0
ARC
8
DEFAULT_255_2_778
10
108.6545633
20
95.1400544
40
1.5334496
50
97.9586159
51
150.8302806
0
ARC
8
DEFAULT_255_2_778
10
108.6537513
20
95.1271432
40
1.5461259
50
89.9839535
51
97.8625685
0
ARC
8
DEFAULT_255_2_778
10
108.6565784
20
95.1474902
40
1.5257809
50
60.7989366
51
90.089905
0
ARC
8
DEFAULT_255_2_778
10
108.6535112
20
95.140361
40
1.5335005
50
7.9565603
51
60.8288546
0
ARC
8
DEFAULT_255_2_778
10
108.6403311
20
95.1411031
40
1.546453
50
359.9839228
51
7.8617349
0
ARC
8
DEFAULT_255_2_778
10
108.6610869
20
95.1382982
40
1.5256992
50
330.7981384
51
0.0890425
0
ARC
8
DEFAULT_255_2_778
10
108.6538019
20
95.1414118
40
1.5335776
50
277.9589553
51
330.8293843
0
ARC
8
DEFAULT_255_2_778
10
108.6546168
20
95.1543105
40
1.5462414
50
269.9839716
51
277.8628695
0
ARC
8
DEFAULT_255_2_778
10
108.6518151
20
95.1335354
40
1.525468
50
240.7942505
51
270.0889857
0
ARC
8
DEFAULT_255_2_778
10
108.6550937
20
95.1410708
40
1.5336457
50
187.9585219
51
240.8247
0
ARC
8
DEFAULT_255_2_778
10
108.6678514
20
95.1402371
40
1.5461671
50
179.9839855
51
187.862466
0
LINE
8
DEFAULT_255_2_778
10
106.8149843
20
95.1406692
11
106.8149843
21
95.1406692
0
LINE
8
DEFAULT_255_2_778
10
107.1430843
20
94.8861692
11
110.1653843
21
94.8861692
0
LINE
8
DEFAULT_255_2_778
10
110.1653843
20
95.3952692
11
107.1430843
21
95.3952692
0
LINE
8
DEFAULT_255_2_778
10
107.1216843
20
95.1406692
11
107.1216843
21
95.1406692
0
ARC
8
DEFAULT_255_2_778
10
113.833175
20
95.1439261
40
1.8278936
50
154.9991318
51
180.1020865
0
ARC
8
DEFAULT_255_2_778
10
113.8377782
20
95.138788
40
1.8342391
50
100.6832981
51
154.9144425
0
ARC
8
DEFAULT_255_2_778
10
113.8433575
20
95.1046275
40
1.868842
50
89.9685202
51
100.6572364
0
ARC
8
DEFAULT_255_2_778
10
113.8478315
20
95.1279982
40
1.8454743
50
65.5119763
51
90.1070238
0
ARC
8
DEFAULT_255_2_778
10
113.8543165
20
95.1428573
40
1.8292637
50
9.0332266
51
65.5039114
0
ARC
8
DEFAULT_255_2_778
10
113.8282275
20
95.1414188
40
1.8552569
50
359.9768517
51
8.9506005
0
ARC
8
DEFAULT_255_2_778
10
113.8554818
20
95.1373691
40
1.8280055
50
334.9999024
51
0.1034365
0
ARC
8
DEFAULT_255_2_778
10
113.8512518
20
95.1424219
40
1.8339768
50
280.6765334
51
334.9126849
0
ARC
8
DEFAULT_255_2_778
10
113.8454162
20
95.1773822
40
1.8694132
50
269.968371
51
280.6537803
0
ARC
8
DEFAULT_255_2_778
10
113.8409392
20
95.1534681
40
1.8455021
50
245.5123005
51
270.1069571
0
ARC
8
DEFAULT_255_2_778
10
113.8344087
20
95.1385609
40
1.8292291
50
189.0350916
51
245.5049096
0
ARC
8
DEFAULT_255_2_778
10
113.8602192
20
95.1399209
40
1.8549351
50
179.976887
51
188.9513816
0
ARC
8
DEFAULT_255_2_778
10
113.8377954
20
95.1430607
40
1.525813
50
150.7994986
51
180.0898038
0
ARC
8
DEFAULT_255_2_778
10
113.8448633
20
95.1400544
40
1.5334496
50
97.9586159
51
150.8302806
0
ARC
8
DEFAULT_255_2_778
10
113.8440513
20
95.1271432
40
1.5461259
50
89.9839535
51
97.8625685
0
ARC
8
DEFAULT_255_2_778
10
113.8468784
20
95.1474902
40
1.5257809
50
60.7989366
51
90.089905
0
ARC
8
DEFAULT_255_2_778
10
113.8438112
20
95.140361
40
1.5335005
50
7.9565603
51
60.8288546
0
ARC
8
DEFAULT_255_2_778
10
113.8306311
20
95.1411031
40
1.546453
50
359.9839228
51
7.8617349
0
ARC
8
DEFAULT_255_2_778
10
113.8513869
20
95.1382982
40
1.5256992
50
330.7981384
51
0.0890425
0
ARC
8
DEFAULT_255_2_778
10
113.8441019
20
95.1414118
40
1.5335776
50
277.9589553
51
330.8293843
0
ARC
8
DEFAULT_255_2_778
10
113.8449168
20
95.1543105
40
1.5462414
50
269.9839716
51
277.8628695
0
ARC
8
DEFAULT_255_2_778
10
113.8421151
20
95.1335354
40
1.525468
50
240.7942505
51
270.0889857
0
ARC
8
DEFAULT_255_2_778
10
113.8453937
20
95.1410708
40
1.5336457
50
187.9585219
51
240.8247
0
ARC
8
DEFAULT_255_2_778
10
113.8581514
20
95.1402371
40
1.5461671
50
179.9839855
51
187.862466
0
LINE
8
DEFAULT_255_2_778
10
112.0052843
20
95.1406692
11
112.0052843
21
95.1406692
0
LINE
8
DEFAULT_255_2_778
10
112.3333843
20
94.8861692
11
115.3556843
21
94.8861692
0
LINE
8
DEFAULT_255_2_778
10
115.3556843
20
95.3952692
11
112.3333843
21
95.3952692
0
LINE
8
DEFAULT_255_2_778
10
112.3119843
20
95.1406692
11
112.3119843
21
95.1406692
0
ARC
8
DEFAULT_255_2_778
10
119.023475
20
95.1439261
40
1.8278936
50
154.9991318
51
180.1020865
0
ARC
8
DEFAULT_255_2_778
10
119.0280782
20
95.138788
40
1.8342391
50
100.6832981
51
154.9144425
0
ARC
8
DEFAULT_255_2_778
10
119.0336575
20
95.1046275
40
1.868842
50
89.9685202
51
100.6572364
0
ARC
8
DEFAULT_255_2_778
10
119.0381315
20
95.1279982
40
1.8454743
50
65.5119763
51
90.1070238
0
ARC
8
DEFAULT_255_2_778
10
119.0446165
20
95.1428573
40
1.8292637
50
9.0332266
51
65.5039114
0
ARC
8
DEFAULT_255_2_778
10
119.0185275
20
95.1414188
40
1.8552569
50
359.9768517
51
8.9506005
0
ARC
8
DEFAULT_255_2_778
10
119.0457818
20
95.1373691
40
1.8280055
50
334.9999024
51
0.1034365
0
ARC
8
DEFAULT_255_2_778
10
119.0415518
20
95.1424219
40
1.8339768
50
280.6765334
51
334.9126849
0
ARC
8
DEFAULT_255_2_778
10
119.0357162
20
95.1773822
40
1.8694132
50
269.968371
51
280.6537803
0
ARC
8
DEFAULT_255_2_778
10
119.0312392
20
95.1534681
40
1.8455021
50
245.5123005
51
270.1069571
0
ARC
8
DEFAULT_255_2_778
10
119.0247087
20
95.1385609
40
1.8292291
50
189.0350916
51
245.5049096
0
ARC
8
DEFAULT_255_2_778
10
119.0505192
20
95.1399209
40
1.8549351
50
179.976887
51
188.9513816
0
ARC
8
DEFAULT_255_2_778
10
119.0280954
20
95.1430607
40
1.525813
50
150.7994986
51
180.0898038
0
ARC
8
DEFAULT_255_2_778
10
119.0351633
20
95.1400544
40
1.5334496
50
97.9586159
51
150.8302806
0
ARC
8
DEFAULT_255_2_778
10
119.0343513
20
95.1271432
40
1.5461259
50
89.9839535
51
97.8625685
0
ARC
8
DEFAULT_255_2_778
10
119.0371784
20
95.1474902
40
1.5257809
50
60.7989366
51
90.089905
0
ARC
8
DEFAULT_255_2_778
10
119.0341112
20
95.140361
40
1.5335005
50
7.9565603
51
60.8288546
0
ARC
8
DEFAULT_255_2_778
10
119.0209311
20
95.1411031
40
1.546453
50
359.9839228
51
7.8617349
0
ARC
8
DEFAULT_255_2_778
10
119.0416869
20
95.1382982
40
1.5256992
50
330.7981384
51
0.0890425
0
ARC
8
DEFAULT_255_2_778
10
119.0344019
20
95.1414118
40
1.5335776
50
277.9589553
51
330.8293843
0
ARC
8
DEFAULT_255_2_778
10
119.0352168
20
95.1543105
40
1.5462414
50
269.9839716
51
277.8628695
0
ARC
8
DEFAULT_255_2_778
10
119.0324151
20
95.1335354
40
1.525468
50
240.7942505
51
270.0889857
0
ARC
8
DEFAULT_255_2_778
10
119.0356937
20
95.1410708
40
1.5336457
50
187.9585219
51
240.8247
0
ARC
8
DEFAULT_255_2_778
10
119.0484514
20
95.1402371
40
1.5461671
50
179.9839855
51
187.862466
0
LINE
8
DEFAULT_255_2_778
10
117.1955843
20
95.1406692
11
117.1955843
21
95.1406692
0
LINE
8
DEFAULT_255_2_778
10
117.5236843
20
94.8861692
11
120.5459843
21
94.8861692
0
LINE
8
DEFAULT_255_2_778
10
120.5459843
20
95.3952692
11
117.5236843
21
95.3952692
0
LINE
8
DEFAULT_255_2_778
10
117.5022843
20
95.1406692
11
117.5022843
21
95.1406692
0
ARC
8
DEFAULT_255_2_778
10
136.9195898
20
86.5589569
40
1.0166391
50
102.084544
51
180.0726934
0
ARC
8
DEFAULT_255_2_778
10
136.1114112
20
80.0816227
40
0.2085234
50
181.4167713
51
189.6976918
0
ARC
8
DEFAULT_255_2_778
10
134.1368668
20
79.7876808
40
1.7878337
50
8.2158456
51
8.3236855
0
ARC
8
DEFAULT_255_2_778
10
134.9342517
20
25.1073062
40
1.0202768
50
272.5787042
51
352.1845966
0
ARC
8
DEFAULT_255_2_778
10
134.9324813
20
25.1249694
40
1.0380023
50
269.998358
51
272.6324656
0
ARC
8
DEFAULT_255_2_778
10
104.7609127
20
37.0267444
40
5.9215598
50
270.0000025
51
270.3022616
0
ARC
8
DEFAULT_255_2_778
10
104.7617675
20
37.0821593
40
5.9769748
50
264.8442066
51
269.9918088
0
ARC
8
DEFAULT_255_2_778
10
104.1471723
20
32.1249437
40
0.9780135
50
252.21559
51
261.5023019
0
ARC
8
DEFAULT_255_2_778
10
104.659497
20
33.592017
40
2.5317735
50
251.2553351
51
251.3161037
0
ARC
8
DEFAULT_255_2_778
10
103.9014584
20
31.3851353
40
0.1985366
50
235.9349993
51
253.7518292
0
ARC
8
DEFAULT_255_2_778
10
103.8084815
20
31.2546949
40
0.0386035
50
188.9834257
51
241.8204816
0
ARC
8
DEFAULT_255_2_778
10
104.7826552
20
31.2475144
40
1.0123043
50
179.9347638
51
222.2851561
0
ARC
8
DEFAULT_255_2_778
10
104.7905318
20
31.2512823
40
1.0206696
50
222.1441419
51
267.7266576
0
ARC
8
DEFAULT_255_2_778
10
104.7921281
20
31.2739755
40
1.0434085
50
267.6885019
51
270.0012885
0
ARC
8
DEFAULT_255_2_778
10
112.3557895
20
31.1400519
40
1.0420841
50
301.9119707
51
308.097117
0
ARC
8
DEFAULT_255_2_778
10
38.2056195
20
24.7631858
40
0.1756323
50
359.9694265
51
0.0917227
0
ARC
8
DEFAULT_255_2_778
10
37.8758867
20
24.762985
40
0.5053649
50
314.6830745
51
0.0121423
0
ARC
8
DEFAULT_255_2_778
10
37.8704056
20
24.7644004
40
0.5102336
50
270.0025845
51
315.0089335
0
LINE
8
DEFAULT_255_2_778
10
37.8704286
20
24.2541669
11
37.8700515
21
24.254167
0
LINE
8
DEFAULT_255_2_778
10
135.9029515
20
86.557667
11
135.9029515
21
80.076467
0
LINE
8
DEFAULT_255_2_778
10
135.9063515
20
80.043167
11
135.9129515
21
79.975367
0
LINE
8
DEFAULT_255_2_778
10
135.9129515
20
79.975367
11
135.9204515
21
79.796267
0
LINE
8
DEFAULT_255_2_778
10
135.9204515
20
79.796267
11
135.9246515
21
67.317767
0
LINE
8
DEFAULT_255_2_778
10
135.9246515
20
67.317767
11
135.9264515
21
61.936067
0
LINE
8
DEFAULT_255_2_778
10
135.9264515
20
61.936067
11
135.9304515
21
50.092267
0
LINE
8
DEFAULT_255_2_778
10
135.9304515
20
50.092267
11
135.9325515
21
43.684867
0
LINE
8
DEFAULT_255_2_778
10
135.9325515
20
43.684867
11
135.9386515
21
25.201367
0
LINE
8
DEFAULT_255_2_778
10
135.9386515
20
25.201367
11
135.9420515
21
25.077267
0
LINE
8
DEFAULT_255_2_778
10
135.9420515
20
25.077267
11
135.9450515
21
24.968567
0
LINE
8
DEFAULT_255_2_778
10
134.9324515
20
24.086967
11
113.8530515
21
24.086967
0
LINE
8
DEFAULT_255_2_778
10
113.8530515
20
24.086967
11
113.8618515
21
31.105267
0
LINE
8
DEFAULT_255_2_778
10
113.8618515
20
31.105267
11
104.7921515
21
31.105267
0
LINE
8
DEFAULT_255_2_778
10
104.2246515
20
31.129367
11
104.0026515
21
31.157667
0
LINE
8
DEFAULT_255_2_778
10
104.7921515
20
30.230567
11
112.8508515
21
30.230567
0
LINE
8
DEFAULT_255_2_778
10
112.8508515
20
30.230567
11
112.8736515
21
30.237467
0
LINE
8
DEFAULT_255_2_778
10
112.8736515
20
30.237467
11
112.9066515
21
30.255467
0
LINE
8
DEFAULT_255_2_778
10
112.9987515
20
30.319967
11
113.1159515
21
30.414167
0
LINE
8
DEFAULT_255_2_778
10
113.1159515
20
30.414167
11
113.2501515
21
30.529567
0
LINE
8
DEFAULT_255_2_778
10
113.2501515
20
30.529567
11
113.3951515
21
30.659967
0
LINE
8
DEFAULT_255_2_778
10
113.3951515
20
30.659967
11
113.5472515
21
30.801267
0
LINE
8
DEFAULT_255_2_778
10
113.5472515
20
30.801267
11
113.8618515
21
31.105267
0
LINE
8
DEFAULT_255_2_778
10
37.8701065
20
86.7541713
11
37.8704836
21
86.7541714
0
ARC
8
DEFAULT_255_2_778
10
37.8704606
20
86.2439379
40
0.5102336
50
44.9910665
51
89.9974155
0
ARC
8
DEFAULT_255_2_778
10
37.8745883
20
86.2447877
40
0.506719
50
0.4386591
51
45.253081
0
ARC
8
DEFAULT_255_2_778
10
37.8666849
20
86.2448441
40
0.5146216
50
0.0030215
51
0.4256395
0
LINE
8
DEFAULT_255_2_778
10
103.5151065
20
38.1954713
11
103.7704065
21
38.1954713
0
LINE
8
DEFAULT_255_2_778
10
103.7704065
20
37.1773713
11
103.5151065
21
37.1773713
0
LINE
8
DEFAULT_255_2_778
10
103.5151065
20
32.0865713
11
103.7704065
21
32.0865713
0
LINE
8
DEFAULT_255_2_778
10
71.0756065
20
38.7045713
11
71.3309065
21
38.7045713
0
LINE
8
DEFAULT_255_2_778
10
71.3309065
20
38.1954713
11
71.0756065
21
38.1954713
0
LINE
8
DEFAULT_255_2_778
10
71.3309065
20
37.1770713
11
71.0756065
21
37.1770713
0
LINE
8
DEFAULT_255_2_778
10
71.0756065
20
32.0865713
11
71.3309065
21
32.0865713
0
LINE
8
DEFAULT_255_2_778
10
71.0756065
20
56.5223713
11
71.3309065
21
56.5223713
0
LINE
8
DEFAULT_255_2_778
10
71.3309065
20
56.0130713
11
71.0756065
21
56.0130713
0
LINE
8
DEFAULT_255_2_778
10
38.0654065
20
87.3214713
11
132.2851065
21
87.3214713
0
ARC
8
DEFAULT_255_2_778
10
42.0623899
20
27.1035584
40
2.1007932
50
278.6136119
51
302.4145846
0
ARC
8
DEFAULT_255_2_778
10
42.0653579
20
27.100472
40
2.0965968
50
302.3913261
51
356.0455924
0
ARC
8
DEFAULT_255_2_778
10
42.0704255
20
27.0960449
40
2.0912399
50
356.1570223
51
0.0023815
0
ARC
8
DEFAULT_255_2_778
10
42.0504485
20
27.0959732
40
2.111217
50
0.004305
51
4.3705155
0
ARC
8
DEFAULT_255_2_778
10
42.0787081
20
27.1007587
40
2.0826764
50
4.2984921
51
29.5401536
0
ARC
8
DEFAULT_255_2_778
10
42.0600248
20
27.0885425
40
2.1049545
50
29.5787151
51
80.1039261
0
ARC
8
DEFAULT_255_2_778
10
42.0594759
20
27.0729579
40
2.1204027
50
80.161687
51
90.0202572
0
ARC
8
DEFAULT_255_2_778
10
42.0562265
20
27.0912161
40
2.1021459
50
89.9318688
51
114.3526052
0
ARC
8
DEFAULT_255_2_778
10
42.0540457
20
27.0936526
40
2.0990271
50
114.3257978
51
167.5864153
0
ARC
8
DEFAULT_255_2_778
10
42.0597653
20
27.0968326
40
2.1039339
50
167.7044758
51
175.6377986
0
ARC
8
DEFAULT_255_2_778
10
42.0667348
20
27.0956034
40
2.1109768
50
175.6189206
51
179.9956548
0
ARC
8
DEFAULT_255_2_778
10
42.0352155
20
27.0951282
40
2.0794575
50
179.9824961
51
208.5436965
0
ARC
8
DEFAULT_255_2_778
10
42.0557508
20
27.1045951
40
2.1020209
50
208.5029156
51
250.2561203
0
ARC
8
DEFAULT_255_2_778
10
42.0589575
20
27.119397
40
2.1170369
50
250.3097655
51
261.3463634
0
ARC
8
DEFAULT_255_2_778
10
41.970344
20
27.151601
40
1.6073854
50
144.5811324
51
149.1539576
0
ARC
8
DEFAULT_255_2_778
10
41.9427661
20
27.1654668
40
1.5766007
50
149.0727123
51
153.5885755
0
ARC
8
DEFAULT_255_2_778
10
39.7610956
20
28.026403
40
0.7694051
50
335.8691032
51
336.1550077
0
ARC
8
DEFAULT_255_2_778
10
40.5339233
20
27.6761234
40
0.079178
50
153.1757959
51
170.5227495
0
ARC
8
DEFAULT_255_2_778
10
42.0458327
20
27.097542
40
1.6732906
50
163.1683693
51
175.4684559
0
ARC
8
DEFAULT_255_2_778
10
42.0430171
20
27.0979209
40
1.670454
50
175.4737818
51
180.000354
0
ARC
8
DEFAULT_255_2_778
10
42.0494878
20
27.098424
40
1.6769248
50
180.0175429
51
225.0446755
0
ARC
8
DEFAULT_255_2_778
10
42.1220237
20
27.1697813
40
1.7786723
50
225.015273
51
225.1007538
0
ARC
8
DEFAULT_255_2_778
10
42.0582886
20
27.1071372
40
1.6893103
50
225.1322475
51
270.021416
0
ARC
8
DEFAULT_255_2_778
10
42.0589322
20
27.1074093
40
1.6895823
50
269.9995882
51
274.4726809
0
ARC
8
DEFAULT_255_2_778
10
42.0587097
20
27.1088783
40
1.6910642
50
274.476313
51
286.7025248
0
ARC
8
DEFAULT_255_2_778
10
42.0671084
20
27.0986617
40
1.7039111
50
305.1147989
51
359.989196
0
ARC
8
DEFAULT_255_2_778
10
42.0694053
20
27.0982864
40
1.7016142
50
0.0018183
51
7.6982647
0
ARC
8
DEFAULT_255_2_778
10
42.0609593
20
27.0971812
40
1.7101321
50
7.6970546
51
11.7713892
0
ARC
8
DEFAULT_255_2_778
10
42.0619772
20
27.0949262
40
1.7095973
50
11.8523311
51
78.2753917
0
ARC
8
DEFAULT_255_2_778
10
42.0853412
20
27.2160381
40
1.5862656
50
78.2127479
51
78.2848577
0
ARC
8
DEFAULT_255_2_778
10
42.0573074
20
27.0802049
40
1.7249614
50
78.2891964
51
82.4075986
0
ARC
8
DEFAULT_255_2_778
10
42.0583574
20
27.088293
40
1.7168055
50
82.4066692
51
89.9984267
0
ARC
8
DEFAULT_255_2_778
10
42.0577974
20
27.0904971
40
1.7146015
50
89.97971
51
144.6029921
0
ARC
8
DEFAULT_255_2_778
10
42.0585249
20
27.1368846
40
1.823474
50
261.4532302
51
270.0016132
0
ARC
8
DEFAULT_255_2_778
10
42.0586275
20
27.1368846
40
1.8234741
50
269.9983868
51
278.5467698
0
ARC
8
DEFAULT_255_2_778
10
42.0623457
20
27.1017203
40
1.7881483
50
278.5964076
51
305.0112921
0
ARC
8
DEFAULT_255_2_778
10
42.0655784
20
27.0992266
40
1.7842516
50
304.972211
51
356.7920247
0
ARC
8
DEFAULT_255_2_778
10
42.0665865
20
27.0962291
40
1.7830797
50
356.8863811
51
0.0016523
0
ARC
8
DEFAULT_255_2_778
10
42.0504392
20
27.0961437
40
1.7992269
50
0.0043569
51
4.3738692
0
ARC
8
DEFAULT_255_2_778
10
42.07484
20
27.0999766
40
1.774606
50
4.3105603
51
32.5355026
0
ARC
8
DEFAULT_255_2_778
10
42.0597571
20
27.0902852
40
1.7925341
50
32.5373741
51
81.3987497
0
ARC
8
DEFAULT_255_2_778
10
42.0589396
20
27.0741275
40
1.808633
50
81.4496944
51
90.0162644
0
ARC
8
DEFAULT_255_2_778
10
42.0561047
20
27.0933872
40
1.7893748
50
89.9256657
51
117.3376895
0
ARC
8
DEFAULT_255_2_778
10
42.0533817
20
27.0951791
40
1.7865333
50
117.2865054
51
168.6920243
0
ARC
8
DEFAULT_255_2_778
10
42.0615434
20
27.0968019
40
1.7942213
50
168.7939445
51
175.6349859
0
ARC
8
DEFAULT_255_2_778
10
42.0656432
20
27.0960197
40
1.798369
50
175.6200776
51
179.9955902
0
ARC
8
DEFAULT_255_2_778
10
42.0401736
20
27.0958739
40
1.7728995
50
179.9908168
51
212.5361944
0
ARC
8
DEFAULT_255_2_778
10
42.0550228
20
27.1025367
40
1.789003
50
212.4603123
51
252.6677114
0
ARC
8
DEFAULT_255_2_778
10
42.0592166
20
27.1198642
40
1.8067934
50
252.7044559
51
261.3419147
0
ARC
8
DEFAULT_255_2_778
10
42.0480297
20
27.1006988
40
1.2664067
50
147.309872
51
180.1284149
0
ARC
8
DEFAULT_255_2_778
10
42.0540749
20
27.0962847
40
1.2738785
50
97.3267895
51
147.2896361
0
ARC
8
DEFAULT_255_2_778
10
42.0583486
20
27.0659437
40
1.3045169
50
89.983417
51
97.3430165
0
ARC
8
DEFAULT_255_2_778
10
42.0618038
20
27.0927379
40
1.2777263
50
58.2473537
51
90.138005
0
ARC
8
DEFAULT_255_2_778
10
42.0672496
20
27.1002224
40
1.2684963
50
6.1153717
51
58.2786078
0
ARC
8
DEFAULT_255_2_778
10
42.0420735
20
27.0981231
40
1.2937528
50
359.9883698
51
6.0890382
0
ARC
8
DEFAULT_255_2_778
10
42.0694227
20
27.0950221
40
1.2664067
50
327.309872
51
0.1284149
0
ARC
8
DEFAULT_255_2_778
10
42.0633775
20
27.0994362
40
1.2738785
50
277.3267895
51
327.2896361
0
ARC
8
DEFAULT_255_2_778
10
42.0591038
20
27.1297773
40
1.3045169
50
269.983417
51
277.3430165
0
ARC
8
DEFAULT_255_2_778
10
42.0556486
20
27.102983
40
1.2777263
50
238.2473537
51
270.138005
0
ARC
8
DEFAULT_255_2_778
10
42.0502028
20
27.0954985
40
1.2684963
50
186.1153717
51
238.2786078
0
ARC
8
DEFAULT_255_2_778
10
42.0753789
20
27.0975979
40
1.2937528
50
179.9883698
51
186.0890382
0
LINE
8
DEFAULT_255_2_778
10
42.3299262
20
25.3336605
11
42.3770262
21
25.0264605
0
LINE
8
DEFAULT_255_2_778
10
41.7404262
20
25.0264605
11
41.7875262
21
25.3336605
0
LINE
8
DEFAULT_255_2_778
10
40.5307262
20
27.8667605
11
40.5051262
21
27.8130605
0
LINE
8
DEFAULT_255_2_778
10
40.5051262
20
27.8130605
11
40.4828262
21
27.7614605
0
LINE
8
DEFAULT_255_2_778
10
40.4828262
20
27.7614605
11
40.4648262
21
27.7153605
0
LINE
8
DEFAULT_255_2_778
10
40.4558262
20
27.6891605
11
40.4442262
21
27.5820605
0
LINE
8
DEFAULT_255_2_778
10
42.5447262
20
25.4891605
11
42.6524262
21
25.5008605
0
LINE
8
DEFAULT_255_2_778
10
42.6524262
20
25.5008605
11
42.6786262
21
25.5098605
0
LINE
8
DEFAULT_255_2_778
10
42.6786262
20
25.5098605
11
42.7249262
21
25.5278605
0
LINE
8
DEFAULT_255_2_778
10
42.7249262
20
25.5278605
11
42.7765262
21
25.5500605
0
LINE
8
DEFAULT_255_2_778
10
42.7765262
20
25.5500605
11
42.8302262
21
25.5754605
0
LINE
8
DEFAULT_255_2_778
10
42.8302262
20
25.5754605
11
42.9395262
21
25.6349605
0
LINE
8
DEFAULT_255_2_778
10
42.9395262
20
25.6349605
11
43.0472262
21
25.7048605
0
LINE
8
DEFAULT_255_2_778
10
40.6601262
20
28.0836605
11
40.6604262
21
28.0831605
0
LINE
8
DEFAULT_255_2_778
10
41.7872262
20
25.3336605
11
41.7875262
21
25.3336605
0
LINE
8
DEFAULT_255_2_778
10
42.9551262
20
26.1913605
11
41.1623262
21
26.1913605
0
LINE
8
DEFAULT_255_2_778
10
40.7816262
20
27.0978605
11
40.7816262
21
27.0978605
0
ARC
8
DEFAULT_255_2_778
10
74.5018893
20
27.1035584
40
2.1007932
50
278.6136119
51
302.4145846
0
ARC
8
DEFAULT_255_2_778
10
74.5048573
20
27.100472
40
2.0965968
50
302.3913261
51
356.0455924
0
ARC
8
DEFAULT_255_2_778
10
74.509925
20
27.0960449
40
2.0912399
50
356.1570223
51
0.0023815
0
ARC
8
DEFAULT_255_2_778
10
74.4899479
20
27.0959732
40
2.111217
50
0.004305
51
4.3705155
0
ARC
8
DEFAULT_255_2_778
10
74.5182076
20
27.1007587
40
2.0826764
50
4.2984921
51
29.5401536
0
ARC
8
DEFAULT_255_2_778
10
74.4995243
20
27.0885425
40
2.1049545
50
29.5787151
51
80.1039261
0
ARC
8
DEFAULT_255_2_778
10
74.4989753
20
27.0729579
40
2.1204027
50
80.161687
51
90.0202572
0
ARC
8
DEFAULT_255_2_778
10
74.495726
20
27.0912161
40
2.1021459
50
89.9318688
51
114.3526052
0
ARC
8
DEFAULT_255_2_778
10
74.4935451
20
27.0936526
40
2.0990271
50
114.3257978
51
167.5864153
0
ARC
8
DEFAULT_255_2_778
10
74.4992647
20
27.0968326
40
2.1039339
50
167.7044758
51
175.6377986
0
ARC
8
DEFAULT_255_2_778
10
74.5062343
20
27.0956034
40
2.1109768
50
175.6189206
51
179.9956548
0
ARC
8
DEFAULT_255_2_778
10
74.4747149
20
27.0951282
40
2.0794575
50
179.9824961
51
208.5436965
0
ARC
8
DEFAULT_255_2_778
10
74.4952502
20
27.1045951
40
2.1020209
50
208.5029156
51
250.2561203
0
ARC
8
DEFAULT_255_2_778
10
74.4984569
20
27.119397
40
2.1170369
50
250.3097655
51
261.3463634
0
ARC
8
DEFAULT_255_2_778
10
74.4098434
20
27.151601
40
1.6073854
50
144.5811324
51
149.1539576
0
ARC
8
DEFAULT_255_2_778
10
74.3822656
20
27.1654668
40
1.5766007
50
149.0727123
51
153.5885755
0
ARC
8
DEFAULT_255_2_778
10
72.200595
20
28.026403
40
0.7694051
50
335.8691032
51
336.1550077
0
ARC
8
DEFAULT_255_2_778
10
72.9734228
20
27.6761234
40
0.079178
50
153.1757959
51
170.5227495
0
ARC
8
DEFAULT_255_2_778
10
74.4853321
20
27.097542
40
1.6732906
50
163.1683693
51
175.4684559
0
ARC
8
DEFAULT_255_2_778
10
74.4825166
20
27.0979209
40
1.670454
50
175.4737818
51
180.000354
0
ARC
8
DEFAULT_255_2_778
10
74.4889873
20
27.098424
40
1.6769248
50
180.0175429
51
225.0446755
0
ARC
8
DEFAULT_255_2_778
10
74.5615232
20
27.1697813
40
1.7786723
50
225.015273
51
225.1007538
0
ARC
8
DEFAULT_255_2_778
10
74.4977881
20
27.1071372
40
1.6893103
50
225.1322475
51
270.021416
0
ARC
8
DEFAULT_255_2_778
10
74.4984316
20
27.1074093
40
1.6895823
50
269.9995882
51
274.4726809
0
ARC
8
DEFAULT_255_2_778
10
74.4982092
20
27.1088783
40
1.6910642
50
274.476313
51
286.7025248
0
ARC
8
DEFAULT_255_2_778
10
74.5066078
20
27.0986617
40
1.7039111
50
305.1147989
51
359.989196
0
ARC
8
DEFAULT_255_2_778
10
74.5089047
20
27.0982864
40
1.7016142
50
0.0018183
51
7.6982647
0
ARC
8
DEFAULT_255_2_778
10
74.5004588
20
27.0971812
40
1.7101321
50
7.6970546
51
11.7713892
0
ARC
8
DEFAULT_255_2_778
10
74.5014766
20
27.0949262
40
1.7095973
50
11.8523311
51
78.2753917
0
ARC
8
DEFAULT_255_2_778
10
74.5248406
20
27.2160381
40
1.5862656
50
78.2127479
51
78.2848577
0
ARC
8
DEFAULT_255_2_778
10
74.4968069
20
27.0802049
40
1.7249614
50
78.2891964
51
82.4075986
0
ARC
8
DEFAULT_255_2_778
10
74.4978569
20
27.088293
40
1.7168055
50
82.4066692
51
89.9984267
0
ARC
8
DEFAULT_255_2_778
10
74.4972969
20
27.0904971
40
1.7146015
50
89.97971
51
144.6029921
0
ARC
8
DEFAULT_255_2_778
10
74.4980243
20
27.1368846
40
1.823474
50
261.4532302
51
270.0016132
0
ARC
8
DEFAULT_255_2_778
10
74.498127
20
27.1368846
40
1.8234741
50
269.9983868
51
278.5467698
0
ARC
8
DEFAULT_255_2_778
10
74.5018451
20
27.1017203
40
1.7881483
50
278.5964076
51
305.0112921
0
ARC
8
DEFAULT_255_2_778
10
74.5050779
20
27.0992266
40
1.7842516
50
304.972211
51
356.7920247
0
ARC
8
DEFAULT_255_2_778
10
74.506086
20
27.0962291
40
1.7830797
50
356.8863811
51
0.0016523
0
ARC
8
DEFAULT_255_2_778
10
74.4899387
20
27.0961437
40
1.7992269
50
0.0043569
51
4.3738692
0
ARC
8
DEFAULT_255_2_778
10
74.5144396
20
27.0999713
40
1.7745066
50
4.310973
51
32.5377544
0
ARC
8
DEFAULT_255_2_778
10
74.4991622
20
27.0901718
40
1.7926567
50
32.5391725
51
81.3970618
0
ARC
8
DEFAULT_255_2_778
10
74.4984364
20
27.0744113
40
1.8083492
50
81.4490212
51
90.0161824
0
ARC
8
DEFAULT_255_2_778
10
74.4956042
20
27.0933872
40
1.7893748
50
89.9256657
51
117.3376895
0
ARC
8
DEFAULT_255_2_778
10
74.4928811
20
27.0951791
40
1.7865333
50
117.2865054
51
168.6920243
0
ARC
8
DEFAULT_255_2_778
10
74.5010428
20
27.0968019
40
1.7942213
50
168.7939445
51
175.6349859
0
ARC
8
DEFAULT_255_2_778
10
74.5051427
20
27.0960197
40
1.798369
50
175.6200776
51
179.9955902
0
ARC
8
DEFAULT_255_2_778
10
74.4796731
20
27.0958739
40
1.7728995
50
179.9908168
51
212.5361944
0
ARC
8
DEFAULT_255_2_778
10
74.4945223
20
27.1025367
40
1.789003
50
212.4603123
51
252.6677114
0
ARC
8
DEFAULT_255_2_778
10
74.4987161
20
27.1198642
40
1.8067934
50
252.7044559
51
261.3419147
0
ARC
8
DEFAULT_255_2_778
10
74.4872292
20
27.1006988
40
1.2664067
50
147.309872
51
180.1284149
0
ARC
8
DEFAULT_255_2_778
10
74.4932744
20
27.0962847
40
1.2738785
50
97.3267895
51
147.2896361
0
ARC
8
DEFAULT_255_2_778
10
74.4975481
20
27.0659437
40
1.3045169
50
89.983417
51
97.3430165
0
ARC
8
DEFAULT_255_2_778
10
74.500994
20
27.0926068
40
1.2778573
50
58.2274782
51
90.137579
0
ARC
8
DEFAULT_255_2_778
10
74.5065341
20
27.1001633
40
1.2685162
50
6.1156454
51
58.2604949
0
ARC
8
DEFAULT_255_2_778
10
74.4815447
20
27.0981206
40
1.2935811
50
359.9884797
51
6.0876914
0
ARC
8
DEFAULT_255_2_778
10
74.5088405
20
27.0950333
40
1.2662883
50
327.3004095
51
0.1279206
0
ARC
8
DEFAULT_255_2_778
10
74.5025553
20
27.0996013
40
1.2740453
50
277.3261794
51
327.2802376
0
ARC
8
DEFAULT_255_2_778
10
74.4982989
20
27.1298696
40
1.3046093
50
269.983607
51
277.3420727
0
ARC
8
DEFAULT_255_2_778
10
74.4948481
20
27.102983
40
1.2777263
50
238.2473537
51
270.138005
0
ARC
8
DEFAULT_255_2_778
10
74.4894023
20
27.0954985
40
1.2684963
50
186.1153717
51
238.2786078
0
ARC
8
DEFAULT_255_2_778
10
74.5145783
20
27.0975979
40
1.2937528
50
179.9883698
51
186.0890382
0
LINE
8
DEFAULT_255_2_778
10
74.7694257
20
25.3336605
11
74.8165257
21
25.0264605
0
LINE
8
DEFAULT_255_2_778
10
74.1799257
20
25.0264605
11
74.2270257
21
25.3336605
0
LINE
8
DEFAULT_255_2_778
10
72.9702257
20
27.8667605
11
72.9446257
21
27.8130605
0
LINE
8
DEFAULT_255_2_778
10
72.9446257
20
27.8130605
11
72.9223257
21
27.7614605
0
LINE
8
DEFAULT_255_2_778
10
72.9223257
20
27.7614605
11
72.9043257
21
27.7153605
0
LINE
8
DEFAULT_255_2_778
10
72.8953257
20
27.6891605
11
72.8837257
21
27.5820605
0
LINE
8
DEFAULT_255_2_778
10
74.9842257
20
25.4891605
11
75.0919257
21
25.5008605
0
LINE
8
DEFAULT_255_2_778
10
75.0919257
20
25.5008605
11
75.1181257
21
25.5098605
0
LINE
8
DEFAULT_255_2_778
10
75.1181257
20
25.5098605
11
75.1644257
21
25.5278605
0
LINE
8
DEFAULT_255_2_778
10
75.1644257
20
25.5278605
11
75.2160257
21
25.5500605
0
LINE
8
DEFAULT_255_2_778
10
75.2160257
20
25.5500605
11
75.2697257
21
25.5754605
0
LINE
8
DEFAULT_255_2_778
10
75.2697257
20
25.5754605
11
75.3790257
21
25.6349605
0
LINE
8
DEFAULT_255_2_778
10
75.3790257
20
25.6349605
11
75.4867257
21
25.7048605
0
LINE
8
DEFAULT_255_2_778
10
73.0996257
20
28.0836605
11
73.0999257
21
28.0831605
0
LINE
8
DEFAULT_255_2_778
10
74.2267257
20
25.3336605
11
74.2270257
21
25.3336605
0
LINE
8
DEFAULT_255_2_778
10
75.3943257
20
26.1913605
11
73.6015257
21
26.1913605
0
LINE
8
DEFAULT_255_2_778
10
73.2208257
20
27.0978605
11
73.2208257
21
27.0978605
0
ARC
8
DEFAULT_255_2_778
10
70.2061229
20
82.9822589
40
0.7694051
50
155.8691032
51
156.1550077
0
ARC
8
DEFAULT_255_2_778
10
69.4332951
20
83.3325386
40
0.079178
50
333.1757959
51
350.5227495
0
ARC
8
DEFAULT_255_2_778
10
67.9213857
20
83.9111199
40
1.6732906
50
343.1683693
51
355.4684559
0
ARC
8
DEFAULT_255_2_778
10
67.9242013
20
83.910741
40
1.670454
50
355.4737818
51
0.000354
0
ARC
8
DEFAULT_255_2_778
10
67.9177306
20
83.9102379
40
1.6769248
50
0.0175429
51
45.0446755
0
ARC
8
DEFAULT_255_2_778
10
67.8451947
20
83.8388806
40
1.7786723
50
45.015273
51
45.1007538
0
ARC
8
DEFAULT_255_2_778
10
67.9089298
20
83.9015248
40
1.6893103
50
45.1322475
51
90.021416
0
ARC
8
DEFAULT_255_2_778
10
67.9082863
20
83.9012526
40
1.6895823
50
89.9995882
51
94.4726809
0
ARC
8
DEFAULT_255_2_778
10
67.9085087
20
83.8997836
40
1.6910642
50
94.476313
51
106.7025248
0
ARC
8
DEFAULT_255_2_778
10
67.9001976
20
83.9099984
40
1.7039629
50
125.1171707
51
179.9925366
0
ARC
8
DEFAULT_255_2_778
10
67.8984743
20
83.910271
40
1.7022396
50
180.0017066
51
187.69187
0
ARC
8
DEFAULT_255_2_778
10
67.9069668
20
83.9113786
40
1.7108039
50
187.6905613
51
191.763205
0
ARC
8
DEFAULT_255_2_778
10
67.9052413
20
83.9137357
40
1.7095973
50
191.8523311
51
258.2753917
0
ARC
8
DEFAULT_255_2_778
10
67.8818772
20
83.7926238
40
1.5862656
50
258.2127479
51
258.2848577
0
ARC
8
DEFAULT_255_2_778
10
67.909911
20
83.9284571
40
1.7249614
50
258.2891964
51
262.4075986
0
ARC
8
DEFAULT_255_2_778
10
67.908861
20
83.9203689
40
1.7168055
50
262.4066692
51
269.9984267
0
ARC
8
DEFAULT_255_2_778
10
67.909421
20
83.9181649
40
1.7146015
50
269.97971
51
324.6029921
0
ARC
8
DEFAULT_255_2_778
10
67.8976694
20
83.9142251
40
2.0920799
50
157.1084217
51
180.0937638
0
ARC
8
DEFAULT_255_2_778
10
67.9006179
20
83.9088636
40
2.0968852
50
101.2896923
51
157.0047986
0
ARC
8
DEFAULT_255_2_778
10
67.9072048
20
83.8707908
40
2.1355111
50
89.9654579
51
101.263021
0
ARC
8
DEFAULT_255_2_778
10
67.912031
20
83.8933965
40
2.1129079
50
67.613561
51
90.0959608
0
ARC
8
DEFAULT_255_2_778
10
67.9194621
20
83.9128225
40
2.0921158
50
9.3307611
51
67.5991198
0
ARC
8
DEFAULT_255_2_778
10
67.8915169
20
83.9117012
40
2.1198757
50
359.9756836
51
9.2382068
0
ARC
8
DEFAULT_255_2_778
10
67.9191801
20
83.907372
40
2.092215
50
337.1101558
51
0.0939159
0
ARC
8
DEFAULT_255_2_778
10
67.9164658
20
83.9126299
40
2.096764
50
281.2883787
51
337.0066443
0
ARC
8
DEFAULT_255_2_778
10
67.9097837
20
83.9510578
40
2.1357568
50
269.9653535
51
281.2623744
0
ARC
8
DEFAULT_255_2_778
10
67.904968
20
83.9280682
40
2.1127696
50
247.6128202
51
270.0955721
0
ARC
8
DEFAULT_255_2_778
10
67.8976073
20
83.9088654
40
2.0922107
50
189.3326908
51
247.598917
0
ARC
8
DEFAULT_255_2_778
10
67.9252541
20
83.9099005
40
2.1196621
50
179.9756467
51
189.2391113
0
ARC
8
DEFAULT_255_2_778
10
67.8969713
20
83.9140511
40
1.7796821
50
154.3843505
51
180.1046207
0
ARC
8
DEFAULT_255_2_778
10
67.9018999
20
83.9089584
40
1.7863297
50
100.45607
51
154.3054025
0
ARC
8
DEFAULT_255_2_778
10
67.9072302
20
83.8756041
40
1.8200977
50
89.9697166
51
100.4305284
0
ARC
8
DEFAULT_255_2_778
10
67.911573
20
83.8992561
40
1.7964485
50
65.1560143
51
90.107826
0
ARC
8
DEFAULT_255_2_778
10
67.9176353
20
83.9127518
40
1.7816548
50
8.7258212
51
65.1505807
0
ARC
8
DEFAULT_255_2_778
10
67.8923989
20
83.9114833
40
1.8067935
50
359.9783783
51
8.6441738
0
ARC
8
DEFAULT_255_2_778
10
67.9195382
20
83.9075507
40
1.779657
50
334.3840023
51
0.1046577
0
ARC
8
DEFAULT_255_2_778
10
67.9145656
20
83.9126884
40
1.7863639
50
280.5835295
51
334.304369
0
ARC
8
DEFAULT_255_2_778
10
67.9091784
20
83.9459744
40
1.8200732
50
269.9689546
51
280.5577749
0
ARC
8
DEFAULT_255_2_778
10
67.9048209
20
83.9221102
40
1.7962119
50
245.1543528
51
270.1075381
0
ARC
8
DEFAULT_255_2_778
10
67.8988772
20
83.908851
40
1.7816826
50
188.7256808
51
245.148643
0
ARC
8
DEFAULT_255_2_778
10
67.9241206
20
83.910121
40
1.8068283
50
179.9784206
51
188.6440482
0
ARC
8
DEFAULT_255_2_778
10
67.8974121
20
83.9136256
40
1.2663231
50
147.3012581
51
180.1277799
0
ARC
8
DEFAULT_255_2_778
10
67.9036274
20
83.9091298
40
1.2739822
50
97.3284802
51
147.2821123
0
ARC
8
DEFAULT_255_2_778
10
67.9078197
20
83.8791251
40
1.3042765
50
89.9836357
51
97.3430087
0
ARC
8
DEFAULT_255_2_778
10
67.9112606
20
83.9055478
40
1.2778573
50
58.2274782
51
90.137579
0
ARC
8
DEFAULT_255_2_778
10
67.9168007
20
83.9131043
40
1.2685162
50
6.1156454
51
58.2604949
0
ARC
8
DEFAULT_255_2_778
10
67.8918112
20
83.9110616
40
1.2935811
50
359.9884797
51
6.0876914
0
ARC
8
DEFAULT_255_2_778
10
67.9191071
20
83.9079743
40
1.2662883
50
327.3004095
51
0.1279206
0
ARC
8
DEFAULT_255_2_778
10
67.9128219
20
83.9125423
40
1.2740453
50
277.3261794
51
327.2802376
0
ARC
8
DEFAULT_255_2_778
10
67.9085655
20
83.9428107
40
1.3046093
50
269.983607
51
277.3420727
0
ARC
8
DEFAULT_255_2_778
10
67.9051376
20
83.9158453
40
1.2776475
50
238.203232
51
270.1369869
0
ARC
8
DEFAULT_255_2_778
10
67.8997166
20
83.9085007
40
1.268549
50
186.1132661
51
238.2365393
0
ARC
8
DEFAULT_255_2_778
10
67.9247222
20
83.9105424
40
1.29363
50
179.9885247
51
186.0852356
0
LINE
8
DEFAULT_255_2_778
10
69.3067922
20
82.9255015
11
69.3769922
21
83.0329015
0
LINE
8
DEFAULT_255_2_778
10
69.3769922
20
83.0329015
11
69.4364922
21
83.1419015
0
LINE
8
DEFAULT_255_2_778
10
69.4364922
20
83.1419015
11
69.4620922
21
83.1956015
0
LINE
8
DEFAULT_255_2_778
10
69.4620922
20
83.1956015
11
69.4843922
21
83.2472015
0
LINE
8
DEFAULT_255_2_778
10
69.4843922
20
83.2472015
11
69.5023922
21
83.2933015
0
LINE
8
DEFAULT_255_2_778
10
69.5113922
20
83.3195015
11
69.5229922
21
83.4266015
0
LINE
8
DEFAULT_255_2_778
10
67.4224922
20
85.5195015
11
67.3147922
21
85.5078015
0
LINE
8
DEFAULT_255_2_778
10
67.3147922
20
85.5078015
11
67.2885922
21
85.4988015
0
LINE
8
DEFAULT_255_2_778
10
67.2885922
20
85.4988015
11
67.2422922
21
85.4808015
0
LINE
8
DEFAULT_255_2_778
10
67.2422922
20
85.4808015
11
67.1906922
21
85.4586015
0
LINE
8
DEFAULT_255_2_778
10
67.1906922
20
85.4586015
11
67.1369922
21
85.4332015
0
LINE
8
DEFAULT_255_2_778
10
67.1369922
20
85.4332015
11
67.0276922
21
85.3737015
0
LINE
8
DEFAULT_255_2_778
10
67.0276922
20
85.3737015
11
66.9199922
21
85.3038015
0
LINE
8
DEFAULT_255_2_778
10
69.3070922
20
82.9250015
11
69.3067922
21
82.9255015
0
LINE
8
DEFAULT_255_2_778
10
65.8055922
20
83.9108015
11
65.8055922
21
83.9108015
0
LINE
8
DEFAULT_255_2_778
10
66.1172922
20
83.9108015
11
66.1172922
21
83.9108015
0
LINE
8
DEFAULT_255_2_778
10
68.8046922
20
84.8173015
11
67.0117922
21
84.8173015
0
LINE
8
DEFAULT_255_2_778
10
66.6310922
20
83.9108015
11
66.6310922
21
83.9108015
0
ARC
8
DEFAULT_255_2_778
10
102.6496408
20
82.9803105
40
0.7741348
50
155.8756167
51
156.1520622
0
ARC
8
DEFAULT_255_2_778
10
101.8746621
20
83.3314787
40
0.076778
50
333.0769469
51
351.0253583
0
ARC
8
DEFAULT_255_2_778
10
100.3605938
20
83.9111199
40
1.6732906
50
343.1683693
51
355.4684559
0
ARC
8
DEFAULT_255_2_778
10
100.3634094
20
83.910741
40
1.670454
50
355.4737818
51
0.000354
0
ARC
8
DEFAULT_255_2_778
10
100.3569387
20
83.9102379
40
1.6769248
50
0.0175429
51
45.0446755
0
ARC
8
DEFAULT_255_2_778
10
100.2844028
20
83.8388806
40
1.7786723
50
45.015273
51
45.1007538
0
ARC
8
DEFAULT_255_2_778
10
100.3481379
20
83.9015248
40
1.6893103
50
45.1322475
51
90.021416
0
ARC
8
DEFAULT_255_2_778
10
100.3474943
20
83.9012526
40
1.6895823
50
89.9995882
51
94.4726809
0
ARC
8
DEFAULT_255_2_778
10
100.3477168
20
83.8997836
40
1.6910642
50
94.476313
51
106.7025248
0
ARC
8
DEFAULT_255_2_778
10
100.3393182
20
83.9100002
40
1.7039111
50
125.1147989
51
179.989196
0
ARC
8
DEFAULT_255_2_778
10
100.3370213
20
83.9103755
40
1.7016142
50
180.0018183
51
187.6982647
0
ARC
8
DEFAULT_255_2_778
10
100.3454672
20
83.9114808
40
1.7101321
50
187.6970546
51
191.7713892
0
ARC
8
DEFAULT_255_2_778
10
100.3444494
20
83.9137357
40
1.7095973
50
191.8523311
51
258.2753917
0
ARC
8
DEFAULT_255_2_778
10
100.3210853
20
83.7926238
40
1.5862656
50
258.2127479
51
258.2848577
0
ARC
8
DEFAULT_255_2_778
10
100.3491191
20
83.9284571
40
1.7249614
50
258.2891964
51
262.4075986
0
ARC
8
DEFAULT_255_2_778
10
100.3480691
20
83.9203689
40
1.7168055
50
262.4066692
51
269.9984267
0
ARC
8
DEFAULT_255_2_778
10
100.3486291
20
83.9181649
40
1.7146015
50
269.97971
51
324.6029921
0
ARC
8
DEFAULT_255_2_778
10
100.3370125
20
83.9142309
40
2.092215
50
157.1101558
51
180.0939159
0
ARC
8
DEFAULT_255_2_778
10
100.3397267
20
83.9089731
40
2.096764
50
101.2883787
51
157.0066443
0
ARC
8
DEFAULT_255_2_778
10
100.3464088
20
83.8705452
40
2.1357568
50
89.9653535
51
101.2623744
0
ARC
8
DEFAULT_255_2_778
10
100.3512391
20
83.8933965
40
2.1129079
50
67.613561
51
90.0959608
0
ARC
8
DEFAULT_255_2_778
10
100.3586702
20
83.9128225
40
2.0921158
50
9.3307611
51
67.5991198
0
ARC
8
DEFAULT_255_2_778
10
100.330725
20
83.9117012
40
2.1198757
50
359.9756836
51
9.2382068
0
ARC
8
DEFAULT_255_2_778
10
100.3583882
20
83.907372
40
2.092215
50
337.1101558
51
0.0939159
0
ARC
8
DEFAULT_255_2_778
10
100.3556739
20
83.9126299
40
2.096764
50
281.2883787
51
337.0066443
0
ARC
8
DEFAULT_255_2_778
10
100.3489918
20
83.9510578
40
2.1357568
50
269.9653535
51
281.2623744
0
ARC
8
DEFAULT_255_2_778
10
100.3441616
20
83.9282064
40
2.1129079
50
247.613561
51
270.0959608
0
ARC
8
DEFAULT_255_2_778
10
100.3367304
20
83.9087805
40
2.0921158
50
189.3307611
51
247.5991198
0
ARC
8
DEFAULT_255_2_778
10
100.3646757
20
83.9099018
40
2.1198757
50
179.9756836
51
189.2382068
0
ARC
8
DEFAULT_255_2_778
10
100.3363666
20
83.9140482
40
1.7798692
50
154.4742965
51
180.1045141
0
ARC
8
DEFAULT_255_2_778
10
100.3410065
20
83.909076
40
1.7862005
50
100.4686141
51
154.3945082
0
ARC
8
DEFAULT_255_2_778
10
100.3464305
20
83.8753921
40
1.8203095
50
89.9694752
51
100.4438585
0
ARC
8
DEFAULT_255_2_778
10
100.3507811
20
83.8992561
40
1.7964485
50
65.1560143
51
90.107826
0
ARC
8
DEFAULT_255_2_778
10
100.3568433
20
83.9127518
40
1.7816548
50
8.7258212
51
65.1505807
0
ARC
8
DEFAULT_255_2_778
10
100.3316069
20
83.9114833
40
1.8067935
50
359.9783783
51
8.6441738
0
ARC
8
DEFAULT_255_2_778
10
100.3587463
20
83.9075507
40
1.779657
50
334.3840023
51
0.1046577
0
ARC
8
DEFAULT_255_2_778
10
100.3537736
20
83.9126884
40
1.7863639
50
280.5835295
51
334.304369
0
ARC
8
DEFAULT_255_2_778
10
100.3483865
20
83.9459744
40
1.8200732
50
269.9689546
51
280.5577749
0
ARC
8
DEFAULT_255_2_778
10
100.3440116
20
83.9222273
40
1.7963291
50
245.1551739
51
270.1080868
0
ARC
8
DEFAULT_255_2_778
10
100.3380054
20
83.9087699
40
1.7815936
50
188.7234802
51
245.1486153
0
ARC
8
DEFAULT_255_2_778
10
100.3635033
20
83.9101197
40
1.8070031
50
179.9783825
51
188.643165
0
ARC
8
DEFAULT_255_2_778
10
100.3367039
20
83.9136398
40
1.2664067
50
147.309872
51
180.1284149
0
ARC
8
DEFAULT_255_2_778
10
100.342749
20
83.9092258
40
1.2738785
50
97.3267895
51
147.2896361
0
ARC
8
DEFAULT_255_2_778
10
100.3470228
20
83.8788847
40
1.3045169
50
89.983417
51
97.3430165
0
ARC
8
DEFAULT_255_2_778
10
100.3504687
20
83.9055478
40
1.2778573
50
58.2274782
51
90.137579
0
ARC
8
DEFAULT_255_2_778
10
100.3560088
20
83.9131043
40
1.2685162
50
6.1156454
51
58.2604949
0
ARC
8
DEFAULT_255_2_778
10
100.3310193
20
83.9110616
40
1.2935811
50
359.9884797
51
6.0876914
0
ARC
8
DEFAULT_255_2_778
10
100.3583152
20
83.9079743
40
1.2662883
50
327.3004095
51
0.1279206
0
ARC
8
DEFAULT_255_2_778
10
100.35203
20
83.9125423
40
1.2740453
50
277.3261794
51
327.2802376
0
ARC
8
DEFAULT_255_2_778
10
100.3477736
20
83.9428107
40
1.3046093
50
269.983607
51
277.3420727
0
ARC
8
DEFAULT_255_2_778
10
100.3443227
20
83.915924
40
1.2777263
50
238.2473537
51
270.138005
0
ARC
8
DEFAULT_255_2_778
10
100.3388769
20
83.9084395
40
1.2684963
50
186.1153717
51
238.2786078
0
ARC
8
DEFAULT_255_2_778
10
100.364053
20
83.9105389
40
1.2937528
50
179.9883698
51
186.0890382
0
LINE
8
DEFAULT_255_2_778
10
101.7460003
20
82.9255015
11
101.8161003
21
83.0329015
0
LINE
8
DEFAULT_255_2_778
10
101.8161003
20
83.0329015
11
101.8757003
21
83.1419015
0
LINE
8
DEFAULT_255_2_778
10
101.8757003
20
83.1419015
11
101.9013003
21
83.1956015
0
LINE
8
DEFAULT_255_2_778
10
101.9013003
20
83.1956015
11
101.9236003
21
83.2472015
0
LINE
8
DEFAULT_255_2_778
10
101.9236003
20
83.2472015
11
101.9416003
21
83.2933015
0
LINE
8
DEFAULT_255_2_778
10
101.9505003
20
83.3195015
11
101.9622003
21
83.4266015
0
LINE
8
DEFAULT_255_2_778
10
99.8617003
20
85.5195015
11
99.7540003
21
85.5078015
0
LINE
8
DEFAULT_255_2_778
10
99.7540003
20
85.5078015
11
99.7278003
21
85.4988015
0
LINE
8
DEFAULT_255_2_778
10
99.7278003
20
85.4988015
11
99.6815003
21
85.4808015
0
LINE
8
DEFAULT_255_2_778
10
99.6815003
20
85.4808015
11
99.6299003
21
85.4586015
0
LINE
8
DEFAULT_255_2_778
10
99.6299003
20
85.4586015
11
99.5762003
21
85.4332015
0
LINE
8
DEFAULT_255_2_778
10
99.5762003
20
85.4332015
11
99.4669003
21
85.3737015
0
LINE
8
DEFAULT_255_2_778
10
99.4669003
20
85.3737015
11
99.3592003
21
85.3038015
0
LINE
8
DEFAULT_255_2_778
10
101.7463003
20
82.9250015
11
101.7460003
21
82.9255015
0
LINE
8
DEFAULT_255_2_778
10
98.2448003
20
83.9108015
11
98.2448003
21
83.9108015
0
LINE
8
DEFAULT_255_2_778
10
98.5565003
20
83.9108015
11
98.5565003
21
83.9108015
0
LINE
8
DEFAULT_255_2_778
10
101.2438003
20
84.8173015
11
99.4510003
21
84.8173015
0
LINE
8
DEFAULT_255_2_778
10
99.0703003
20
83.9108015
11
99.0703003
21
83.9108015
0
ARC
8
DEFAULT_255_2_778
10
135.0889327
20
82.9803105
40
0.7741348
50
155.8756167
51
156.1520622
0
ARC
8
DEFAULT_255_2_778
10
134.3139541
20
83.3314787
40
0.076778
50
333.0769469
51
351.0253583
0
ARC
8
DEFAULT_255_2_778
10
132.7998857
20
83.9111199
40
1.6732906
50
343.1683693
51
355.4684559
0
ARC
8
DEFAULT_255_2_778
10
132.8027013
20
83.910741
40
1.670454
50
355.4737818
51
0.000354
0
ARC
8
DEFAULT_255_2_778
10
132.7962306
20
83.9102379
40
1.6769248
50
0.0175429
51
45.0446755
0
ARC
8
DEFAULT_255_2_778
10
132.7236947
20
83.8388806
40
1.7786723
50
45.015273
51
45.1007538
0
ARC
8
DEFAULT_255_2_778
10
132.7874298
20
83.9015248
40
1.6893103
50
45.1322475
51
90.021416
0
ARC
8
DEFAULT_255_2_778
10
132.7867863
20
83.9012526
40
1.6895823
50
89.9995882
51
94.4726809
0
ARC
8
DEFAULT_255_2_778
10
132.7870087
20
83.8997836
40
1.6910642
50
94.476313
51
106.7025248
0
ARC
8
DEFAULT_255_2_778
10
132.7786101
20
83.9100002
40
1.7039111
50
125.1147989
51
179.989196
0
ARC
8
DEFAULT_255_2_778
10
132.7763132
20
83.9103755
40
1.7016142
50
180.0018183
51
187.6982647
0
ARC
8
DEFAULT_255_2_778
10
132.7847591
20
83.9114808
40
1.7101321
50
187.6970546
51
191.7713892
0
ARC
8
DEFAULT_255_2_778
10
132.7837413
20
83.9137357
40
1.7095973
50
191.8523311
51
258.2753917
0
ARC
8
DEFAULT_255_2_778
10
132.7603772
20
83.7926238
40
1.5862656
50
258.2127479
51
258.2848577
0
ARC
8
DEFAULT_255_2_778
10
132.788411
20
83.9284571
40
1.7249614
50
258.2891964
51
262.4075986
0
ARC
8
DEFAULT_255_2_778
10
132.787361
20
83.9203689
40
1.7168055
50
262.4066692
51
269.9984267
0
ARC
8
DEFAULT_255_2_778
10
132.787921
20
83.9181649
40
1.7146015
50
269.97971
51
324.6029921
0
ARC
8
DEFAULT_255_2_778
10
132.7763044
20
83.9142309
40
2.092215
50
157.1101558
51
180.0939159
0
ARC
8
DEFAULT_255_2_778
10
132.7790187
20
83.9089731
40
2.096764
50
101.2883787
51
157.0066443
0
ARC
8
DEFAULT_255_2_778
10
132.7857008
20
83.8705452
40
2.1357568
50
89.9653535
51
101.2623744
0
ARC
8
DEFAULT_255_2_778
10
132.790531
20
83.8933965
40
2.1129079
50
67.613561
51
90.0959608
0
ARC
8
DEFAULT_255_2_778
10
132.7979621
20
83.9128225
40
2.0921158
50
9.3307611
51
67.5991198
0
ARC
8
DEFAULT_255_2_778
10
132.7700169
20
83.9117012
40
2.1198757
50
359.9756836
51
9.2382068
0
ARC
8
DEFAULT_255_2_778
10
132.7976801
20
83.907372
40
2.092215
50
337.1101558
51
0.0939159
0
ARC
8
DEFAULT_255_2_778
10
132.7949658
20
83.9126299
40
2.096764
50
281.2883787
51
337.0066443
0
ARC
8
DEFAULT_255_2_778
10
132.7882837
20
83.9510578
40
2.1357568
50
269.9653535
51
281.2623744
0
ARC
8
DEFAULT_255_2_778
10
132.7834535
20
83.9282064
40
2.1129079
50
247.613561
51
270.0959608
0
ARC
8
DEFAULT_255_2_778
10
132.7760224
20
83.9087805
40
2.0921158
50
189.3307611
51
247.5991198
0
ARC
8
DEFAULT_255_2_778
10
132.8039676
20
83.9099018
40
2.1198757
50
179.9756836
51
189.2382068
0
ARC
8
DEFAULT_255_2_778
10
132.7754713
20
83.9140511
40
1.7796821
50
154.3843505
51
180.1046207
0
ARC
8
DEFAULT_255_2_778
10
132.7803999
20
83.9089584
40
1.7863297
50
100.45607
51
154.3054025
0
ARC
8
DEFAULT_255_2_778
10
132.7857302
20
83.8756041
40
1.8200977
50
89.9697166
51
100.4305284
0
ARC
8
DEFAULT_255_2_778
10
132.790073
20
83.8992561
40
1.7964485
50
65.1560143
51
90.107826
0
ARC
8
DEFAULT_255_2_778
10
132.7961353
20
83.9127518
40
1.7816548
50
8.7258212
51
65.1505807
0
ARC
8
DEFAULT_255_2_778
10
132.7708989
20
83.9114833
40
1.8067935
50
359.9783783
51
8.6441738
0
ARC
8
DEFAULT_255_2_778
10
132.7980382
20
83.9075507
40
1.779657
50
334.3840023
51
0.1046577
0
ARC
8
DEFAULT_255_2_778
10
132.7930656
20
83.9126884
40
1.7863639
50
280.5835295
51
334.304369
0
ARC
8
DEFAULT_255_2_778
10
132.7876784
20
83.9459744
40
1.8200732
50
269.9689546
51
280.5577749
0
ARC
8
DEFAULT_255_2_778
10
132.7833209
20
83.9221102
40
1.7962119
50
245.1543528
51
270.1075381
0
ARC
8
DEFAULT_255_2_778
10
132.7773772
20
83.908851
40
1.7816826
50
188.7256808
51
245.148643
0
ARC
8
DEFAULT_255_2_778
10
132.8026206
20
83.910121
40
1.8068283
50
179.9784206
51
188.6440482
0
ARC
8
DEFAULT_255_2_778
10
132.7759121
20
83.9136256
40
1.2663231
50
147.3012581
51
180.1277799
0
ARC
8
DEFAULT_255_2_778
10
132.7821274
20
83.9091298
40
1.2739822
50
97.3284802
51
147.2821123
0
ARC
8
DEFAULT_255_2_778
10
132.7863197
20
83.8791251
40
1.3042765
50
89.9836357
51
97.3430087
0
ARC
8
DEFAULT_255_2_778
10
132.7897606
20
83.9055478
40
1.2778573
50
58.2274782
51
90.137579
0
ARC
8
DEFAULT_255_2_778
10
132.7953007
20
83.9131043
40
1.2685162
50
6.1156454
51
58.2604949
0
ARC
8
DEFAULT_255_2_778
10
132.7703112
20
83.9110616
40
1.2935811
50
359.9884797
51
6.0876914
0
ARC
8
DEFAULT_255_2_778
10
132.7976071
20
83.9079743
40
1.2662883
50
327.3004095
51
0.1279206
0
ARC
8
DEFAULT_255_2_778
10
132.7913219
20
83.9125423
40
1.2740453
50
277.3261794
51
327.2802376
0
ARC
8
DEFAULT_255_2_778
10
132.7870655
20
83.9428107
40
1.3046093
50
269.983607
51
277.3420727
0
ARC
8
DEFAULT_255_2_778
10
132.7836376
20
83.9158453
40
1.2776475
50
238.203232
51
270.1369869
0
ARC
8
DEFAULT_255_2_778
10
132.7782166
20
83.9085007
40
1.268549
50
186.1132661
51
238.2365393
0
ARC
8
DEFAULT_255_2_778
10
132.8032222
20
83.9105424
40
1.29363
50
179.9885247
51
186.0852356
0
LINE
8
DEFAULT_255_2_778
10
134.1852922
20
82.9255015
11
134.2553922
21
83.0329015
0
LINE
8
DEFAULT_255_2_778
10
134.2553922
20
83.0329015
11
134.3149922
21
83.1419015
0
LINE
8
DEFAULT_255_2_778
10
134.3149922
20
83.1419015
11
134.3405922
21
83.1956015
0
LINE
8
DEFAULT_255_2_778
10
134.3405922
20
83.1956015
11
134.3628922
21
83.2472015
0
LINE
8
DEFAULT_255_2_778
10
134.3628922
20
83.2472015
11
134.3808922
21
83.2933015
0
LINE
8
DEFAULT_255_2_778
10
134.3897922
20
83.3195015
11
134.4014922
21
83.4266015
0
LINE
8
DEFAULT_255_2_778
10
132.3009922
20
85.5195015
11
132.1932922
21
85.5078015
0
LINE
8
DEFAULT_255_2_778
10
132.1932922
20
85.5078015
11
132.1670922
21
85.4988015
0
LINE
8
DEFAULT_255_2_778
10
132.1670922
20
85.4988015
11
132.1207922
21
85.4808015
0
LINE
8
DEFAULT_255_2_778
10
132.1207922
20
85.4808015
11
132.0691922
21
85.4586015
0
LINE
8
DEFAULT_255_2_778
10
132.0691922
20
85.4586015
11
132.0154922
21
85.4332015
0
LINE
8
DEFAULT_255_2_778
10
132.0154922
20
85.4332015
11
131.9061922
21
85.3737015
0
LINE
8
DEFAULT_255_2_778
10
131.9061922
20
85.3737015
11
131.7984922
21
85.3038015
0
LINE
8
DEFAULT_255_2_778
10
134.1855922
20
82.9250015
11
134.1852922
21
82.9255015
0
LINE
8
DEFAULT_255_2_778
10
130.6840922
20
83.9108015
11
130.6840922
21
83.9108015
0
LINE
8
DEFAULT_255_2_778
10
130.9957922
20
83.9108015
11
130.9957922
21
83.9108015
0
LINE
8
DEFAULT_255_2_778
10
133.6831922
20
84.8173015
11
131.8902922
21
84.8173015
0
LINE
8
DEFAULT_255_2_778
10
131.5095922
20
83.9108015
11
131.5095922
21
83.9108015
0
ARC
8
DEFAULT_255_2_778
10
106.9410928
20
27.1035584
40
2.1007932
50
278.6136119
51
302.4145846
0
ARC
8
DEFAULT_255_2_778
10
106.9440608
20
27.100472
40
2.0965968
50
302.3913261
51
356.0455924
0
ARC
8
DEFAULT_255_2_778
10
106.9491285
20
27.0960449
40
2.0912399
50
356.1570223
51
0.0023815
0
ARC
8
DEFAULT_255_2_778
10
106.9291514
20
27.0959732
40
2.111217
50
0.004305
51
4.3705155
0
ARC
8
DEFAULT_255_2_778
10
106.9574111
20
27.1007587
40
2.0826764
50
4.2984921
51
29.5401536
0
ARC
8
DEFAULT_255_2_778
10
106.9387278
20
27.0885425
40
2.1049545
50
29.5787151
51
80.1039261
0
ARC
8
DEFAULT_255_2_778
10
106.9381788
20
27.0729579
40
2.1204027
50
80.161687
51
90.0202572
0
ARC
8
DEFAULT_255_2_778
10
106.9349295
20
27.0912161
40
2.1021459
50
89.9318688
51
114.3526052
0
ARC
8
DEFAULT_255_2_778
10
106.9327486
20
27.0936526
40
2.0990271
50
114.3257978
51
167.5864153
0
ARC
8
DEFAULT_255_2_778
10
106.9384682
20
27.0968326
40
2.1039339
50
167.7044758
51
175.6377986
0
ARC
8
DEFAULT_255_2_778
10
106.9454378
20
27.0956034
40
2.1109768
50
175.6189206
51
179.9956548
0
ARC
8
DEFAULT_255_2_778
10
106.9139184
20
27.0951282
40
2.0794575
50
179.9824961
51
208.5436965
0
ARC
8
DEFAULT_255_2_778
10
106.9344537
20
27.1045951
40
2.1020209
50
208.5029156
51
250.2561203
0
ARC
8
DEFAULT_255_2_778
10
106.9376604
20
27.119397
40
2.1170369
50
250.3097655
51
261.3463634
0
ARC
8
DEFAULT_255_2_778
10
106.8490469
20
27.151601
40
1.6073854
50
144.5811324
51
149.1539576
0
ARC
8
DEFAULT_255_2_778
10
106.8214691
20
27.1654668
40
1.5766007
50
149.0727123
51
153.5885755
0
ARC
8
DEFAULT_255_2_778
10
104.6397985
20
28.026403
40
0.7694051
50
335.8691032
51
336.1550077
0
ARC
8
DEFAULT_255_2_778
10
105.4126263
20
27.6761234
40
0.079178
50
153.1757959
51
170.5227495
0
ARC
8
DEFAULT_255_2_778
10
106.9245356
20
27.097542
40
1.6732906
50
163.1683693
51
175.4684559
0
ARC
8
DEFAULT_255_2_778
10
106.9217201
20
27.0979209
40
1.670454
50
175.4737818
51
180.000354
0
ARC
8
DEFAULT_255_2_778
10
106.9281908
20
27.098424
40
1.6769248
50
180.0175429
51
225.0446755
0
ARC
8
DEFAULT_255_2_778
10
107.0007267
20
27.1697813
40
1.7786723
50
225.015273
51
225.1007538
0
ARC
8
DEFAULT_255_2_778
10
106.9369916
20
27.1071372
40
1.6893103
50
225.1322475
51
270.021416
0
ARC
8
DEFAULT_255_2_778
10
106.9376351
20
27.1074093
40
1.6895823
50
269.9995882
51
274.4726809
0
ARC
8
DEFAULT_255_2_778
10
106.9374127
20
27.1088783
40
1.6910642
50
274.476313
51
286.7025248
0
ARC
8
DEFAULT_255_2_778
10
106.9458113
20
27.0986617
40
1.7039111
50
305.1147989
51
359.989196
0
ARC
8
DEFAULT_255_2_778
10
106.9481082
20
27.0982864
40
1.7016142
50
0.0018183
51
7.6982647
0
ARC
8
DEFAULT_255_2_778
10
106.9396623
20
27.0971812
40
1.7101321
50
7.6970546
51
11.7713892
0
ARC
8
DEFAULT_255_2_778
10
106.9406801
20
27.0949262
40
1.7095973
50
11.8523311
51
78.2753917
0
ARC
8
DEFAULT_255_2_778
10
106.9640441
20
27.2160381
40
1.5862656
50
78.2127479
51
78.2848577
0
ARC
8
DEFAULT_255_2_778
10
106.9360104
20
27.0802049
40
1.7249614
50
78.2891964
51
82.4075986
0
ARC
8
DEFAULT_255_2_778
10
106.9370604
20
27.088293
40
1.7168055
50
82.4066692
51
89.9984267
0
ARC
8
DEFAULT_255_2_778
10
106.9365004
20
27.0904971
40
1.7146015
50
89.97971
51
144.6029921
0
ARC
8
DEFAULT_255_2_778
10
106.9372278
20
27.1368846
40
1.823474
50
261.4532302
51
270.0016132
0
ARC
8
DEFAULT_255_2_778
10
106.9373305
20
27.1368846
40
1.8234741
50
269.9983868
51
278.5467698
0
ARC
8
DEFAULT_255_2_778
10
106.9410486
20
27.1017203
40
1.7881483
50
278.5964076
51
305.0112921
0
ARC
8
DEFAULT_255_2_778
10
106.9442814
20
27.0992266
40
1.7842516
50
304.972211
51
356.7920247
0
ARC
8
DEFAULT_255_2_778
10
106.9452895
20
27.0962291
40
1.7830797
50
356.8863811
51
0.0016523
0
ARC
8
DEFAULT_255_2_778
10
106.9291422
20
27.0961437
40
1.7992269
50
0.0043569
51
4.3738692
0
ARC
8
DEFAULT_255_2_778
10
106.9536431
20
27.0999713
40
1.7745066
50
4.310973
51
32.5377544
0
ARC
8
DEFAULT_255_2_778
10
106.9383657
20
27.0901718
40
1.7926567
50
32.5391725
51
81.3970618
0
ARC
8
DEFAULT_255_2_778
10
106.9376399
20
27.0744113
40
1.8083492
50
81.4490212
51
90.0161824
0
ARC
8
DEFAULT_255_2_778
10
106.9348077
20
27.0933872
40
1.7893748
50
89.9256657
51
117.3376895
0
ARC
8
DEFAULT_255_2_778
10
106.9320846
20
27.0951791
40
1.7865333
50
117.2865054
51
168.6920243
0
ARC
8
DEFAULT_255_2_778
10
106.9402463
20
27.0968019
40
1.7942213
50
168.7939445
51
175.6349859
0
ARC
8
DEFAULT_255_2_778
10
106.9443462
20
27.0960197
40
1.798369
50
175.6200776
51
179.9955902
0
ARC
8
DEFAULT_255_2_778
10
106.9188766
20
27.0958739
40
1.7728995
50
179.9908168
51
212.5361944
0
ARC
8
DEFAULT_255_2_778
10
106.9337258
20
27.1025367
40
1.789003
50
212.4603123
51
252.6677114
0
ARC
8
DEFAULT_255_2_778
10
106.9379196
20
27.1198642
40
1.8067934
50
252.7044559
51
261.3419147
0
ARC
8
DEFAULT_255_2_778
10
106.9267327
20
27.1006988
40
1.2664067
50
147.309872
51
180.1284149
0
ARC
8
DEFAULT_255_2_778
10
106.9327779
20
27.0962847
40
1.2738785
50
97.3267895
51
147.2896361
0
ARC
8
DEFAULT_255_2_778
10
106.9370516
20
27.0659437
40
1.3045169
50
89.983417
51
97.3430165
0
ARC
8
DEFAULT_255_2_778
10
106.9405067
20
27.0927379
40
1.2777263
50
58.2473537
51
90.138005
0
ARC
8
DEFAULT_255_2_778
10
106.9459525
20
27.1002224
40
1.2684963
50
6.1153717
51
58.2786078
0
ARC
8
DEFAULT_255_2_778
10
106.9207765
20
27.0981231
40
1.2937528
50
359.9883698
51
6.0890382
0
ARC
8
DEFAULT_255_2_778
10
106.9481256
20
27.0950221
40
1.2664067
50
327.309872
51
0.1284149
0
ARC
8
DEFAULT_255_2_778
10
106.9420804
20
27.0994362
40
1.2738785
50
277.3267895
51
327.2896361
0
ARC
8
DEFAULT_255_2_778
10
106.9378067
20
27.1297773
40
1.3045169
50
269.983417
51
277.3430165
0
ARC
8
DEFAULT_255_2_778
10
106.9343516
20
27.102983
40
1.2777263
50
238.2473537
51
270.138005
0
ARC
8
DEFAULT_255_2_778
10
106.9289058
20
27.0954985
40
1.2684963
50
186.1153717
51
238.2786078
0
ARC
8
DEFAULT_255_2_778
10
106.9540818
20
27.0975979
40
1.2937528
50
179.9883698
51
186.0890382
0
LINE
8
DEFAULT_255_2_778
10
107.2086291
20
25.3336605
11
107.2557291
21
25.0264605
0
LINE
8
DEFAULT_255_2_778
10
106.6191291
20
25.0264605
11
106.6662291
21
25.3336605
0
LINE
8
DEFAULT_255_2_778
10
105.4094291
20
27.8667605
11
105.3838291
21
27.8130605
0
LINE
8
DEFAULT_255_2_778
10
105.3838291
20
27.8130605
11
105.3615291
21
27.7614605
0
LINE
8
DEFAULT_255_2_778
10
105.3615291
20
27.7614605
11
105.3435291
21
27.7153605
0
LINE
8
DEFAULT_255_2_778
10
105.3345291
20
27.6891605
11
105.3229291
21
27.5820605
0
LINE
8
DEFAULT_255_2_778
10
107.4234291
20
25.4891605
11
107.5311291
21
25.5008605
0
LINE
8
DEFAULT_255_2_778
10
107.5311291
20
25.5008605
11
107.5573291
21
25.5098605
0
LINE
8
DEFAULT_255_2_778
10
107.5573291
20
25.5098605
11
107.6036291
21
25.5278605
0
LINE
8
DEFAULT_255_2_778
10
107.6036291
20
25.5278605
11
107.6552291
21
25.5500605
0
LINE
8
DEFAULT_255_2_778
10
107.6552291
20
25.5500605
11
107.7089291
21
25.5754605
0
LINE
8
DEFAULT_255_2_778
10
107.7089291
20
25.5754605
11
107.8182291
21
25.6349605
0
LINE
8
DEFAULT_255_2_778
10
107.8182291
20
25.6349605
11
107.9259291
21
25.7048605
0
LINE
8
DEFAULT_255_2_778
10
105.5388291
20
28.0836605
11
105.5391291
21
28.0831605
0
LINE
8
DEFAULT_255_2_778
10
106.6659291
20
25.3336605
11
106.6662291
21
25.3336605
0
LINE
8
DEFAULT_255_2_778
10
107.8338291
20
26.1913605
11
106.0410291
21
26.1913605
0
LINE
8
DEFAULT_255_2_778
10
105.6603291
20
27.0978605
11
105.6603291
21
27.0978605
0
ARC
8
DEFAULT_255_2_778
10
72.3267954
20
31.1614001
40
0.9959314
50
180.007348
51
199.8714328
0
ARC
8
DEFAULT_255_2_778
10
72.3398878
20
31.1666331
40
1.0100231
50
199.8981606
51
224.8691128
0
ARC
8
DEFAULT_255_2_778
10
72.353285
20
31.1832099
40
1.0312152
50
224.9967226
51
253.4976803
0
ARC
8
DEFAULT_255_2_778
10
72.354327
20
31.1994547
40
1.0470835
50
257.6830698
51
269.9144799
0
ARC
8
DEFAULT_255_2_778
10
81.4045564
20
25.1040923
40
1.012493
50
179.933218
51
222.1064852
0
ARC
8
DEFAULT_255_2_778
10
81.4121258
20
25.1075361
40
1.0204209
50
221.9649663
51
267.7137272
0
ARC
8
DEFAULT_255_2_778
10
81.41363
20
25.1294757
40
1.0424032
50
267.6792233
51
270.0018756
0
LINE
8
DEFAULT_255_2_778
10
72.3527641
20
24.0085724
11
72.3523854
21
24.0085723
0
ARC
8
DEFAULT_255_2_778
10
72.3522959
20
25.032286
40
1.0237137
50
225.1377954
51
270.0050055
0
ARC
8
DEFAULT_255_2_778
10
72.3475587
20
25.0270981
40
1.0166947
50
180.0239906
51
225.1207865
0
ARC
8
DEFAULT_255_2_778
10
74.5034702
20
26.5135248
40
1.5216394
50
257.7250225
51
268.7058877
0
ARC
8
DEFAULT_255_2_778
10
74.4982962
20
26.4076472
40
1.4156748
50
268.8184609
51
269.9987003
0
ARC
8
DEFAULT_255_2_778
10
74.4982049
20
26.4087334
40
1.416761
50
270.002393
51
271.5274247
0
ARC
8
DEFAULT_255_2_778
10
74.4925397
20
26.5161696
40
1.5243126
50
271.6326494
51
282.2692042
0
ARC
8
DEFAULT_255_2_778
10
81.2998349
20
25.0292021
40
0.9778741
50
180.1482202
51
193.1657755
0
ARC
8
DEFAULT_255_2_778
10
81.3627221
20
25.0429773
40
1.0424663
50
197.1044709
51
225.1767067
0
ARC
8
DEFAULT_255_2_778
10
81.3485969
20
25.0325826
40
1.0251398
50
225.327127
51
249.9337082
0
ARC
8
DEFAULT_255_2_778
10
81.3433105
20
25.0207236
40
1.0121875
50
249.9844626
51
269.516216
0
LINE
8
DEFAULT_255_2_778
10
72.0603641
20
30.1944724
11
72.1309641
21
30.1764724
0
LINE
8
DEFAULT_255_2_778
10
72.3527641
20
30.1523724
11
80.3219641
21
30.1523724
0
LINE
8
DEFAULT_255_2_778
10
80.3219641
20
30.1523724
11
80.3219641
21
25.0353724
0
LINE
8
DEFAULT_255_2_778
10
80.3219641
20
25.0353724
11
80.3920641
21
25.1052724
0
LINE
8
DEFAULT_255_2_778
10
81.4136641
20
24.0870724
11
81.3347641
21
24.0085724
0
LINE
8
DEFAULT_255_2_778
10
81.3347641
20
24.0085724
11
72.3527641
21
24.0085724
0
LINE
8
DEFAULT_255_2_778
10
71.3308641
20
25.0266724
11
74.1799641
21
25.0266724
0
LINE
8
DEFAULT_255_2_778
10
74.8164641
20
25.0266724
11
80.3219641
21
25.0266724
0
LINE
8
DEFAULT_255_2_778
10
80.3476641
20
24.8064724
11
80.3663641
21
24.7363724
0
LINE
8
DEFAULT_255_2_778
10
71.3308641
20
31.0689724
11
71.0755641
21
31.0689724
0
ARC
8
DEFAULT_255_2_778
10
104.7662995
20
31.1614001
40
0.9959314
50
180.007348
51
199.8714328
0
ARC
8
DEFAULT_255_2_778
10
104.7805228
20
31.1673506
40
1.0113308
50
199.9145768
51
224.852719
0
ARC
8
DEFAULT_255_2_778
10
104.792789
20
31.1832099
40
1.0312152
50
224.9967226
51
253.4976803
0
ARC
8
DEFAULT_255_2_778
10
104.793831
20
31.1994547
40
1.0470835
50
257.6830698
51
269.9144799
0
ARC
8
DEFAULT_255_2_778
10
113.8440604
20
25.1040923
40
1.012493
50
179.933218
51
222.1064852
0
ARC
8
DEFAULT_255_2_778
10
113.8516298
20
25.1075361
40
1.0204209
50
221.9649663
51
267.7137272
0
ARC
8
DEFAULT_255_2_778
10
113.853134
20
25.1294757
40
1.0424032
50
267.6792233
51
270.0018756
0
LINE
8
DEFAULT_255_2_778
10
104.7922681
20
24.0085724
11
104.7918894
21
24.0085723
0
ARC
8
DEFAULT_255_2_778
10
104.7918
20
25.032286
40
1.0237137
50
225.1377954
51
270.0050055
0
ARC
8
DEFAULT_255_2_778
10
104.7870627
20
25.0270981
40
1.0166947
50
180.0239906
51
225.1207865
0
ARC
8
DEFAULT_255_2_778
10
106.9429742
20
26.5135248
40
1.5216394
50
257.7250225
51
268.7058877
0
ARC
8
DEFAULT_255_2_778
10
106.9378002
20
26.4076472
40
1.4156748
50
268.8184609
51
269.9987003
0
ARC
8
DEFAULT_255_2_778
10
106.9377026
20
26.4090273
40
1.4170549
50
270.0026496
51
271.573593
0
ARC
8
DEFAULT_255_2_778
10
106.931861
20
26.5185144
40
1.5266638
50
271.6799052
51
282.2608711
0
ARC
8
DEFAULT_255_2_778
10
113.739339
20
25.0292021
40
0.9778741
50
180.1482202
51
193.1657755
0
ARC
8
DEFAULT_255_2_778
10
113.80126
20
25.0421633
40
1.041208
50
197.0789182
51
225.1828436
0
ARC
8
DEFAULT_255_2_778
10
113.7877894
20
25.0322412
40
1.024678
50
225.3260994
51
249.9487784
0
ARC
8
DEFAULT_255_2_778
10
113.782731
20
25.0196948
40
1.011158
50
249.9742835
51
269.5204591
0
LINE
8
DEFAULT_255_2_778
10
104.4998681
20
30.1944724
11
104.5704681
21
30.1764724
0
LINE
8
DEFAULT_255_2_778
10
104.7922681
20
30.1523724
11
112.7614681
21
30.1523724
0
LINE
8
DEFAULT_255_2_778
10
112.7614681
20
30.1523724
11
112.7614681
21
25.0353724
0
LINE
8
DEFAULT_255_2_778
10
112.7614681
20
25.0353724
11
112.8315681
21
25.1052724
0
LINE
8
DEFAULT_255_2_778
10
113.8531681
20
24.0870724
11
113.7742681
21
24.0085724
0
LINE
8
DEFAULT_255_2_778
10
113.7742681
20
24.0085724
11
104.7922681
21
24.0085724
0
LINE
8
DEFAULT_255_2_778
10
103.7703681
20
25.0266724
11
106.6194681
21
25.0266724
0
LINE
8
DEFAULT_255_2_778
10
107.2560681
20
25.0266724
11
112.7614681
21
25.0266724
0
LINE
8
DEFAULT_255_2_778
10
112.7871681
20
24.8064724
11
112.8059681
21
24.7363724
0
LINE
8
DEFAULT_255_2_778
10
103.7703681
20
31.0689724
11
103.5150681
21
31.0689724
0
ARC
8
DEFAULT_255_2_778
10
100.3232446
20
83.9075763
40
3.0410284
50
179.9411563
51
198.7087165
0
ARC
8
DEFAULT_255_2_778
10
100.3455568
20
83.922965
40
3.0671068
50
198.8473053
51
256.1869332
0
ARC
8
DEFAULT_255_2_778
10
100.3452645
20
83.9393453
40
3.0829466
50
256.2648898
51
270.0400168
0
ARC
8
DEFAULT_255_2_778
10
96.1854428
20
78.276491
40
5.8025089
50
86.1344852
51
89.978524
0
ARC
8
DEFAULT_255_2_778
10
96.2949177
20
79.899654
40
4.1756584
50
83.2869472
51
86.13175
0
ARC
8
DEFAULT_255_2_778
10
96.4300037
20
81.0837688
40
2.9838737
50
80.804888
51
83.2051559
0
ARC
8
DEFAULT_255_2_778
10
96.7331197
20
82.8367328
40
1.2051498
50
70.8219262
51
81.7131083
0
ARC
8
DEFAULT_255_2_778
10
97.0677106
20
83.7880189
40
0.1967747
50
52.1990477
51
71.8467132
0
ARC
8
DEFAULT_255_2_778
10
97.1612528
20
83.9026804
40
0.0489766
50
9.779602
51
56.4538366
0
ARC
8
DEFAULT_255_2_778
10
100.2219216
20
83.9050873
40
3.0124097
50
179.8875503
51
180.0019018
0
ARC
8
DEFAULT_255_2_778
10
100.3302611
20
83.9058581
40
3.1207493
50
180.015988
51
225.0767929
0
ARC
8
DEFAULT_255_2_778
10
100.3465122
20
83.9218412
40
3.143542
50
225.0727835
51
270.0013001
0
LINE
8
DEFAULT_255_2_778
10
100.3465835
20
80.7782993
11
100.3477177
21
80.7782995
0
ARC
8
DEFAULT_255_2_778
10
102.4949429
20
79.7584195
40
1.0198815
50
49.9339593
51
90.096917
0
ARC
8
DEFAULT_255_2_778
10
102.5004187
20
79.7607301
40
1.0145921
50
1.8239453
51
50.0866226
0
ARC
8
DEFAULT_255_2_778
10
102.4825749
20
79.7602214
40
1.0324429
50
359.9987828
51
1.8206427
0
ARC
8
DEFAULT_255_2_778
10
103.4759145
20
79.7536722
40
0.0396442
50
9.4765838
51
60.8621588
0
ARC
8
DEFAULT_255_2_778
10
103.3821412
20
79.6200605
40
0.2027083
50
56.0942236
51
74.2930815
0
ARC
8
DEFAULT_255_2_778
10
103.1443485
20
78.9094605
40
0.9518499
50
72.0929231
51
81.6413658
0
ARC
8
DEFAULT_255_2_778
10
102.780502
20
76.7964475
40
3.09576
50
80.6638196
51
84.8067088
0
ARC
8
DEFAULT_255_2_778
10
102.5253283
20
73.9651304
40
5.9385523
50
84.8274826
51
90.0053423
0
ARC
8
DEFAULT_255_2_778
10
102.5247746
20
73.919045
40
5.9846378
50
90.000001
51
90.3021212
0
ARC
8
DEFAULT_255_2_778
10
102.49142
20
79.8139468
40
1.0426542
50
77.6054536
51
89.9012107
0
ARC
8
DEFAULT_255_2_778
10
102.4921204
20
79.8248192
40
1.0321479
50
45.0032564
51
73.4680709
0
ARC
8
DEFAULT_255_2_778
10
102.5069738
20
79.8434682
40
1.0084616
50
19.8499527
51
44.8508478
0
ARC
8
DEFAULT_255_2_778
10
102.5148865
20
79.846966
40
0.9998315
50
0.0191082
51
19.8153861
0
ARC
8
DEFAULT_255_2_778
10
102.4989422
20
86.0490557
40
1.0157755
50
0.0024706
51
45.1343439
0
ARC
8
DEFAULT_255_2_778
10
102.4933481
20
86.0436385
40
1.0235612
50
45.1263207
51
90.0029005
0
LINE
8
DEFAULT_255_2_778
10
102.4932963
20
87.0671995
11
102.4929177
21
87.0671995
0
ARC
8
DEFAULT_255_2_778
10
67.8840446
20
83.9075763
40
3.0410284
50
179.9411563
51
198.7087165
0
ARC
8
DEFAULT_255_2_778
10
67.9063568
20
83.922965
40
3.0671068
50
198.8473053
51
256.1869332
0
ARC
8
DEFAULT_255_2_778
10
67.9060645
20
83.9393453
40
3.0829466
50
256.2648898
51
270.0400168
0
ARC
8
DEFAULT_255_2_778
10
63.7463199
20
78.2817262
40
5.7972737
50
86.1327434
51
89.9792665
0
ARC
8
DEFAULT_255_2_778
10
63.8739321
20
80.110399
40
3.96416
50
82.5920668
51
86.1903629
0
ARC
8
DEFAULT_255_2_778
10
64.0062043
20
81.1889896
40
2.8775285
50
80.7747708
51
82.4348138
0
ARC
8
DEFAULT_255_2_778
10
64.2942152
20
82.8376221
40
1.2042128
50
70.8213057
51
81.7256309
0
ARC
8
DEFAULT_255_2_778
10
64.6279452
20
83.786955
40
0.197962
50
52.2585027
51
71.7871729
0
ARC
8
DEFAULT_255_2_778
10
64.7220754
20
83.9028433
40
0.0488284
50
9.6155515
51
56.3701954
0
ARC
8
DEFAULT_255_2_778
10
67.7810403
20
83.9050888
40
3.0108284
50
179.8875212
51
180.0018997
0
ARC
8
DEFAULT_255_2_778
10
67.8910612
20
83.9059994
40
3.1208494
50
180.0185501
51
225.0786243
0
ARC
8
DEFAULT_255_2_778
10
67.9072159
20
83.9216085
40
3.1433093
50
225.0710297
51
270.0012343
0
LINE
8
DEFAULT_255_2_778
10
67.9072836
20
80.7782993
11
67.9084177
21
80.7782995
0
ARC
8
DEFAULT_255_2_778
10
70.0557429
20
79.7584195
40
1.0198815
50
49.9339593
51
90.096917
0
ARC
8
DEFAULT_255_2_778
10
70.0612187
20
79.7607301
40
1.0145921
50
1.8239453
51
50.0866226
0
ARC
8
DEFAULT_255_2_778
10
70.0433749
20
79.7602214
40
1.0324429
50
359.9987828
51
1.8206427
0
ARC
8
DEFAULT_255_2_778
10
71.0368489
20
79.7536988
40
0.0395074
50
9.4706256
51
61.1402385
0
ARC
8
DEFAULT_255_2_778
10
70.9433619
20
79.6211866
40
0.2014833
50
56.0384718
51
74.3489245
0
ARC
8
DEFAULT_255_2_778
10
70.7057882
20
78.913013
40
0.9482422
50
72.0694547
51
81.6484058
0
ARC
8
DEFAULT_255_2_778
10
70.3412996
20
76.7964284
40
3.0957793
50
80.6638333
51
84.8066967
0
ARC
8
DEFAULT_255_2_778
10
70.0861283
20
73.9651304
40
5.9385523
50
84.8274826
51
90.0053423
0
ARC
8
DEFAULT_255_2_778
10
70.0855746
20
73.919045
40
5.9846378
50
90.000001
51
90.3021212
0
ARC
8
DEFAULT_255_2_778
10
70.0522201
20
79.8148654
40
1.0417356
50
77.5999875
51
89.9011301
0
ARC
8
DEFAULT_255_2_778
10
70.0529598
20
79.8251664
40
1.0318038
50
44.9950958
51
73.4646803
0
ARC
8
DEFAULT_255_2_778
10
70.0688016
20
79.8441825
40
1.0071583
50
19.8335143
51
44.8672858
0
ARC
8
DEFAULT_255_2_778
10
70.0755903
20
79.8466717
40
0.9999277
50
0.0359702
51
19.8313259
0
LINE
8
DEFAULT_255_2_778
10
100.3477177
20
80.7782995
11
102.4932177
21
80.7782995
0
LINE
8
DEFAULT_255_2_778
10
102.4932177
20
79.9035995
11
100.3477177
21
79.9035995
0
LINE
8
DEFAULT_255_2_778
10
100.3477177
20
79.9035995
11
100.3477177
21
80.8565995
0
LINE
8
DEFAULT_255_2_778
10
100.3477177
20
80.8565995
11
102.4932177
21
80.8565995
0
LINE
8
DEFAULT_255_2_778
10
102.7152177
20
80.8322995
11
102.7858177
21
80.8142995
0
LINE
8
DEFAULT_255_2_778
10
103.2303177
20
86.7538995
11
104.0548177
21
86.7538995
0
LINE
8
DEFAULT_255_2_778
10
67.9084177
20
80.7782995
11
70.0540177
21
80.7782995
0
LINE
8
DEFAULT_255_2_778
10
70.0540177
20
79.9035995
11
67.9084177
21
79.9035995
0
LINE
8
DEFAULT_255_2_778
10
67.9084177
20
79.9035995
11
67.9084177
21
80.8565995
0
LINE
8
DEFAULT_255_2_778
10
67.9084177
20
80.8565995
11
70.0540177
21
80.8565995
0
LINE
8
DEFAULT_255_2_778
10
70.2759177
20
80.8322995
11
70.3466177
21
80.8142995
0
LINE
8
DEFAULT_255_2_778
10
70.7911177
20
86.7538995
11
71.6155177
21
86.7538995
0
ARC
8
DEFAULT_255_2_778
10
39.8875779
20
31.1615023
40
0.9959314
50
180.007348
51
199.8714328
0
ARC
8
DEFAULT_255_2_778
10
39.901061
20
31.1667899
40
1.0104091
50
199.8935299
51
224.859693
0
ARC
8
DEFAULT_255_2_778
10
39.9138175
20
31.1831739
40
1.0310115
50
225.0050434
51
253.5088154
0
ARC
8
DEFAULT_255_2_778
10
39.9150089
20
31.1986253
40
1.0461519
50
257.677562
51
269.9144294
0
ARC
8
DEFAULT_255_2_778
10
48.9652264
20
25.1041248
40
1.0123806
50
179.9349321
51
222.1080887
0
ARC
8
DEFAULT_255_2_778
10
48.9728526
20
25.1075623
40
1.0203464
50
221.964145
51
267.71148
0
ARC
8
DEFAULT_255_2_778
10
48.9743124
20
25.1292186
40
1.0420439
50
267.6788257
51
270.0018755
0
LINE
8
DEFAULT_255_2_778
10
39.9134465
20
24.0085746
11
39.9130682
21
24.0085745
0
ARC
8
DEFAULT_255_2_778
10
39.9132632
20
25.0327344
40
1.0241599
50
225.140162
51
269.9890943
0
ARC
8
DEFAULT_255_2_778
10
39.9074227
20
25.0267188
40
1.0157761
50
180.0024948
51
225.1343354
0
ARC
8
DEFAULT_255_2_778
10
42.062531
20
26.5064464
40
1.5143759
50
257.7280187
51
269.8643825
0
ARC
8
DEFAULT_255_2_778
10
42.0554401
20
26.5057277
40
1.5136572
50
270.1327248
51
282.2748743
0
ARC
8
DEFAULT_255_2_778
10
48.8654137
20
25.0294305
40
0.9826711
50
180.160686
51
193.1079152
0
ARC
8
DEFAULT_255_2_778
10
48.9242035
20
25.0431607
40
1.0431582
50
197.0974441
51
225.152598
0
ARC
8
DEFAULT_255_2_778
10
48.91092
20
25.0353234
40
1.0282412
50
225.3694054
51
249.9054314
0
ARC
8
DEFAULT_255_2_778
10
48.9045466
20
25.0232379
40
1.0147033
50
250.0089452
51
269.4917977
0
ARC
8
DEFAULT_255_2_778
10
63.8283315
20
86.0542426
40
1.0133338
50
26.3159559
51
89.8917244
0
ARC
8
DEFAULT_255_2_778
10
63.8077157
20
86.0460321
40
1.0354545
50
3.481988
51
26.2174681
0
ARC
8
DEFAULT_255_2_778
10
63.8464935
20
86.0492536
40
0.9965529
50
0.0069528
51
3.4325196
0
ARC
8
DEFAULT_255_2_778
10
64.7203884
20
86.0414292
40
0.053353
50
8.5643585
51
53.6033959
0
ARC
8
DEFAULT_255_2_778
10
64.6266256
20
85.9338385
40
0.1959376
50
50.2002299
51
70.1846349
0
ARC
8
DEFAULT_255_2_778
10
64.313707
20
85.1259065
40
1.0623061
50
69.0783743
51
81.0476623
0
ARC
8
DEFAULT_255_2_778
10
64.0491062
20
83.7563876
40
2.4567911
50
79.9220338
51
80.1107373
0
ARC
8
DEFAULT_255_2_778
10
63.9128229
20
82.8999839
40
3.3239006
50
80.3317969
51
86.0715342
0
ARC
8
DEFAULT_255_2_778
10
39.0330994
20
85.9420703
40
0.1879212
50
109.8962429
51
130.5432547
0
ARC
8
DEFAULT_255_2_778
10
38.9431044
20
86.0439115
40
0.0520778
50
128.1335589
51
173.6465301
0
ARC
8
DEFAULT_255_2_778
10
70.0567701
20
24.9621981
40
1.0210271
50
269.8471632
51
308.0129449
0
ARC
8
DEFAULT_255_2_778
10
70.0621397
20
24.9569961
40
1.0136225
50
307.954895
51
356.6958403
0
ARC
8
DEFAULT_255_2_778
10
70.0361194
20
24.9592066
40
1.0397272
50
356.6568759
51
0.0037459
0
ARC
8
DEFAULT_255_2_778
10
63.7614121
20
86.0500707
40
1.0123351
50
359.9323007
51
42.1099262
0
ARC
8
DEFAULT_255_2_778
10
63.753719
20
86.0464722
40
1.0204583
50
41.9701736
51
87.7157349
0
ARC
8
DEFAULT_255_2_778
10
63.7521806
20
86.0245714
40
1.0424032
50
87.6792235
51
90.0018756
0
LINE
8
DEFAULT_255_2_778
10
63.7489465
20
84.0787746
11
63.7489464
21
84.0780003
0
ARC
8
DEFAULT_255_2_778
10
67.9570616
20
84.0782754
40
4.2081152
50
180.0037461
51
202.104494
0
ARC
8
DEFAULT_255_2_778
10
67.924888
20
84.0730181
40
4.1763344
50
202.2037639
51
224.6003386
0
ARC
8
DEFAULT_255_2_778
10
67.9171275
20
84.0694912
40
4.1683334
50
224.6407211
51
247.2136142
0
ARC
8
DEFAULT_255_2_778
10
67.9176062
20
84.0949894
40
4.1920375
50
247.3425573
51
267.1198345
0
ARC
8
DEFAULT_255_2_778
10
67.9105232
20
83.9895698
40
4.0863957
50
267.144749
51
269.9750881
0
ARC
8
DEFAULT_255_2_778
10
39.9125213
20
31.2498546
40
1.0198815
50
229.9339593
51
270.096917
0
ARC
8
DEFAULT_255_2_778
10
39.9070456
20
31.2475439
40
1.0145921
50
181.8239453
51
230.0866226
0
ARC
8
DEFAULT_255_2_778
10
39.9248894
20
31.2480526
40
1.0324429
50
179.9987828
51
181.8206427
0
ARC
8
DEFAULT_255_2_778
10
38.9313807
20
31.2546057
40
0.0394782
50
189.5226361
51
241.008575
0
ARC
8
DEFAULT_255_2_778
10
39.0268461
20
31.390875
40
0.2056838
50
236.1401292
51
254.0853655
0
ARC
8
DEFAULT_255_2_778
10
39.2680053
20
32.1197705
40
0.9732968
50
252.1983578
51
261.5359255
0
ARC
8
DEFAULT_255_2_778
10
39.8849614
20
37.1095867
40
6.0049803
50
264.8577884
51
270.0053829
0
ARC
8
DEFAULT_255_2_778
10
39.8855673
20
37.1346779
40
6.0300716
50
269.9996032
51
270.2725013
0
ARC
8
DEFAULT_255_2_778
10
70.0563141
20
25.1062385
40
1.0198655
50
269.9006946
51
309.8085228
0
ARC
8
DEFAULT_255_2_778
10
70.0616793
20
25.1039289
40
1.0146599
50
309.6592915
51
358.1672872
0
ARC
8
DEFAULT_255_2_778
10
70.0433863
20
25.104458
40
1.0329603
50
358.1704064
51
0.0009204
0
ARC
8
DEFAULT_255_2_778
10
71.0271065
20
25.1095756
40
0.0495035
50
309.1290033
51
354.0855173
0
ARC
8
DEFAULT_255_2_778
10
70.9413695
20
25.2026905
40
0.1760116
50
291.4540196
51
311.6515258
0
ARC
8
DEFAULT_255_2_778
10
70.7020274
20
25.7596497
40
0.7821522
50
281.1550658
51
292.849505
0
ARC
8
DEFAULT_255_2_778
10
70.3483443
20
27.3789336
40
2.4395017
50
276.6357703
51
281.9472115
0
ARC
8
DEFAULT_255_2_778
10
48.4225306
20
26.065315
40
1.1002096
50
249.3229551
51
261.2965475
0
ARC
8
DEFAULT_255_2_778
10
48.1008263
20
25.221837
40
0.1974953
50
230.4408252
51
250.2367943
0
ARC
8
DEFAULT_255_2_778
10
48.0062463
20
25.1124159
40
0.0529982
50
188.6177115
51
233.9354528
0
ARC
8
DEFAULT_255_2_778
10
70.061071
20
86.0488308
40
1.0157755
50
0.0024706
51
45.1343439
0
ARC
8
DEFAULT_255_2_778
10
70.0554046
20
86.0432383
40
1.0237364
50
45.1303717
51
89.9988534
0
LINE
8
DEFAULT_255_2_778
10
70.0554251
20
87.0669746
11
70.0550465
21
87.0669746
0
ARC
8
DEFAULT_255_2_778
10
39.9107229
20
24.9621981
40
1.0210271
50
231.9870551
51
270.1528368
0
ARC
8
DEFAULT_255_2_778
10
39.9053533
20
24.9569961
40
1.0136225
50
183.3041597
51
232.045105
0
ARC
8
DEFAULT_255_2_778
10
39.9313736
20
24.9592066
40
1.0397272
50
179.9962541
51
183.3431241
0
ARC
8
DEFAULT_255_2_778
10
39.907422
20
86.0488306
40
1.0157755
50
134.8656482
51
179.9975181
0
ARC
8
DEFAULT_255_2_778
10
39.9130884
20
86.0432383
40
1.0237364
50
90.0011466
51
134.8696283
0
LINE
8
DEFAULT_255_2_778
10
39.9130679
20
87.0669746
11
39.9134465
21
87.0669746
0
ARC
8
DEFAULT_255_2_778
10
96.267944
20
86.0538232
40
1.013153
50
26.3096196
51
89.8980632
0
ARC
8
DEFAULT_255_2_778
10
96.2476785
20
86.0455353
40
1.0349938
50
3.6746849
51
26.2236615
0
ARC
8
DEFAULT_255_2_778
10
96.2861375
20
86.0487345
40
0.996409
50
0.0080526
51
3.632837
0
ARC
8
DEFAULT_255_2_778
10
97.1599202
20
86.0406742
40
0.0534589
50
8.8237224
51
53.7294418
0
ARC
8
DEFAULT_255_2_778
10
97.0657686
20
85.9331613
40
0.1962254
50
50.1345756
51
70.1041184
0
ARC
8
DEFAULT_255_2_778
10
96.7518186
20
85.120021
40
1.0678326
50
69.1119763
51
81.0189579
0
ARC
8
DEFAULT_255_2_778
10
96.4585332
20
83.6026519
40
2.6129167
50
79.8607187
51
80.0381842
0
ARC
8
DEFAULT_255_2_778
10
96.3523322
20
82.8995625
40
3.3238216
50
80.3317279
51
86.0716017
0
ARC
8
DEFAULT_255_2_778
10
71.4712642
20
85.9433464
40
0.1857037
50
109.7058617
51
130.5864088
0
ARC
8
DEFAULT_255_2_778
10
71.3826047
20
86.0434113
40
0.0520782
50
128.133724
51
173.6463277
0
ARC
8
DEFAULT_255_2_778
10
102.4960026
20
24.9622281
40
1.0210573
50
269.8453429
51
307.9264522
0
ARC
8
DEFAULT_255_2_778
10
102.5013481
20
24.9569538
40
1.0136118
50
307.8713566
51
356.6924423
0
ARC
8
DEFAULT_255_2_778
10
102.4751495
20
24.9592057
40
1.0398971
50
356.6518577
51
0.0037957
0
ARC
8
DEFAULT_255_2_778
10
96.2005714
20
86.0500661
40
1.0123758
50
359.9325646
51
42.108194
0
ARC
8
DEFAULT_255_2_778
10
96.1929803
20
86.0465913
40
1.0203406
50
41.9671237
51
87.7137051
0
ARC
8
DEFAULT_255_2_778
10
96.1914806
20
86.0249307
40
1.0420439
50
87.6788258
51
90.0018755
0
LINE
8
DEFAULT_255_2_778
10
96.1882465
20
84.0787746
11
96.1882464
21
84.0779996
0
ARC
8
DEFAULT_255_2_778
10
100.3944101
20
84.0778937
40
4.2061637
50
179.9985569
51
202.1096792
0
ARC
8
DEFAULT_255_2_778
10
100.3614464
20
84.0712098
40
4.1731128
50
202.1950033
51
224.6090921
0
ARC
8
DEFAULT_255_2_778
10
100.3568688
20
84.069967
40
4.1689817
50
224.6411128
51
247.2092887
0
ARC
8
DEFAULT_255_2_778
10
100.3569003
20
84.0954504
40
4.1924992
50
247.343797
51
267.0872465
0
ARC
8
DEFAULT_255_2_778
10
100.3498326
20
83.9903654
40
4.0871911
50
267.1113394
51
269.9749622
0
ARC
8
DEFAULT_255_2_778
10
72.3514789
20
31.2501385
40
1.0198655
50
230.1914772
51
270.0993054
0
ARC
8
DEFAULT_255_2_778
10
72.3461137
20
31.2478289
40
1.0146599
50
181.8327128
51
230.3407085
0
ARC
8
DEFAULT_255_2_778
10
72.3644067
20
31.248358
40
1.0329603
50
179.9990796
51
181.8295936
0
ARC
8
DEFAULT_255_2_778
10
71.3702089
20
31.2547844
40
0.0392888
50
189.3895909
51
241.1419444
0
ARC
8
DEFAULT_255_2_778
10
71.4658485
20
31.3911781
40
0.2056877
50
236.1400473
51
254.0849524
0
ARC
8
DEFAULT_255_2_778
10
71.7045405
20
32.1095061
40
0.962485
50
252.1457963
51
261.5884912
0
ARC
8
DEFAULT_255_2_778
10
72.3227121
20
37.0785327
40
5.9736408
50
264.8427687
51
269.9930964
0
ARC
8
DEFAULT_255_2_778
10
72.3219917
20
37.0325168
40
5.9276247
50
270.0000064
51
270.302107
0
ARC
8
DEFAULT_255_2_778
10
102.4952716
20
25.1065546
40
1.0198815
50
269.903083
51
310.0660407
0
ARC
8
DEFAULT_255_2_778
10
102.5007474
20
25.1042439
40
1.0145921
50
309.9133774
51
358.1760547
0
ARC
8
DEFAULT_255_2_778
10
102.4829036
20
25.1047526
40
1.0324429
50
358.1793573
51
0.0012172
0
ARC
8
DEFAULT_255_2_778
10
103.4661076
20
25.1098754
40
0.0495024
50
309.1281829
51
354.0855758
0
ARC
8
DEFAULT_255_2_778
10
103.3819062
20
25.2006827
40
0.1732663
50
291.2294076
51
311.7790076
0
ARC
8
DEFAULT_255_2_778
10
103.142155
20
25.755935
40
0.777976
50
281.1235698
51
292.881006
0
ARC
8
DEFAULT_255_2_778
10
102.7883888
20
27.3714822
40
2.4316814
50
276.6324299
51
281.958637
0
ARC
8
DEFAULT_255_2_778
10
80.8610835
20
26.0639135
40
1.0984601
50
249.3134399
51
261.3061743
0
ARC
8
DEFAULT_255_2_778
10
80.5371198
20
25.2173849
40
0.1921103
50
230.1605056
51
250.517202
0
ARC
8
DEFAULT_255_2_778
10
80.4446838
20
25.112374
40
0.0523913
50
188.3402583
51
234.2126198
0
ARC
8
DEFAULT_255_2_778
10
72.3510229
20
24.9623981
40
1.0210271
50
231.9870551
51
270.1528368
0
ARC
8
DEFAULT_255_2_778
10
72.3456533
20
24.9571961
40
1.0136225
50
183.3041597
51
232.045105
0
ARC
8
DEFAULT_255_2_778
10
72.3716736
20
24.9594066
40
1.0397272
50
179.9962541
51
183.3431241
0
ARC
8
DEFAULT_255_2_778
10
72.347722
20
86.0488308
40
1.0157755
50
134.8656561
51
179.9975294
0
ARC
8
DEFAULT_255_2_778
10
72.3533884
20
86.0432383
40
1.0237364
50
90.0011466
51
134.8696283
0
LINE
8
DEFAULT_255_2_778
10
72.3533679
20
87.0669746
11
72.3537465
21
87.0669746
0
ARC
8
DEFAULT_255_2_778
10
132.7627733
20
83.9076514
40
3.0410284
50
179.9411563
51
198.7087165
0
ARC
8
DEFAULT_255_2_778
10
132.7850855
20
83.9230401
40
3.0671068
50
198.8473053
51
256.1869332
0
ARC
8
DEFAULT_255_2_778
10
132.7847933
20
83.9394204
40
3.0829466
50
256.2648898
51
270.0400168
0
ARC
8
DEFAULT_255_2_778
10
128.6226845
20
78.2091227
40
5.8699536
50
86.1565914
51
89.9564466
0
ARC
8
DEFAULT_255_2_778
10
128.7344465
20
79.8997291
40
4.1756584
50
83.2869472
51
86.13175
0
ARC
8
DEFAULT_255_2_778
10
128.8695325
20
81.0838439
40
2.9838737
50
80.804888
51
83.2051559
0
ARC
8
DEFAULT_255_2_778
10
129.1726485
20
82.8368079
40
1.2051498
50
70.8219262
51
81.7131083
0
ARC
8
DEFAULT_255_2_778
10
129.5072393
20
83.788094
40
0.1967747
50
52.1990477
51
71.8467132
0
ARC
8
DEFAULT_255_2_778
10
129.601104
20
83.9029659
40
0.0486233
50
9.5997678
51
56.6334322
0
ARC
8
DEFAULT_255_2_778
10
132.6614504
20
83.9051624
40
3.0124097
50
179.8875503
51
180.0019018
0
ARC
8
DEFAULT_255_2_778
10
132.7697899
20
83.9059332
40
3.1207493
50
180.015988
51
225.0767929
0
ARC
8
DEFAULT_255_2_778
10
132.786113
20
83.922091
40
3.1437166
50
225.0741016
51
269.9999885
0
LINE
8
DEFAULT_255_2_778
10
132.7861124
20
80.7783744
11
132.7872465
21
80.7783746
0
ARC
8
DEFAULT_255_2_778
10
134.9337985
20
80.1636406
40
0.6147348
50
89.9673316
51
90.0980505
0
ARC
8
DEFAULT_255_2_778
10
134.9340604
20
79.7570622
40
1.0213133
50
18.3311825
51
89.9950291
0
ARC
8
DEFAULT_255_2_778
10
135.6457865
20
87.7476231
40
0.5293662
50
271.2079867
51
318.6616692
0
ARC
8
DEFAULT_255_2_778
10
135.6592454
20
87.7312479
40
0.5084564
50
319.045385
51
358.5830164
0
ARC
8
DEFAULT_255_2_778
10
128.6397327
20
86.0508494
40
1.0124145
50
359.9335096
51
42.1044292
0
ARC
8
DEFAULT_255_2_778
10
128.6321999
20
86.0474362
40
1.020295
50
41.9630153
51
87.7143058
0
ARC
8
DEFAULT_255_2_778
10
128.6306806
20
86.0253758
40
1.0423986
50
87.6792246
51
90.0018768
0
LINE
8
DEFAULT_255_2_778
10
128.6274465
20
84.0795746
11
128.6274464
21
84.0787996
0
ARC
8
DEFAULT_255_2_778
10
132.8336101
20
84.0786937
40
4.2061637
50
179.9985569
51
202.1096792
0
ARC
8
DEFAULT_255_2_778
10
132.8020158
20
84.0729132
40
4.1747221
50
202.1993824
51
224.604719
0
ARC
8
DEFAULT_255_2_778
10
132.7956275
20
84.0702912
40
4.1683334
50
224.6407211
51
247.2136142
0
ARC
8
DEFAULT_255_2_778
10
132.7961062
20
84.0957894
40
4.1920375
50
247.3425573
51
267.1198345
0
ARC
8
DEFAULT_255_2_778
10
132.7890232
20
83.9903698
40
4.0863957
50
267.144749
51
269.9750881
0
ARC
8
DEFAULT_255_2_778
10
134.9526064
20
79.846338
40
1.0021756
50
18.4000489
51
33.630281
0
ARC
8
DEFAULT_255_2_778
10
134.9415337
20
79.839795
40
1.015019
50
33.5916413
51
62.7143044
0
ARC
8
DEFAULT_255_2_778
10
134.9331949
20
79.8248535
40
1.0321208
50
62.6831447
51
90.0082411
0
ARC
8
DEFAULT_255_2_778
10
134.9489577
20
73.5110515
40
6.3929429
50
90.000724
51
90.1426023
0
ARC
8
DEFAULT_255_2_778
10
134.9483134
20
73.4875909
40
6.4164033
50
85.8258996
51
89.9949674
0
ARC
8
DEFAULT_255_2_778
10
135.0895701
20
75.5187618
40
4.3804002
50
83.5538932
51
83.889512
0
ARC
8
DEFAULT_255_2_778
10
135.3661026
20
77.8231878
40
2.0595596
50
78.2888822
51
84.0009455
0
ARC
8
DEFAULT_255_2_778
10
134.9365855
20
24.9609022
40
1.0187343
50
270.0076972
51
347.1348989
0
ARC
8
DEFAULT_255_2_778
10
134.9366689
20
24.9359978
40
0.9938298
50
269.791164
51
270.0030833
0
ARC
8
DEFAULT_255_2_778
10
128.7071514
20
86.0536741
40
1.0133021
50
26.3148556
51
89.8984982
0
ARC
8
DEFAULT_255_2_778
10
128.6873672
20
86.0458899
40
1.0344883
50
3.6567999
51
26.2155541
0
ARC
8
DEFAULT_255_2_778
10
128.7231464
20
86.048744
40
0.9986001
50
0.0074921
51
3.6243113
0
ARC
8
DEFAULT_255_2_778
10
129.5998387
20
86.0411107
40
0.052683
50
8.4745525
51
54.0786118
0
ARC
8
DEFAULT_255_2_778
10
129.5055793
20
85.9342242
40
0.1950183
50
50.0721247
51
70.1665548
0
ARC
8
DEFAULT_255_2_778
10
129.1943296
20
85.1311113
40
1.056291
50
69.0652869
51
80.9157953
0
ARC
8
DEFAULT_255_2_778
10
128.9033623
20
83.6346393
40
2.580438
50
79.7823004
51
80.0384203
0
ARC
8
DEFAULT_255_2_778
10
128.7916989
20
82.9015387
40
3.3218454
50
80.3288382
51
86.0704147
0
ARC
8
DEFAULT_255_2_778
10
128.6304167
20
80.8773561
40
5.352368
50
85.8329296
51
88.8102535
0
ARC
8
DEFAULT_255_2_778
10
128.6172929
20
80.376112
40
5.8537771
50
88.7836952
51
89.8722333
0
ARC
8
DEFAULT_255_2_778
10
104.7836544
20
80.686442
40
5.5434388
50
89.914295
51
89.9985948
0
ARC
8
DEFAULT_255_2_778
10
104.7837626
20
80.9128715
40
5.3170093
50
89.9997004
51
94.1298565
0
ARC
8
DEFAULT_255_2_778
10
104.6206965
20
82.9273071
40
3.2961076
50
93.8244615
51
99.6293068
0
ARC
8
DEFAULT_255_2_778
10
103.9099963
20
85.9443243
40
0.1845917
50
109.6422656
51
130.6500203
0
ARC
8
DEFAULT_255_2_778
10
103.8215365
20
86.0436165
40
0.0516896
50
127.9531022
51
173.8272363
0
ARC
8
DEFAULT_255_2_778
10
104.7892229
20
24.9623981
40
1.0210271
50
231.9870551
51
270.1528368
0
ARC
8
DEFAULT_255_2_778
10
104.7838533
20
24.9571961
40
1.0136225
50
183.3041597
51
232.045105
0
ARC
8
DEFAULT_255_2_778
10
104.8098736
20
24.9594066
40
1.0397272
50
179.9962541
51
183.3431241
0
ARC
8
DEFAULT_255_2_778
10
104.7859214
20
86.0488309
40
1.0157749
50
134.8656357
51
179.9975366
0
ARC
8
DEFAULT_255_2_778
10
104.7915884
20
86.0432383
40
1.0237364
50
90.0011466
51
134.8696283
0
LINE
8
DEFAULT_255_2_778
10
104.7915679
20
87.0669746
11
104.7919465
21
87.0669746
0
ARC
8
DEFAULT_255_2_778
10
135.8374064
20
25.1777307
40
0.1453351
50
294.9647089
51
316.1106557
0
ARC
8
DEFAULT_255_2_778
10
135.4060535
20
26.4053429
40
1.450339
50
277.5791311
51
286.7958275
0
ARC
8
DEFAULT_255_2_778
10
135.0470482
20
28.7833782
40
3.8551812
50
273.5691673
51
278.2065755
0
ARC
8
DEFAULT_255_2_778
10
134.9394434
20
30.3707204
40
5.4461502
50
269.92639
51
273.6594179
0
ARC
8
DEFAULT_255_2_778
10
113.8665308
20
31.0913577
40
6.1667977
50
268.8420656
51
269.875646
0
ARC
8
DEFAULT_255_2_778
10
113.8434239
20
30.1642811
40
5.2394451
50
265.8498897
51
268.8898258
0
ARC
8
DEFAULT_255_2_778
10
113.7274575
20
28.6233514
40
3.6941657
50
262.1637117
51
265.9141879
0
ARC
8
DEFAULT_255_2_778
10
113.6135422
20
27.7487039
40
2.8121618
50
260.1764476
51
262.0333038
0
ARC
8
DEFAULT_255_2_778
10
113.2997889
20
26.0636305
40
1.0984777
50
249.3134883
51
261.3060289
0
ARC
8
DEFAULT_255_2_778
10
112.9785273
20
25.2218391
40
0.1974976
50
230.4409855
51
250.2367243
0
ARC
8
DEFAULT_255_2_778
10
112.8839463
20
25.1124159
40
0.0529982
50
188.6177115
51
233.9354528
0
ARC
8
DEFAULT_255_2_778
10
134.9336687
20
86.0459726
40
1.0213027
50
18.3130355
51
90.0029838
0
LINE
8
DEFAULT_255_2_778
10
134.9336155
20
87.0672752
11
134.9324465
21
87.0672746
0
LINE
8
DEFAULT_255_2_778
10
39.6211465
20
30.1945746
11
39.6917465
21
30.1765746
0
LINE
8
DEFAULT_255_2_778
10
39.9134465
20
30.1524746
11
47.8827465
21
30.1524746
0
LINE
8
DEFAULT_255_2_778
10
47.8827465
20
30.1524746
11
47.8827465
21
25.0354746
0
LINE
8
DEFAULT_255_2_778
10
47.8827465
20
25.0354746
11
47.9528465
21
25.1052746
0
LINE
8
DEFAULT_255_2_778
10
48.9743465
20
24.0871746
11
48.8955465
21
24.0085746
0
LINE
8
DEFAULT_255_2_778
10
48.8955465
20
24.0085746
11
39.9134465
21
24.0085746
0
LINE
8
DEFAULT_255_2_778
10
38.8916465
20
25.0266746
11
41.7406465
21
25.0266746
0
LINE
8
DEFAULT_255_2_778
10
42.3772465
20
25.0266746
11
47.8827465
21
25.0266746
0
LINE
8
DEFAULT_255_2_778
10
47.9083465
20
24.8065746
11
47.9271465
21
24.7364746
0
LINE
8
DEFAULT_255_2_778
10
64.8430465
20
86.0493746
11
64.8430465
21
83.9112746
0
LINE
8
DEFAULT_255_2_778
10
64.8430465
20
83.9112746
11
64.7700465
21
83.9115746
0
LINE
8
DEFAULT_255_2_778
10
64.7700465
20
83.9115746
11
64.7731465
21
86.0493746
0
LINE
8
DEFAULT_255_2_778
10
64.1405465
20
86.2160746
11
63.7516465
21
86.2303746
0
LINE
8
DEFAULT_255_2_778
10
63.7516465
20
86.2303746
11
39.9132465
21
86.2303746
0
LINE
8
DEFAULT_255_2_778
10
39.9132465
20
86.2303746
11
39.5221465
21
86.2166746
0
LINE
8
DEFAULT_255_2_778
10
39.5221465
20
86.2166746
11
39.1906465
21
86.1774746
0
LINE
8
DEFAULT_255_2_778
10
39.1906465
20
86.1774746
11
39.0636465
21
86.1499746
0
LINE
8
DEFAULT_255_2_778
10
39.0636465
20
86.1499746
11
38.9691465
21
86.1187746
0
LINE
8
DEFAULT_255_2_778
10
71.0758465
20
24.9592746
11
71.0758465
21
24.9592746
0
LINE
8
DEFAULT_255_2_778
10
71.0758465
20
24.9592746
11
71.0758465
21
86.0488746
0
LINE
8
DEFAULT_255_2_778
10
71.0758465
20
86.0488746
11
64.7737465
21
86.0488746
0
LINE
8
DEFAULT_255_2_778
10
63.7521465
20
87.0669746
11
63.7489465
21
84.0787746
0
LINE
8
DEFAULT_255_2_778
10
38.8921465
20
61.8164746
11
38.6368465
21
61.8164746
0
LINE
8
DEFAULT_255_2_778
10
38.6368465
20
61.8164746
11
38.6368465
21
55.7075746
0
LINE
8
DEFAULT_255_2_778
10
38.6368465
20
55.7075746
11
38.8921465
21
55.7075746
0
LINE
8
DEFAULT_255_2_778
10
38.6368465
20
56.7256746
11
38.8921465
21
56.7256746
0
LINE
8
DEFAULT_255_2_778
10
38.8921465
20
37.1768746
11
38.6368465
21
37.1768746
0
LINE
8
DEFAULT_255_2_778
10
38.6368465
20
37.1768746
11
38.6368465
21
31.0679746
0
LINE
8
DEFAULT_255_2_778
10
38.6368465
20
31.0679746
11
38.8921465
21
31.0679746
0
LINE
8
DEFAULT_255_2_778
10
38.6368465
20
32.0860746
11
38.8921465
21
32.0860746
0
LINE
8
DEFAULT_255_2_778
10
38.0796465
20
25.4756746
11
38.0883465
21
25.0552746
0
LINE
8
DEFAULT_255_2_778
10
48.9839465
20
31.1046746
11
48.6693465
21
30.8006746
0
LINE
8
DEFAULT_255_2_778
10
48.6693465
20
30.8006746
11
48.5171465
21
30.6594746
0
LINE
8
DEFAULT_255_2_778
10
48.5171465
20
30.6594746
11
48.3722465
21
30.5289746
0
LINE
8
DEFAULT_255_2_778
10
48.3722465
20
30.5289746
11
48.2380465
21
30.4136746
0
LINE
8
DEFAULT_255_2_778
10
48.2380465
20
30.4136746
11
48.1208465
21
30.3194746
0
LINE
8
DEFAULT_255_2_778
10
48.1208465
20
30.3194746
11
48.0287465
21
30.2548746
0
LINE
8
DEFAULT_255_2_778
10
48.0287465
20
30.2548746
11
47.9957465
21
30.2368746
0
LINE
8
DEFAULT_255_2_778
10
47.9957465
20
30.2368746
11
47.9729465
21
30.2299746
0
LINE
8
DEFAULT_255_2_778
10
47.9729465
20
30.2299746
11
39.9142465
21
30.2299746
0
LINE
8
DEFAULT_255_2_778
10
39.1247465
20
31.1570746
11
39.3467465
21
31.1287746
0
LINE
8
DEFAULT_255_2_778
10
39.9142465
20
31.1046746
11
48.9839465
21
31.1046746
0
LINE
8
DEFAULT_255_2_778
10
48.9839465
20
31.1046746
11
48.9751465
21
24.0863746
0
LINE
8
DEFAULT_255_2_778
10
48.9751465
20
24.0863746
11
70.0545465
21
24.0863746
0
LINE
8
DEFAULT_255_2_778
10
70.6302465
20
24.9557746
11
70.3556465
21
24.9324746
0
LINE
8
DEFAULT_255_2_778
10
70.3556465
20
24.9324746
11
70.0548465
21
24.9245746
0
LINE
8
DEFAULT_255_2_778
10
70.0548465
20
24.9245746
11
48.9754465
21
24.9245746
0
LINE
8
DEFAULT_255_2_778
10
48.9754465
20
24.9245746
11
48.5865465
21
24.9385746
0
LINE
8
DEFAULT_255_2_778
10
48.5865465
20
24.9385746
11
48.2560465
21
24.9777746
0
LINE
8
DEFAULT_255_2_778
10
47.9538465
20
25.1044746
11
47.9613465
21
30.2289746
0
LINE
8
DEFAULT_255_2_778
10
47.9613465
20
30.2289746
11
47.8840465
21
30.1519746
0
LINE
8
DEFAULT_255_2_778
10
70.0550465
20
87.0669746
11
39.9134465
21
87.0669746
0
LINE
8
DEFAULT_255_2_778
10
39.9134465
20
87.0669746
11
39.9134465
21
23.9411746
0
LINE
8
DEFAULT_255_2_778
10
39.9134465
20
23.9411746
11
70.0540465
21
23.9411746
0
LINE
8
DEFAULT_255_2_778
10
70.0540465
20
23.9411746
11
70.0540465
21
87.0669746
0
LINE
8
DEFAULT_255_2_778
10
39.9134465
20
23.9411746
11
39.9134465
21
23.9411746
0
LINE
8
DEFAULT_255_2_778
10
38.8916465
20
24.9592746
11
38.8916465
21
86.0488746
0
LINE
8
DEFAULT_255_2_778
10
97.2825465
20
86.0488746
11
97.2825465
21
83.9107746
0
LINE
8
DEFAULT_255_2_778
10
97.2825465
20
83.9107746
11
97.2095465
21
83.9110746
0
LINE
8
DEFAULT_255_2_778
10
97.2095465
20
83.9110746
11
97.2127465
21
86.0488746
0
LINE
8
DEFAULT_255_2_778
10
96.5800465
20
86.2155746
11
96.1911465
21
86.2298746
0
LINE
8
DEFAULT_255_2_778
10
96.1911465
20
86.2298746
11
72.3527465
21
86.2298746
0
LINE
8
DEFAULT_255_2_778
10
72.3527465
20
86.2298746
11
71.9616465
21
86.2160746
0
LINE
8
DEFAULT_255_2_778
10
71.9616465
20
86.2160746
11
71.6301465
21
86.1769746
0
LINE
8
DEFAULT_255_2_778
10
71.6301465
20
86.1769746
11
71.5031465
21
86.1494746
0
LINE
8
DEFAULT_255_2_778
10
71.5031465
20
86.1494746
11
71.4086465
21
86.1181746
0
LINE
8
DEFAULT_255_2_778
10
103.5150465
20
24.9592746
11
103.5150465
21
24.9592746
0
LINE
8
DEFAULT_255_2_778
10
103.5150465
20
24.9592746
11
103.5150465
21
86.0488746
0
LINE
8
DEFAULT_255_2_778
10
103.5150465
20
86.0488746
11
97.2129465
21
86.0488746
0
LINE
8
DEFAULT_255_2_778
10
96.1914465
20
87.0669746
11
96.1882465
21
84.0787746
0
LINE
8
DEFAULT_255_2_778
10
81.4228465
20
31.1049746
11
81.1082465
21
30.8009746
0
LINE
8
DEFAULT_255_2_778
10
81.1082465
20
30.8009746
11
80.9561465
21
30.6596746
0
LINE
8
DEFAULT_255_2_778
10
80.9561465
20
30.6596746
11
80.8111465
21
30.5292746
0
LINE
8
DEFAULT_255_2_778
10
80.8111465
20
30.5292746
11
80.6770465
21
30.4138746
0
LINE
8
DEFAULT_255_2_778
10
80.6770465
20
30.4138746
11
80.5598465
21
30.3196746
0
LINE
8
DEFAULT_255_2_778
10
80.5598465
20
30.3196746
11
80.4677465
21
30.2551746
0
LINE
8
DEFAULT_255_2_778
10
80.4677465
20
30.2551746
11
80.4346465
21
30.2371746
0
LINE
8
DEFAULT_255_2_778
10
80.4346465
20
30.2371746
11
80.4119465
21
30.2302746
0
LINE
8
DEFAULT_255_2_778
10
80.4119465
20
30.2302746
11
72.3532465
21
30.2302746
0
LINE
8
DEFAULT_255_2_778
10
71.5637465
20
31.1573746
11
71.7857465
21
31.1290746
0
LINE
8
DEFAULT_255_2_778
10
72.3532465
20
31.1049746
11
81.4228465
21
31.1049746
0
LINE
8
DEFAULT_255_2_778
10
81.4228465
20
31.1049746
11
81.4141465
21
24.0866746
0
LINE
8
DEFAULT_255_2_778
10
81.4141465
20
24.0866746
11
102.4935465
21
24.0866746
0
LINE
8
DEFAULT_255_2_778
10
103.0692465
20
24.9560746
11
102.7946465
21
24.9327746
0
LINE
8
DEFAULT_255_2_778
10
102.7946465
20
24.9327746
11
102.4937465
21
24.9248746
0
LINE
8
DEFAULT_255_2_778
10
102.4937465
20
24.9248746
11
81.4144465
21
24.9248746
0
LINE
8
DEFAULT_255_2_778
10
81.4144465
20
24.9248746
11
81.0254465
21
24.9388746
0
LINE
8
DEFAULT_255_2_778
10
81.0254465
20
24.9388746
11
80.6950465
21
24.9780746
0
LINE
8
DEFAULT_255_2_778
10
80.3928465
20
25.1047746
11
80.4002465
21
30.2291746
0
LINE
8
DEFAULT_255_2_778
10
80.4002465
20
30.2291746
11
80.3230465
21
30.1521746
0
LINE
8
DEFAULT_255_2_778
10
72.3537465
20
23.9413746
11
72.3537465
21
23.9413746
0
LINE
8
DEFAULT_255_2_778
10
71.3319465
20
24.9594746
11
71.3319465
21
86.0488746
0
LINE
8
DEFAULT_255_2_778
10
72.3537465
20
87.0669746
11
102.4943465
21
87.0669746
0
LINE
8
DEFAULT_255_2_778
10
102.4943465
20
87.0669746
11
102.4943465
21
23.9411746
0
LINE
8
DEFAULT_255_2_778
10
102.4943465
20
23.9411746
11
72.3529465
21
23.9411746
0
LINE
8
DEFAULT_255_2_778
10
72.3529465
20
23.9411746
11
72.3529465
21
87.0669746
0
LINE
8
DEFAULT_255_2_778
10
132.7872465
20
80.7783746
11
134.9327465
21
80.7783746
0
LINE
8
DEFAULT_255_2_778
10
135.9760465
20
86.8915746
11
135.6479465
21
87.2183746
0
LINE
8
DEFAULT_255_2_778
10
135.6698465
20
86.7545746
11
135.9222465
21
86.7545746
0
LINE
8
DEFAULT_255_2_778
10
135.9032465
20
86.0496746
11
129.6521465
21
86.0496746
0
LINE
8
DEFAULT_255_2_778
10
128.6306465
20
87.0677746
11
128.6274465
21
84.0795746
0
LINE
8
DEFAULT_255_2_778
10
134.9330465
20
80.8569746
11
132.7875465
21
80.8569746
0
LINE
8
DEFAULT_255_2_778
10
132.7875465
20
80.8569746
11
132.7875465
21
79.9039746
0
LINE
8
DEFAULT_255_2_778
10
132.7875465
20
79.9039746
11
134.9330465
21
79.9039746
0
LINE
8
DEFAULT_255_2_778
10
135.4153465
20
79.8869746
11
135.5558465
21
79.8742746
0
LINE
8
DEFAULT_255_2_778
10
135.7841465
20
79.8398746
11
135.8654465
21
79.8192746
0
LINE
8
DEFAULT_255_2_778
10
135.8654465
20
79.8192746
11
135.9212465
21
79.7970746
0
LINE
8
DEFAULT_255_2_778
10
129.7217465
20
86.0488746
11
129.7217465
21
83.9107746
0
LINE
8
DEFAULT_255_2_778
10
129.7217465
20
83.9107746
11
129.6487465
21
83.9110746
0
LINE
8
DEFAULT_255_2_778
10
129.6487465
20
83.9110746
11
129.6519465
21
86.0488746
0
LINE
8
DEFAULT_255_2_778
10
128.6303465
20
86.2298746
11
104.7919465
21
86.2298746
0
LINE
8
DEFAULT_255_2_778
10
104.0693465
20
86.1769746
11
103.9423465
21
86.1494746
0
LINE
8
DEFAULT_255_2_778
10
103.9423465
20
86.1494746
11
103.8479465
21
86.1181746
0
LINE
8
DEFAULT_255_2_778
10
104.7919465
20
23.9413746
11
104.7919465
21
23.9413746
0
LINE
8
DEFAULT_255_2_778
10
103.7701465
20
24.9594746
11
103.7701465
21
86.0488746
0
LINE
8
DEFAULT_255_2_778
10
136.1130465
20
24.2548746
11
136.1937465
21
24.2485746
0
LINE
8
DEFAULT_255_2_778
10
135.8987465
20
25.0459746
11
135.8251465
21
25.0168746
0
LINE
8
DEFAULT_255_2_778
10
134.9324465
20
24.9245746
11
113.8531465
21
24.9245746
0
LINE
8
DEFAULT_255_2_778
10
112.8315465
20
25.1044746
11
112.8389465
21
30.2289746
0
LINE
8
DEFAULT_255_2_778
10
112.8389465
20
30.2289746
11
112.7617465
21
30.1519746
0
LINE
8
DEFAULT_255_2_778
10
134.9324465
20
87.0672746
11
134.9324465
21
23.9411746
0
LINE
8
DEFAULT_255_2_778
10
134.9324465
20
23.9411746
11
104.7919465
21
23.9411746
0
LINE
8
DEFAULT_255_2_778
10
104.7919465
20
23.9411746
11
104.7919465
21
87.0669746
0
LINE
8
DEFAULT_255_2_778
10
104.7919465
20
87.0669746
11
134.9324465
21
87.0669746
0
ARC
8
DEFAULT_255_2_778
10
136.9214028
20
24.935578
40
0.9942537
50
269.9969174
51
270.2087906
0
ARC
8
DEFAULT_255_2_778
10
136.9214202
20
24.959975
40
1.0186506
50
192.8613505
51
269.996014
0
ARC
8
DEFAULT_255_2_778
10
136.9237984
20
25.2519463
40
1.021116
50
196.4591998
51
270.0049855
0
LINE
8
DEFAULT_255_2_778
10
136.9238872
20
24.2308303
11
136.925026
21
24.230831
0
LINE
8
DEFAULT_255_2_778
10
150.718026
20
24.230831
11
150.7184045
21
24.2308309
0
ARC
8
DEFAULT_255_2_778
10
150.7183841
20
25.2545672
40
1.0237363
50
270.0011466
51
314.8696283
0
ARC
8
DEFAULT_255_2_778
10
150.7240509
20
25.2489747
40
1.015775
50
314.8656425
51
359.9975342
0
ARC
8
DEFAULT_255_2_778
10
151.6879816
20
25.2545767
40
0.0521508
50
309.3184428
51
353.785062
0
ARC
8
DEFAULT_255_2_778
10
151.5976127
20
25.3560512
40
0.1879995
50
291.0784533
51
311.0300889
0
ARC
8
DEFAULT_255_2_778
10
151.3610467
20
25.911163
40
0.7913293
50
280.9842543
51
292.6058946
0
ARC
8
DEFAULT_255_2_778
10
150.7764878
20
29.4387093
40
4.3707575
50
271.236945
51
276.7369406
0
ARC
8
DEFAULT_255_2_778
10
150.720943
20
31.1738955
40
6.1067651
50
269.975446
51
271.4065243
0
ARC
8
DEFAULT_255_2_778
10
136.9260661
20
30.7460334
40
5.6789024
50
266.6854509
51
269.9925327
0
ARC
8
DEFAULT_255_2_778
10
136.5842565
20
27.2035864
40
2.1176985
50
256.1418039
51
262.4122443
0
ARC
8
DEFAULT_255_2_778
10
136.1690741
20
25.5866734
40
0.4486858
50
239.1848658
51
258.1616844
0
ARC
8
DEFAULT_255_2_778
10
136.1195781
20
23.7460563
40
0.5051482
50
0.0009902
51
31.9447666
0
ARC
8
DEFAULT_255_2_778
10
136.2682421
20
23.7459315
40
0.3564841
50
359.9356223
51
0.0214587
0
ARC
8
DEFAULT_255_2_778
10
135.6592261
20
23.2778579
40
0.5084554
50
1.4169469
51
40.9546707
0
ARC
8
DEFAULT_255_2_778
10
135.6455512
20
23.2613152
40
0.5296379
50
41.3365626
51
88.7693883
0
ARC
8
DEFAULT_255_2_778
10
150.7209996
20
24.9617734
40
1.0207459
50
269.8499282
51
308.0288527
0
ARC
8
DEFAULT_255_2_778
10
150.7259172
20
24.9572165
40
1.0141274
50
307.9686078
51
356.6938032
0
ARC
8
DEFAULT_255_2_778
10
150.7003415
20
24.9593636
40
1.0397846
50
356.6569647
51
0.003713
0
ARC
8
DEFAULT_255_2_778
10
150.6870769
20
86.5604461
40
1.053052
50
359.8631556
51
359.9952696
0
ARC
8
DEFAULT_255_2_778
10
150.7270723
20
86.5603986
40
1.0130566
50
359.997766
51
48.7651094
0
ARC
8
DEFAULT_255_2_778
10
150.7183078
20
86.2825027
40
1.0024283
50
85.9823749
51
89.9875326
0
ARC
8
DEFAULT_255_2_778
10
150.7156359
20
86.2460195
40
1.0390091
50
67.7159926
51
85.9763481
0
ARC
8
DEFAULT_255_2_778
10
150.7218233
20
86.2658155
40
1.018347
50
16.282376
51
67.6157715
0
ARC
8
DEFAULT_255_2_778
10
150.7177932
20
86.2652248
40
1.0223812
50
2.2360114
51
16.2508316
0
ARC
8
DEFAULT_255_2_778
10
150.7486858
20
86.26708
40
0.9914401
50
0.0029478
51
2.1985378
0
ARC
8
DEFAULT_255_2_778
10
151.6907198
20
86.2618569
40
0.0496869
50
6.0931701
51
52.4145644
0
ARC
8
DEFAULT_255_2_778
10
151.5994173
20
86.159806
40
0.1865199
50
49.3083709
51
69.339882
0
ARC
8
DEFAULT_255_2_778
10
151.3612268
20
85.5907614
40
0.8033127
50
67.7634119
51
79.1946675
0
ARC
8
DEFAULT_255_2_778
10
150.9959284
20
83.8748961
40
2.5575084
50
78.362512
51
83.4147761
0
ARC
8
DEFAULT_255_2_778
10
150.7648969
20
81.8438179
40
4.6016824
50
83.4573427
51
89.392361
0
ARC
8
DEFAULT_255_2_778
10
150.7193718
20
79.9914567
40
6.4544742
50
89.162643
51
90.0092835
0
ARC
8
DEFAULT_255_2_778
10
136.8974592
20
81.6046813
40
4.8413299
50
89.670203
51
89.998753
0
ARC
8
DEFAULT_255_2_778
10
136.8972779
20
81.6263541
40
4.8196572
50
89.9965918
51
96.4683088
0
ARC
8
DEFAULT_255_2_778
10
136.2808551
20
85.5950865
40
0.7984753
50
100.7568894
51
112.2645438
0
ARC
8
DEFAULT_255_2_778
10
136.0413843
20
86.163729
40
0.1816015
50
110.3182697
51
130.8817953
0
ARC
8
DEFAULT_255_2_778
10
135.9535436
20
86.2617131
40
0.0500798
50
128.2697372
51
174.1344954
0
ARC
8
DEFAULT_255_2_778
10
136.8958919
20
86.2667734
40
0.9921659
50
177.6231363
51
179.9966784
0
ARC
8
DEFAULT_255_2_778
10
136.9253199
20
86.2650358
40
1.0216408
50
163.7435506
51
177.5942154
0
ARC
8
DEFAULT_255_2_778
10
136.924435
20
86.2637906
40
1.0211409
50
90.0025438
51
163.6625743
0
LINE
8
DEFAULT_255_2_778
10
136.9243897
20
87.2849316
11
136.925526
21
87.284931
0
LINE
8
DEFAULT_255_2_778
10
136.925026
20
23.941331
11
136.925026
21
23.941331
0
LINE
8
DEFAULT_255_2_778
10
135.928326
20
24.733231
11
135.944526
21
24.962631
0
LINE
8
DEFAULT_255_2_778
10
136.925026
20
24.230831
11
150.718026
21
24.230831
0
LINE
8
DEFAULT_255_2_778
10
151.511826
20
25.134331
11
151.289226
21
25.098131
0
LINE
8
DEFAULT_255_2_778
10
150.718326
20
25.067131
11
136.925326
21
25.067131
0
LINE
8
DEFAULT_255_2_778
10
136.597726
20
25.076631
11
136.304626
21
25.104431
0
LINE
8
DEFAULT_255_2_778
10
151.791126
20
23.584931
11
151.791126
21
87.423331
0
LINE
8
DEFAULT_255_2_778
10
151.736926
20
48.832231
11
151.740126
21
50.094631
0
LINE
8
DEFAULT_255_2_778
10
151.740126
20
24.959431
11
151.740126
21
24.959431
0
LINE
8
DEFAULT_255_2_778
10
151.740126
20
24.959431
11
151.740126
21
86.557931
0
LINE
8
DEFAULT_255_2_778
10
150.718326
20
86.445931
11
136.925326
21
86.445931
0
LINE
8
DEFAULT_255_2_778
10
136.354326
20
86.415331
11
136.131826
21
86.379531
0
LINE
8
DEFAULT_255_2_778
10
136.925526
20
87.284931
11
150.718526
21
87.284931
0
LINE
8
DEFAULT_255_2_778
10
150.718526
20
87.284931
11
150.718526
21
23.941331
0
LINE
8
DEFAULT_255_2_778
10
150.718526
20
23.941331
11
136.925526
21
23.941331
0
LINE
8
DEFAULT_255_2_778
10
136.925526
20
23.941331
11
136.925526
21
87.448731
0
LINE
8
DEFAULT_255_2_778
10
136.925526
20
87.448731
11
136.707526
21
87.552731
0
LINE
8
DEFAULT_255_2_778
10
135.648426
20
23.790831
11
136.113826
21
24.254631
0
LINE
8
DEFAULT_255_2_778
10
136.113826
20
24.254631
11
135.670426
21
24.254631
0
ARC
8
DEFAULT_255_2_778
10
10.9903967
20
106.4155468
40
2.5456885
50
159.934897
51
180.0800225
0
ARC
8
DEFAULT_255_2_778
10
10.9890805
20
106.4103079
40
2.5462553
50
101.7554534
51
159.8140053
0
ARC
8
DEFAULT_255_2_778
10
10.9973355
20
106.3648561
40
2.5924358
50
89.962975
51
101.7294123
0
ARC
8
DEFAULT_255_2_778
10
11.0026978
20
106.3867314
40
2.5705626
50
70.0686625
51
90.082183
0
ARC
8
DEFAULT_255_2_778
10
11.0111958
20
106.4134002
40
2.5425946
50
10.9463573
51
70.0438231
0
ARC
8
DEFAULT_255_2_778
10
10.9846903
20
106.4134107
40
2.5686209
50
359.9683384
51
10.8338576
0
ARC
8
DEFAULT_255_2_778
10
11.0079452
20
106.4084593
40
2.5453679
50
339.9336206
51
0.0795056
0
ARC
8
DEFAULT_255_2_778
10
11.0087543
20
106.4138609
40
2.5464671
50
281.7587514
51
339.8132149
0
ARC
8
DEFAULT_255_2_778
10
11.0006812
20
106.4587699
40
2.5920792
50
269.9630755
51
281.7311567
0
ARC
8
DEFAULT_255_2_778
10
10.9953236
20
106.4372513
40
2.5705626
50
250.0686625
51
270.082183
0
ARC
8
DEFAULT_255_2_778
10
10.9868256
20
106.4105824
40
2.5425946
50
190.9463573
51
250.0438231
0
ARC
8
DEFAULT_255_2_778
10
11.0133312
20
106.4105719
40
2.5686209
50
179.9683384
51
190.8338576
0
LINE
8
DEFAULT_255_2_778
10
8.4447107
20
106.4119913
11
8.4447107
21
106.4119913
0
ARC
8
DEFAULT_255_2_778
10
12.4331499
20
102.1360666
40
0.8143482
50
308.7046285
51
333.5518302
0
ARC
8
DEFAULT_255_2_778
10
11.0180052
20
106.4154828
40
6.1114623
50
359.9670257
51
12.3015274
0
ARC
8
DEFAULT_255_2_778
10
11.0722045
20
106.4241314
40
6.0566656
50
12.3308299
51
30.0884862
0
ARC
8
DEFAULT_255_2_778
10
10.9952849
20
106.3782741
40
6.1462103
50
30.0988852
51
68.8442778
0
ARC
8
DEFAULT_255_2_778
10
11.0134552
20
106.4114509
40
6.1087138
50
68.8909118
51
83.355214
0
ARC
8
DEFAULT_255_2_778
10
11.0003639
20
106.3051745
40
6.2157912
50
83.3487089
51
90.0119592
0
ARC
8
DEFAULT_255_2_778
10
10.9954668
20
106.3468783
40
6.1740884
50
89.9665949
51
102.2168418
0
ARC
8
DEFAULT_255_2_778
10
10.9828985
20
106.4169486
40
6.1029458
50
102.2407255
51
119.3246786
0
ARC
8
DEFAULT_255_2_778
10
10.994136
20
106.3894792
40
6.1323999
50
119.2905213
51
161.2940567
0
ARC
8
DEFAULT_255_2_778
10
10.9310125
20
106.4230507
40
6.061855
50
161.4032612
51
175.3295758
0
ARC
8
DEFAULT_255_2_778
10
11.0385705
20
106.4126376
40
6.1699041
50
175.3145249
51
180.0062399
0
ARC
8
DEFAULT_255_2_778
10
11.0198546
20
106.4154723
40
5.598413
50
359.964112
51
13.0186727
0
ARC
8
DEFAULT_255_2_778
10
11.0608085
20
106.4213515
40
5.5571885
50
13.0547331
51
32.4240444
0
ARC
8
DEFAULT_255_2_778
10
10.9950665
20
106.3806603
40
5.6344993
50
32.4148708
51
68.7506333
0
ARC
8
DEFAULT_255_2_778
10
11.0116815
20
106.4105473
40
5.6006244
50
68.7982398
51
83.8283748
0
ARC
8
DEFAULT_255_2_778
10
10.999813
20
106.3100727
40
5.7017929
50
83.8183462
51
90.0105156
0
ARC
8
DEFAULT_255_2_778
10
10.9951827
20
106.3561193
40
5.6557474
50
89.9636944
51
102.8412056
0
ARC
8
DEFAULT_255_2_778
10
10.9844981
20
106.415432
40
5.5955443
50
102.8695165
51
121.2904939
0
ARC
8
DEFAULT_255_2_778
10
10.9934354
20
106.3925882
40
5.6197086
50
121.2473952
51
161.0030489
0
ARC
8
DEFAULT_255_2_778
10
10.9385953
20
106.4219539
40
5.5583052
50
161.1052526
51
175.7022929
0
ARC
8
DEFAULT_255_2_778
10
11.0399905
20
106.4125005
40
5.660124
50
175.683785
51
180.0054147
0
ARC
8
DEFAULT_255_2_778
10
4.6725623
20
100.489634
40
1.0135958
50
134.7507476
51
180.0038665
0
ARC
8
DEFAULT_255_2_778
10
4.6806037
20
100.4890065
40
1.0197165
50
95.8100293
51
135.0468061
0
ARC
8
DEFAULT_255_2_778
10
4.6812599
20
100.4843489
40
1.0244165
50
89.9996324
51
95.820172
0
LINE
8
DEFAULT_255_2_778
10
3.8460665
20
100.3030656
11
3.8460664
21
100.3034409
0
ARC
8
DEFAULT_255_2_778
10
4.8588327
20
100.3034798
40
1.0127662
50
134.7311901
51
180.0022037
0
ARC
8
DEFAULT_255_2_778
10
4.8673665
20
100.3028958
40
1.0192027
50
95.523465
51
135.0489014
0
ARC
8
DEFAULT_255_2_778
10
4.8683643
20
100.2966461
40
1.0255195
50
90.0712685
51
95.5453447
0
ARC
8
DEFAULT_255_2_778
10
4.8680472
20
100.6418443
40
0.6803212
50
89.9731048
51
90.0807193
0
LINE
8
DEFAULT_255_2_778
10
17.1294665
20
102.3392656
11
17.1294665
21
106.4119656
0
LINE
8
DEFAULT_255_2_778
10
17.1294665
20
106.4119656
11
16.1075665
21
106.4119656
0
LINE
8
DEFAULT_255_2_778
10
16.1075665
20
106.4119656
11
16.1075665
21
102.3392656
0
LINE
8
DEFAULT_255_2_778
10
5.8904665
20
101.5076656
11
5.8904665
21
106.4119656
0
LINE
8
DEFAULT_255_2_778
10
5.8904665
20
106.4119656
11
4.8686665
21
106.4119656
0
LINE
8
DEFAULT_255_2_778
10
4.8686665
20
106.4119656
11
4.8686665
21
101.5076656
0
LINE
8
DEFAULT_255_2_778
10
4.8686665
20
102.1355656
11
5.8904665
21
102.1355656
0
LINE
8
DEFAULT_255_2_778
10
4.6810665
20
101.5079656
11
9.9769665
21
101.5079656
0
LINE
8
DEFAULT_255_2_778
10
9.9769665
20
101.5079656
11
9.9769665
21
101.3214656
0
ARC
8
DEFAULT_255_2_778
10
144.8346008
20
106.4155468
40
2.5456885
50
159.934897
51
180.0800225
0
ARC
8
DEFAULT_255_2_778
10
144.8332845
20
106.4103079
40
2.5462553
50
101.7554534
51
159.8140053
0
ARC
8
DEFAULT_255_2_778
10
144.8415395
20
106.3648561
40
2.5924358
50
89.962975
51
101.7294123
0
ARC
8
DEFAULT_255_2_778
10
144.8469019
20
106.3867314
40
2.5705626
50
70.0686625
51
90.082183
0
ARC
8
DEFAULT_255_2_778
10
144.8553999
20
106.4134002
40
2.5425946
50
10.9463573
51
70.0438231
0
ARC
8
DEFAULT_255_2_778
10
144.8288943
20
106.4134107
40
2.5686209
50
359.9683384
51
10.8338576
0
ARC
8
DEFAULT_255_2_778
10
144.8521493
20
106.4084593
40
2.5453679
50
339.9336206
51
0.0795056
0
ARC
8
DEFAULT_255_2_778
10
144.8529583
20
106.4138609
40
2.5464671
50
281.7587514
51
339.8132149
0
ARC
8
DEFAULT_255_2_778
10
144.8448852
20
106.4587699
40
2.5920792
50
269.9630755
51
281.7311567
0
ARC
8
DEFAULT_255_2_778
10
144.8395276
20
106.4372513
40
2.5705626
50
250.0686625
51
270.082183
0
ARC
8
DEFAULT_255_2_778
10
144.8310297
20
106.4105824
40
2.5425946
50
190.9463573
51
250.0438231
0
ARC
8
DEFAULT_255_2_778
10
144.8575352
20
106.4105719
40
2.5686209
50
179.9683384
51
190.8338576
0
LINE
8
DEFAULT_255_2_778
10
142.2889148
20
106.4119913
11
142.2889148
21
106.4119913
0
ARC
8
DEFAULT_255_2_778
10
144.8613604
20
106.4155221
40
6.112041
50
359.9669944
51
12.3003092
0
ARC
8
DEFAULT_255_2_778
10
144.9158946
20
106.4242513
40
6.0568999
50
12.3295288
51
30.0862789
0
ARC
8
DEFAULT_255_2_778
10
144.8395573
20
106.3787701
40
6.1457524
50
30.0963981
51
68.8434155
0
ARC
8
DEFAULT_255_2_778
10
144.8577287
20
106.4118796
40
6.1083183
50
68.8902855
51
83.3551983
0
ARC
8
DEFAULT_255_2_778
10
144.8446
20
106.3053262
40
6.2156752
50
83.348646
51
90.0119798
0
ARC
8
DEFAULT_255_2_778
10
144.8397007
20
106.3469139
40
6.1740884
50
89.9665949
51
102.2168418
0
ARC
8
DEFAULT_255_2_778
10
144.8271324
20
106.4169842
40
6.1029458
50
102.2407255
51
119.3246786
0
ARC
8
DEFAULT_255_2_778
10
144.8383699
20
106.3895148
40
6.1323999
50
119.2905213
51
161.2940567
0
ARC
8
DEFAULT_255_2_778
10
144.7752464
20
106.4230863
40
6.061855
50
161.4032612
51
175.3295758
0
ARC
8
DEFAULT_255_2_778
10
144.8828044
20
106.4126732
40
6.1699041
50
175.3145249
51
180.0062399
0
ARC
8
DEFAULT_255_2_778
10
144.8640885
20
106.4155079
40
5.598413
50
359.964112
51
13.0186727
0
ARC
8
DEFAULT_255_2_778
10
144.9050424
20
106.4213871
40
5.5571885
50
13.0547331
51
32.4240444
0
ARC
8
DEFAULT_255_2_778
10
144.8393004
20
106.380696
40
5.6344993
50
32.4148708
51
68.7506333
0
ARC
8
DEFAULT_255_2_778
10
144.8559154
20
106.4105829
40
5.6006244
50
68.7982398
51
83.8283748
0
ARC
8
DEFAULT_255_2_778
10
144.8440469
20
106.3101083
40
5.7017929
50
83.8183462
51
90.0105156
0
ARC
8
DEFAULT_255_2_778
10
144.8394369
20
106.3559666
40
5.6559357
50
89.9639014
51
102.8409903
0
ARC
8
DEFAULT_255_2_778
10
144.8289569
20
106.4143959
40
5.5966393
50
102.8693251
51
121.2878148
0
ARC
8
DEFAULT_255_2_778
10
144.8375468
20
106.391903
40
5.6203237
50
121.2435638
51
160.9974356
0
ARC
8
DEFAULT_255_2_778
10
144.7811482
20
106.4219431
40
5.5572263
50
161.1009402
51
175.7009777
0
ARC
8
DEFAULT_255_2_778
10
144.8822121
20
106.4125311
40
5.6587118
50
175.6826544
51
180.0053648
0
ARC
8
DEFAULT_255_2_778
10
143.4095673
20
102.1363008
40
0.8150189
50
206.440311
51
231.2925864
0
ARC
8
DEFAULT_255_2_778
10
130.7370961
20
12.3674952
40
3.4847105
50
274.0300506
51
283.0002537
0
ARC
8
DEFAULT_255_2_778
10
130.8784029
20
11.6411777
40
2.7453416
50
283.5367096
51
294.9232493
0
ARC
8
DEFAULT_255_2_778
10
130.4277608
20
12.549412
40
3.7589867
50
295.3186656
51
303.6283347
0
LINE
8
DEFAULT_255_2_778
10
138.7126004
20
102.3393012
11
138.7126004
21
106.4120012
0
LINE
8
DEFAULT_255_2_778
10
138.7126004
20
106.4120012
11
139.7344004
21
106.4120012
0
LINE
8
DEFAULT_255_2_778
10
139.7344004
20
106.4120012
11
139.7344004
21
102.3393012
0
LINE
8
DEFAULT_255_2_778
10
149.9516004
20
101.5077012
11
149.9516004
21
106.4120012
0
LINE
8
DEFAULT_255_2_778
10
149.9516004
20
106.4120012
11
150.9734004
21
106.4120012
0
LINE
8
DEFAULT_255_2_778
10
150.9734004
20
106.4120012
11
150.9734004
21
101.5077012
0
LINE
8
DEFAULT_255_2_778
10
150.9734004
20
101.5077012
11
145.8648004
21
101.5077012
0
LINE
8
DEFAULT_255_2_778
10
145.8648004
20
101.5077012
11
145.8648004
21
101.3212012
0
LINE
8
DEFAULT_255_2_778
10
149.9516004
20
102.1356012
11
150.9734004
21
102.1356012
0
LINE
8
DEFAULT_255_2_778
10
126.6976004
20
8.8726012
11
130.4370004
21
8.8726012
0
LINE
8
DEFAULT_255_2_778
10
130.4370004
20
8.8726012
11
130.9820004
21
8.8914012
0
LINE
8
DEFAULT_255_2_778
10
132.5095004
20
9.4195012
11
132.7857004
21
9.6105012
0
LINE
8
DEFAULT_255_2_778
10
132.7857004
20
9.6105012
11
132.8569004
21
9.6629012
0
LINE
8
DEFAULT_255_2_778
10
38.0294004
20
10.3998012
11
43.6529004
21
10.3998012
0
ARC
8
DEFAULT_255_2_778
10
133.3068712
20
10.5917166
40
1.0238831
50
225.133776
51
269.9998691
0
ARC
8
DEFAULT_255_2_778
10
133.3015584
20
10.5862908
40
1.0162896
50
180.0201429
51
225.1302681
0
ARC
8
DEFAULT_255_2_778
10
39.9382913
20
12.5762096
40
3.7900128
50
236.3861784
51
244.6325809
0
ARC
8
DEFAULT_255_2_778
10
39.4798342
20
11.6626622
40
2.7682321
50
245.105921
51
256.4013327
0
ARC
8
DEFAULT_255_2_778
10
39.6166493
20
12.3802862
40
3.498089
50
256.9868607
51
265.9266675
0
LINE
8
DEFAULT_255_2_778
10
132.2850688
20
23.7728335
11
132.2850688
21
10.5859335
0
LINE
8
DEFAULT_255_2_778
10
132.2850688
20
10.5859335
11
135.6566688
21
10.5859335
0
LINE
8
DEFAULT_255_2_778
10
135.6566688
20
10.5859335
11
135.6566688
21
23.7905335
0
LINE
8
DEFAULT_255_2_778
10
135.6566688
20
23.7905335
11
133.3068688
21
23.7905335
0
LINE
8
DEFAULT_255_2_778
10
133.3068688
20
23.7905335
11
133.3068688
21
9.5678335
0
LINE
8
DEFAULT_255_2_778
10
43.6527688
20
10.6031335
11
38.0653688
21
10.6031335
0
LINE
8
DEFAULT_255_2_778
10
37.4935688
20
9.6628335
11
37.5779688
21
9.6009335
0
LINE
8
DEFAULT_255_2_778
10
37.5779688
20
9.6009335
11
37.8401688
21
9.4199335
0
LINE
8
DEFAULT_255_2_778
10
39.3681688
20
8.8910335
11
39.9134688
21
8.8722335
0
LINE
8
DEFAULT_255_2_778
10
39.9134688
20
8.8722335
11
43.6527688
21
8.8722335
0
LINE
8
DEFAULT_255_2_778
10
133.3745762
20
9.4993092
11
133.3741991
21
9.4993091
0
ARC
8
DEFAULT_255_2_778
10
133.3743177
20
10.5206212
40
1.021312
50
224.994862
51
269.9933497
0
ARC
8
DEFAULT_255_2_778
10
37.8130756
20
23.513236
40
0.5185012
50
0.0854409
51
19.6517551
0
ARC
8
DEFAULT_255_2_778
10
132.3036108
20
23.7272452
40
0.0491895
50
87.382615
51
112.1355667
0
ARC
8
DEFAULT_255_2_778
10
132.4080493
20
22.4585112
40
1.3218285
50
92.262061
51
94.4340341
0
ARC
8
DEFAULT_255_2_778
10
132.6030019
20
17.8554012
40
5.9290607
50
91.3638105
51
92.3888006
0
ARC
8
DEFAULT_255_2_778
10
132.8723356
20
7.1453257
40
16.6425188
50
90.8623067
51
91.4132129
0
ARC
8
DEFAULT_255_2_778
10
133.1248996
20
-9.1332407
40
32.9230435
50
90.4809802
51
90.8754471
0
ARC
8
DEFAULT_255_2_778
10
133.2816414
20
-27.3501585
40
51.1406354
50
90.1082641
51
90.4852519
0
ARC
8
DEFAULT_255_2_778
10
133.306487
20
-35.9061526
40
59.6966618
50
89.9996264
51
90.1165935
0
LINE
8
DEFAULT_255_2_778
10
132.6520762
20
9.7985092
11
132.6520762
21
9.7985092
0
LINE
8
DEFAULT_255_2_778
10
132.2850762
20
10.6031092
11
126.6975762
21
10.6031092
0
LINE
8
DEFAULT_255_2_778
10
126.6975762
20
10.3997092
11
132.2850762
21
10.3997092
0
LINE
8
DEFAULT_255_2_778
10
126.6975762
20
22.8925092
11
126.6975762
21
8.5365092
0
LINE
8
DEFAULT_255_2_778
10
126.6975762
20
8.5365092
11
43.6528762
21
8.5365092
0
LINE
8
DEFAULT_255_2_778
10
43.6528762
20
8.5365092
11
43.6528762
21
22.8925092
0
LINE
8
DEFAULT_255_2_778
10
43.6528762
20
22.8925092
11
126.6975762
21
22.8925092
0
LINE
8
DEFAULT_255_2_778
10
38.3315762
20
15.3088092
11
38.3315762
21
23.5140092
0
LINE
8
DEFAULT_255_2_778
10
132.2850762
20
11.9269092
11
127.0216762
21
11.9269092
0
LINE
8
DEFAULT_255_2_778
10
127.0216762
20
11.9269092
11
127.0216762
21
13.0672092
0
LINE
8
DEFAULT_255_2_778
10
39.1982762
20
18.2597092
11
39.1982762
21
23.6865092
0
LINE
8
DEFAULT_255_2_778
10
38.0653762
20
15.3090092
11
38.5852762
21
15.3090092
0
LINE
8
DEFAULT_255_2_778
10
38.0653762
20
13.5122092
11
38.5852762
21
13.5122092
0
ARC
8
DEFAULT_255_2_778
10
131.255443
20
17.7497097
40
0.5100007
50
0.1123318
51
90.1011438
0
ARC
8
DEFAULT_255_2_778
10
131.2556345
20
13.5771171
40
0.5098088
50
269.8772873
51
359.9092451
0
LINE
8
DEFAULT_255_2_778
10
126.6975427
20
19.0051096
11
43.6528427
21
19.0051096
0
LINE
8
DEFAULT_255_2_778
10
126.6975427
20
13.5070096
11
43.6528427
21
13.5070096
0
LINE
8
DEFAULT_255_2_778
10
126.6975427
20
12.3897096
11
43.6528427
21
12.3897096
0
LINE
8
DEFAULT_255_2_778
10
126.6975427
20
11.2856096
11
43.6528427
21
11.2856096
0
LINE
8
DEFAULT_255_2_778
10
38.0653427
20
23.6866096
11
132.2850427
21
23.6866096
0
LINE
8
DEFAULT_255_2_778
10
126.6975427
20
18.2597096
11
131.2545427
21
18.2597096
0
LINE
8
DEFAULT_255_2_778
10
131.7654427
20
17.7507096
11
131.7654427
21
13.5763096
0
LINE
8
DEFAULT_255_2_778
10
131.2545427
20
13.0673096
11
126.6975427
21
13.0673096
0
LINE
8
DEFAULT_255_2_778
10
122.2194485
20
22.5017185
11
122.0768485
21
20.8563185
0
LINE
8
DEFAULT_255_2_778
10
122.0768485
20
20.8563185
11
126.1281485
21
20.8563185
0
LINE
8
DEFAULT_255_2_778
10
126.1281485
20
20.8563185
11
125.9855485
21
22.5017185
0
LINE
8
DEFAULT_255_2_778
10
125.9855485
20
22.5017185
11
125.3883485
21
22.5017185
0
LINE
8
DEFAULT_255_2_778
10
125.3883485
20
22.5017185
11
125.3545485
21
22.8925185
0
LINE
8
DEFAULT_255_2_778
10
122.8168485
20
20.8563185
11
122.8168485
21
22.5017185
0
LINE
8
DEFAULT_255_2_778
10
122.8168485
20
22.5017185
11
122.2197485
21
22.5017185
0
LINE
8
DEFAULT_255_2_778
10
122.2197485
20
22.5017185
11
122.2197485
21
20.8563185
0
LINE
8
DEFAULT_255_2_778
10
122.8507485
20
22.8925185
11
122.8168485
21
22.5017185
0
LINE
8
DEFAULT_255_2_778
10
125.3883485
20
22.5017185
11
125.3883485
21
20.8563185
0
LINE
8
DEFAULT_255_2_778
10
125.9855485
20
22.5017185
11
125.9855485
21
20.8563185
0
LINE
8
DEFAULT_255_2_778
10
117.0291485
20
22.5017185
11
116.8865485
21
20.8563185
0
LINE
8
DEFAULT_255_2_778
10
116.8865485
20
20.8563185
11
120.9378485
21
20.8563185
0
LINE
8
DEFAULT_255_2_778
10
120.9378485
20
20.8563185
11
120.7952485
21
22.5017185
0
LINE
8
DEFAULT_255_2_778
10
120.7952485
20
22.5017185
11
120.1980485
21
22.5017185
0
LINE
8
DEFAULT_255_2_778
10
120.1980485
20
22.5017185
11
120.1642485
21
22.8925185
0
LINE
8
DEFAULT_255_2_778
10
117.6265485
20
20.8563185
11
117.6265485
21
22.5017185
0
LINE
8
DEFAULT_255_2_778
10
117.6265485
20
22.5017185
11
117.0294485
21
22.5017185
0
LINE
8
DEFAULT_255_2_778
10
117.0294485
20
22.5017185
11
117.0294485
21
20.8563185
0
LINE
8
DEFAULT_255_2_778
10
117.6604485
20
22.8925185
11
117.6265485
21
22.5017185
0
LINE
8
DEFAULT_255_2_778
10
120.1980485
20
22.5017185
11
120.1980485
21
20.8563185
0
LINE
8
DEFAULT_255_2_778
10
120.7952485
20
22.5017185
11
120.7952485
21
20.8563185
0
LINE
8
DEFAULT_255_2_778
10
111.8388485
20
22.5017185
11
111.6962485
21
20.8563185
0
LINE
8
DEFAULT_255_2_778
10
111.6962485
20
20.8563185
11
115.7475485
21
20.8563185
0
LINE
8
DEFAULT_255_2_778
10
115.7475485
20
20.8563185
11
115.6049485
21
22.5017185
0
LINE
8
DEFAULT_255_2_778
10
115.6049485
20
22.5017185
11
115.0077485
21
22.5017185
0
LINE
8
DEFAULT_255_2_778
10
115.0077485
20
22.5017185
11
114.9739485
21
22.8925185
0
LINE
8
DEFAULT_255_2_778
10
112.4362485
20
20.8563185
11
112.4362485
21
22.5017185
0
LINE
8
DEFAULT_255_2_778
10
112.4362485
20
22.5017185
11
111.8391485
21
22.5017185
0
LINE
8
DEFAULT_255_2_778
10
111.8391485
20
22.5017185
11
111.8391485
21
20.8563185
0
LINE
8
DEFAULT_255_2_778
10
112.4701485
20
22.8925185
11
112.4362485
21
22.5017185
0
LINE
8
DEFAULT_255_2_778
10
115.0077485
20
22.5017185
11
115.0077485
21
20.8563185
0
LINE
8
DEFAULT_255_2_778
10
115.6049485
20
22.5017185
11
115.6049485
21
20.8563185
0
LINE
8
DEFAULT_255_2_778
10
106.6485485
20
22.5017185
11
106.5059485
21
20.8563185
0
LINE
8
DEFAULT_255_2_778
10
106.5059485
20
20.8563185
11
110.5572485
21
20.8563185
0
LINE
8
DEFAULT_255_2_778
10
110.5572485
20
20.8563185
11
110.4146485
21
22.5017185
0
LINE
8
DEFAULT_255_2_778
10
110.4146485
20
22.5017185
11
109.8174485
21
22.5017185
0
LINE
8
DEFAULT_255_2_778
10
109.8174485
20
22.5017185
11
109.7836485
21
22.8925185
0
LINE
8
DEFAULT_255_2_778
10
107.2459485
20
20.8563185
11
107.2459485
21
22.5017185
0
LINE
8
DEFAULT_255_2_778
10
107.2459485
20
22.5017185
11
106.6488485
21
22.5017185
0
LINE
8
DEFAULT_255_2_778
10
106.6488485
20
22.5017185
11
106.6488485
21
20.8563185
0
LINE
8
DEFAULT_255_2_778
10
107.2798485
20
22.8925185
11
107.2459485
21
22.5017185
0
LINE
8
DEFAULT_255_2_778
10
109.8174485
20
22.5017185
11
109.8174485
21
20.8563185
0
LINE
8
DEFAULT_255_2_778
10
110.4146485
20
22.5017185
11
110.4146485
21
20.8563185
0
LINE
8
DEFAULT_255_2_778
10
101.4581485
20
22.5017185
11
101.3155485
21
20.8563185
0
LINE
8
DEFAULT_255_2_778
10
101.3155485
20
20.8563185
11
105.3668485
21
20.8563185
0
LINE
8
DEFAULT_255_2_778
10
105.3668485
20
20.8563185
11
105.2242485
21
22.5017185
0
LINE
8
DEFAULT_255_2_778
10
105.2242485
20
22.5017185
11
104.6270485
21
22.5017185
0
LINE
8
DEFAULT_255_2_778
10
104.6270485
20
22.5017185
11
104.5932485
21
22.8925185
0
LINE
8
DEFAULT_255_2_778
10
102.0555485
20
20.8563185
11
102.0555485
21
22.5017185
0
LINE
8
DEFAULT_255_2_778
10
102.0555485
20
22.5017185
11
101.4584485
21
22.5017185
0
LINE
8
DEFAULT_255_2_778
10
101.4584485
20
22.5017185
11
101.4584485
21
20.8563185
0
LINE
8
DEFAULT_255_2_778
10
102.0894485
20
22.8925185
11
102.0555485
21
22.5017185
0
LINE
8
DEFAULT_255_2_778
10
104.6270485
20
22.5017185
11
104.6270485
21
20.8563185
0
LINE
8
DEFAULT_255_2_778
10
105.2242485
20
22.5017185
11
105.2242485
21
20.8563185
0
LINE
8
DEFAULT_255_2_778
10
96.2678485
20
22.5017185
11
96.1252485
21
20.8563185
0
LINE
8
DEFAULT_255_2_778
10
96.1252485
20
20.8563185
11
100.1765485
21
20.8563185
0
LINE
8
DEFAULT_255_2_778
10
100.1765485
20
20.8563185
11
100.0339485
21
22.5017185
0
LINE
8
DEFAULT_255_2_778
10
100.0339485
20
22.5017185
11
99.4367485
21
22.5017185
0
LINE
8
DEFAULT_255_2_778
10
99.4367485
20
22.5017185
11
99.4029485
21
22.8925185
0
LINE
8
DEFAULT_255_2_778
10
96.8652485
20
20.8563185
11
96.8652485
21
22.5017185
0
LINE
8
DEFAULT_255_2_778
10
96.8652485
20
22.5017185
11
96.2681485
21
22.5017185
0
LINE
8
DEFAULT_255_2_778
10
96.2681485
20
22.5017185
11
96.2681485
21
20.8563185
0
LINE
8
DEFAULT_255_2_778
10
96.8991485
20
22.8925185
11
96.8652485
21
22.5017185
0
LINE
8
DEFAULT_255_2_778
10
99.4367485
20
22.5017185
11
99.4367485
21
20.8563185
0
LINE
8
DEFAULT_255_2_778
10
100.0339485
20
22.5017185
11
100.0339485
21
20.8563185
0
LINE
8
DEFAULT_255_2_778
10
91.0775485
20
22.5017185
11
90.9349485
21
20.8563185
0
LINE
8
DEFAULT_255_2_778
10
90.9349485
20
20.8563185
11
94.9862485
21
20.8563185
0
LINE
8
DEFAULT_255_2_778
10
94.9862485
20
20.8563185
11
94.8436485
21
22.5017185
0
LINE
8
DEFAULT_255_2_778
10
94.8436485
20
22.5017185
11
94.2464485
21
22.5017185
0
LINE
8
DEFAULT_255_2_778
10
94.2464485
20
22.5017185
11
94.2126485
21
22.8925185
0
LINE
8
DEFAULT_255_2_778
10
91.6749485
20
20.8563185
11
91.6749485
21
22.5017185
0
LINE
8
DEFAULT_255_2_778
10
91.6749485
20
22.5017185
11
91.0778485
21
22.5017185
0
LINE
8
DEFAULT_255_2_778
10
91.0778485
20
22.5017185
11
91.0778485
21
20.8563185
0
LINE
8
DEFAULT_255_2_778
10
91.7088485
20
22.8925185
11
91.6749485
21
22.5017185
0
LINE
8
DEFAULT_255_2_778
10
94.2464485
20
22.5017185
11
94.2464485
21
20.8563185
0
LINE
8
DEFAULT_255_2_778
10
94.8436485
20
22.5017185
11
94.8436485
21
20.8563185
0
LINE
8
DEFAULT_255_2_778
10
85.8874485
20
22.5017185
11
85.7448485
21
20.8563185
0
LINE
8
DEFAULT_255_2_778
10
85.7448485
20
20.8563185
11
89.7961485
21
20.8563185
0
LINE
8
DEFAULT_255_2_778
10
89.7961485
20
20.8563185
11
89.6535485
21
22.5017185
0
LINE
8
DEFAULT_255_2_778
10
89.6535485
20
22.5017185
11
89.0563485
21
22.5017185
0
LINE
8
DEFAULT_255_2_778
10
89.0563485
20
22.5017185
11
89.0225485
21
22.8925185
0
LINE
8
DEFAULT_255_2_778
10
86.4848485
20
20.8563185
11
86.4848485
21
22.5017185
0
LINE
8
DEFAULT_255_2_778
10
86.4848485
20
22.5017185
11
85.8877485
21
22.5017185
0
LINE
8
DEFAULT_255_2_778
10
85.8877485
20
22.5017185
11
85.8877485
21
20.8563185
0
LINE
8
DEFAULT_255_2_778
10
86.5187485
20
22.8925185
11
86.4848485
21
22.5017185
0
LINE
8
DEFAULT_255_2_778
10
89.0563485
20
22.5017185
11
89.0563485
21
20.8563185
0
LINE
8
DEFAULT_255_2_778
10
89.6535485
20
22.5017185
11
89.6535485
21
20.8563185
0
LINE
8
DEFAULT_255_2_778
10
80.6971566
20
22.5017185
11
80.5545566
21
20.8563185
0
LINE
8
DEFAULT_255_2_778
10
80.5545566
20
20.8563185
11
84.6058566
21
20.8563185
0
LINE
8
DEFAULT_255_2_778
10
84.6058566
20
20.8563185
11
84.4632566
21
22.5017185
0
LINE
8
DEFAULT_255_2_778
10
84.4632566
20
22.5017185
11
83.8660566
21
22.5017185
0
LINE
8
DEFAULT_255_2_778
10
83.8660566
20
22.5017185
11
83.8322566
21
22.8925185
0
LINE
8
DEFAULT_255_2_778
10
81.2945566
20
20.8563185
11
81.2945566
21
22.5017185
0
LINE
8
DEFAULT_255_2_778
10
81.2945566
20
22.5017185
11
80.6974566
21
22.5017185
0
LINE
8
DEFAULT_255_2_778
10
80.6974566
20
22.5017185
11
80.6974566
21
20.8563185
0
LINE
8
DEFAULT_255_2_778
10
81.3284566
20
22.8925185
11
81.2945566
21
22.5017185
0
LINE
8
DEFAULT_255_2_778
10
83.8660566
20
22.5017185
11
83.8660566
21
20.8563185
0
LINE
8
DEFAULT_255_2_778
10
84.4632566
20
22.5017185
11
84.4632566
21
20.8563185
0
LINE
8
DEFAULT_255_2_778
10
75.5067485
20
22.5017185
11
75.3641485
21
20.8563185
0
LINE
8
DEFAULT_255_2_778
10
75.3641485
20
20.8563185
11
79.4154485
21
20.8563185
0
LINE
8
DEFAULT_255_2_778
10
79.4154485
20
20.8563185
11
79.2728485
21
22.5017185
0
LINE
8
DEFAULT_255_2_778
10
79.2728485
20
22.5017185
11
78.6756485
21
22.5017185
0
LINE
8
DEFAULT_255_2_778
10
78.6756485
20
22.5017185
11
78.6418485
21
22.8925185
0
LINE
8
DEFAULT_255_2_778
10
76.1041485
20
20.8563185
11
76.1041485
21
22.5017185
0
LINE
8
DEFAULT_255_2_778
10
76.1041485
20
22.5017185
11
75.5070485
21
22.5017185
0
LINE
8
DEFAULT_255_2_778
10
75.5070485
20
22.5017185
11
75.5070485
21
20.8563185
0
LINE
8
DEFAULT_255_2_778
10
76.1380485
20
22.8925185
11
76.1041485
21
22.5017185
0
LINE
8
DEFAULT_255_2_778
10
78.6756485
20
22.5017185
11
78.6756485
21
20.8563185
0
LINE
8
DEFAULT_255_2_778
10
79.2728485
20
22.5017185
11
79.2728485
21
20.8563185
0
LINE
8
DEFAULT_255_2_778
10
65.1261485
20
22.5017185
11
64.9835485
21
20.8563185
0
LINE
8
DEFAULT_255_2_778
10
64.9835485
20
20.8563185
11
69.0348485
21
20.8563185
0
LINE
8
DEFAULT_255_2_778
10
69.0348485
20
20.8563185
11
68.8922485
21
22.5017185
0
LINE
8
DEFAULT_255_2_778
10
68.8922485
20
22.5017185
11
68.2950485
21
22.5017185
0
LINE
8
DEFAULT_255_2_778
10
68.2950485
20
22.5017185
11
68.2612485
21
22.8925185
0
LINE
8
DEFAULT_255_2_778
10
65.7235485
20
20.8563185
11
65.7235485
21
22.5017185
0
LINE
8
DEFAULT_255_2_778
10
65.7235485
20
22.5017185
11
65.1264485
21
22.5017185
0
LINE
8
DEFAULT_255_2_778
10
65.1264485
20
22.5017185
11
65.1264485
21
20.8563185
0
LINE
8
DEFAULT_255_2_778
10
65.7574485
20
22.8925185
11
65.7235485
21
22.5017185
0
LINE
8
DEFAULT_255_2_778
10
68.2950485
20
22.5017185
11
68.2950485
21
20.8563185
0
LINE
8
DEFAULT_255_2_778
10
68.8922485
20
22.5017185
11
68.8922485
21
20.8563185
0
LINE
8
DEFAULT_255_2_778
10
70.3164525
20
22.5017185
11
70.1738525
21
20.8563185
0
LINE
8
DEFAULT_255_2_778
10
70.1738525
20
20.8563185
11
74.2251525
21
20.8563185
0
LINE
8
DEFAULT_255_2_778
10
74.2251525
20
20.8563185
11
74.0825525
21
22.5017185
0
LINE
8
DEFAULT_255_2_778
10
74.0825525
20
22.5017185
11
73.4853525
21
22.5017185
0
LINE
8
DEFAULT_255_2_778
10
73.4853525
20
22.5017185
11
73.4515525
21
22.8925185
0
LINE
8
DEFAULT_255_2_778
10
70.9138525
20
20.8563185
11
70.9138525
21
22.5017185
0
LINE
8
DEFAULT_255_2_778
10
70.9138525
20
22.5017185
11
70.3167525
21
22.5017185
0
LINE
8
DEFAULT_255_2_778
10
70.3167525
20
22.5017185
11
70.3167525
21
20.8563185
0
LINE
8
DEFAULT_255_2_778
10
70.9477525
20
22.8925185
11
70.9138525
21
22.5017185
0
LINE
8
DEFAULT_255_2_778
10
73.4853525
20
22.5017185
11
73.4853525
21
20.8563185
0
LINE
8
DEFAULT_255_2_778
10
74.0825525
20
22.5017185
11
74.0825525
21
20.8563185
0
LINE
8
DEFAULT_255_2_778
10
59.9357485
20
22.5017185
11
59.7931485
21
20.8563185
0
LINE
8
DEFAULT_255_2_778
10
59.7931485
20
20.8563185
11
63.8444485
21
20.8563185
0
LINE
8
DEFAULT_255_2_778
10
63.8444485
20
20.8563185
11
63.7018485
21
22.5017185
0
LINE
8
DEFAULT_255_2_778
10
63.7018485
20
22.5017185
11
63.1046485
21
22.5017185
0
LINE
8
DEFAULT_255_2_778
10
63.1046485
20
22.5017185
11
63.0708485
21
22.8925185
0
LINE
8
DEFAULT_255_2_778
10
60.5331485
20
20.8563185
11
60.5331485
21
22.5017185
0
LINE
8
DEFAULT_255_2_778
10
60.5331485
20
22.5017185
11
59.9360485
21
22.5017185
0
LINE
8
DEFAULT_255_2_778
10
59.9360485
20
22.5017185
11
59.9360485
21
20.8563185
0
LINE
8
DEFAULT_255_2_778
10
60.5670485
20
22.8925185
11
60.5331485
21
22.5017185
0
LINE
8
DEFAULT_255_2_778
10
63.1046485
20
22.5017185
11
63.1046485
21
20.8563185
0
LINE
8
DEFAULT_255_2_778
10
63.7018485
20
22.5017185
11
63.7018485
21
20.8563185
0
LINE
8
DEFAULT_255_2_778
10
54.7457566
20
22.5017185
11
54.6031566
21
20.8563185
0
LINE
8
DEFAULT_255_2_778
10
54.6031566
20
20.8563185
11
58.6544566
21
20.8563185
0
LINE
8
DEFAULT_255_2_778
10
58.6544566
20
20.8563185
11
58.5118566
21
22.5017185
0
LINE
8
DEFAULT_255_2_778
10
58.5118566
20
22.5017185
11
57.9146566
21
22.5017185
0
LINE
8
DEFAULT_255_2_778
10
57.9146566
20
22.5017185
11
57.8808566
21
22.8925185
0
LINE
8
DEFAULT_255_2_778
10
55.3431566
20
20.8563185
11
55.3431566
21
22.5017185
0
LINE
8
DEFAULT_255_2_778
10
55.3431566
20
22.5017185
11
54.7460566
21
22.5017185
0
LINE
8
DEFAULT_255_2_778
10
54.7460566
20
22.5017185
11
54.7460566
21
20.8563185
0
LINE
8
DEFAULT_255_2_778
10
55.3770566
20
22.8925185
11
55.3431566
21
22.5017185
0
LINE
8
DEFAULT_255_2_778
10
57.9146566
20
22.5017185
11
57.9146566
21
20.8563185
0
LINE
8
DEFAULT_255_2_778
10
58.5118566
20
22.5017185
11
58.5118566
21
20.8563185
0
LINE
8
DEFAULT_255_2_778
10
49.5553525
20
22.5017185
11
49.4127525
21
20.8563185
0
LINE
8
DEFAULT_255_2_778
10
49.4127525
20
20.8563185
11
53.4640525
21
20.8563185
0
LINE
8
DEFAULT_255_2_778
10
53.4640525
20
20.8563185
11
53.3214525
21
22.5017185
0
LINE
8
DEFAULT_255_2_778
10
53.3214525
20
22.5017185
11
52.7242525
21
22.5017185
0
LINE
8
DEFAULT_255_2_778
10
52.7242525
20
22.5017185
11
52.6904525
21
22.8925185
0
LINE
8
DEFAULT_255_2_778
10
50.1527525
20
20.8563185
11
50.1527525
21
22.5017185
0
LINE
8
DEFAULT_255_2_778
10
50.1527525
20
22.5017185
11
49.5556525
21
22.5017185
0
LINE
8
DEFAULT_255_2_778
10
49.5556525
20
22.5017185
11
49.5556525
21
20.8563185
0
LINE
8
DEFAULT_255_2_778
10
50.1866525
20
22.8925185
11
50.1527525
21
22.5017185
0
LINE
8
DEFAULT_255_2_778
10
52.7242525
20
22.5017185
11
52.7242525
21
20.8563185
0
LINE
8
DEFAULT_255_2_778
10
53.3214525
20
22.5017185
11
53.3214525
21
20.8563185
0
LINE
8
DEFAULT_255_2_778
10
44.2967525
20
22.5176185
11
44.1541525
21
20.8722185
0
LINE
8
DEFAULT_255_2_778
10
44.1541525
20
20.8722185
11
48.2054525
21
20.8722185
0
LINE
8
DEFAULT_255_2_778
10
48.2054525
20
20.8722185
11
48.0628525
21
22.5176185
0
LINE
8
DEFAULT_255_2_778
10
48.0628525
20
22.5176185
11
47.4656525
21
22.5176185
0
LINE
8
DEFAULT_255_2_778
10
47.4656525
20
22.5176185
11
47.4318525
21
22.9084185
0
LINE
8
DEFAULT_255_2_778
10
44.8941525
20
20.8722185
11
44.8941525
21
22.5176185
0
LINE
8
DEFAULT_255_2_778
10
44.8941525
20
22.5176185
11
44.2970525
21
22.5176185
0
LINE
8
DEFAULT_255_2_778
10
44.2970525
20
22.5176185
11
44.2970525
21
20.8722185
0
LINE
8
DEFAULT_255_2_778
10
44.9280525
20
22.9084185
11
44.8941525
21
22.5176185
0
LINE
8
DEFAULT_255_2_778
10
47.4656525
20
22.5176185
11
47.4656525
21
20.8722185
0
LINE
8
DEFAULT_255_2_778
10
48.0628525
20
22.5176185
11
48.0628525
21
20.8722185
0
LINE
8
DEFAULT_255_2_778
10
42.0589768
20
13.0672811
11
42.0589768
21
11.8686811
0
LINE
8
DEFAULT_255_2_778
10
42.0589768
20
11.8686811
11
43.6527768
21
11.8686811
0
LINE
8
DEFAULT_255_2_778
10
43.6527768
20
12.4314811
11
42.1174768
21
12.4314811
0
LINE
8
DEFAULT_255_2_778
10
42.1174768
20
12.4314811
11
42.1174768
21
13.0672811
0
ARC
8
DEFAULT_255_2_778
10
129.2209478
20
15.666767
40
1.9814708
50
156.4064598
51
180.0964141
0
ARC
8
DEFAULT_255_2_778
10
129.2244294
20
15.6615922
40
1.9867354
50
101.1758468
51
156.3098841
0
ARC
8
DEFAULT_255_2_778
10
129.2305764
20
15.6254031
40
2.02343
50
89.9659234
51
101.14799
0
ARC
8
DEFAULT_255_2_778
10
129.2353024
20
15.6482988
40
2.000537
50
66.733977
51
90.1008873
0
ARC
8
DEFAULT_255_2_778
10
129.2421837
20
15.6654663
40
1.9820474
50
9.2068274
51
66.720695
0
ARC
8
DEFAULT_255_2_778
10
129.2153184
20
15.6642628
40
2.0087615
50
359.9763235
51
9.1181085
0
ARC
8
DEFAULT_255_2_778
10
129.2422439
20
15.6600823
40
1.9818387
50
336.4097479
51
0.0968609
0
ARC
8
DEFAULT_255_2_778
10
129.2392266
20
15.6650388
40
1.9865903
50
281.1746683
51
336.3135679
0
ARC
8
DEFAULT_255_2_778
10
129.2329883
20
15.7015886
40
2.0236563
50
269.9657847
51
281.147395
0
ARC
8
DEFAULT_255_2_778
10
129.228272
20
15.6783089
40
2.0003793
50
246.7329048
51
270.100473
0
ARC
8
DEFAULT_255_2_778
10
129.2214994
20
15.6614008
40
1.9821712
50
189.20708
51
246.7196867
0
ARC
8
DEFAULT_255_2_778
10
129.2483393
20
15.6625999
40
2.0088596
50
179.9762469
51
189.1183552
0
ARC
8
DEFAULT_255_2_778
10
129.2204518
20
15.6666975
40
1.8277749
50
154.998306
51
180.1023424
0
ARC
8
DEFAULT_255_2_778
10
129.2250859
20
15.6615091
40
1.8341698
50
100.6809164
51
154.9126012
0
ARC
8
DEFAULT_255_2_778
10
129.2307509
20
15.6271084
40
1.8690248
50
89.9684593
51
100.6561168
0
ARC
8
DEFAULT_255_2_778
10
129.2352249
20
15.6506338
40
1.8455021
50
65.5123005
51
90.1069571
0
ARC
8
DEFAULT_255_2_778
10
129.2417554
20
15.665541
40
1.8292291
50
9.0350916
51
65.5049096
0
ARC
8
DEFAULT_255_2_778
10
129.2159449
20
15.664181
40
1.8549351
50
359.976887
51
8.9513816
0
ARC
8
DEFAULT_255_2_778
10
129.2426422
20
15.6601231
40
1.8282406
50
335.0015345
51
0.1037206
0
ARC
8
DEFAULT_255_2_778
10
129.2386465
20
15.6650574
40
1.8339494
50
280.6767217
51
334.914574
0
ARC
8
DEFAULT_255_2_778
10
129.2328128
20
15.7000228
40
1.8693904
50
269.968338
51
280.6538786
0
ARC
8
DEFAULT_255_2_778
10
129.2283326
20
15.6761038
40
1.8454743
50
245.5119763
51
270.1070238
0
ARC
8
DEFAULT_255_2_778
10
129.2218476
20
15.6612446
40
1.8292637
50
189.0332266
51
245.5039114
0
ARC
8
DEFAULT_255_2_778
10
129.2479366
20
15.6626831
40
1.8552569
50
179.9768517
51
188.9506005
0
LINE
8
DEFAULT_255_2_778
10
128.9761798
20
17.4784327
11
128.9761798
21
13.8486327
0
LINE
8
DEFAULT_255_2_778
10
129.4870798
20
13.8486327
11
129.4870798
21
17.4784327
0
LINE
8
DEFAULT_255_2_778
10
127.2394798
20
15.6634327
11
127.2394798
21
15.6634327
0
LINE
8
DEFAULT_255_2_778
10
127.3926798
20
15.6634327
11
127.3926798
21
15.6634327
0
ARC
8
DEFAULT_255_2_778
10
39.0950073
20
17.749703
40
0.5100216
50
89.9012217
51
179.8965525
0
ARC
8
DEFAULT_255_2_778
10
39.0947948
20
13.5771316
40
0.5098088
50
180.0907765
51
270.122707
0
LINE
8
DEFAULT_255_2_778
10
43.6527866
20
18.2597239
11
39.0958866
21
18.2597239
0
LINE
8
DEFAULT_255_2_778
10
38.5849866
20
17.7506239
11
38.5849866
21
13.5763239
0
LINE
8
DEFAULT_255_2_778
10
39.0958866
20
13.0673239
11
43.6527866
21
13.0673239
0
ARC
8
DEFAULT_255_2_778
10
41.1085558
20
15.666767
40
1.9814708
50
156.4064598
51
180.0964141
0
ARC
8
DEFAULT_255_2_778
10
41.1120375
20
15.6615922
40
1.9867354
50
101.1758468
51
156.3098841
0
ARC
8
DEFAULT_255_2_778
10
41.1181844
20
15.6254031
40
2.02343
50
89.9659234
51
101.14799
0
ARC
8
DEFAULT_255_2_778
10
41.1229105
20
15.6482988
40
2.000537
50
66.733977
51
90.1008873
0
ARC
8
DEFAULT_255_2_778
10
41.1297917
20
15.6654663
40
1.9820474
50
9.2068274
51
66.720695
0
ARC
8
DEFAULT_255_2_778
10
41.1029265
20
15.6642628
40
2.0087615
50
359.9763235
51
9.1181085
0
ARC
8
DEFAULT_255_2_778
10
41.129852
20
15.6600823
40
1.9818387
50
336.4097479
51
0.0968609
0
ARC
8
DEFAULT_255_2_778
10
41.1268347
20
15.6650388
40
1.9865903
50
281.1746683
51
336.3135679
0
ARC
8
DEFAULT_255_2_778
10
41.1205963
20
15.7015886
40
2.0236563
50
269.9657847
51
281.147395
0
ARC
8
DEFAULT_255_2_778
10
41.11588
20
15.6783089
40
2.0003793
50
246.7329048
51
270.100473
0
ARC
8
DEFAULT_255_2_778
10
41.1091075
20
15.6614008
40
1.9821712
50
189.20708
51
246.7196867
0
ARC
8
DEFAULT_255_2_778
10
41.1359474
20
15.6625999
40
2.0088596
50
179.9762469
51
189.1183552
0
ARC
8
DEFAULT_255_2_778
10
41.1080599
20
15.6666975
40
1.8277749
50
154.998306
51
180.1023424
0
ARC
8
DEFAULT_255_2_778
10
41.112694
20
15.6615091
40
1.8341698
50
100.6809164
51
154.9126012
0
ARC
8
DEFAULT_255_2_778
10
41.118359
20
15.6271084
40
1.8690248
50
89.9684593
51
100.6561168
0
ARC
8
DEFAULT_255_2_778
10
41.122833
20
15.6506338
40
1.8455021
50
65.5123005
51
90.1069571
0
ARC
8
DEFAULT_255_2_778
10
41.1293634
20
15.665541
40
1.8292291
50
9.0350916
51
65.5049096
0
ARC
8
DEFAULT_255_2_778
10
41.103553
20
15.664181
40
1.8549351
50
359.976887
51
8.9513816
0
ARC
8
DEFAULT_255_2_778
10
41.1302503
20
15.6601231
40
1.8282406
50
335.0015345
51
0.1037206
0
ARC
8
DEFAULT_255_2_778
10
41.1262546
20
15.6650574
40
1.8339494
50
280.6767217
51
334.914574
0
ARC
8
DEFAULT_255_2_778
10
41.1204209
20
15.7000228
40
1.8693904
50
269.968338
51
280.6538786
0
ARC
8
DEFAULT_255_2_778
10
41.1159407
20
15.6761038
40
1.8454743
50
245.5119763
51
270.1070238
0
ARC
8
DEFAULT_255_2_778
10
41.1094557
20
15.6612446
40
1.8292637
50
189.0332266
51
245.5039114
0
ARC
8
DEFAULT_255_2_778
10
41.1355447
20
15.6626831
40
1.8552569
50
179.9768517
51
188.9506005
0
LINE
8
DEFAULT_255_2_778
10
40.8637879
20
17.4784327
11
40.8637879
21
13.8486327
0
LINE
8
DEFAULT_255_2_778
10
41.3746879
20
13.8486327
11
41.3746879
21
17.4784327
0
LINE
8
DEFAULT_255_2_778
10
39.1270879
20
15.6634327
11
39.1270879
21
15.6634327
0
LINE
8
DEFAULT_255_2_778
10
39.2802879
20
15.6634327
11
39.2802879
21
15.6634327
0
ARC
8
DEFAULT_255_2_778
10
124.0912669
20
16.1756261
40
1.8278936
50
154.9991318
51
180.1020865
0
ARC
8
DEFAULT_255_2_778
10
124.0958701
20
16.170488
40
1.8342391
50
100.6832981
51
154.9144425
0
ARC
8
DEFAULT_255_2_778
10
124.1014494
20
16.1363275
40
1.868842
50
89.9685202
51
100.6572364
0
ARC
8
DEFAULT_255_2_778
10
124.1059234
20
16.1596982
40
1.8454743
50
65.5119763
51
90.1070238
0
ARC
8
DEFAULT_255_2_778
10
124.1124084
20
16.1745573
40
1.8292637
50
9.0332266
51
65.5039114
0
ARC
8
DEFAULT_255_2_778
10
124.0863194
20
16.1731188
40
1.8552569
50
359.9768517
51
8.9506005
0
ARC
8
DEFAULT_255_2_778
10
124.1135737
20
16.1690691
40
1.8280055
50
334.9999024
51
0.1034365
0
ARC
8
DEFAULT_255_2_778
10
124.1093437
20
16.1741219
40
1.8339768
50
280.6765334
51
334.9126849
0
ARC
8
DEFAULT_255_2_778
10
124.1035082
20
16.2090822
40
1.8694132
50
269.968371
51
280.6537803
0
ARC
8
DEFAULT_255_2_778
10
124.0990311
20
16.1851681
40
1.8455021
50
245.5123005
51
270.1069571
0
ARC
8
DEFAULT_255_2_778
10
124.0925006
20
16.1702609
40
1.8292291
50
189.0350916
51
245.5049096
0
ARC
8
DEFAULT_255_2_778
10
124.1183111
20
16.1716209
40
1.8549351
50
179.976887
51
188.9513816
0
ARC
8
DEFAULT_255_2_778
10
124.0958552
20
16.1747634
40
1.5257809
50
150.7989366
51
180.089905
0
ARC
8
DEFAULT_255_2_778
10
124.1029844
20
16.1716962
40
1.5335005
50
97.9565603
51
150.8288546
0
ARC
8
DEFAULT_255_2_778
10
124.1022423
20
16.1585161
40
1.546453
50
89.9839228
51
97.8617349
0
ARC
8
DEFAULT_255_2_778
10
124.1050473
20
16.1792718
40
1.5256992
50
60.7981384
51
90.0890425
0
ARC
8
DEFAULT_255_2_778
10
124.1019336
20
16.1719869
40
1.5335776
50
7.9589553
51
60.8293843
0
ARC
8
DEFAULT_255_2_778
10
124.0890349
20
16.1728018
40
1.5462414
50
359.9839716
51
7.8628695
0
ARC
8
DEFAULT_255_2_778
10
124.1096786
20
16.1700101
40
1.5255995
50
330.7955358
51
0.0885993
0
ARC
8
DEFAULT_255_2_778
10
124.1022031
20
16.1732139
40
1.5336883
50
277.9609959
51
330.8273254
0
ARC
8
DEFAULT_255_2_778
10
124.103107
20
16.1857245
40
1.5459554
50
269.9840344
51
277.8636008
0
ARC
8
DEFAULT_255_2_778
10
124.100294
20
16.1654485
40
1.5256812
50
240.796334
51
270.0894619
0
ARC
8
DEFAULT_255_2_778
10
124.1034513
20
16.1727682
40
1.5336113
50
187.9586009
51
240.8267957
0
ARC
8
DEFAULT_255_2_778
10
124.1162434
20
16.1719371
40
1.5461671
50
179.9839856
51
187.8624661
0
LINE
8
DEFAULT_255_2_778
10
122.2633762
20
16.1723692
11
122.2633762
21
16.1723692
0
LINE
8
DEFAULT_255_2_778
10
122.5914762
20
15.9178692
11
125.6137762
21
15.9178692
0
LINE
8
DEFAULT_255_2_778
10
125.6137762
20
16.4269692
11
122.5914762
21
16.4269692
0
LINE
8
DEFAULT_255_2_778
10
122.5700762
20
16.1723692
11
122.5700762
21
16.1723692
0
ARC
8
DEFAULT_255_2_778
10
118.900975
20
16.1756261
40
1.8278936
50
154.9991318
51
180.1020865
0
ARC
8
DEFAULT_255_2_778
10
118.9055782
20
16.170488
40
1.8342391
50
100.6832981
51
154.9144425
0
ARC
8
DEFAULT_255_2_778
10
118.9111575
20
16.1363275
40
1.868842
50
89.9685202
51
100.6572364
0
ARC
8
DEFAULT_255_2_778
10
118.9156315
20
16.1596982
40
1.8454743
50
65.5119763
51
90.1070238
0
ARC
8
DEFAULT_255_2_778
10
118.9221165
20
16.1745573
40
1.8292637
50
9.0332266
51
65.5039114
0
ARC
8
DEFAULT_255_2_778
10
118.8960275
20
16.1731188
40
1.8552569
50
359.9768517
51
8.9506005
0
ARC
8
DEFAULT_255_2_778
10
118.9232818
20
16.1690691
40
1.8280055
50
334.9999024
51
0.1034365
0
ARC
8
DEFAULT_255_2_778
10
118.9190518
20
16.1741219
40
1.8339768
50
280.6765334
51
334.9126849
0
ARC
8
DEFAULT_255_2_778
10
118.9132162
20
16.2090822
40
1.8694132
50
269.968371
51
280.6537803
0
ARC
8
DEFAULT_255_2_778
10
118.9087392
20
16.1851681
40
1.8455021
50
245.5123005
51
270.1069571
0
ARC
8
DEFAULT_255_2_778
10
118.9022087
20
16.1702609
40
1.8292291
50
189.0350916
51
245.5049096
0
ARC
8
DEFAULT_255_2_778
10
118.9280192
20
16.1716209
40
1.8549351
50
179.976887
51
188.9513816
0
ARC
8
DEFAULT_255_2_778
10
118.9052633
20
16.1747634
40
1.5257809
50
150.7989366
51
180.089905
0
ARC
8
DEFAULT_255_2_778
10
118.9123925
20
16.1716962
40
1.5335005
50
97.9565603
51
150.8288546
0
ARC
8
DEFAULT_255_2_778
10
118.9116503
20
16.1585161
40
1.546453
50
89.9839228
51
97.8617349
0
ARC
8
DEFAULT_255_2_778
10
118.9144553
20
16.1792718
40
1.5256992
50
60.7981384
51
90.0890425
0
ARC
8
DEFAULT_255_2_778
10
118.9113417
20
16.1719869
40
1.5335776
50
7.9589553
51
60.8293843
0
ARC
8
DEFAULT_255_2_778
10
118.898443
20
16.1728018
40
1.5462414
50
359.9839716
51
7.8628695
0
ARC
8
DEFAULT_255_2_778
10
118.9190866
20
16.1700101
40
1.5255995
50
330.7955358
51
0.0885993
0
ARC
8
DEFAULT_255_2_778
10
118.9116111
20
16.1732139
40
1.5336883
50
277.9609959
51
330.8273254
0
ARC
8
DEFAULT_255_2_778
10
118.9125151
20
16.1857245
40
1.5459554
50
269.9840344
51
277.8636008
0
ARC
8
DEFAULT_255_2_778
10
118.9097021
20
16.1654485
40
1.5256812
50
240.796334
51
270.0894619
0
ARC
8
DEFAULT_255_2_778
10
118.9128594
20
16.1727682
40
1.5336113
50
187.9586009
51
240.8267957
0
ARC
8
DEFAULT_255_2_778
10
118.9256514
20
16.1719371
40
1.5461671
50
179.9839856
51
187.8624661
0
LINE
8
DEFAULT_255_2_778
10
117.0730843
20
16.1723692
11
117.0730843
21
16.1723692
0
LINE
8
DEFAULT_255_2_778
10
117.4008843
20
15.9178692
11
120.4232843
21
15.9178692
0
LINE
8
DEFAULT_255_2_778
10
120.4232843
20
16.4269692
11
117.4008843
21
16.4269692
0
LINE
8
DEFAULT_255_2_778
10
117.3794843
20
16.1723692
11
117.3794843
21
16.1723692
0
ARC
8
DEFAULT_255_2_778
10
113.710675
20
16.1756261
40
1.8278936
50
154.9991318
51
180.1020865
0
ARC
8
DEFAULT_255_2_778
10
113.7152782
20
16.170488
40
1.8342391
50
100.6832981
51
154.9144425
0
ARC
8
DEFAULT_255_2_778
10
113.7208575
20
16.1363275
40
1.868842
50
89.9685202
51
100.6572364
0
ARC
8
DEFAULT_255_2_778
10
113.7253315
20
16.1596982
40
1.8454743
50
65.5119763
51
90.1070238
0
ARC
8
DEFAULT_255_2_778
10
113.7318165
20
16.1745573
40
1.8292637
50
9.0332266
51
65.5039114
0
ARC
8
DEFAULT_255_2_778
10
113.7057275
20
16.1731188
40
1.8552569
50
359.9768517
51
8.9506005
0
ARC
8
DEFAULT_255_2_778
10
113.7329818
20
16.1690691
40
1.8280055
50
334.9999024
51
0.1034365
0
ARC
8
DEFAULT_255_2_778
10
113.7287518
20
16.1741219
40
1.8339768
50
280.6765334
51
334.9126849
0
ARC
8
DEFAULT_255_2_778
10
113.7229162
20
16.2090822
40
1.8694132
50
269.968371
51
280.6537803
0
ARC
8
DEFAULT_255_2_778
10
113.7184392
20
16.1851681
40
1.8455021
50
245.5123005
51
270.1069571
0
ARC
8
DEFAULT_255_2_778
10
113.7119087
20
16.1702609
40
1.8292291
50
189.0350916
51
245.5049096
0
ARC
8
DEFAULT_255_2_778
10
113.7377192
20
16.1716209
40
1.8549351
50
179.976887
51
188.9513816
0
ARC
8
DEFAULT_255_2_778
10
113.7152954
20
16.1747607
40
1.525813
50
150.7994986
51
180.0898038
0
ARC
8
DEFAULT_255_2_778
10
113.7223633
20
16.1717544
40
1.5334496
50
97.9586159
51
150.8302806
0
ARC
8
DEFAULT_255_2_778
10
113.7215513
20
16.1588432
40
1.5461259
50
89.9839535
51
97.8625685
0
ARC
8
DEFAULT_255_2_778
10
113.7243784
20
16.1791902
40
1.5257809
50
60.7989366
51
90.089905
0
ARC
8
DEFAULT_255_2_778
10
113.7213112
20
16.172061
40
1.5335005
50
7.9565603
51
60.8288546
0
ARC
8
DEFAULT_255_2_778
10
113.7081311
20
16.1728031
40
1.546453
50
359.9839228
51
7.8617349
0
ARC
8
DEFAULT_255_2_778
10
113.7288869
20
16.1699982
40
1.5256992
50
330.7981384
51
0.0890425
0
ARC
8
DEFAULT_255_2_778
10
113.7216019
20
16.1731118
40
1.5335776
50
277.9589553
51
330.8293843
0
ARC
8
DEFAULT_255_2_778
10
113.7224168
20
16.1860105
40
1.5462414
50
269.9839716
51
277.8628695
0
ARC
8
DEFAULT_255_2_778
10
113.7196151
20
16.1652354
40
1.525468
50
240.7942505
51
270.0889857
0
ARC
8
DEFAULT_255_2_778
10
113.7228937
20
16.1727708
40
1.5336457
50
187.9585219
51
240.8247
0
ARC
8
DEFAULT_255_2_778
10
113.7356514
20
16.1719371
40
1.5461671
50
179.9839855
51
187.862466
0
LINE
8
DEFAULT_255_2_778
10
111.8827843
20
16.1723692
11
111.8827843
21
16.1723692
0
LINE
8
DEFAULT_255_2_778
10
112.2108843
20
15.9178692
11
115.2331843
21
15.9178692
0
LINE
8
DEFAULT_255_2_778
10
115.2331843
20
16.4269692
11
112.2108843
21
16.4269692
0
LINE
8
DEFAULT_255_2_778
10
112.1894843
20
16.1723692
11
112.1894843
21
16.1723692
0
ARC
8
DEFAULT_255_2_778
10
108.520375
20
16.1756261
40
1.8278936
50
154.9991318
51
180.1020865
0
ARC
8
DEFAULT_255_2_778
10
108.5249782
20
16.170488
40
1.8342391
50
100.6832981
51
154.9144425
0
ARC
8
DEFAULT_255_2_778
10
108.5305575
20
16.1363275
40
1.868842
50
89.9685202
51
100.6572364
0
ARC
8
DEFAULT_255_2_778
10
108.5350315
20
16.1596982
40
1.8454743
50
65.5119763
51
90.1070238
0
ARC
8
DEFAULT_255_2_778
10
108.5415165
20
16.1745573
40
1.8292637
50
9.0332266
51
65.5039114
0
ARC
8
DEFAULT_255_2_778
10
108.5154275
20
16.1731188
40
1.8552569
50
359.9768517
51
8.9506005
0
ARC
8
DEFAULT_255_2_778
10
108.5426818
20
16.1690691
40
1.8280055
50
334.9999024
51
0.1034365
0
ARC
8
DEFAULT_255_2_778
10
108.5384518
20
16.1741219
40
1.8339768
50
280.6765334
51
334.9126849
0
ARC
8
DEFAULT_255_2_778
10
108.5326162
20
16.2090822
40
1.8694132
50
269.968371
51
280.6537803
0
ARC
8
DEFAULT_255_2_778
10
108.5281392
20
16.1851681
40
1.8455021
50
245.5123005
51
270.1069571
0
ARC
8
DEFAULT_255_2_778
10
108.5216087
20
16.1702609
40
1.8292291
50
189.0350916
51
245.5049096
0
ARC
8
DEFAULT_255_2_778
10
108.5474192
20
16.1716209
40
1.8549351
50
179.976887
51
188.9513816
0
ARC
8
DEFAULT_255_2_778
10
108.5245636
20
16.1747514
40
1.5256812
50
150.796334
51
180.0894619
0
ARC
8
DEFAULT_255_2_778
10
108.5318832
20
16.1715941
40
1.5336113
50
97.9586009
51
150.8267957
0
ARC
8
DEFAULT_255_2_778
10
108.5310521
20
16.158802
40
1.5461671
50
89.9839856
51
97.8624661
0
ARC
8
DEFAULT_255_2_778
10
108.5338553
20
16.1792718
40
1.5256992
50
60.7981384
51
90.0890425
0
ARC
8
DEFAULT_255_2_778
10
108.5307417
20
16.1719869
40
1.5335776
50
7.9589553
51
60.8293843
0
ARC
8
DEFAULT_255_2_778
10
108.517843
20
16.1728018
40
1.5462414
50
359.9839716
51
7.8628695
0
ARC
8
DEFAULT_255_2_778
10
108.5384866
20
16.1700101
40
1.5255995
50
330.7955358
51
0.0885993
0
ARC
8
DEFAULT_255_2_778
10
108.5310111
20
16.1732139
40
1.5336883
50
277.9609959
51
330.8273254
0
ARC
8
DEFAULT_255_2_778
10
108.5319151
20
16.1857245
40
1.5459554
50
269.9840344
51
277.8636008
0
ARC
8
DEFAULT_255_2_778
10
108.5291252
20
16.1653669
40
1.5255995
50
240.7955358
51
270.0885993
0
ARC
8
DEFAULT_255_2_778
10
108.532329
20
16.1728424
40
1.5336883
50
187.9609959
51
240.8273254
0
ARC
8
DEFAULT_255_2_778
10
108.5448396
20
16.1719384
40
1.5459554
50
179.9840344
51
187.8636008
0
LINE
8
DEFAULT_255_2_778
10
106.6924843
20
16.1723692
11
106.6924843
21
16.1723692
0
LINE
8
DEFAULT_255_2_778
10
107.0202843
20
15.9178692
11
110.0426843
21
15.9178692
0
LINE
8
DEFAULT_255_2_778
10
110.0426843
20
16.4269692
11
107.0202843
21
16.4269692
0
LINE
8
DEFAULT_255_2_778
10
106.9988843
20
16.1723692
11
106.9988843
21
16.1723692
0
ARC
8
DEFAULT_255_2_778
10
103.3299669
20
16.1756261
40
1.8278936
50
154.9991318
51
180.1020865
0
ARC
8
DEFAULT_255_2_778
10
103.3345701
20
16.170488
40
1.8342391
50
100.6832981
51
154.9144425
0
ARC
8
DEFAULT_255_2_778
10
103.3401494
20
16.1363275
40
1.868842
50
89.9685202
51
100.6572364
0
ARC
8
DEFAULT_255_2_778
10
103.3446234
20
16.1596982
40
1.8454743
50
65.5119763
51
90.1070238
0
ARC
8
DEFAULT_255_2_778
10
103.3511084
20
16.1745573
40
1.8292637
50
9.0332266
51
65.5039114
0
ARC
8
DEFAULT_255_2_778
10
103.3250194
20
16.1731188
40
1.8552569
50
359.9768517
51
8.9506005
0
ARC
8
DEFAULT_255_2_778
10
103.3522737
20
16.1690691
40
1.8280055
50
334.9999024
51
0.1034365
0
ARC
8
DEFAULT_255_2_778
10
103.3480437
20
16.1741219
40
1.8339768
50
280.6765334
51
334.9126849
0
ARC
8
DEFAULT_255_2_778
10
103.3422082
20
16.2090822
40
1.8694132
50
269.968371
51
280.6537803
0
ARC
8
DEFAULT_255_2_778
10
103.3377311
20
16.1851681
40
1.8455021
50
245.5123005
51
270.1069571
0
ARC
8
DEFAULT_255_2_778
10
103.3312006
20
16.1702609
40
1.8292291
50
189.0350916
51
245.5049096
0
ARC
8
DEFAULT_255_2_778
10
103.3570111
20
16.1716209
40
1.8549351
50
179.976887
51
188.9513816
0
ARC
8
DEFAULT_255_2_778
10
103.3345874
20
16.1747607
40
1.525813
50
150.7994986
51
180.0898038
0
ARC
8
DEFAULT_255_2_778
10
103.3416552
20
16.1717544
40
1.5334496
50
97.9586159
51
150.8302806
0
ARC
8
DEFAULT_255_2_778
10
103.3408432
20
16.1588432
40
1.5461259
50
89.9839535
51
97.8625685
0
ARC
8
DEFAULT_255_2_778
10
103.3436704
20
16.1791902
40
1.5257809
50
60.7989366
51
90.089905
0
ARC
8
DEFAULT_255_2_778
10
103.3406032
20
16.172061
40
1.5335005
50
7.9565603
51
60.8288546
0
ARC
8
DEFAULT_255_2_778
10
103.3274231
20
16.1728031
40
1.546453
50
359.9839228
51
7.8617349
0
ARC
8
DEFAULT_255_2_778
10
103.3481788
20
16.1699982
40
1.5256992
50
330.7981384
51
0.0890425
0
ARC
8
DEFAULT_255_2_778
10
103.3408938
20
16.1731118
40
1.5335776
50
277.9589553
51
330.8293843
0
ARC
8
DEFAULT_255_2_778
10
103.3417088
20
16.1860105
40
1.5462414
50
269.9839716
51
277.8628695
0
ARC
8
DEFAULT_255_2_778
10
103.338907
20
16.1652354
40
1.525468
50
240.7942505
51
270.0889857
0
ARC
8
DEFAULT_255_2_778
10
103.3421857
20
16.1727708
40
1.5336457
50
187.9585219
51
240.8247
0
ARC
8
DEFAULT_255_2_778
10
103.3549433
20
16.1719371
40
1.5461671
50
179.9839855
51
187.862466
0
LINE
8
DEFAULT_255_2_778
10
101.5020762
20
16.1723692
11
101.5020762
21
16.1723692
0
LINE
8
DEFAULT_255_2_778
10
101.8301762
20
15.9178692
11
104.8524762
21
15.9178692
0
LINE
8
DEFAULT_255_2_778
10
104.8524762
20
16.4269692
11
101.8301762
21
16.4269692
0
LINE
8
DEFAULT_255_2_778
10
101.8087762
20
16.1723692
11
101.8087762
21
16.1723692
0
ARC
8
DEFAULT_255_2_778
10
98.139675
20
16.1756261
40
1.8278936
50
154.9991318
51
180.1020865
0
ARC
8
DEFAULT_255_2_778
10
98.1442782
20
16.170488
40
1.8342391
50
100.6832981
51
154.9144425
0
ARC
8
DEFAULT_255_2_778
10
98.1498575
20
16.1363275
40
1.868842
50
89.9685202
51
100.6572364
0
ARC
8
DEFAULT_255_2_778
10
98.1543315
20
16.1596982
40
1.8454743
50
65.5119763
51
90.1070238
0
ARC
8
DEFAULT_255_2_778
10
98.1608165
20
16.1745573
40
1.8292637
50
9.0332266
51
65.5039114
0
ARC
8
DEFAULT_255_2_778
10
98.1347275
20
16.1731188
40
1.8552569
50
359.9768517
51
8.9506005
0
ARC
8
DEFAULT_255_2_778
10
98.1619818
20
16.1690691
40
1.8280055
50
334.9999024
51
0.1034365
0
ARC
8
DEFAULT_255_2_778
10
98.1577518
20
16.1741219
40
1.8339768
50
280.6765334
51
334.9126849
0
ARC
8
DEFAULT_255_2_778
10
98.1519162
20
16.2090822
40
1.8694132
50
269.968371
51
280.6537803
0
ARC
8
DEFAULT_255_2_778
10
98.1474392
20
16.1851681
40
1.8455021
50
245.5123005
51
270.1069571
0
ARC
8
DEFAULT_255_2_778
10
98.1409087
20
16.1702609
40
1.8292291
50
189.0350916
51
245.5049096
0
ARC
8
DEFAULT_255_2_778
10
98.1667192
20
16.1716209
40
1.8549351
50
179.976887
51
188.9513816
0
ARC
8
DEFAULT_255_2_778
10
98.1438636
20
16.1747514
40
1.5256812
50
150.796334
51
180.0894619
0
ARC
8
DEFAULT_255_2_778
10
98.1511832
20
16.1715941
40
1.5336113
50
97.9586009
51
150.8267957
0
ARC
8
DEFAULT_255_2_778
10
98.1503521
20
16.158802
40
1.5461671
50
89.9839856
51
97.8624661
0
ARC
8
DEFAULT_255_2_778
10
98.1531553
20
16.1792718
40
1.5256992
50
60.7981384
51
90.0890425
0
ARC
8
DEFAULT_255_2_778
10
98.1500417
20
16.1719869
40
1.5335776
50
7.9589553
51
60.8293843
0
ARC
8
DEFAULT_255_2_778
10
98.137143
20
16.1728018
40
1.5462414
50
359.9839716
51
7.8628695
0
ARC
8
DEFAULT_255_2_778
10
98.1577866
20
16.1700101
40
1.5255995
50
330.7955358
51
0.0885993
0
ARC
8
DEFAULT_255_2_778
10
98.1503111
20
16.1732139
40
1.5336883
50
277.9609959
51
330.8273254
0
ARC
8
DEFAULT_255_2_778
10
98.1512151
20
16.1857245
40
1.5459554
50
269.9840344
51
277.8636008
0
ARC
8
DEFAULT_255_2_778
10
98.1484252
20
16.1653669
40
1.5255995
50
240.7955358
51
270.0885993
0
ARC
8
DEFAULT_255_2_778
10
98.151629
20
16.1728424
40
1.5336883
50
187.9609959
51
240.8273254
0
ARC
8
DEFAULT_255_2_778
10
98.1641396
20
16.1719384
40
1.5459554
50
179.9840344
51
187.8636008
0
LINE
8
DEFAULT_255_2_778
10
96.3117843
20
16.1723692
11
96.3117843
21
16.1723692
0
LINE
8
DEFAULT_255_2_778
10
96.6395843
20
15.9178692
11
99.6619843
21
15.9178692
0
LINE
8
DEFAULT_255_2_778
10
99.6619843
20
16.4269692
11
96.6395843
21
16.4269692
0
LINE
8
DEFAULT_255_2_778
10
96.6181843
20
16.1723692
11
96.6181843
21
16.1723692
0
ARC
8
DEFAULT_255_2_778
10
92.949575
20
16.1756261
40
1.8278936
50
154.9991318
51
180.1020865
0
ARC
8
DEFAULT_255_2_778
10
92.9541782
20
16.170488
40
1.8342391
50
100.6832981
51
154.9144425
0
ARC
8
DEFAULT_255_2_778
10
92.9597575
20
16.1363275
40
1.868842
50
89.9685202
51
100.6572364
0
ARC
8
DEFAULT_255_2_778
10
92.9642315
20
16.1596982
40
1.8454743
50
65.5119763
51
90.1070238
0
ARC
8
DEFAULT_255_2_778
10
92.9707165
20
16.1745573
40
1.8292637
50
9.0332266
51
65.5039114
0
ARC
8
DEFAULT_255_2_778
10
92.9446275
20
16.1731188
40
1.8552569
50
359.9768517
51
8.9506005
0
ARC
8
DEFAULT_255_2_778
10
92.9718818
20
16.1690691
40
1.8280055
50
334.9999024
51
0.1034365
0
ARC
8
DEFAULT_255_2_778
10
92.9676518
20
16.1741219
40
1.8339768
50
280.6765334
51
334.9126849
0
ARC
8
DEFAULT_255_2_778
10
92.9618162
20
16.2090822
40
1.8694132
50
269.968371
51
280.6537803
0
ARC
8
DEFAULT_255_2_778
10
92.9573392
20
16.1851681
40
1.8455021
50
245.5123005
51
270.1069571
0
ARC
8
DEFAULT_255_2_778
10
92.9508087
20
16.1702609
40
1.8292291
50
189.0350916
51
245.5049096
0
ARC
8
DEFAULT_255_2_778
10
92.9766192
20
16.1716209
40
1.8549351
50
179.976887
51
188.9513816
0
ARC
8
DEFAULT_255_2_778
10
92.9539636
20
16.1747514
40
1.5256812
50
150.796334
51
180.0894619
0
ARC
8
DEFAULT_255_2_778
10
92.9612832
20
16.1715941
40
1.5336113
50
97.9586009
51
150.8267957
0
ARC
8
DEFAULT_255_2_778
10
92.9604521
20
16.158802
40
1.5461671
50
89.9839856
51
97.8624661
0
ARC
8
DEFAULT_255_2_778
10
92.9632784
20
16.1791902
40
1.5257809
50
60.7989366
51
90.089905
0
ARC
8
DEFAULT_255_2_778
10
92.9602112
20
16.172061
40
1.5335005
50
7.9565603
51
60.8288546
0
ARC
8
DEFAULT_255_2_778
10
92.9470311
20
16.1728031
40
1.546453
50
359.9839228
51
7.8617349
0
ARC
8
DEFAULT_255_2_778
10
92.9677869
20
16.1699982
40
1.5256992
50
330.7981384
51
0.0890425
0
ARC
8
DEFAULT_255_2_778
10
92.9605019
20
16.1731118
40
1.5335776
50
277.9589553
51
330.8293843
0
ARC
8
DEFAULT_255_2_778
10
92.9613168
20
16.1860105
40
1.5462414
50
269.9839716
51
277.8628695
0
ARC
8
DEFAULT_255_2_778
10
92.9585252
20
16.1653669
40
1.5255995
50
240.7955358
51
270.0885993
0
ARC
8
DEFAULT_255_2_778
10
92.961729
20
16.1728424
40
1.5336883
50
187.9609959
51
240.8273254
0
ARC
8
DEFAULT_255_2_778
10
92.9742396
20
16.1719384
40
1.5459554
50
179.9840344
51
187.8636008
0
LINE
8
DEFAULT_255_2_778
10
91.1216843
20
16.1723692
11
91.1216843
21
16.1723692
0
LINE
8
DEFAULT_255_2_778
10
91.4497843
20
15.9178692
11
94.4720843
21
15.9178692
0
LINE
8
DEFAULT_255_2_778
10
94.4720843
20
16.4269692
11
91.4497843
21
16.4269692
0
LINE
8
DEFAULT_255_2_778
10
91.4282843
20
16.1723692
11
91.4282843
21
16.1723692
0
ARC
8
DEFAULT_255_2_778
10
87.7592669
20
16.1756261
40
1.8278936
50
154.9991318
51
180.1020865
0
ARC
8
DEFAULT_255_2_778
10
87.7638701
20
16.170488
40
1.8342391
50
100.6832981
51
154.9144425
0
ARC
8
DEFAULT_255_2_778
10
87.7694494
20
16.1363275
40
1.868842
50
89.9685202
51
100.6572364
0
ARC
8
DEFAULT_255_2_778
10
87.7739234
20
16.1596982
40
1.8454743
50
65.5119763
51
90.1070238
0
ARC
8
DEFAULT_255_2_778
10
87.7804084
20
16.1745573
40
1.8292637
50
9.0332266
51
65.5039114
0
ARC
8
DEFAULT_255_2_778
10
87.7543194
20
16.1731188
40
1.8552569
50
359.9768517
51
8.9506005
0
ARC
8
DEFAULT_255_2_778
10
87.7815737
20
16.1690691
40
1.8280055
50
334.9999024
51
0.1034365
0
ARC
8
DEFAULT_255_2_778
10
87.7773437
20
16.1741219
40
1.8339768
50
280.6765334
51
334.9126849
0
ARC
8
DEFAULT_255_2_778
10
87.7715082
20
16.2090822
40
1.8694132
50
269.968371
51
280.6537803
0
ARC
8
DEFAULT_255_2_778
10
87.7670311
20
16.1851681
40
1.8455021
50
245.5123005
51
270.1069571
0
ARC
8
DEFAULT_255_2_778
10
87.7605006
20
16.1702609
40
1.8292291
50
189.0350916
51
245.5049096
0
ARC
8
DEFAULT_255_2_778
10
87.7863111
20
16.1716209
40
1.8549351
50
179.976887
51
188.9513816
0
ARC
8
DEFAULT_255_2_778
10
87.7634555
20
16.1747514
40
1.5256812
50
150.796334
51
180.0894619
0
ARC
8
DEFAULT_255_2_778
10
87.7707752
20
16.1715941
40
1.5336113
50
97.9586009
51
150.8267957
0
ARC
8
DEFAULT_255_2_778
10
87.769944
20
16.158802
40
1.5461671
50
89.9839856
51
97.8624661
0
ARC
8
DEFAULT_255_2_778
10
87.7727473
20
16.1792718
40
1.5256992
50
60.7981384
51
90.0890425
0
ARC
8
DEFAULT_255_2_778
10
87.7696336
20
16.1719869
40
1.5335776
50
7.9589553
51
60.8293843
0
ARC
8
DEFAULT_255_2_778
10
87.7567349
20
16.1728018
40
1.5462414
50
359.9839716
51
7.8628695
0
ARC
8
DEFAULT_255_2_778
10
87.7773786
20
16.1700101
40
1.5255995
50
330.7955358
51
0.0885993
0
ARC
8
DEFAULT_255_2_778
10
87.7699031
20
16.1732139
40
1.5336883
50
277.9609959
51
330.8273254
0
ARC
8
DEFAULT_255_2_778
10
87.770807
20
16.1857245
40
1.5459554
50
269.9840344
51
277.8636008
0
ARC
8
DEFAULT_255_2_778
10
87.7680171
20
16.1653669
40
1.5255995
50
240.7955358
51
270.0885993
0
ARC
8
DEFAULT_255_2_778
10
87.7712209
20
16.1728424
40
1.5336883
50
187.9609959
51
240.8273254
0
ARC
8
DEFAULT_255_2_778
10
87.7837315
20
16.1719384
40
1.5459554
50
179.9840344
51
187.8636008
0
LINE
8
DEFAULT_255_2_778
10
85.9313762
20
16.1723692
11
85.9313762
21
16.1723692
0
LINE
8
DEFAULT_255_2_778
10
86.2591762
20
15.9178692
11
89.2815762
21
15.9178692
0
LINE
8
DEFAULT_255_2_778
10
89.2815762
20
16.4269692
11
86.2591762
21
16.4269692
0
LINE
8
DEFAULT_255_2_778
10
86.2377762
20
16.1723692
11
86.2377762
21
16.1723692
0
ARC
8
DEFAULT_255_2_778
10
82.568975
20
16.1756261
40
1.8278936
50
154.9991318
51
180.1020865
0
ARC
8
DEFAULT_255_2_778
10
82.5735782
20
16.170488
40
1.8342391
50
100.6832981
51
154.9144425
0
ARC
8
DEFAULT_255_2_778
10
82.5791575
20
16.1363275
40
1.868842
50
89.9685202
51
100.6572364
0
ARC
8
DEFAULT_255_2_778
10
82.5836315
20
16.1596982
40
1.8454743
50
65.5119763
51
90.1070238
0
ARC
8
DEFAULT_255_2_778
10
82.5901165
20
16.1745573
40
1.8292637
50
9.0332266
51
65.5039114
0
ARC
8
DEFAULT_255_2_778
10
82.5640275
20
16.1731188
40
1.8552569
50
359.9768517
51
8.9506005
0
ARC
8
DEFAULT_255_2_778
10
82.5912818
20
16.1690691
40
1.8280055
50
334.9999024
51
0.1034365
0
ARC
8
DEFAULT_255_2_778
10
82.5870518
20
16.1741219
40
1.8339768
50
280.6765334
51
334.9126849
0
ARC
8
DEFAULT_255_2_778
10
82.5812162
20
16.2090822
40
1.8694132
50
269.968371
51
280.6537803
0
ARC
8
DEFAULT_255_2_778
10
82.5767392
20
16.1851681
40
1.8455021
50
245.5123005
51
270.1069571
0
ARC
8
DEFAULT_255_2_778
10
82.5702087
20
16.1702609
40
1.8292291
50
189.0350916
51
245.5049096
0
ARC
8
DEFAULT_255_2_778
10
82.5960192
20
16.1716209
40
1.8549351
50
179.976887
51
188.9513816
0
ARC
8
DEFAULT_255_2_778
10
82.5732633
20
16.1747634
40
1.5257809
50
150.7989366
51
180.089905
0
ARC
8
DEFAULT_255_2_778
10
82.5803925
20
16.1716962
40
1.5335005
50
97.9565603
51
150.8288546
0
ARC
8
DEFAULT_255_2_778
10
82.5796503
20
16.1585161
40
1.546453
50
89.9839228
51
97.8617349
0
ARC
8
DEFAULT_255_2_778
10
82.5824553
20
16.1792718
40
1.5256992
50
60.7981384
51
90.0890425
0
ARC
8
DEFAULT_255_2_778
10
82.5793417
20
16.1719869
40
1.5335776
50
7.9589553
51
60.8293843
0
ARC
8
DEFAULT_255_2_778
10
82.566443
20
16.1728018
40
1.5462414
50
359.9839716
51
7.8628695
0
ARC
8
DEFAULT_255_2_778
10
82.5870866
20
16.1700101
40
1.5255995
50
330.7955358
51
0.0885993
0
ARC
8
DEFAULT_255_2_778
10
82.5796111
20
16.1732139
40
1.5336883
50
277.9609959
51
330.8273254
0
ARC
8
DEFAULT_255_2_778
10
82.5805151
20
16.1857245
40
1.5459554
50
269.9840344
51
277.8636008
0
ARC
8
DEFAULT_255_2_778
10
82.5777021
20
16.1654485
40
1.5256812
50
240.796334
51
270.0894619
0
ARC
8
DEFAULT_255_2_778
10
82.5808594
20
16.1727682
40
1.5336113
50
187.9586009
51
240.8267957
0
ARC
8
DEFAULT_255_2_778
10
82.5936514
20
16.1719371
40
1.5461671
50
179.9839856
51
187.8624661
0
LINE
8
DEFAULT_255_2_778
10
80.7410843
20
16.1723692
11
80.7410843
21
16.1723692
0
LINE
8
DEFAULT_255_2_778
10
81.0688843
20
15.9178692
11
84.0912843
21
15.9178692
0
LINE
8
DEFAULT_255_2_778
10
84.0912843
20
16.4269692
11
81.0688843
21
16.4269692
0
LINE
8
DEFAULT_255_2_778
10
81.0474843
20
16.1723692
11
81.0474843
21
16.1723692
0
ARC
8
DEFAULT_255_2_778
10
77.378575
20
16.1756261
40
1.8278936
50
154.9991318
51
180.1020865
0
ARC
8
DEFAULT_255_2_778
10
77.3831782
20
16.170488
40
1.8342391
50
100.6832981
51
154.9144425
0
ARC
8
DEFAULT_255_2_778
10
77.3887575
20
16.1363275
40
1.868842
50
89.9685202
51
100.6572364
0
ARC
8
DEFAULT_255_2_778
10
77.3932315
20
16.1596982
40
1.8454743
50
65.5119763
51
90.1070238
0
ARC
8
DEFAULT_255_2_778
10
77.3997165
20
16.1745573
40
1.8292637
50
9.0332266
51
65.5039114
0
ARC
8
DEFAULT_255_2_778
10
77.3736275
20
16.1731188
40
1.8552569
50
359.9768517
51
8.9506005
0
ARC
8
DEFAULT_255_2_778
10
77.4008818
20
16.1690691
40
1.8280055
50
334.9999024
51
0.1034365
0
ARC
8
DEFAULT_255_2_778
10
77.3966518
20
16.1741219
40
1.8339768
50
280.6765334
51
334.9126849
0
ARC
8
DEFAULT_255_2_778
10
77.3908162
20
16.2090822
40
1.8694132
50
269.968371
51
280.6537803
0
ARC
8
DEFAULT_255_2_778
10
77.3863392
20
16.1851681
40
1.8455021
50
245.5123005
51
270.1069571
0
ARC
8
DEFAULT_255_2_778
10
77.3798087
20
16.1702609
40
1.8292291
50
189.0350916
51
245.5049096
0
ARC
8
DEFAULT_255_2_778
10
77.4056192
20
16.1716209
40
1.8549351
50
179.976887
51
188.9513816
0
ARC
8
DEFAULT_255_2_778
10
77.3831954
20
16.1747607
40
1.525813
50
150.7994986
51
180.0898038
0
ARC
8
DEFAULT_255_2_778
10
77.3902633
20
16.1717544
40
1.5334496
50
97.9586159
51
150.8302806
0
ARC
8
DEFAULT_255_2_778
10
77.3894513
20
16.1588432
40
1.5461259
50
89.9839535
51
97.8625685
0
ARC
8
DEFAULT_255_2_778
10
77.3922784
20
16.1791902
40
1.5257809
50
60.7989366
51
90.089905
0
ARC
8
DEFAULT_255_2_778
10
77.3892112
20
16.172061
40
1.5335005
50
7.9565603
51
60.8288546
0
ARC
8
DEFAULT_255_2_778
10
77.3760311
20
16.1728031
40
1.546453
50
359.9839228
51
7.8617349
0
ARC
8
DEFAULT_255_2_778
10
77.3967869
20
16.1699982
40
1.5256992
50
330.7981384
51
0.0890425
0
ARC
8
DEFAULT_255_2_778
10
77.3895019
20
16.1731118
40
1.5335776
50
277.9589553
51
330.8293843
0
ARC
8
DEFAULT_255_2_778
10
77.3903168
20
16.1860105
40
1.5462414
50
269.9839716
51
277.8628695
0
ARC
8
DEFAULT_255_2_778
10
77.3875151
20
16.1652354
40
1.525468
50
240.7942505
51
270.0889857
0
ARC
8
DEFAULT_255_2_778
10
77.3907937
20
16.1727708
40
1.5336457
50
187.9585219
51
240.8247
0
ARC
8
DEFAULT_255_2_778
10
77.4035514
20
16.1719371
40
1.5461671
50
179.9839855
51
187.862466
0
LINE
8
DEFAULT_255_2_778
10
75.5506843
20
16.1723692
11
75.5506843
21
16.1723692
0
LINE
8
DEFAULT_255_2_778
10
75.8787843
20
15.9178692
11
78.9010843
21
15.9178692
0
LINE
8
DEFAULT_255_2_778
10
78.9010843
20
16.4269692
11
75.8787843
21
16.4269692
0
LINE
8
DEFAULT_255_2_778
10
75.8573843
20
16.1723692
11
75.8573843
21
16.1723692
0
ARC
8
DEFAULT_255_2_778
10
72.188271
20
16.1756261
40
1.8278936
50
154.9991318
51
180.1020865
0
ARC
8
DEFAULT_255_2_778
10
72.1928741
20
16.170488
40
1.8342391
50
100.6832981
51
154.9144425
0
ARC
8
DEFAULT_255_2_778
10
72.1984534
20
16.1363275
40
1.868842
50
89.9685202
51
100.6572364
0
ARC
8
DEFAULT_255_2_778
10
72.2029274
20
16.1596982
40
1.8454743
50
65.5119763
51
90.1070238
0
ARC
8
DEFAULT_255_2_778
10
72.2094124
20
16.1745573
40
1.8292637
50
9.0332266
51
65.5039114
0
ARC
8
DEFAULT_255_2_778
10
72.1833234
20
16.1731188
40
1.8552569
50
359.9768517
51
8.9506005
0
ARC
8
DEFAULT_255_2_778
10
72.2105777
20
16.1690691
40
1.8280055
50
334.9999024
51
0.1034365
0
ARC
8
DEFAULT_255_2_778
10
72.2063477
20
16.1741219
40
1.8339768
50
280.6765334
51
334.9126849
0
ARC
8
DEFAULT_255_2_778
10
72.2005122
20
16.2090822
40
1.8694132
50
269.968371
51
280.6537803
0
ARC
8
DEFAULT_255_2_778
10
72.1960351
20
16.1851681
40
1.8455021
50
245.5123005
51
270.1069571
0
ARC
8
DEFAULT_255_2_778
10
72.1895047
20
16.1702609
40
1.8292291
50
189.0350916
51
245.5049096
0
ARC
8
DEFAULT_255_2_778
10
72.2153152
20
16.1716209
40
1.8549351
50
179.976887
51
188.9513816
0
ARC
8
DEFAULT_255_2_778
10
72.1924595
20
16.1747514
40
1.5256812
50
150.796334
51
180.0894619
0
ARC
8
DEFAULT_255_2_778
10
72.1997792
20
16.1715941
40
1.5336113
50
97.9586009
51
150.8267957
0
ARC
8
DEFAULT_255_2_778
10
72.1989481
20
16.158802
40
1.5461671
50
89.9839856
51
97.8624661
0
ARC
8
DEFAULT_255_2_778
10
72.2017513
20
16.1792718
40
1.5256992
50
60.7981384
51
90.0890425
0
ARC
8
DEFAULT_255_2_778
10
72.1986376
20
16.1719869
40
1.5335776
50
7.9589553
51
60.8293843
0
ARC
8
DEFAULT_255_2_778
10
72.185739
20
16.1728018
40
1.5462414
50
359.9839716
51
7.8628695
0
ARC
8
DEFAULT_255_2_778
10
72.2063826
20
16.1700101
40
1.5255995
50
330.7955358
51
0.0885993
0
ARC
8
DEFAULT_255_2_778
10
72.1989071
20
16.1732139
40
1.5336883
50
277.9609959
51
330.8273254
0
ARC
8
DEFAULT_255_2_778
10
72.199811
20
16.1857245
40
1.5459554
50
269.9840344
51
277.8636008
0
ARC
8
DEFAULT_255_2_778
10
72.1970211
20
16.1653669
40
1.5255995
50
240.7955358
51
270.0885993
0
ARC
8
DEFAULT_255_2_778
10
72.2002249
20
16.1728424
40
1.5336883
50
187.9609959
51
240.8273254
0
ARC
8
DEFAULT_255_2_778
10
72.2127355
20
16.1719384
40
1.5459554
50
179.9840344
51
187.8636008
0
LINE
8
DEFAULT_255_2_778
10
70.3603802
20
16.1723692
11
70.3603802
21
16.1723692
0
LINE
8
DEFAULT_255_2_778
10
70.6881802
20
15.9178692
11
73.7105802
21
15.9178692
0
LINE
8
DEFAULT_255_2_778
10
73.7105802
20
16.4269692
11
70.6881802
21
16.4269692
0
LINE
8
DEFAULT_255_2_778
10
70.6667802
20
16.1723692
11
70.6667802
21
16.1723692
0
ARC
8
DEFAULT_255_2_778
10
66.997971
20
16.1756261
40
1.8278936
50
154.9991318
51
180.1020865
0
ARC
8
DEFAULT_255_2_778
10
67.0025741
20
16.170488
40
1.8342391
50
100.6832981
51
154.9144425
0
ARC
8
DEFAULT_255_2_778
10
67.0081534
20
16.1363275
40
1.868842
50
89.9685202
51
100.6572364
0
ARC
8
DEFAULT_255_2_778
10
67.0126274
20
16.1596982
40
1.8454743
50
65.5119763
51
90.1070238
0
ARC
8
DEFAULT_255_2_778
10
67.0191124
20
16.1745573
40
1.8292637
50
9.0332266
51
65.5039114
0
ARC
8
DEFAULT_255_2_778
10
66.9930234
20
16.1731188
40
1.8552569
50
359.9768517
51
8.9506005
0
ARC
8
DEFAULT_255_2_778
10
67.0202777
20
16.1690691
40
1.8280055
50
334.9999024
51
0.1034365
0
ARC
8
DEFAULT_255_2_778
10
67.0160477
20
16.1741219
40
1.8339768
50
280.6765334
51
334.9126849
0
ARC
8
DEFAULT_255_2_778
10
67.0102122
20
16.2090822
40
1.8694132
50
269.968371
51
280.6537803
0
ARC
8
DEFAULT_255_2_778
10
67.0057351
20
16.1851681
40
1.8455021
50
245.5123005
51
270.1069571
0
ARC
8
DEFAULT_255_2_778
10
66.9992047
20
16.1702609
40
1.8292291
50
189.0350916
51
245.5049096
0
ARC
8
DEFAULT_255_2_778
10
67.0250152
20
16.1716209
40
1.8549351
50
179.976887
51
188.9513816
0
ARC
8
DEFAULT_255_2_778
10
67.0025593
20
16.1747634
40
1.5257809
50
150.7989366
51
180.089905
0
ARC
8
DEFAULT_255_2_778
10
67.0096884
20
16.1716962
40
1.5335005
50
97.9565603
51
150.8288546
0
ARC
8
DEFAULT_255_2_778
10
67.0089463
20
16.1585161
40
1.546453
50
89.9839228
51
97.8617349
0
ARC
8
DEFAULT_255_2_778
10
67.0117614
20
16.1794033
40
1.5255677
50
60.7968532
51
90.0894288
0
ARC
8
DEFAULT_255_2_778
10
67.0085692
20
16.1720554
40
1.5335393
50
7.9718842
51
60.8266954
0
ARC
8
DEFAULT_255_2_778
10
66.995455
20
16.1728029
40
1.5464254
50
359.983931
51
7.8770677
0
ARC
8
DEFAULT_255_2_778
10
67.0161507
20
16.1700008
40
1.5257313
50
330.7987005
51
0.0889413
0
ARC
8
DEFAULT_255_2_778
10
67.0089271
20
16.1730536
40
1.5335266
50
277.961011
51
330.8308102
0
ARC
8
DEFAULT_255_2_778
10
67.0098119
20
16.1856834
40
1.5459143
50
269.9840023
51
277.8637031
0
ARC
8
DEFAULT_255_2_778
10
67.006998
20
16.1654485
40
1.5256812
50
240.796334
51
270.0894619
0
ARC
8
DEFAULT_255_2_778
10
67.0101554
20
16.1727682
40
1.5336113
50
187.9586009
51
240.8267957
0
ARC
8
DEFAULT_255_2_778
10
67.0229474
20
16.1719371
40
1.5461671
50
179.9839856
51
187.8624661
0
LINE
8
DEFAULT_255_2_778
10
65.1700802
20
16.1723692
11
65.1700802
21
16.1723692
0
LINE
8
DEFAULT_255_2_778
10
65.4981802
20
15.9178692
11
68.5204802
21
15.9178692
0
LINE
8
DEFAULT_255_2_778
10
68.5204802
20
16.4269692
11
65.4981802
21
16.4269692
0
LINE
8
DEFAULT_255_2_778
10
65.4767802
20
16.1723692
11
65.4767802
21
16.1723692
0
ARC
8
DEFAULT_255_2_778
10
61.807871
20
16.1756261
40
1.8278936
50
154.9991318
51
180.1020865
0
ARC
8
DEFAULT_255_2_778
10
61.8124741
20
16.170488
40
1.8342391
50
100.6832981
51
154.9144425
0
ARC
8
DEFAULT_255_2_778
10
61.8180534
20
16.1363275
40
1.868842
50
89.9685202
51
100.6572364
0
ARC
8
DEFAULT_255_2_778
10
61.8225274
20
16.1596982
40
1.8454743
50
65.5119763
51
90.1070238
0
ARC
8
DEFAULT_255_2_778
10
61.8290124
20
16.1745573
40
1.8292637
50
9.0332266
51
65.5039114
0
ARC
8
DEFAULT_255_2_778
10
61.8029234
20
16.1731188
40
1.8552569
50
359.9768517
51
8.9506005
0
ARC
8
DEFAULT_255_2_778
10
61.8301777
20
16.1690691
40
1.8280055
50
334.9999024
51
0.1034365
0
ARC
8
DEFAULT_255_2_778
10
61.8259477
20
16.1741219
40
1.8339768
50
280.6765334
51
334.9126849
0
ARC
8
DEFAULT_255_2_778
10
61.8201122
20
16.2090822
40
1.8694132
50
269.968371
51
280.6537803
0
ARC
8
DEFAULT_255_2_778
10
61.8156351
20
16.1851681
40
1.8455021
50
245.5123005
51
270.1069571
0
ARC
8
DEFAULT_255_2_778
10
61.8091047
20
16.1702609
40
1.8292291
50
189.0350916
51
245.5049096
0
ARC
8
DEFAULT_255_2_778
10
61.8349152
20
16.1716209
40
1.8549351
50
179.976887
51
188.9513816
0
ARC
8
DEFAULT_255_2_778
10
61.8120595
20
16.1747514
40
1.5256812
50
150.796334
51
180.0894619
0
ARC
8
DEFAULT_255_2_778
10
61.8193792
20
16.1715941
40
1.5336113
50
97.9586009
51
150.8267957
0
ARC
8
DEFAULT_255_2_778
10
61.8185481
20
16.158802
40
1.5461671
50
89.9839856
51
97.8624661
0
ARC
8
DEFAULT_255_2_778
10
61.8213513
20
16.1792718
40
1.5256992
50
60.7981384
51
90.0890425
0
ARC
8
DEFAULT_255_2_778
10
61.8182376
20
16.1719869
40
1.5335776
50
7.9589553
51
60.8293843
0
ARC
8
DEFAULT_255_2_778
10
61.805339
20
16.1728018
40
1.5462414
50
359.9839716
51
7.8628695
0
ARC
8
DEFAULT_255_2_778
10
61.8259826
20
16.1700101
40
1.5255995
50
330.7955358
51
0.0885993
0
ARC
8
DEFAULT_255_2_778
10
61.8185071
20
16.1732139
40
1.5336883
50
277.9609959
51
330.8273254
0
ARC
8
DEFAULT_255_2_778
10
61.819411
20
16.1857245
40
1.5459554
50
269.9840344
51
277.8636008
0
ARC
8
DEFAULT_255_2_778
10
61.8166211
20
16.1653669
40
1.5255995
50
240.7955358
51
270.0885993
0
ARC
8
DEFAULT_255_2_778
10
61.8198249
20
16.1728424
40
1.5336883
50
187.9609959
51
240.8273254
0
ARC
8
DEFAULT_255_2_778
10
61.8323355
20
16.1719384
40
1.5459554
50
179.9840344
51
187.8636008
0
LINE
8
DEFAULT_255_2_778
10
59.9799802
20
16.1723692
11
59.9799802
21
16.1723692
0
LINE
8
DEFAULT_255_2_778
10
60.3077802
20
15.9178692
11
63.3301802
21
15.9178692
0
LINE
8
DEFAULT_255_2_778
10
63.3301802
20
16.4269692
11
60.3077802
21
16.4269692
0
LINE
8
DEFAULT_255_2_778
10
60.2863802
20
16.1723692
11
60.2863802
21
16.1723692
0
ARC
8
DEFAULT_255_2_778
10
56.617571
20
16.1756261
40
1.8278936
50
154.9991318
51
180.1020865
0
ARC
8
DEFAULT_255_2_778
10
56.6221741
20
16.170488
40
1.8342391
50
100.6832981
51
154.9144425
0
ARC
8
DEFAULT_255_2_778
10
56.6277534
20
16.1363275
40
1.868842
50
89.9685202
51
100.6572364
0
ARC
8
DEFAULT_255_2_778
10
56.6322274
20
16.1596982
40
1.8454743
50
65.5119763
51
90.1070238
0
ARC
8
DEFAULT_255_2_778
10
56.6387124
20
16.1745573
40
1.8292637
50
9.0332266
51
65.5039114
0
ARC
8
DEFAULT_255_2_778
10
56.6126234
20
16.1731188
40
1.8552569
50
359.9768517
51
8.9506005
0
ARC
8
DEFAULT_255_2_778
10
56.6398777
20
16.1690691
40
1.8280055
50
334.9999024
51
0.1034365
0
ARC
8
DEFAULT_255_2_778
10
56.6356477
20
16.1741219
40
1.8339768
50
280.6765334
51
334.9126849
0
ARC
8
DEFAULT_255_2_778
10
56.6298122
20
16.2090822
40
1.8694132
50
269.968371
51
280.6537803
0
ARC
8
DEFAULT_255_2_778
10
56.6253351
20
16.1851681
40
1.8455021
50
245.5123005
51
270.1069571
0
ARC
8
DEFAULT_255_2_778
10
56.6188047
20
16.1702609
40
1.8292291
50
189.0350916
51
245.5049096
0
ARC
8
DEFAULT_255_2_778
10
56.6446152
20
16.1716209
40
1.8549351
50
179.976887
51
188.9513816
0
ARC
8
DEFAULT_255_2_778
10
56.6221593
20
16.1747634
40
1.5257809
50
150.7989366
51
180.089905
0
ARC
8
DEFAULT_255_2_778
10
56.6292884
20
16.1716962
40
1.5335005
50
97.9565603
51
150.8288546
0
ARC
8
DEFAULT_255_2_778
10
56.6285463
20
16.1585161
40
1.546453
50
89.9839228
51
97.8617349
0
ARC
8
DEFAULT_255_2_778
10
56.6313614
20
16.1794033
40
1.5255677
50
60.7968532
51
90.0894288
0
ARC
8
DEFAULT_255_2_778
10
56.6281692
20
16.1720554
40
1.5335393
50
7.9718842
51
60.8266954
0
ARC
8
DEFAULT_255_2_778
10
56.615055
20
16.1728029
40
1.5464254
50
359.983931
51
7.8770677
0
ARC
8
DEFAULT_255_2_778
10
56.6357507
20
16.1700008
40
1.5257313
50
330.7987005
51
0.0889413
0
ARC
8
DEFAULT_255_2_778
10
56.6285271
20
16.1730536
40
1.5335266
50
277.961011
51
330.8308102
0
ARC
8
DEFAULT_255_2_778
10
56.6294119
20
16.1856834
40
1.5459143
50
269.9840023
51
277.8637031
0
ARC
8
DEFAULT_255_2_778
10
56.626598
20
16.1654485
40
1.5256812
50
240.796334
51
270.0894619
0
ARC
8
DEFAULT_255_2_778
10
56.6297554
20
16.1727682
40
1.5336113
50
187.9586009
51
240.8267957
0
ARC
8
DEFAULT_255_2_778
10
56.6425474
20
16.1719371
40
1.5461671
50
179.9839856
51
187.8624661
0
LINE
8
DEFAULT_255_2_778
10
54.7896802
20
16.1723692
11
54.7896802
21
16.1723692
0
LINE
8
DEFAULT_255_2_778
10
55.1177802
20
15.9178692
11
58.1400802
21
15.9178692
0
LINE
8
DEFAULT_255_2_778
10
58.1400802
20
16.4269692
11
55.1177802
21
16.4269692
0
LINE
8
DEFAULT_255_2_778
10
55.0963802
20
16.1723692
11
55.0963802
21
16.1723692
0
ARC
8
DEFAULT_255_2_778
10
51.4271669
20
16.1756261
40
1.8278936
50
154.9991318
51
180.1020865
0
ARC
8
DEFAULT_255_2_778
10
51.4317701
20
16.170488
40
1.8342391
50
100.6832981
51
154.9144425
0
ARC
8
DEFAULT_255_2_778
10
51.4373494
20
16.1363275
40
1.868842
50
89.9685202
51
100.6572364
0
ARC
8
DEFAULT_255_2_778
10
51.4418234
20
16.1596982
40
1.8454743
50
65.5119763
51
90.1070238
0
ARC
8
DEFAULT_255_2_778
10
51.4483084
20
16.1745573
40
1.8292637
50
9.0332266
51
65.5039114
0
ARC
8
DEFAULT_255_2_778
10
51.4222194
20
16.1731188
40
1.8552569
50
359.9768517
51
8.9506005
0
ARC
8
DEFAULT_255_2_778
10
51.4494737
20
16.1690691
40
1.8280055
50
334.9999024
51
0.1034365
0
ARC
8
DEFAULT_255_2_778
10
51.4452437
20
16.1741219
40
1.8339768
50
280.6765334
51
334.9126849
0
ARC
8
DEFAULT_255_2_778
10
51.4394082
20
16.2090822
40
1.8694132
50
269.968371
51
280.6537803
0
ARC
8
DEFAULT_255_2_778
10
51.4349311
20
16.1851681
40
1.8455021
50
245.5123005
51
270.1069571
0
ARC
8
DEFAULT_255_2_778
10
51.4284006
20
16.1702609
40
1.8292291
50
189.0350916
51
245.5049096
0
ARC
8
DEFAULT_255_2_778
10
51.4542111
20
16.1716209
40
1.8549351
50
179.976887
51
188.9513816
0
ARC
8
DEFAULT_255_2_778
10
51.4313555
20
16.1747514
40
1.5256812
50
150.796334
51
180.0894619
0
ARC
8
DEFAULT_255_2_778
10
51.4386752
20
16.1715941
40
1.5336113
50
97.9586009
51
150.8267957
0
ARC
8
DEFAULT_255_2_778
10
51.437844
20
16.158802
40
1.5461671
50
89.9839856
51
97.8624661
0
ARC
8
DEFAULT_255_2_778
10
51.4406473
20
16.1792718
40
1.5256992
50
60.7981384
51
90.0890425
0
ARC
8
DEFAULT_255_2_778
10
51.4375336
20
16.1719869
40
1.5335776
50
7.9589553
51
60.8293843
0
ARC
8
DEFAULT_255_2_778
10
51.4246349
20
16.1728018
40
1.5462414
50
359.9839716
51
7.8628695
0
ARC
8
DEFAULT_255_2_778
10
51.4452786
20
16.1700101
40
1.5255995
50
330.7955358
51
0.0885993
0
ARC
8
DEFAULT_255_2_778
10
51.4378031
20
16.1732139
40
1.5336883
50
277.9609959
51
330.8273254
0
ARC
8
DEFAULT_255_2_778
10
51.438707
20
16.1857245
40
1.5459554
50
269.9840344
51
277.8636008
0
ARC
8
DEFAULT_255_2_778
10
51.4359171
20
16.1653669
40
1.5255995
50
240.7955358
51
270.0885993
0
ARC
8
DEFAULT_255_2_778
10
51.4391209
20
16.1728424
40
1.5336883
50
187.9609959
51
240.8273254
0
ARC
8
DEFAULT_255_2_778
10
51.4516315
20
16.1719384
40
1.5459554
50
179.9840344
51
187.8636008
0
LINE
8
DEFAULT_255_2_778
10
49.5992762
20
16.1723692
11
49.5992762
21
16.1723692
0
LINE
8
DEFAULT_255_2_778
10
49.9270762
20
15.9178692
11
52.9494762
21
15.9178692
0
LINE
8
DEFAULT_255_2_778
10
52.9494762
20
16.4269692
11
49.9270762
21
16.4269692
0
LINE
8
DEFAULT_255_2_778
10
49.9056762
20
16.1723692
11
49.9056762
21
16.1723692
0
ARC
8
DEFAULT_255_2_778
10
46.236871
20
16.1756261
40
1.8278936
50
154.9991318
51
180.1020865
0
ARC
8
DEFAULT_255_2_778
10
46.2414741
20
16.170488
40
1.8342391
50
100.6832981
51
154.9144425
0
ARC
8
DEFAULT_255_2_778
10
46.2470534
20
16.1363275
40
1.868842
50
89.9685202
51
100.6572364
0
ARC
8
DEFAULT_255_2_778
10
46.2515274
20
16.1596982
40
1.8454743
50
65.5119763
51
90.1070238
0
ARC
8
DEFAULT_255_2_778
10
46.2580124
20
16.1745573
40
1.8292637
50
9.0332266
51
65.5039114
0
ARC
8
DEFAULT_255_2_778
10
46.2319234
20
16.1731188
40
1.8552569
50
359.9768517
51
8.9506005
0
ARC
8
DEFAULT_255_2_778
10
46.2591777
20
16.1690691
40
1.8280055
50
334.9999024
51
0.1034365
0
ARC
8
DEFAULT_255_2_778
10
46.2549477
20
16.1741219
40
1.8339768
50
280.6765334
51
334.9126849
0
ARC
8
DEFAULT_255_2_778
10
46.2491122
20
16.2090822
40
1.8694132
50
269.968371
51
280.6537803
0
ARC
8
DEFAULT_255_2_778
10
46.2446351
20
16.1851681
40
1.8455021
50
245.5123005
51
270.1069571
0
ARC
8
DEFAULT_255_2_778
10
46.2381047
20
16.1702609
40
1.8292291
50
189.0350916
51
245.5049096
0
ARC
8
DEFAULT_255_2_778
10
46.2639152
20
16.1716209
40
1.8549351
50
179.976887
51
188.9513816
0
ARC
8
DEFAULT_255_2_778
10
46.2414593
20
16.1747634
40
1.5257809
50
150.7989366
51
180.089905
0
ARC
8
DEFAULT_255_2_778
10
46.2485884
20
16.1716962
40
1.5335005
50
97.9565603
51
150.8288546
0
ARC
8
DEFAULT_255_2_778
10
46.2478463
20
16.1585161
40
1.546453
50
89.9839228
51
97.8617349
0
ARC
8
DEFAULT_255_2_778
10
46.2506614
20
16.1794033
40
1.5255677
50
60.7968532
51
90.0894288
0
ARC
8
DEFAULT_255_2_778
10
46.2474692
20
16.1720554
40
1.5335393
50
7.9718842
51
60.8266954
0
ARC
8
DEFAULT_255_2_778
10
46.234355
20
16.1728029
40
1.5464254
50
359.983931
51
7.8770677
0
ARC
8
DEFAULT_255_2_778
10
46.2550507
20
16.1700008
40
1.5257313
50
330.7987005
51
0.0889413
0
ARC
8
DEFAULT_255_2_778
10
46.2478271
20
16.1730536
40
1.5335266
50
277.961011
51
330.8308102
0
ARC
8
DEFAULT_255_2_778
10
46.2487119
20
16.1856834
40
1.5459143
50
269.9840023
51
277.8637031
0
ARC
8
DEFAULT_255_2_778
10
46.245898
20
16.1654485
40
1.5256812
50
240.796334
51
270.0894619
0
ARC
8
DEFAULT_255_2_778
10
46.2490554
20
16.1727682
40
1.5336113
50
187.9586009
51
240.8267957
0
ARC
8
DEFAULT_255_2_778
10
46.2618474
20
16.1719371
40
1.5461671
50
179.9839856
51
187.8624661
0
LINE
8
DEFAULT_255_2_778
10
44.4089802
20
16.1723692
11
44.4089802
21
16.1723692
0
LINE
8
DEFAULT_255_2_778
10
44.7370802
20
15.9178692
11
47.7593802
21
15.9178692
0
LINE
8
DEFAULT_255_2_778
10
47.7593802
20
16.4269692
11
44.7370802
21
16.4269692
0
LINE
8
DEFAULT_255_2_778
10
44.7156802
20
16.1723692
11
44.7156802
21
16.1723692
0
ARC
8
DEFAULT_255_2_778
10
150.9824373
20
10.7026296
40
1.0127222
50
320.5444541
51
0.1380059
0
ARC
8
DEFAULT_255_2_778
10
150.9770634
20
10.7064359
40
1.0192905
50
273.9673704
51
320.5712184
0
ARC
8
DEFAULT_255_2_778
10
150.9734601
20
10.7372884
40
1.0503194
50
269.9943522
51
274.0470173
0
ARC
8
DEFAULT_255_2_778
10
150.9824373
20
10.5161296
40
1.0127222
50
320.5444541
51
0.1380059
0
ARC
8
DEFAULT_255_2_778
10
150.9770634
20
10.5199359
40
1.0192905
50
273.9673704
51
320.5712184
0
ARC
8
DEFAULT_255_2_778
10
150.9734601
20
10.5507884
40
1.0503194
50
269.9943522
51
274.0470173
0
ARC
8
DEFAULT_255_2_778
10
151.8917843
20
18.7313231
40
0.1055347
50
289.4174491
51
348.381429
0
ARC
8
DEFAULT_255_2_778
10
151.7115403
20
19.0281275
40
0.4510532
50
297.1487
51
298.5151483
0
ARC
8
DEFAULT_255_2_778
10
151.6599559
20
19.1361406
40
0.5707141
50
286.5847317
51
296.8088255
0
ARC
8
DEFAULT_255_2_778
10
136.3430682
20
10.5979446
40
0.6866143
50
180.9910342
51
183.235546
0
ARC
8
DEFAULT_255_2_778
10
136.4042532
20
10.6041207
40
0.7480554
50
183.4433347
51
202.8805022
0
ARC
8
DEFAULT_255_2_778
10
136.5245458
20
10.6613201
40
0.8811427
50
203.2659578
51
220.6536443
0
ARC
8
DEFAULT_255_2_778
10
136.7447362
20
10.8462457
40
1.1686733
50
220.4989771
51
232.9782322
0
ARC
8
DEFAULT_255_2_778
10
136.9050639
20
11.0538688
40
1.4309804
50
232.8583931
51
242.7005065
0
ARC
8
DEFAULT_255_2_778
10
137.0931975
20
11.4213697
40
1.8438362
50
242.743133
51
257.5966853
0
ARC
8
DEFAULT_255_2_778
10
137.1721895
20
11.7399947
40
2.1720087
50
257.3669128
51
268.2466291
0
ARC
8
DEFAULT_255_2_778
10
137.1741401
20
11.7698164
40
2.2018764
50
268.2196413
51
269.7063858
0
ARC
8
DEFAULT_255_2_778
10
137.1768006
20
10.5502501
40
0.9823801
50
250.8079034
51
269.1867052
0
ARC
8
DEFAULT_255_2_778
10
137.186044
20
10.5743089
40
1.0081408
50
231.3687899
51
250.7612597
0
ARC
8
DEFAULT_255_2_778
10
137.1999359
20
10.5913397
40
1.0301177
50
208.7560697
51
231.3565763
0
ARC
8
DEFAULT_255_2_778
10
137.2303256
20
10.6044745
40
1.0630832
50
183.737104
51
208.5887231
0
ARC
8
DEFAULT_255_2_778
10
137.1767739
20
10.5994275
40
1.0093175
50
180.0089984
51
183.6493481
0
ARC
8
DEFAULT_255_2_778
10
137.419338
20
23.1768866
40
0.5096832
50
89.8967429
51
179.8612643
0
ARC
8
DEFAULT_255_2_778
10
137.2900947
20
23.1779828
40
0.3804385
50
179.9792269
51
180.0623245
0
ARC
8
DEFAULT_255_2_778
10
137.8374492
20
10.9256666
40
1.0121934
50
179.9319408
51
222.1121719
0
ARC
8
DEFAULT_255_2_778
10
137.8457028
20
10.9298166
40
1.0211021
50
221.974357
51
267.6884559
0
ARC
8
DEFAULT_255_2_778
10
137.847273
20
10.9515888
40
1.04292
50
267.6505014
51
269.9716238
0
ARC
8
DEFAULT_255_2_778
10
137.7650783
20
21.3222796
40
2.8224887
50
258.4273206
51
265.18081
0
ARC
8
DEFAULT_255_2_778
10
137.2770626
20
19.2562677
40
0.6971826
50
244.4488922
51
252.8822663
0
ARC
8
DEFAULT_255_2_778
10
137.0630543
20
18.8207669
40
0.2120329
50
226.1847813
51
245.8649811
0
ARC
8
DEFAULT_255_2_778
10
136.9653431
20
18.7214336
40
0.0727281
50
189.2293698
51
227.5511393
0
ARC
8
DEFAULT_255_2_778
10
137.132967
20
23.1775627
40
0.5088106
50
89.7647058
51
180.0330796
0
ARC
8
DEFAULT_255_2_778
10
151.4851358
20
23.1763481
40
0.5100216
50
0.1034475
51
90.0987783
0
ARC
8
DEFAULT_255_2_778
10
151.9720766
20
23.1830199
40
0.0237857
50
282.3364749
51
346.0081313
0
ARC
8
DEFAULT_255_2_778
10
151.8803869
20
23.3745476
40
0.2355596
50
293.829429
51
294.2560817
0
ARC
8
DEFAULT_255_2_778
10
151.8626038
20
23.4156981
40
0.2803869
50
281.3233352
51
293.7562089
0
ARC
8
DEFAULT_255_2_778
10
137.00927
20
23.3577724
40
0.2132508
50
248.1538379
51
248.7144579
0
ARC
8
DEFAULT_255_2_778
10
136.936271
20
23.1882981
40
0.0291629
50
202.6466213
51
257.4135606
0
ARC
8
DEFAULT_255_2_778
10
33.3855185
20
18.7199595
40
0.0707504
50
312.1055235
51
351.3091996
0
ARC
8
DEFAULT_255_2_778
10
33.2884772
20
18.8170264
40
0.2079464
50
293.9396616
51
314.010576
0
ARC
8
DEFAULT_255_2_778
10
33.0701066
20
19.2612008
40
0.7027855
50
287.1514081
51
295.5174275
0
ARC
8
DEFAULT_255_2_778
10
32.5929937
20
21.2619269
40
2.7618819
50
274.7345189
51
281.6425563
0
ARC
8
DEFAULT_255_2_778
10
32.5035319
20
10.9277357
40
1.0195681
50
269.9058487
51
310.1584148
0
ARC
8
DEFAULT_255_2_778
10
32.508801
20
10.9257398
40
1.0146484
50
310.0037
51
358.1793175
0
ARC
8
DEFAULT_255_2_778
10
32.4906486
20
10.9262536
40
1.0328079
50
358.182827
51
0.0008535
0
ARC
8
DEFAULT_255_2_778
10
33.9468801
20
24.0310427
40
0.5107262
50
90.0010035
51
179.8175635
0
LINE
8
DEFAULT_255_2_778
10
33.9468712
20
24.541769
11
33.9470565
21
24.5417689
0
ARC
8
DEFAULT_255_2_778
10
34.7009048
20
23.2796996
40
0.5108693
50
90.0054122
51
93.0287422
0
ARC
8
DEFAULT_255_2_778
10
34.7025374
20
23.2589486
40
0.531678
50
93.0862793
51
115.6657881
0
ARC
8
DEFAULT_255_2_778
10
34.6977345
20
23.2702247
40
0.5194345
50
115.7269962
51
138.6240965
0
ARC
8
DEFAULT_255_2_778
10
34.6901
20
23.2761393
40
0.5097965
50
138.5557509
51
159.1281604
0
ARC
8
DEFAULT_255_2_778
10
34.6744476
20
23.2819048
40
0.4931171
50
159.1061559
51
176.5835513
0
ARC
8
DEFAULT_255_2_778
10
34.6528131
20
23.2838746
40
0.4714041
50
176.6658414
51
179.1863282
0
ARC
8
DEFAULT_255_2_778
10
33.9198676
20
24.0479371
40
0.4988377
50
90.2769365
51
112.3899157
0
ARC
8
DEFAULT_255_2_778
10
33.9239083
20
24.0415099
40
0.5063211
50
112.5356572
51
134.4312895
0
ARC
8
DEFAULT_255_2_778
10
33.9281348
20
24.0382246
40
0.5116264
50
134.5117244
51
156.3003342
0
ARC
8
DEFAULT_255_2_778
10
33.9319454
20
24.0367611
40
0.5157039
50
156.3216151
51
176.9249245
0
ARC
8
DEFAULT_255_2_778
10
33.915629
20
24.0381862
40
0.4993348
50
176.9877785
51
178.1427969
0
ARC
8
DEFAULT_255_2_778
10
34.0093458
20
10.5983052
40
0.6829115
50
358.0648989
51
359.0152891
0
ARC
8
DEFAULT_255_2_778
10
33.9476203
20
10.6037163
40
0.7447921
50
337.089066
51
357.8092107
0
ARC
8
DEFAULT_255_2_778
10
33.8204075
20
10.6638253
40
0.8853889
50
319.4197611
51
336.7109374
0
ARC
8
DEFAULT_255_2_778
10
33.6136469
20
10.8363839
40
1.1546793
50
306.9631219
51
319.5905948
0
ARC
8
DEFAULT_255_2_778
10
33.4356423
20
11.0666661
40
1.4457192
50
297.3685157
51
307.1121694
0
ARC
8
DEFAULT_255_2_778
10
33.2558755
20
11.4219483
40
1.8438786
50
282.3979356
51
297.2540924
0
ARC
8
DEFAULT_255_2_778
10
33.1769326
20
11.7386855
40
2.1701976
50
271.7160197
51
282.6381476
0
ARC
8
DEFAULT_255_2_778
10
33.1748765
20
11.7699762
40
2.2015362
50
270.2935674
51
271.7451185
0
ARC
8
DEFAULT_255_2_778
10
33.174249
20
10.5245827
40
0.9561879
50
270.7135277
51
272.2799637
0
ARC
8
DEFAULT_255_2_778
10
33.1726163
20
10.5479712
40
0.9796232
50
272.3209632
51
289.2232179
0
ARC
8
DEFAULT_255_2_778
10
33.1601556
20
10.5809626
40
1.0148781
50
289.2742275
51
308.5234096
0
ARC
8
DEFAULT_255_2_778
10
33.1502996
20
10.5902683
40
1.0282988
50
308.6301097
51
331.2754726
0
ARC
8
DEFAULT_255_2_778
10
33.1195624
20
10.6050351
40
1.062352
50
331.3737759
51
356.2695921
0
ARC
8
DEFAULT_255_2_778
10
33.164101
20
10.6011787
40
1.0176573
50
356.3230997
51
359.8924752
0
ARC
8
DEFAULT_255_2_778
10
20.8709475
20
35.4354594
40
1.0194109
50
49.8383542
51
90.0950411
0
ARC
8
DEFAULT_255_2_778
10
20.876069
20
35.4373332
40
1.0146794
50
1.8186393
51
49.9911251
0
ARC
8
DEFAULT_255_2_778
10
20.8571524
20
35.436778
40
1.0336041
50
359.9994973
51
1.8161231
0
ARC
8
DEFAULT_255_2_778
10
20.9181936
20
11.3270486
40
1.0127634
50
318.2419805
51
0.0520702
0
ARC
8
DEFAULT_255_2_778
10
20.9105716
20
11.3307057
40
1.0208874
50
272.4252662
51
318.3737628
0
ARC
8
DEFAULT_255_2_778
10
20.9089367
20
11.3531672
40
1.0433984
50
270.0285475
51
272.4627687
0
ARC
8
DEFAULT_255_2_778
10
5.3242387
20
11.3298649
40
1.0200967
50
229.8839354
51
270.068399
0
ARC
8
DEFAULT_255_2_778
10
5.318997
20
11.32765
40
1.0150287
50
182.0387469
51
230.0296525
0
ARC
8
DEFAULT_255_2_778
10
5.3374418
20
11.3283081
40
1.0334853
50
180.0188035
51
182.0388319
0
ARC
8
DEFAULT_255_2_778
10
5.3973752
20
35.4373964
40
1.0127191
50
138.2410243
51
180.0524719
0
ARC
8
DEFAULT_255_2_778
10
5.4048587
20
35.4338614
40
1.0206585
50
92.4155427
51
138.3727798
0
ARC
8
DEFAULT_255_2_778
10
5.4064983
20
35.4111383
40
1.0434308
50
90.0187683
51
92.4529048
0
ARC
8
DEFAULT_255_2_778
10
5.0198372
20
10.6866903
40
0.6803214
50
269.9192807
51
270.0268952
0
ARC
8
DEFAULT_255_2_778
10
5.0193835
20
11.0262435
40
1.0198739
50
226.8230936
51
269.9716448
0
ARC
8
DEFAULT_255_2_778
10
5.0374735
20
11.0475651
40
1.0478017
50
225.0997232
51
226.8994981
0
ARC
8
DEFAULT_255_2_778
10
5.0110335
20
11.0251668
40
1.013277
50
179.994222
51
225.2647229
0
ARC
8
DEFAULT_255_2_778
10
5.1668565
20
35.6650689
40
1.014
50
134.7602701
51
180
0
ARC
8
DEFAULT_255_2_778
10
5.1749082
20
35.6630883
40
1.0210851
50
95.4898467
51
135.002819
0
ARC
8
DEFAULT_255_2_778
10
5.1752158
20
35.6605736
40
1.0236177
50
94.2556403
51
95.4935157
0
ARC
8
DEFAULT_255_2_778
10
21.0675848
20
11.0258746
40
1.0160717
50
296.311299
51
359.9940433
0
ARC
8
DEFAULT_255_2_778
10
21.0599231
20
11.0304392
40
1.0235708
50
270.0634463
51
296.5824914
0
ARC
8
DEFAULT_255_2_778
10
20.9858241
20
35.6648349
40
1.0186718
50
14.8534503
51
86.0353255
0
ARC
8
DEFAULT_255_2_778
10
20.9798022
20
35.6618523
40
1.0252578
50
0.1518182
51
14.9282942
0
ARC
8
DEFAULT_255_2_778
10
21.8583297
20
35.4460549
40
0.033403
50
291.4738612
51
344.7502292
0
ARC
8
DEFAULT_255_2_778
10
21.7505951
20
35.6190361
40
0.2367147
50
300.1130003
51
300.4497031
0
ARC
8
DEFAULT_255_2_778
10
21.7701544
20
35.5945952
40
0.2058121
50
286.2911712
51
298.8163338
0
ARC
8
DEFAULT_255_2_778
10
21.6659033
20
35.9341802
40
0.5610271
50
284.9205845
51
286.781923
0
ARC
8
DEFAULT_255_2_778
10
20.871114
20
43.4514082
40
8.1331395
50
269.9848011
51
272.7255248
0
ARC
8
DEFAULT_255_2_778
10
20.9092686
20
14.7301083
40
3.6633394
50
269.9982473
51
276.0938118
0
ARC
8
DEFAULT_255_2_778
10
21.5776374
20
11.6823537
40
0.5291905
50
289.646132
51
301.0462244
0
ARC
8
DEFAULT_255_2_778
10
21.627979
20
11.5899779
40
0.4241088
50
301.6556109
51
302.4274384
0
ARC
8
DEFAULT_255_2_778
10
21.7977726
20
11.3546827
40
0.1355429
50
295.1604551
51
348.8488563
0
ARC
8
DEFAULT_255_2_778
10
4.5188375
20
22.4167593
40
0.5133861
50
180.2556152
51
225.7741403
0
ARC
8
DEFAULT_255_2_778
10
4.5782151
20
35.8273088
40
0.4494405
50
252.53543
51
255.4568529
0
ARC
8
DEFAULT_255_2_778
10
4.5126139
20
35.6208514
40
0.2328132
50
242.5398714
51
252.6870215
0
ARC
8
DEFAULT_255_2_778
10
4.5294916
20
35.6429572
40
0.260255
50
241.02031
51
241.4869425
0
ARC
8
DEFAULT_255_2_778
10
4.4155271
20
35.4477567
40
0.0346598
50
197.9606067
51
249.5162266
0
ARC
8
DEFAULT_255_2_778
10
4.4395739
20
11.3599781
40
0.1411484
50
193.024032
51
245.358441
0
ARC
8
DEFAULT_255_2_778
10
4.6233035
20
11.6223973
40
0.4598937
50
238.1653574
51
238.7403285
0
ARC
8
DEFAULT_255_2_778
10
4.6335135
20
11.6421683
40
0.4820951
50
238.9223651
51
243.9807337
0
ARC
8
DEFAULT_255_2_778
10
4.7036712
20
11.7917933
40
0.6473366
50
244.2099379
51
249.8008938
0
ARC
8
DEFAULT_255_2_778
10
5.1472572
20
13.2896519
40
2.211742
50
255.8656192
51
264.5334526
0
ARC
8
DEFAULT_255_2_778
10
5.3368833
20
14.8529961
40
3.7862503
50
263.9306733
51
269.7998435
0
ARC
8
DEFAULT_255_2_778
10
4.5621536
20
37.1784096
40
0.5108406
50
225.0193111
51
270.0003231
0
ARC
8
DEFAULT_255_2_778
10
4.5575846
20
37.1770133
40
0.5066282
50
180.1501008
51
225.2731961
0
ARC
8
DEFAULT_255_2_778
10
4.5652434
20
37.1769689
40
0.5142868
50
180.0000001
51
180.1429267
0
ARC
8
DEFAULT_255_2_778
10
21.8635859
20
37.3725944
40
0.0862046
50
292.7026739
51
293.9196318
0
ARC
8
DEFAULT_255_2_778
10
21.8947927
20
37.3075455
40
0.0142529
50
285.2348973
51
340.8457716
0
ARC
8
DEFAULT_255_2_778
10
21.5228071
20
53.9726653
40
0.5133037
50
36.1368906
51
89.9721621
0
ARC
8
DEFAULT_255_2_778
10
21.5126629
20
53.972703
40
0.5215087
50
0.4357198
51
35.476289
0
ARC
8
DEFAULT_255_2_778
10
21.3825822
20
53.8345924
40
0.5105767
50
0.1769196
51
89.9949593
0
LINE
8
DEFAULT_255_2_778
10
21.3826271
20
54.3451691
11
21.3822565
21
54.3451689
0
ARC
8
DEFAULT_255_2_778
10
21.3970965
20
37.3042317
40
0.5106628
50
269.995514
51
359.8134384
0
ARC
8
DEFAULT_255_2_778
10
21.5209944
20
37.1791508
40
0.5129668
50
315.0695257
51
359.7562968
0
ARC
8
DEFAULT_255_2_778
10
21.5235119
20
37.1788264
40
0.5109576
50
269.9489334
51
314.8959037
0
ARC
8
DEFAULT_255_2_778
10
4.5212383
20
37.1826785
40
0.5131113
50
180.6152314
51
226.194551
0
ARC
8
DEFAULT_255_2_778
10
4.5243219
20
37.1838892
40
0.5161215
50
226.0405286
51
242.4315198
0
ARC
8
DEFAULT_255_2_778
10
4.5251211
20
37.1897797
40
0.5216131
50
253.6467564
51
269.8281373
0
ARC
8
DEFAULT_255_2_778
10
4.5236817
20
53.9716294
40
0.512652
50
160.5933129
51
179.4144004
0
ARC
8
DEFAULT_255_2_778
10
4.5151715
20
53.9759135
40
0.5032033
50
142.424667
51
160.7314281
0
ARC
8
DEFAULT_255_2_778
10
4.5162247
20
53.9797185
40
0.5017311
50
134.420025
51
142.8423851
0
ARC
8
DEFAULT_255_2_778
10
4.5304441
20
53.9639656
40
0.5229353
50
107.400981
51
134.3247312
0
ARC
8
DEFAULT_255_2_778
10
4.5277988
20
53.9616219
40
0.5243906
50
93.2100097
51
107.0485949
0
ARC
8
DEFAULT_255_2_778
10
4.5265193
20
53.9795987
40
0.5063704
50
90.0071001
51
93.1793614
0
ARC
8
DEFAULT_255_2_778
10
4.6793524
20
37.295667
40
0.5105981
50
180.1681045
51
270.0004619
0
ARC
8
DEFAULT_255_2_778
10
4.694367
20
53.8436563
40
0.5105127
50
89.989949
51
179.8302291
0
ARC
8
DEFAULT_255_2_778
10
21.5284084
20
55.0965626
40
0.5055482
50
314.675796
51
0.0347216
0
ARC
8
DEFAULT_255_2_778
10
21.5229328
20
55.0979909
40
0.510422
50
269.9802103
51
315.0001362
0
ARC
8
DEFAULT_255_2_778
10
21.2756822
20
55.3426455
40
0.5105767
50
270.0050407
51
359.8230804
0
LINE
8
DEFAULT_255_2_778
10
21.2757271
20
54.8320688
11
21.2753565
21
54.8320689
0
ARC
8
DEFAULT_255_2_778
10
19.5982674
20
27.1427989
40
27.5042703
50
89.9914816
51
90.4057017
0
ARC
8
DEFAULT_255_2_778
10
19.5294143
20
36.7015602
40
17.9452613
50
90.4019729
51
90.8038338
0
ARC
8
DEFAULT_255_2_778
10
19.3851281
20
46.56976
40
8.0760107
50
90.762471
51
91.5315525
0
ARC
8
DEFAULT_255_2_778
10
19.1991254
20
53.2124103
40
1.4307867
50
91.1953687
51
93.81468
0
ARC
8
DEFAULT_255_2_778
10
19.1026736
20
54.6117442
40
0.028311
50
87.4446858
51
111.5894186
0
ARC
8
DEFAULT_255_2_778
10
17.1893218
20
54.5656696
40
0.0751738
50
74.38501
51
92.0916269
0
ARC
8
DEFAULT_255_2_778
10
17.0654135
20
52.248176
40
2.3956833
50
87.1009576
51
88.801392
0
ARC
8
DEFAULT_255_2_778
10
16.8757947
20
44.4129028
40
10.2332409
50
88.6576206
51
89.3678369
0
ARC
8
DEFAULT_255_2_778
10
16.7257048
20
31.66248
40
22.9845456
50
89.3443946
51
89.8685731
0
ARC
8
DEFAULT_255_2_778
10
16.6998376
20
24.8969397
40
29.7501293
50
89.8486437
51
90.0009266
0
ARC
8
DEFAULT_255_2_778
10
11.4247674
20
27.1427989
40
27.5042703
50
89.9914816
51
90.4057017
0
ARC
8
DEFAULT_255_2_778
10
11.3559143
20
36.7015602
40
17.9452613
50
90.4019729
51
90.8038338
0
ARC
8
DEFAULT_255_2_778
10
11.2116281
20
46.56976
40
8.0760107
50
90.762471
51
91.5315525
0
ARC
8
DEFAULT_255_2_778
10
11.0256254
20
53.2124103
40
1.4307867
50
91.1953687
51
93.81468
0
ARC
8
DEFAULT_255_2_778
10
10.9291736
20
54.6117442
40
0.028311
50
87.4446858
51
111.5894186
0
ARC
8
DEFAULT_255_2_778
10
9.0157952
20
54.5662405
40
0.0746043
50
74.3212429
51
92.1283464
0
ARC
8
DEFAULT_255_2_778
10
8.8919709
20
52.2518976
40
2.3919608
50
87.0991061
51
88.8014446
0
ARC
8
DEFAULT_255_2_778
10
8.7023484
20
44.4182265
40
10.2279168
50
88.6573495
51
89.3678397
0
ARC
8
DEFAULT_255_2_778
10
8.5522133
20
31.6646984
40
22.9823273
50
89.3443664
51
89.8685819
0
ARC
8
DEFAULT_255_2_778
10
8.5263376
20
24.8969722
40
29.7500968
50
89.8486437
51
90.0009266
0
ARC
8
DEFAULT_255_2_778
10
4.808431
20
55.3426458
40
0.5105769
50
180.1769531
51
270.0028631
0
ARC
8
DEFAULT_255_2_778
10
19.1122855
20
77.8220889
40
0.0750959
50
254.3729101
51
272.1216415
0
ARC
8
DEFAULT_255_2_778
10
19.2365285
20
80.1518023
40
2.4078233
50
267.1084826
51
268.8049215
0
ARC
8
DEFAULT_255_2_778
10
19.4267375
20
88.033018
40
10.2913242
50
268.6613233
51
269.3694304
0
ARC
8
DEFAULT_255_2_778
10
19.5771485
20
100.8416261
40
23.100814
50
269.3460183
51
269.8687629
0
ARC
8
DEFAULT_255_2_778
10
19.6029793
20
107.6075016
40
29.8667327
50
269.8489395
51
270.0009155
0
ARC
8
DEFAULT_255_2_778
10
19.6075219
20
105.3929386
40
27.65217
50
269.9915764
51
270.4046138
0
ARC
8
DEFAULT_255_2_778
10
19.6764436
20
95.8011159
40
18.0600999
50
270.4008558
51
270.8013555
0
ARC
8
DEFAULT_255_2_778
10
19.8212713
20
85.8657197
40
8.1236521
50
270.7600341
51
271.5269565
0
ARC
8
DEFAULT_255_2_778
10
20.0077452
20
79.184724
40
1.4400842
50
271.193644
51
273.7971309
0
ARC
8
DEFAULT_255_2_778
10
20.1044551
20
77.7758173
40
0.0280483
50
267.2579735
51
291.7674572
0
ARC
8
DEFAULT_255_2_778
10
20.0948015
20
77.6777103
40
0.0747974
50
74.4473236
51
92.1277064
0
ARC
8
DEFAULT_255_2_778
10
19.9701097
20
75.3350143
40
2.4205141
50
87.1129435
51
88.7935202
0
ARC
8
DEFAULT_255_2_778
10
19.7791984
20
67.4798476
40
10.2779906
50
88.6515093
51
89.3584584
0
ARC
8
DEFAULT_255_2_778
10
19.6302195
20
54.9996732
40
22.7590527
50
89.3352172
51
89.8648534
0
ARC
8
DEFAULT_255_2_778
10
19.6052508
20
48.6351819
40
29.1235871
50
89.845266
51
90.0009725
0
LINE
8
DEFAULT_255_2_778
10
21.3015565
20
77.5816689
11
21.3019271
21
77.5816691
0
ARC
8
DEFAULT_255_2_778
10
21.3018822
20
77.0710924
40
0.5105767
50
0.1769196
51
89.9949593
0
ARC
8
DEFAULT_255_2_778
10
4.7820165
20
77.0710062
40
0.5106627
50
89.995514
51
179.8134384
0
ARC
8
DEFAULT_255_2_778
10
10.9383068
20
77.8243199
40
0.0770856
50
254.6927307
51
272.011134
0
ARC
8
DEFAULT_255_2_778
10
11.0637219
20
80.1935949
40
2.4493889
50
267.1283847
51
268.796753
0
ARC
8
DEFAULT_255_2_778
10
11.2552224
20
88.1014031
40
10.3595058
50
268.6562629
51
269.3598057
0
ARC
8
DEFAULT_255_2_778
10
11.4041821
20
100.6073905
40
22.8663789
50
269.3367091
51
269.8648272
0
ARC
8
DEFAULT_255_2_778
10
11.4289711
20
106.9267274
40
29.1857584
50
269.8454309
51
270.000953
0
ARC
8
DEFAULT_255_2_778
10
11.4332894
20
104.9162653
40
27.1752966
50
269.9919188
51
270.4122044
0
ARC
8
DEFAULT_255_2_778
10
11.5004222
20
95.7465854
40
18.0053709
50
270.4085067
51
270.8102243
0
ARC
8
DEFAULT_255_2_778
10
11.644954
20
85.9359972
40
8.193722
50
270.7697397
51
271.5301052
0
ARC
8
DEFAULT_255_2_778
10
11.832984
20
79.2098253
40
1.4649516
50
271.2031591
51
273.7624205
0
ARC
8
DEFAULT_255_2_778
10
11.9304405
20
77.7765394
40
0.0285392
50
267.3345788
51
291.4059738
0
ARC
8
DEFAULT_255_2_778
10
11.9207936
20
77.677852
40
0.0748557
50
74.4534684
51
92.1265718
0
ARC
8
DEFAULT_255_2_778
10
11.7960535
20
75.3334842
40
2.4222444
50
87.1138805
51
88.7937135
0
ARC
8
DEFAULT_255_2_778
10
11.6050958
20
67.4749077
40
10.2831308
50
88.6517672
51
89.3584515
0
ARC
8
DEFAULT_255_2_778
10
11.4561666
20
54.9993309
40
22.7595951
50
89.3352101
51
89.8647823
0
ARC
8
DEFAULT_255_2_778
10
11.4312485
20
48.651095
40
29.107874
50
89.845224
51
90.0009685
0
LINE
8
DEFAULT_255_2_778
10
21.5216565
20
77.8020689
11
21.5220336
21
77.8020691
0
ARC
8
DEFAULT_255_2_778
10
21.5219765
20
77.291511
40
0.5105581
50
45.0220498
51
89.9935869
0
ARC
8
DEFAULT_255_2_778
10
21.5257363
20
77.2926171
40
0.5071215
50
0.4474212
51
45.2342094
0
ARC
8
DEFAULT_255_2_778
10
21.5292352
20
77.2927688
40
0.5036214
50
0.00002
51
0.4332744
0
ARC
8
DEFAULT_255_2_778
10
4.5560414
20
77.2930504
40
0.506085
50
134.717117
51
180.0318694
0
ARC
8
DEFAULT_255_2_778
10
4.5608126
20
77.2915687
40
0.5105003
50
90.0149204
51
134.980627
0
LINE
8
DEFAULT_255_2_778
10
4.5606797
20
77.8020691
11
4.5610565
21
77.8020689
0
ARC
8
DEFAULT_255_2_778
10
4.5242418
20
78.5203893
40
0.5151205
50
180.6696435
51
270.0350069
0
ARC
8
DEFAULT_255_2_778
10
22.264222
20
78.0080813
40
0.0263406
50
148.9460633
51
175.6723552
0
ARC
8
DEFAULT_255_2_778
10
22.7585976
20
10.2842787
40
0.5206425
50
180.1331266
51
206.5738289
0
ARC
8
DEFAULT_255_2_778
10
22.7517038
20
10.2818352
40
0.5133846
50
206.6741187
51
229.5835115
0
ARC
8
DEFAULT_255_2_778
10
22.7611084
20
10.292171
40
0.5273513
50
229.5336237
51
249.6078778
0
ARC
8
DEFAULT_255_2_778
10
22.7569754
20
10.2879145
40
0.5219268
50
249.8703433
51
267.6701819
0
ARC
8
DEFAULT_255_2_778
10
22.755837
20
10.2725766
40
0.5065557
50
267.7283177
51
269.2104262
0
ARC
8
DEFAULT_255_2_778
10
4.6349497
20
78.5151617
40
0.5098938
50
180.089081
51
270.1131336
0
ARC
8
DEFAULT_255_2_778
10
20.8050044
20
102.136898
40
0.8159986
50
206.4554696
51
231.2774332
0
ARC
8
DEFAULT_255_2_778
10
19.1603293
20
101.3169512
40
1.022318
50
26.5351828
51
90.0320986
0
ARC
8
DEFAULT_255_2_778
10
14.0758787
20
101.3176066
40
1.0216628
50
89.9451615
51
153.4875531
0
ARC
8
DEFAULT_255_2_778
10
22.2886679
20
18.6112066
40
0.0520089
50
191.2400864
51
251.0755259
0
ARC
8
DEFAULT_255_2_778
10
22.3679854
20
18.7436512
40
0.2055372
50
242.0974051
51
243.5875854
0
ARC
8
DEFAULT_255_2_778
10
22.653235
20
19.7965148
40
1.2996127
50
258.199424
51
265.5790654
0
ARC
8
DEFAULT_255_2_778
10
22.747871
20
20.8108561
40
2.3182872
50
265.179534
51
270.0169433
0
ARC
8
DEFAULT_255_2_778
10
37.5768111
20
25.057517
40
0.5107481
50
270.0050938
51
359.8151173
0
ARC
8
DEFAULT_255_2_778
10
37.5768112
20
85.950921
40
0.510748
50
0.1848668
51
89.9949174
0
ARC
8
DEFAULT_255_2_778
10
37.6841372
20
84.2066088
40
1.4087057
50
79.6679129
51
80.1073556
0
ARC
8
DEFAULT_255_2_778
10
37.8518387
20
85.0705164
40
0.528824
50
69.4745816
51
80.7555117
0
ARC
8
DEFAULT_255_2_778
10
38.0510227
20
85.526191
40
0.0282404
50
12.8444593
51
55.1589197
0
ARC
8
DEFAULT_255_2_778
10
36.9766101
20
10.5193359
40
1.0195869
50
275.5666538
51
315.0389202
0
ARC
8
DEFAULT_255_2_778
10
36.9754612
20
10.5259882
40
1.0263193
50
270.1417724
51
275.5944679
0
ARC
8
DEFAULT_255_2_778
10
36.9754565
20
10.5109899
40
1.011321
50
270.0000001
51
270.1441402
0
ARC
8
DEFAULT_255_2_778
10
33.9486165
20
86.9771316
40
0.5106627
50
180.1865504
51
270.0044939
0
ARC
8
DEFAULT_255_2_778
10
32.5129319
20
100.082305
40
1.0123254
50
359.9300421
51
41.760673
0
ARC
8
DEFAULT_255_2_778
10
32.5053338
20
100.0787806
40
1.0203433
50
41.6241342
51
87.6489518
0
ARC
8
DEFAULT_255_2_778
10
32.5037837
20
100.0566053
40
1.0425638
50
87.6138256
51
90.0014924
0
ARC
8
DEFAULT_255_2_778
10
32.4248906
20
88.0478656
40
4.4685153
50
84.896905
51
89.8670866
0
ARC
8
DEFAULT_255_2_778
10
32.5845785
20
89.6780016
40
2.8306718
50
78.4414799
51
85.1814446
0
ARC
8
DEFAULT_255_2_778
10
33.0735644
20
91.7522022
40
0.6971479
50
64.4487867
51
72.8825821
0
ARC
8
DEFAULT_255_2_778
10
33.2884282
20
92.1893216
40
0.2101712
50
46.0639694
51
65.8973156
0
ARC
8
DEFAULT_255_2_778
10
33.3864494
20
92.2880312
40
0.0711073
50
8.6038267
51
47.7533846
0
ARC
8
DEFAULT_255_2_778
10
33.7525973
20
86.5214384
40
0.5472227
50
127.6734443
51
138.2156118
0
ARC
8
DEFAULT_255_2_778
10
35.1617551
20
85.2134602
40
2.4697835
50
137.3725238
51
141.1334993
0
ARC
8
DEFAULT_255_2_778
10
33.9215639
20
86.9517259
40
0.4895624
50
268.4077093
51
269.7299587
0
ARC
8
DEFAULT_255_2_778
10
33.9225187
20
86.9660461
40
0.503904
50
247.718092
51
268.3444237
0
ARC
8
DEFAULT_255_2_778
10
33.9220809
20
86.9622461
40
0.5002227
50
225.4335396
51
247.5994683
0
ARC
8
DEFAULT_255_2_778
10
33.9330192
20
86.972848
40
0.5154518
50
203.7600244
51
225.3942898
0
ARC
8
DEFAULT_255_2_778
10
33.9327626
20
86.972175
40
0.5149461
50
184.0805684
51
203.7029936
0
ARC
8
DEFAULT_255_2_778
10
33.9147055
20
86.9704543
40
0.4968126
50
181.8669358
51
184.0308125
0
ARC
8
DEFAULT_255_2_778
10
34.6914046
20
87.7306865
40
0.5080023
50
181.4119498
51
220.9907385
0
ARC
8
DEFAULT_255_2_778
10
34.7053377
20
87.7469479
40
0.529195
50
221.3301807
51
268.8001593
0
ARC
8
DEFAULT_255_2_778
10
4.1716626
20
92.2903227
40
0.0684458
50
133.2594001
51
173.501744
0
ARC
8
DEFAULT_255_2_778
10
4.2663414
20
92.1982829
40
0.2004444
50
114.2997266
51
134.9391188
0
ARC
8
DEFAULT_255_2_778
10
4.4789577
20
91.7729941
40
0.6758092
50
107.2318523
51
115.8911841
0
ARC
8
DEFAULT_255_2_778
10
4.9567996
20
89.7849989
40
2.7226172
50
94.6462823
51
101.6770251
0
ARC
8
DEFAULT_255_2_778
10
5.0892801
20
100.0804052
40
1.0193653
50
89.9001501
51
129.9914098
0
ARC
8
DEFAULT_255_2_778
10
5.0844039
20
100.0822302
40
1.0148365
50
129.846709
51
177.9747713
0
ARC
8
DEFAULT_255_2_778
10
5.1027464
20
100.0815976
40
1.0331898
50
177.9756606
51
180.0015876
0
ARC
8
DEFAULT_255_2_778
10
34.0082655
20
100.4100197
40
0.6855934
50
0.9903045
51
3.0305485
0
ARC
8
DEFAULT_255_2_778
10
33.9458827
20
100.4038054
40
0.7482233
50
3.2531955
51
22.8760612
0
ARC
8
DEFAULT_255_2_778
10
33.8263326
20
100.3467168
40
0.8805843
50
23.2745667
51
40.6677817
0
ARC
8
DEFAULT_255_2_778
10
33.6118497
20
100.1682583
40
1.1595745
50
40.4498045
51
53.0273743
0
ARC
8
DEFAULT_255_2_778
10
33.4490623
20
99.9609881
40
1.4230834
50
52.8101484
51
62.7091698
0
ARC
8
DEFAULT_255_2_778
10
33.2569421
20
99.5858422
40
1.844561
50
62.7486712
51
77.5993007
0
ARC
8
DEFAULT_255_2_778
10
33.1782326
20
99.2697524
40
2.1701976
50
77.3618524
51
88.2839803
0
ARC
8
DEFAULT_255_2_778
10
33.1761765
20
99.2384617
40
2.2015362
50
88.2548815
51
89.7064326
0
ARC
8
DEFAULT_255_2_778
10
33.1724191
20
100.4514884
40
0.988595
50
70.8661733
51
89.1284452
0
ARC
8
DEFAULT_255_2_778
10
33.1637295
20
100.4330365
40
1.008878
50
51.3703016
51
70.7434207
0
ARC
8
DEFAULT_255_2_778
10
33.1503828
20
100.4163944
40
1.0302109
50
28.7661587
51
51.3682459
0
ARC
8
DEFAULT_255_2_778
10
33.1202854
20
100.4037814
40
1.0626693
50
3.721376
51
28.5813546
0
ARC
8
DEFAULT_255_2_778
10
33.1714642
20
100.4085167
40
1.0112922
50
0.008628
51
3.6418591
0
ARC
8
DEFAULT_255_2_778
10
38.051873
20
25.4813831
40
0.0274635
50
304.5709561
51
348.2043269
0
ARC
8
DEFAULT_255_2_778
10
37.8463856
20
25.9602746
40
0.5519583
50
279.4271778
51
290.2310508
0
ARC
8
DEFAULT_255_2_778
10
37.7069628
20
26.670604
40
1.2757072
50
279.8937322
51
280.3790262
0
ARC
8
DEFAULT_255_2_778
10
37.6412625
20
27.123085
40
1.7327966
50
273.9807822
51
279.4631261
0
ARC
8
DEFAULT_255_2_778
10
22.7476773
20
10.4181899
40
0.5100217
50
180.1034611
51
270.0987727
0
LINE
8
DEFAULT_255_2_778
10
37.0434565
20
9.5676689
11
37.0438351
21
9.5676689
0
ARC
8
DEFAULT_255_2_778
10
37.0438146
20
10.5914052
40
1.0237363
50
270.0011466
51
314.8696283
0
ARC
8
DEFAULT_255_2_778
10
37.0494806
20
10.585813
40
1.0157759
50
314.8656618
51
359.9975133
0
ARC
8
DEFAULT_255_2_778
10
37.0494814
20
100.4218252
40
1.0157751
50
0.0024658
51
45.1343575
0
ARC
8
DEFAULT_255_2_778
10
37.0437542
20
100.4160858
40
1.0238831
50
45.133776
51
89.9998691
0
ARC
8
DEFAULT_255_2_778
10
38.0467735
20
87.2805541
40
0.0489118
50
267.3457773
51
292.2026941
0
ARC
8
DEFAULT_255_2_778
10
37.9424072
20
88.5476391
40
1.3198993
50
272.2623322
51
274.4365691
0
ARC
8
DEFAULT_255_2_778
10
37.7474888
20
93.1488255
40
5.9252082
50
271.3638514
51
272.3893465
0
ARC
8
DEFAULT_255_2_778
10
37.4781456
20
103.8585132
40
16.638279
50
270.862272
51
271.4133043
0
ARC
8
DEFAULT_255_2_778
10
37.2255298
20
120.1407824
40
32.9225068
50
270.4809277
51
270.8754232
0
ARC
8
DEFAULT_255_2_778
10
37.0687139
20
138.3681865
40
51.1505852
50
270.1082404
51
270.4852015
0
ARC
8
DEFAULT_255_2_778
10
37.0438465
20
146.9335328
40
59.7159638
50
269.9996259
51
270.1165746
0
ARC
8
DEFAULT_255_2_778
10
150.9760801
20
100.3001454
40
1.0210271
50
51.9870551
51
90.1528368
0
ARC
8
DEFAULT_255_2_778
10
150.9814497
20
100.3053474
40
1.0136225
50
3.3041597
51
52.045105
0
ARC
8
DEFAULT_255_2_778
10
150.9554294
20
100.3031369
40
1.0397272
50
359.9962541
51
3.3431241
0
ARC
8
DEFAULT_255_2_778
10
150.9760801
20
100.4869454
40
1.0210271
50
51.9870551
51
90.1528368
0
ARC
8
DEFAULT_255_2_778
10
150.9814497
20
100.4921474
40
1.0136225
50
3.3041597
51
52.045105
0
ARC
8
DEFAULT_255_2_778
10
150.9554294
20
100.4899369
40
1.0397272
50
359.9962541
51
3.3431241
0
ARC
8
DEFAULT_255_2_778
10
141.7659038
20
101.3174524
40
1.0221168
50
26.5219427
51
90.0362829
0
ARC
8
DEFAULT_255_2_778
10
136.6812854
20
101.3178146
40
1.0217548
50
89.9511518
51
153.4906243
0
ARC
8
DEFAULT_255_2_778
10
135.0424368
20
102.1311496
40
0.8078232
50
308.7758501
51
333.7508251
0
ARC
8
DEFAULT_255_2_778
10
137.1310296
20
87.829902
40
0.506874
50
179.8906941
51
213.1712951
0
ARC
8
DEFAULT_255_2_778
10
136.9650642
20
92.2872145
40
0.0723725
50
132.6220144
51
171.1339528
0
ARC
8
DEFAULT_255_2_778
10
137.0596023
20
92.1925029
40
0.2061537
50
113.9074036
51
134.1312737
0
ARC
8
DEFAULT_255_2_778
10
137.2815327
20
91.7397571
40
0.7102593
50
107.1955031
51
115.4733354
0
ARC
8
DEFAULT_255_2_778
10
137.7554948
20
89.7431488
40
2.7645997
50
94.7210265
51
101.621969
0
ARC
8
DEFAULT_255_2_778
10
137.9253394
20
88.0493828
40
4.466698
50
90.131902
51
95.104107
0
ARC
8
DEFAULT_255_2_778
10
137.8455973
20
100.0794422
40
1.0203274
50
89.9349071
51
130.1542715
0
ARC
8
DEFAULT_255_2_778
10
137.8397636
20
100.0821512
40
1.0144986
50
130.0011125
51
178.1817486
0
ARC
8
DEFAULT_255_2_778
10
137.8583928
20
100.0815845
40
1.0331363
50
178.1831161
51
180.0008643
0
ARC
8
DEFAULT_255_2_778
10
136.9374677
20
87.8199659
40
0.0288507
50
101.684781
51
157.7954942
0
ARC
8
DEFAULT_255_2_778
10
137.0772983
20
87.4849513
40
0.3913873
50
111.5940923
51
111.8512555
0
ARC
8
DEFAULT_255_2_778
10
151.7771405
20
87.2422488
40
0.6408096
50
76.0368927
51
77.2141534
0
ARC
8
DEFAULT_255_2_778
10
151.8695297
20
87.6058908
40
0.2656265
50
66.1682825
51
76.4496337
0
ARC
8
DEFAULT_255_2_778
10
151.8886695
20
87.6473224
40
0.2199954
50
66.0525329
51
66.3681407
0
ARC
8
DEFAULT_255_2_778
10
151.9729009
20
87.8246184
40
0.0242955
50
14.1773726
51
77.9682641
0
ARC
8
DEFAULT_255_2_778
10
151.4866483
20
87.8313765
40
0.5098088
50
269.8772969
51
359.9092411
0
ARC
8
DEFAULT_255_2_778
10
137.6432084
20
88.9693565
40
1.6809994
50
244.757911
51
251.8639591
0
ARC
8
DEFAULT_255_2_778
10
136.3435418
20
100.4097498
40
0.6870869
50
178.3840145
51
179.0143572
0
ARC
8
DEFAULT_255_2_778
10
136.3994539
20
100.4048313
40
0.7431231
50
157.0689714
51
178.1265123
0
ARC
8
DEFAULT_255_2_778
10
136.5256122
20
100.3462457
40
0.8821509
50
139.3963897
51
156.7570987
0
ARC
8
DEFAULT_255_2_778
10
136.7381638
20
100.1685641
40
1.1591707
50
126.9876829
51
139.5660303
0
ARC
8
DEFAULT_255_2_778
10
136.917012
20
99.9343374
40
1.4538669
50
117.3771979
51
127.0640064
0
ARC
8
DEFAULT_255_2_778
10
137.0957018
20
99.578245
40
1.8522532
50
102.4317086
51
117.2203194
0
ARC
8
DEFAULT_255_2_778
10
137.1724831
20
99.2679107
40
2.1718557
50
91.7332536
51
102.6473362
0
ARC
8
DEFAULT_255_2_778
10
137.1737874
20
99.2494098
40
2.1903879
50
90.2937755
51
91.7527167
0
ARC
8
DEFAULT_255_2_778
10
137.1765382
20
100.4538561
40
0.986012
50
90.8124845
51
109.1209668
0
ARC
8
DEFAULT_255_2_778
10
137.1862851
20
100.4330335
40
1.0088813
50
109.25661
51
128.6296655
0
ARC
8
DEFAULT_255_2_778
10
137.1955874
20
100.4200857
40
1.0248037
50
128.5840333
51
151.3032894
0
ARC
8
DEFAULT_255_2_778
10
137.226947
20
100.4043458
40
1.0598701
50
151.3709375
51
176.3150614
0
ARC
8
DEFAULT_255_2_778
10
137.1782057
20
100.4087233
40
1.010949
50
176.3851044
51
179.9917474
0
ARC
8
DEFAULT_255_2_778
10
150.9759328
20
89.565809
40
2.949761
50
89.9833249
51
90.050041
0
ARC
8
DEFAULT_255_2_778
10
150.9757567
20
87.959142
40
4.5564284
50
85.1075252
51
89.9869905
0
ARC
8
DEFAULT_255_2_778
10
151.6270305
20
91.7890458
40
0.6594688
50
63.8806608
51
72.7257902
0
ARC
8
DEFAULT_255_2_778
10
151.8400389
20
92.2096077
40
0.1881788
50
43.9328376
51
65.7402959
0
ARC
8
DEFAULT_255_2_778
10
151.9292055
20
92.2926889
40
0.0663534
50
4.4775291
51
45.6894057
0
ARC
8
DEFAULT_255_2_778
10
137.4197213
20
87.8310334
40
0.5097652
50
180.0746859
51
270.0938749
0
ARC
8
DEFAULT_255_2_778
10
143.4092095
20
8.8721865
40
0.8140599
50
128.7151531
51
153.5667716
0
ARC
8
DEFAULT_255_2_778
10
135.0380163
20
8.8712042
40
0.8150686
50
26.4515382
51
51.306792
0
ARC
8
DEFAULT_255_2_778
10
136.6810624
20
9.6883097
40
1.0199415
50
206.4337988
51
270.0726956
0
ARC
8
DEFAULT_255_2_778
10
141.7664652
20
9.6901433
40
1.0217748
50
269.9490466
51
333.4836637
0
ARC
8
DEFAULT_255_2_778
10
144.8672485
20
4.5989891
40
3.0411097
50
359.9412151
51
18.7195019
0
ARC
8
DEFAULT_255_2_778
10
144.8449068
20
4.5836162
40
3.0672121
50
18.8575385
51
76.1895735
0
ARC
8
DEFAULT_255_2_778
10
144.8453092
20
4.5675181
40
3.0827516
50
76.2682575
51
90.040009
0
ARC
8
DEFAULT_255_2_778
10
144.8399833
20
4.5786239
40
3.0716467
50
89.9408104
51
108.2528436
0
ARC
8
DEFAULT_255_2_778
10
144.8405805
20
4.5854815
40
3.0653223
50
108.3035904
51
165.6502049
0
ARC
8
DEFAULT_255_2_778
10
144.827863
20
4.5980201
40
3.0499073
50
165.8191944
51
180.0404112
0
ARC
8
DEFAULT_255_2_778
10
144.8654888
20
4.5987897
40
2.5316694
50
359.9338989
51
20.857312
0
ARC
8
DEFAULT_255_2_778
10
144.844352
20
4.585329
40
2.5562188
50
20.9705713
51
78.2414328
0
ARC
8
DEFAULT_255_2_778
10
144.8443576
20
4.5672322
40
2.5739372
50
78.3236476
51
90.0311882
0
ARC
8
DEFAULT_255_2_778
10
144.8398843
20
4.5843863
40
2.5567845
50
89.9311529
51
110.5424887
0
ARC
8
DEFAULT_255_2_778
10
144.8385497
20
4.5899541
40
2.5511026
50
110.5583014
51
170.2784767
0
ARC
8
DEFAULT_255_2_778
10
144.8424029
20
4.5968516
40
2.5537465
50
170.4456034
51
180.0220459
0
ARC
8
DEFAULT_255_2_778
10
149.1661569
20
1.5390948
40
1.7690021
50
179.9198658
51
206.5016673
0
ARC
8
DEFAULT_255_2_778
10
149.1843429
20
1.5496519
40
1.7899886
50
206.5443269
51
259.9436173
0
ARC
8
DEFAULT_255_2_778
10
149.1844982
20
1.5648946
40
1.8050258
50
260.0232505
51
270.0240709
0
ARC
8
DEFAULT_255_2_778
10
149.1879261
20
1.5458536
40
1.7859866
50
269.9143574
51
295.9755248
0
ARC
8
DEFAULT_255_2_778
10
149.1897296
20
1.5447903
40
1.7842413
50
295.9384147
51
351.5528443
0
ARC
8
DEFAULT_255_2_778
10
149.183492
20
1.5410262
40
1.7898645
50
351.701363
51
0.0173741
0
ARC
8
DEFAULT_255_2_778
10
149.1794713
20
1.5395191
40
1.2713164
50
179.9076186
51
213.7156042
0
ARC
8
DEFAULT_255_2_778
10
149.1849102
20
1.5409199
40
1.2766194
50
213.6324039
51
264.0175116
0
ARC
8
DEFAULT_255_2_778
10
149.1850401
20
1.5561002
40
1.2917314
50
264.0819579
51
270.0095976
0
ARC
8
DEFAULT_255_2_778
10
149.187293
20
1.5354539
40
1.2710866
50
269.9082012
51
303.719163
0
ARC
8
DEFAULT_255_2_778
10
149.18569
20
1.541168
40
1.2767306
50
303.6366494
51
354.0196884
0
ARC
8
DEFAULT_255_2_778
10
149.1702898
20
1.541352
40
1.2920668
50
354.0827232
51
0.0096192
0
ARC
8
DEFAULT_255_2_778
10
140.4817569
20
1.5390948
40
1.7690021
50
179.9198658
51
206.5016673
0
ARC
8
DEFAULT_255_2_778
10
140.4999429
20
1.5496519
40
1.7899886
50
206.5443269
51
259.9436173
0
ARC
8
DEFAULT_255_2_778
10
140.5000982
20
1.5648946
40
1.8050258
50
260.0232505
51
270.0240709
0
ARC
8
DEFAULT_255_2_778
10
140.5035348
20
1.5457304
40
1.7858634
50
269.9140726
51
295.9764357
0
ARC
8
DEFAULT_255_2_778
10
140.5052768
20
1.5447121
40
1.7841855
50
295.9404701
51
351.5551178
0
ARC
8
DEFAULT_255_2_778
10
140.4988022
20
1.5410249
40
1.7900544
50
351.7022918
51
0.0174143
0
ARC
8
DEFAULT_255_2_778
10
140.494933
20
1.5395153
40
1.2712781
50
179.907445
51
213.7165474
0
ARC
8
DEFAULT_255_2_778
10
140.5004504
20
1.5409961
40
1.2766908
50
213.6343796
51
264.019736
0
ARC
8
DEFAULT_255_2_778
10
140.5006396
20
1.5564357
40
1.2920668
50
264.0827231
51
270.0096192
0
ARC
8
DEFAULT_255_2_778
10
140.502893
20
1.5354539
40
1.2710866
50
269.9082012
51
303.719163
0
ARC
8
DEFAULT_255_2_778
10
140.50129
20
1.541168
40
1.2767306
50
303.6366494
51
354.0196884
0
ARC
8
DEFAULT_255_2_778
10
140.4858898
20
1.541352
40
1.2920668
50
354.0827232
51
0.0096192
0
ARC
8
DEFAULT_255_2_778
10
109.2448008
20
8.3259956
40
2.9665266
50
240.9460234
51
269.9993724
0
LINE
8
DEFAULT_255_2_778
10
109.2447683
20
5.3594689
11
109.2453565
21
5.3594689
0
ARC
8
DEFAULT_255_2_778
10
114.535515
20
9.1855401
40
2.9529718
50
298.6238226
51
347.2309452
0
ARC
8
DEFAULT_255_2_778
10
109.244911
20
8.3270677
40
2.944799
50
240.9446466
51
269.99894
0
ARC
8
DEFAULT_255_2_778
10
109.6014266
20
9.0951487
40
0.7876833
50
256.8616477
51
269.8276026
0
ARC
8
DEFAULT_255_2_778
10
109.6030067
20
9.1026398
40
0.7953376
50
254.8431993
51
256.8734642
0
ARC
8
DEFAULT_255_2_778
10
109.598984
20
9.0920516
40
0.7840667
50
239.8484914
51
254.9246263
0
ARC
8
DEFAULT_255_2_778
10
109.6191866
20
9.1601422
40
0.7875767
50
258.2172744
51
269.8304906
0
ARC
8
DEFAULT_255_2_778
10
109.6195837
20
9.16209
40
0.7895645
50
254.8216618
51
258.2179239
0
ARC
8
DEFAULT_255_2_778
10
109.6168676
20
9.1578502
40
0.784763
50
239.8625209
51
254.9319998
0
ARC
8
DEFAULT_255_2_778
10
114.5368261
20
9.1856103
40
3.2338197
50
299.8838754
51
348.3350311
0
ARC
8
DEFAULT_255_2_778
10
113.0085892
20
8.3268505
40
3.2380818
50
269.9989171
51
299.9106816
0
LINE
8
DEFAULT_255_2_778
10
113.008528
20
5.0887689
11
113.0079565
21
5.0887689
0
ARC
8
DEFAULT_255_2_778
10
109.2449156
20
8.3289362
40
3.2536673
50
240.09907
51
269.9989605
0
ARC
8
DEFAULT_255_2_778
10
107.7160068
20
9.1854075
40
3.2335043
50
191.662454
51
240.1186386
0
ARC
8
DEFAULT_255_2_778
10
107.7176995
20
9.1857433
40
2.9758436
50
192.6732861
51
240.962011
0
ARC
8
DEFAULT_255_2_778
10
107.7177055
20
9.1856018
40
2.9530239
50
192.7640853
51
240.9624005
0
ARC
8
DEFAULT_255_2_778
10
3.1844422
20
99.2839452
40
0.5156237
50
83.5779108
51
89.9984131
0
ARC
8
DEFAULT_255_2_778
10
3.183314
20
99.277767
40
0.5218894
50
60.6950918
51
83.5306866
0
ARC
8
DEFAULT_255_2_778
10
3.1894555
20
99.2805661
40
0.516458
50
23.9199305
51
61.1372543
0
ARC
8
DEFAULT_255_2_778
10
1.1877389
20
100.4598401
40
1.0211327
50
89.8419021
51
127.6672273
0
ARC
8
DEFAULT_255_2_778
10
1.1824479
20
100.4652714
40
1.0136007
50
127.6180876
51
176.6797459
0
ARC
8
DEFAULT_255_2_778
10
1.2089661
20
100.462944
40
1.0402096
50
176.6363618
51
180.0041326
0
ARC
8
DEFAULT_255_2_778
10
0.6785647
20
98.0638765
40
0.5098088
50
180.0907572
51
270.1227071
0
ARC
8
DEFAULT_255_2_778
10
1.189845
20
98.0603871
40
0.5063187
50
270.0805162
51
0.3034792
0
ARC
8
DEFAULT_255_2_778
10
2.4165175
20
99.2912178
40
0.7203616
50
180.015094
51
180.0754689
0
ARC
8
DEFAULT_255_2_778
10
2.2049348
20
99.2911527
40
0.5087788
50
157.4494045
51
180.0140407
0
ARC
8
DEFAULT_255_2_778
10
2.2152071
20
99.2891196
40
0.5190496
50
135.6479647
51
157.6769946
0
ARC
8
DEFAULT_255_2_778
10
2.1893461
20
99.3041768
40
0.490086
50
111.4337295
51
134.7931214
0
ARC
8
DEFAULT_255_2_778
10
2.2086077
20
99.2781731
40
0.5213981
50
90.1704582
51
112.3598101
0
ARC
8
DEFAULT_255_2_778
10
42.8335219
20
8.3251952
40
2.9655264
50
240.9370313
51
270.0008966
0
LINE
8
DEFAULT_255_2_778
10
42.8335683
20
5.3596689
11
42.8341565
21
5.3596689
0
ARC
8
DEFAULT_255_2_778
10
48.1245183
20
9.1856863
40
2.9527396
50
298.6217896
51
347.2329832
0
ARC
8
DEFAULT_255_2_778
10
42.8339152
20
8.3273628
40
2.9448939
50
240.9411268
51
269.9949664
0
ARC
8
DEFAULT_255_2_778
10
43.1908156
20
9.0977986
40
0.7901352
50
256.8592878
51
269.7854272
0
ARC
8
DEFAULT_255_2_778
10
43.1894839
20
9.0903566
40
0.7825854
50
254.7664655
51
256.8303595
0
ARC
8
DEFAULT_255_2_778
10
43.187144
20
9.0908149
40
0.7824164
50
239.8325
51
254.9406182
0
ARC
8
DEFAULT_255_2_778
10
43.208816
20
9.1677212
40
0.7949586
50
258.2671856
51
269.772284
0
ARC
8
DEFAULT_255_2_778
10
43.2069388
20
9.1570784
40
0.7841565
50
254.8238569
51
258.2433525
0
ARC
8
DEFAULT_255_2_778
10
43.2070065
20
9.1604056
40
0.7873858
50
239.8606631
51
254.8824782
0
ARC
8
DEFAULT_255_2_778
10
48.1263402
20
9.1854636
40
3.233226
50
299.8814564
51
348.3409414
0
ARC
8
DEFAULT_255_2_778
10
46.5979874
20
8.3267825
40
3.2377138
50
269.9989472
51
299.9124213
0
LINE
8
DEFAULT_255_2_778
10
46.597928
20
5.0890689
11
46.5973565
21
5.0890689
0
ARC
8
DEFAULT_255_2_778
10
42.8342892
20
8.3295123
40
3.2539434
50
240.1003688
51
269.9976629
0
ARC
8
DEFAULT_255_2_778
10
41.3010125
20
9.1816163
40
3.2278179
50
211.9315634
51
240.148552
0
ARC
8
DEFAULT_255_2_778
10
41.3013261
20
9.183087
40
3.2288621
50
181.1731081
51
211.9507686
0
ARC
8
DEFAULT_255_2_778
10
41.3146953
20
9.1836153
40
3.2422393
50
180.0343947
51
181.1776042
0
ARC
8
DEFAULT_255_2_778
10
41.2962995
20
9.1813518
40
2.9650276
50
180.6393012
51
212.6554213
0
ARC
8
DEFAULT_255_2_778
10
41.3083607
20
9.1878578
40
2.978693
50
212.635602
51
240.9470908
0
ARC
8
DEFAULT_255_2_778
10
41.3027874
20
9.1823151
40
2.9484431
50
210.2273684
51
240.9911714
0
ARC
8
DEFAULT_255_2_778
10
41.3019116
20
9.1829339
40
2.9479981
50
180.8739492
51
210.2463296
0
ARC
8
DEFAULT_255_2_778
10
4.6804878
20
10.5185069
40
1.0191383
50
226.7869184
51
270.0432178
0
ARC
8
DEFAULT_255_2_778
10
4.6993028
20
10.5408355
40
1.0482956
50
225.0703483
51
226.8730596
0
ARC
8
DEFAULT_255_2_778
10
4.6721331
20
10.5184665
40
1.0132765
50
179.9942059
51
225.2647285
0
ARC
8
DEFAULT_255_2_778
10
3.1897943
20
11.7273419
40
0.516238
50
298.8712909
51
336.0971502
0
ARC
8
DEFAULT_255_2_778
10
3.183088
20
11.7320972
40
0.5236525
50
276.5053548
51
299.2626391
0
ARC
8
DEFAULT_255_2_778
10
3.1847253
20
11.7226315
40
0.5140626
50
270.0034797
51
276.443573
0
ARC
8
DEFAULT_255_2_778
10
2.2054576
20
11.7888825
40
0.5797157
50
270.0075265
51
270.1580273
0
ARC
8
DEFAULT_255_2_778
10
2.2054546
20
11.7219901
40
0.5128234
50
247.6270408
51
270.0088437
0
ARC
8
DEFAULT_255_2_778
10
2.206879
20
11.730497
40
0.5212358
50
225.8865594
51
247.8381837
0
ARC
8
DEFAULT_255_2_778
10
2.1924134
20
11.7042344
40
0.4923743
50
201.7390358
51
224.9677934
0
ARC
8
DEFAULT_255_2_778
10
2.2114423
20
11.7188025
40
0.5154864
50
180.0926516
51
202.4597584
0
ARC
8
DEFAULT_255_2_778
10
1.1899516
20
12.9479562
40
0.5062132
50
359.6732093
51
89.9315321
0
ARC
8
DEFAULT_255_2_778
10
4.8682372
20
10.3662903
40
0.6803214
50
269.9192807
51
270.0268952
0
ARC
8
DEFAULT_255_2_778
10
4.8677217
20
10.7052103
40
1.0192407
50
226.7944425
51
269.9750977
0
ARC
8
DEFAULT_255_2_778
10
4.8858069
20
10.7265407
40
1.0471709
50
225.070467
51
226.8721816
0
ARC
8
DEFAULT_255_2_778
10
4.8594329
20
10.7049664
40
1.0132764
50
179.9942035
51
225.2647354
0
ARC
8
DEFAULT_255_2_778
10
4.9161753
20
10.7888762
40
0.9850188
50
180.0120546
51
184.2698893
0
ARC
8
DEFAULT_255_2_778
10
4.9687585
20
10.7941202
40
1.0378473
50
184.3424508
51
213.6142721
0
ARC
8
DEFAULT_255_2_778
10
4.9596715
20
10.7959655
40
1.0313223
50
213.9791266
51
245.7602732
0
ARC
8
DEFAULT_255_2_778
10
4.9542856
20
10.7903094
40
1.023957
50
245.9051345
51
269.6738306
0
ARC
8
DEFAULT_255_2_778
10
4.9798449
20
10.1087536
40
0.3454799
50
225.3513694
51
260.0511154
0
ARC
8
DEFAULT_255_2_778
10
5.234618
20
10.3720892
40
0.7118784
50
203.0670973
51
225.6578488
0
ARC
8
DEFAULT_255_2_778
10
0.6787562
20
12.9448691
40
0.5100007
50
89.8988562
51
179.8876682
0
ARC
8
DEFAULT_255_2_778
10
1.1814758
20
10.5436296
40
1.0127222
50
179.8619941
51
219.4555459
0
ARC
8
DEFAULT_255_2_778
10
1.1868497
20
10.5474359
40
1.0192905
50
219.4287816
51
266.0326296
0
ARC
8
DEFAULT_255_2_778
10
1.190453
20
10.5782884
40
1.0503194
50
265.9529827
51
270.0056478
0
ARC
8
DEFAULT_255_2_778
10
20.8047462
20
8.8720839
40
0.8155687
50
128.7235314
51
153.5329576
0
ARC
8
DEFAULT_255_2_778
10
12.4327575
20
8.872533
40
0.8146612
50
26.4478239
51
51.3055789
0
ARC
8
DEFAULT_255_2_778
10
14.0756618
20
9.6895516
40
1.0201832
50
206.4359539
51
270.0670982
0
ARC
8
DEFAULT_255_2_778
10
19.1607889
20
9.6913478
40
1.0219791
50
269.9589376
51
333.4828333
0
ARC
8
DEFAULT_255_2_778
10
15.3222993
20
1.539808
40
1.7690445
50
179.9202958
51
206.4998746
0
ARC
8
DEFAULT_255_2_778
10
15.34041
20
1.5502796
40
1.7899254
50
206.5411824
51
259.9411831
0
ARC
8
DEFAULT_255_2_778
10
15.3405011
20
1.5653822
40
1.8048134
50
260.0220766
51
270.023982
0
ARC
8
DEFAULT_255_2_778
10
15.3439366
20
1.5465427
40
1.7859758
50
269.9140213
51
295.9768811
0
ARC
8
DEFAULT_255_2_778
10
15.3457901
20
1.5454153
40
1.7841509
50
295.939228
51
351.8128816
0
ARC
8
DEFAULT_255_2_778
10
15.3389761
20
1.5417586
40
1.7903807
50
351.9597662
51
0.0163328
0
ARC
8
DEFAULT_255_2_778
10
15.3352798
20
1.5402362
40
1.2711249
50
179.9083748
51
213.7182198
0
ARC
8
DEFAULT_255_2_778
10
15.3409154
20
1.5417593
40
1.2766592
50
213.6346736
51
264.017464
0
ARC
8
DEFAULT_255_2_778
10
15.3410401
20
1.5569002
40
1.2917314
50
264.081958
51
270.0095977
0
ARC
8
DEFAULT_255_2_778
10
15.3433063
20
1.5364837
40
1.2713164
50
269.9076186
51
303.7156042
0
ARC
8
DEFAULT_255_2_778
10
15.3419055
20
1.5419226
40
1.2766194
50
303.6324039
51
354.0175116
0
ARC
8
DEFAULT_255_2_778
10
15.3267253
20
1.5420526
40
1.2917314
50
354.0819579
51
0.0095976
0
ARC
8
DEFAULT_255_2_778
10
6.6378993
20
1.539808
40
1.7690445
50
179.9202958
51
206.4998746
0
ARC
8
DEFAULT_255_2_778
10
6.65601
20
1.5502796
40
1.7899254
50
206.5411824
51
259.9411831
0
ARC
8
DEFAULT_255_2_778
10
6.6561011
20
1.5653822
40
1.8048134
50
260.0220766
51
270.023982
0
ARC
8
DEFAULT_255_2_778
10
6.6595174
20
1.5464366
40
1.7858697
50
269.9146308
51
295.9776642
0
ARC
8
DEFAULT_255_2_778
10
6.6613134
20
1.5454939
40
1.784236
50
295.9390793
51
351.8107261
0
ARC
8
DEFAULT_255_2_778
10
6.654778
20
1.5417571
40
1.7901785
50
351.9588995
51
0.0163812
0
ARC
8
DEFAULT_255_2_778
10
6.6508798
20
1.5402362
40
1.2711249
50
179.9083748
51
213.7182198
0
ARC
8
DEFAULT_255_2_778
10
6.6565154
20
1.5417593
40
1.2766592
50
213.6346736
51
264.017464
0
ARC
8
DEFAULT_255_2_778
10
6.6566401
20
1.5569002
40
1.2917314
50
264.081958
51
270.0095977
0
ARC
8
DEFAULT_255_2_778
10
6.6589063
20
1.5364837
40
1.2713164
50
269.9076186
51
303.7156042
0
ARC
8
DEFAULT_255_2_778
10
6.6575055
20
1.5419226
40
1.2766194
50
303.6324039
51
354.0175116
0
ARC
8
DEFAULT_255_2_778
10
6.6423253
20
1.5420526
40
1.2917314
50
354.0819579
51
0.0095976
0
ARC
8
DEFAULT_255_2_778
10
11.0236294
20
4.6000853
40
3.0408287
50
359.9412819
51
18.7286625
0
ARC
8
DEFAULT_255_2_778
10
11.0010145
20
4.5845985
40
3.0672278
50
18.8669954
51
76.1913515
0
ARC
8
DEFAULT_255_2_778
10
11.0014063
20
4.5684875
40
3.0827823
50
76.2698929
51
90.0399557
0
ARC
8
DEFAULT_255_2_778
10
10.9960705
20
4.5792682
40
3.0720024
50
89.9405783
51
108.2511574
0
ARC
8
DEFAULT_255_2_778
10
10.9964544
20
4.5866827
40
3.0650822
50
108.3013787
51
165.6511316
0
ARC
8
DEFAULT_255_2_778
10
10.9840404
20
4.5991279
40
3.0499846
50
165.8198361
51
180.0405575
0
ARC
8
DEFAULT_255_2_778
10
10.9762959
20
4.5998923
40
2.5316411
50
159.1425055
51
180.0661607
0
ARC
8
DEFAULT_255_2_778
10
10.9974695
20
4.586399
40
2.5562364
50
101.757156
51
159.0288586
0
ARC
8
DEFAULT_255_2_778
10
10.9975532
20
4.5680284
40
2.5742411
50
89.9687663
51
101.6756644
0
ARC
8
DEFAULT_255_2_778
10
11.0020288
20
4.5854863
40
2.5567845
50
69.4575113
51
90.0688471
0
ARC
8
DEFAULT_255_2_778
10
11.0033633
20
4.5910541
40
2.5511026
50
9.7215233
51
69.4416986
0
ARC
8
DEFAULT_255_2_778
10
10.9995102
20
4.5979516
40
2.5537465
50
359.9779541
51
9.5543966
0
ARC
8
DEFAULT_255_2_778
10
159.8637435
20
100.8786797
40
0.3049131
50
0.0167673
51
89.2834745
0
ARC
8
DEFAULT_255_2_778
10
160.0067052
20
100.9342013
40
0.1772699
50
41.459007
51
63.2997861
0
ARC
8
DEFAULT_255_2_778
10
160.0590951
20
100.9767663
40
0.1092763
50
0.9452091
51
31.8116414
0
ARC
8
DEFAULT_255_2_778
10
159.9646766
20
100.9786094
40
0.2036799
50
359.9886189
51
89.1898488
0
ARC
8
DEFAULT_255_2_778
10
159.8622234
20
10.1296645
40
0.3059337
50
270.9051881
51
359.8884648
0
ARC
8
DEFAULT_255_2_778
10
160.1359692
20
17.9529453
40
0.0328725
50
289.5769744
51
348.2817644
0
ARC
8
DEFAULT_255_2_778
10
160.0558724
20
18.0839853
40
0.1858741
50
298.778423
51
299.3522829
0
ARC
8
DEFAULT_255_2_778
10
160.0455642
20
18.1144353
40
0.2175984
50
279.2540041
51
297.2973141
0
ARC
8
DEFAULT_255_2_778
10
150.967203
20
100.0781348
40
1.0274577
50
0.1636212
51
22.4844947
0
ARC
8
DEFAULT_255_2_778
10
150.9733857
20
100.0769747
40
1.0221944
50
22.67711
51
90.0352669
0
ARC
8
DEFAULT_255_2_778
10
160.0442962
20
92.8908799
40
0.2206883
50
62.7462305
51
80.5431004
0
ARC
8
DEFAULT_255_2_778
10
160.0486863
20
92.9110684
40
0.2008017
50
60.6906178
51
61.221721
0
ARC
8
DEFAULT_255_2_778
10
160.1361148
20
93.0552931
40
0.0327296
50
11.7691889
51
70.6047681
0
ARC
8
DEFAULT_255_2_778
10
133.3132175
20
32.3159861
40
54.9370832
50
89.6151994
51
90.006634
0
ARC
8
DEFAULT_255_2_778
10
133.4328378
20
49.6118505
40
37.6408057
50
89.2231479
51
89.6204643
0
ARC
8
DEFAULT_255_2_778
10
133.6605689
20
66.3384309
40
20.9126753
50
88.7888049
51
89.2256894
0
ARC
8
DEFAULT_255_2_778
10
133.9316047
20
78.794516
40
8.4536476
50
87.9343545
51
88.8408669
0
ARC
8
DEFAULT_255_2_778
10
134.1863568
20
85.6432403
40
1.6002099
50
85.5608142
51
88.2110458
0
ARC
8
DEFAULT_255_2_778
10
134.3122216
20
87.1976077
40
0.0410911
50
66.4241026
51
92.7996677
0
ARC
8
DEFAULT_255_2_778
10
134.3102764
20
87.2799996
40
0.0483596
50
267.2712314
51
292.3380999
0
ARC
8
DEFAULT_255_2_778
10
134.2060567
20
88.543745
40
1.3160027
50
272.2628522
51
274.4417001
0
ARC
8
DEFAULT_255_2_778
10
134.0112077
20
93.1410247
40
5.9174053
50
271.363928
51
272.3904523
0
ARC
8
DEFAULT_255_2_778
10
133.7418431
20
103.8499742
40
16.6297386
50
270.8622044
51
271.4134913
0
ARC
8
DEFAULT_255_2_778
10
133.489116
20
120.1402819
40
32.9220058
50
270.4808265
51
270.8753722
0
ARC
8
DEFAULT_255_2_778
10
133.3321593
20
138.3879536
40
51.1703522
50
270.1081932
51
270.4851021
0
ARC
8
DEFAULT_255_2_778
10
133.3072479
20
146.971947
40
59.754378
50
269.9996248
51
270.1165372
0
ARC
8
DEFAULT_255_2_778
10
133.3003274
20
142.7731824
40
55.5556138
50
269.6195131
51
270.0067337
0
ARC
8
DEFAULT_255_2_778
10
133.179541
20
125.0962353
40
37.8782545
50
269.229876
51
269.6246506
0
ARC
8
DEFAULT_255_2_778
10
132.9513873
20
108.1876954
40
20.9681755
50
268.7966954
51
269.2322503
0
ARC
8
DEFAULT_255_2_778
10
132.6811181
20
95.6861231
40
8.4636879
50
267.9436674
51
268.8486558
0
ARC
8
DEFAULT_255_2_778
10
132.4271131
20
88.8272632
40
1.6001494
50
265.5694614
51
268.2205003
0
ARC
8
DEFAULT_255_2_778
10
132.3015279
20
87.2732156
40
0.0413673
50
246.5359239
51
272.7336742
0
ARC
8
DEFAULT_255_2_778
10
150.9753242
20
10.9288329
40
1.0198655
50
269.9006946
51
309.8085228
0
ARC
8
DEFAULT_255_2_778
10
150.9806893
20
10.9265233
40
1.0146599
50
309.6592915
51
358.1672872
0
ARC
8
DEFAULT_255_2_778
10
150.9623963
20
10.9270524
40
1.0329603
50
358.1704064
51
0.0009204
0
LINE
8
DEFAULT_255_2_778
10
151.9951565
20
10.7050689
11
151.9951565
21
10.7050689
0
LINE
8
DEFAULT_255_2_778
10
151.8228565
20
18.5891689
11
151.6958565
21
18.5560689
0
LINE
8
DEFAULT_255_2_778
10
151.6958565
20
18.5560689
11
151.5411565
21
18.5290689
0
LINE
8
DEFAULT_255_2_778
10
151.5411565
20
18.5290689
11
151.3643565
21
18.5089689
0
LINE
8
DEFAULT_255_2_778
10
151.3643565
20
18.5089689
11
150.9733565
21
18.4923689
0
LINE
8
DEFAULT_255_2_778
10
150.9733565
20
18.4923689
11
137.9150565
21
18.4923689
0
LINE
8
DEFAULT_255_2_778
10
137.9150565
20
18.4923689
11
137.9314565
21
23.6865689
0
LINE
8
DEFAULT_255_2_778
10
136.1674565
20
10.5992689
11
135.6565565
21
10.5860689
0
LINE
8
DEFAULT_255_2_778
10
136.9096565
20
23.1775689
11
136.6241565
21
23.1775689
0
LINE
8
DEFAULT_255_2_778
10
136.6241565
20
23.1775689
11
136.6241565
21
23.7453689
0
LINE
8
DEFAULT_255_2_778
10
136.6241565
20
23.7453689
11
136.1674565
21
23.2902689
0
LINE
8
DEFAULT_255_2_778
10
136.1674565
20
23.2902689
11
136.1674565
21
10.5989689
0
LINE
8
DEFAULT_255_2_778
10
136.1674565
20
10.5989689
11
136.8252565
21
10.9268689
0
LINE
8
DEFAULT_255_2_778
10
137.8467565
20
9.9086689
11
137.8494565
21
9.9166689
0
LINE
8
DEFAULT_255_2_778
10
137.8494565
20
9.9166689
11
137.8518565
21
9.9375689
0
LINE
8
DEFAULT_255_2_778
10
137.8518565
20
9.9375689
11
137.8542565
21
9.9708689
0
LINE
8
DEFAULT_255_2_778
10
137.8542565
20
9.9708689
11
137.8565565
21
10.0161689
0
LINE
8
DEFAULT_255_2_778
10
137.8565565
20
10.0161689
11
137.8589565
21
10.0729689
0
LINE
8
DEFAULT_255_2_778
10
137.8589565
20
10.0729689
11
137.8613565
21
10.1407689
0
LINE
8
DEFAULT_255_2_778
10
137.8613565
20
10.1407689
11
137.8655565
21
10.3047689
0
LINE
8
DEFAULT_255_2_778
10
137.8655565
20
10.3047689
11
137.8695565
21
10.4997689
0
LINE
8
DEFAULT_255_2_778
10
137.8695565
20
10.4997689
11
137.8732565
21
10.7188689
0
LINE
8
DEFAULT_255_2_778
10
137.8732565
20
10.7188689
11
137.8767565
21
10.9569689
0
LINE
8
DEFAULT_255_2_778
10
137.8767565
20
10.9569689
11
137.8798565
21
11.2093689
0
LINE
8
DEFAULT_255_2_778
10
137.8798565
20
11.2093689
11
137.8851565
21
11.7454689
0
LINE
8
DEFAULT_255_2_778
10
137.8851565
20
11.7454689
11
137.8896565
21
12.3103689
0
LINE
8
DEFAULT_255_2_778
10
137.8896565
20
12.3103689
11
137.8936565
21
12.8947689
0
LINE
8
DEFAULT_255_2_778
10
137.8936565
20
12.8947689
11
137.8970565
21
13.4924689
0
LINE
8
DEFAULT_255_2_778
10
137.8970565
20
13.4924689
11
137.8999565
21
14.1002689
0
LINE
8
DEFAULT_255_2_778
10
137.8999565
20
14.1002689
11
137.9026565
21
14.7151689
0
LINE
8
DEFAULT_255_2_778
10
137.9026565
20
14.7151689
11
137.9073565
21
15.9610689
0
LINE
8
DEFAULT_255_2_778
10
137.9073565
20
15.9610689
11
137.9113565
21
17.2215689
0
LINE
8
DEFAULT_255_2_778
10
137.9113565
20
17.2215689
11
137.9147565
21
18.4920689
0
LINE
8
DEFAULT_255_2_778
10
137.9147565
20
18.4920689
11
137.5279565
21
18.5097689
0
LINE
8
DEFAULT_255_2_778
10
137.1988565
20
18.5571689
11
137.0718565
21
18.5899689
0
LINE
8
DEFAULT_255_2_778
10
136.6241565
20
23.1772689
11
136.6241565
21
23.1772689
0
LINE
8
DEFAULT_255_2_778
10
137.1350565
20
23.6863689
11
151.4842565
21
23.6863689
0
LINE
8
DEFAULT_255_2_778
10
151.9176565
20
23.1407689
11
151.8234565
21
23.1240689
0
LINE
8
DEFAULT_255_2_778
10
151.8234565
20
23.1240689
11
151.6966565
21
23.1098689
0
LINE
8
DEFAULT_255_2_778
10
151.6966565
20
23.1098689
11
151.5419565
21
23.0979689
0
LINE
8
DEFAULT_255_2_778
10
151.5419565
20
23.0979689
11
151.3651565
21
23.0889689
0
LINE
8
DEFAULT_255_2_778
10
151.3651565
20
23.0889689
11
150.9733565
21
23.0817689
0
LINE
8
DEFAULT_255_2_778
10
150.9733565
20
23.0817689
11
137.9312565
21
23.0817689
0
LINE
8
DEFAULT_255_2_778
10
137.9312565
20
23.0817689
11
137.5435565
21
23.0894689
0
LINE
8
DEFAULT_255_2_778
10
137.5435565
20
23.0894689
11
137.3681565
21
23.0984689
0
LINE
8
DEFAULT_255_2_778
10
137.3681565
20
23.0984689
11
137.2141565
21
23.1103689
0
LINE
8
DEFAULT_255_2_778
10
137.2141565
20
23.1103689
11
137.0871565
21
23.1246689
0
LINE
8
DEFAULT_255_2_778
10
137.0871565
20
23.1246689
11
136.9919565
21
23.1410689
0
LINE
8
DEFAULT_255_2_778
10
136.9919565
20
23.1410689
11
136.9318565
21
23.1590689
0
LINE
8
DEFAULT_255_2_778
10
136.9093565
20
23.1770689
11
136.8932565
21
18.7095689
0
LINE
8
DEFAULT_255_2_778
10
136.8932565
20
18.7095689
11
136.8887565
21
17.6048689
0
LINE
8
DEFAULT_255_2_778
10
136.8887565
20
17.6048689
11
136.8837565
21
16.5076689
0
LINE
8
DEFAULT_255_2_778
10
136.8837565
20
16.5076689
11
136.8781565
21
15.4207689
0
LINE
8
DEFAULT_255_2_778
10
136.8781565
20
15.4207689
11
136.8749565
21
14.8828689
0
LINE
8
DEFAULT_255_2_778
10
136.8749565
20
14.8828689
11
136.8715565
21
14.3497689
0
LINE
8
DEFAULT_255_2_778
10
136.8715565
20
14.3497689
11
136.8678565
21
13.8226689
0
LINE
8
DEFAULT_255_2_778
10
136.8678565
20
13.8226689
11
136.8638565
21
13.3038689
0
LINE
8
DEFAULT_255_2_778
10
136.8638565
20
13.3038689
11
136.8593565
21
12.7960689
0
LINE
8
DEFAULT_255_2_778
10
136.8593565
20
12.7960689
11
136.8543565
21
12.3044689
0
LINE
8
DEFAULT_255_2_778
10
136.8543565
20
12.3044689
11
136.8516565
21
12.0674689
0
LINE
8
DEFAULT_255_2_778
10
136.8516565
20
12.0674689
11
136.8487565
21
11.8380689
0
LINE
8
DEFAULT_255_2_778
10
136.8487565
20
11.8380689
11
136.8456565
21
11.6189689
0
LINE
8
DEFAULT_255_2_778
10
136.8456565
20
11.6189689
11
136.8421565
21
11.4139689
0
LINE
8
DEFAULT_255_2_778
10
136.8421565
20
11.4139689
11
136.8384565
21
11.2286689
0
LINE
8
DEFAULT_255_2_778
10
136.8384565
20
11.2286689
11
136.8363565
21
11.1461689
0
LINE
8
DEFAULT_255_2_778
10
136.8363565
20
11.1461689
11
136.8342565
21
11.0733689
0
LINE
8
DEFAULT_255_2_778
10
136.8342565
20
11.0733689
11
136.8318565
21
11.0127689
0
LINE
8
DEFAULT_255_2_778
10
136.8318565
20
11.0127689
11
136.8294565
21
10.9667689
0
LINE
8
DEFAULT_255_2_778
10
136.8294565
20
10.9667689
11
136.8281565
21
10.9498689
0
LINE
8
DEFAULT_255_2_778
10
136.8281565
20
10.9498689
11
136.8268565
21
10.9373689
0
LINE
8
DEFAULT_255_2_778
10
136.8268565
20
10.9373689
11
136.8255565
21
10.9294689
0
LINE
8
DEFAULT_255_2_778
10
136.8255565
20
10.9294689
11
136.8241565
21
10.9262689
0
LINE
8
DEFAULT_255_2_778
10
33.5242565
20
10.9262689
11
33.5229565
21
10.9294689
0
LINE
8
DEFAULT_255_2_778
10
33.5229565
20
10.9294689
11
33.5215565
21
10.9373689
0
LINE
8
DEFAULT_255_2_778
10
33.5215565
20
10.9373689
11
33.5202565
21
10.9498689
0
LINE
8
DEFAULT_255_2_778
10
33.5202565
20
10.9498689
11
33.5189565
21
10.9667689
0
LINE
8
DEFAULT_255_2_778
10
33.5189565
20
10.9667689
11
33.5165565
21
11.0127689
0
LINE
8
DEFAULT_255_2_778
10
33.5165565
20
11.0127689
11
33.5144565
21
11.0733689
0
LINE
8
DEFAULT_255_2_778
10
33.5144565
20
11.0733689
11
33.5123565
21
11.1461689
0
LINE
8
DEFAULT_255_2_778
10
33.5123565
20
11.1461689
11
33.5102565
21
11.2286689
0
LINE
8
DEFAULT_255_2_778
10
33.5102565
20
11.2286689
11
33.5065565
21
11.4139689
0
LINE
8
DEFAULT_255_2_778
10
33.5065565
20
11.4139689
11
33.5030565
21
11.6189689
0
LINE
8
DEFAULT_255_2_778
10
33.5030565
20
11.6189689
11
33.4999565
21
11.8380689
0
LINE
8
DEFAULT_255_2_778
10
33.4999565
20
11.8380689
11
33.4969565
21
12.0674689
0
LINE
8
DEFAULT_255_2_778
10
33.4969565
20
12.0674689
11
33.4943565
21
12.3044689
0
LINE
8
DEFAULT_255_2_778
10
33.4943565
20
12.3044689
11
33.4893565
21
12.7958689
0
LINE
8
DEFAULT_255_2_778
10
33.4893565
20
12.7958689
11
33.4848565
21
13.3035689
0
LINE
8
DEFAULT_255_2_778
10
33.4848565
20
13.3035689
11
33.4808565
21
13.8224689
0
LINE
8
DEFAULT_255_2_778
10
33.4808565
20
13.8224689
11
33.4771565
21
14.3494689
0
LINE
8
DEFAULT_255_2_778
10
33.4771565
20
14.3494689
11
33.4737565
21
14.8825689
0
LINE
8
DEFAULT_255_2_778
10
33.4737565
20
14.8825689
11
33.4705565
21
15.4204689
0
LINE
8
DEFAULT_255_2_778
10
33.4705565
20
15.4204689
11
33.4649565
21
16.5074689
0
LINE
8
DEFAULT_255_2_778
10
33.4649565
20
16.5074689
11
33.4599565
21
17.6046689
0
LINE
8
DEFAULT_255_2_778
10
33.4599565
20
17.6046689
11
33.4554565
21
18.7092689
0
LINE
8
DEFAULT_255_2_778
10
33.2773565
20
18.5896689
11
33.1503565
21
18.5568689
0
LINE
8
DEFAULT_255_2_778
10
32.8209565
20
18.5094689
11
32.4338565
21
18.4917689
0
LINE
8
DEFAULT_255_2_778
10
32.4338565
20
18.4917689
11
32.4373565
21
17.2212689
0
LINE
8
DEFAULT_255_2_778
10
32.4373565
20
17.2212689
11
32.4413565
21
15.9605689
0
LINE
8
DEFAULT_255_2_778
10
32.4413565
20
15.9605689
11
32.4460565
21
14.7143689
0
LINE
8
DEFAULT_255_2_778
10
32.4460565
20
14.7143689
11
32.4487565
21
14.0991689
0
LINE
8
DEFAULT_255_2_778
10
32.4487565
20
14.0991689
11
32.4516565
21
13.4914689
0
LINE
8
DEFAULT_255_2_778
10
32.4516565
20
13.4914689
11
32.4550565
21
12.8934689
0
LINE
8
DEFAULT_255_2_778
10
32.4550565
20
12.8934689
11
32.4590565
21
12.3089689
0
LINE
8
DEFAULT_255_2_778
10
32.4590565
20
12.3089689
11
32.4635565
21
11.7438689
0
LINE
8
DEFAULT_255_2_778
10
32.4635565
20
11.7438689
11
32.4688565
21
11.2077689
0
LINE
8
DEFAULT_255_2_778
10
32.4688565
20
11.2077689
11
32.4719565
21
10.9556689
0
LINE
8
DEFAULT_255_2_778
10
32.4719565
20
10.9556689
11
32.4754565
21
10.7177689
0
LINE
8
DEFAULT_255_2_778
10
32.4754565
20
10.7177689
11
32.4791565
21
10.4984689
0
LINE
8
DEFAULT_255_2_778
10
32.4791565
20
10.4984689
11
32.4831565
21
10.3037689
0
LINE
8
DEFAULT_255_2_778
10
32.4831565
20
10.3037689
11
32.4873565
21
10.1399689
0
LINE
8
DEFAULT_255_2_778
10
32.4873565
20
10.1399689
11
32.4897565
21
10.0721689
0
LINE
8
DEFAULT_255_2_778
10
32.4897565
20
10.0721689
11
32.4920565
21
10.0150689
0
LINE
8
DEFAULT_255_2_778
10
32.4920565
20
10.0150689
11
32.4944565
21
9.9698689
0
LINE
8
DEFAULT_255_2_778
10
32.4944565
20
9.9698689
11
32.4968565
21
9.9367689
0
LINE
8
DEFAULT_255_2_778
10
32.4968565
20
9.9367689
11
32.4992565
21
9.9160689
0
LINE
8
DEFAULT_255_2_778
10
32.4992565
20
9.9160689
11
32.5018565
21
9.9081689
0
LINE
8
DEFAULT_255_2_778
10
33.5234565
20
10.9262689
11
34.1811565
21
10.5979689
0
LINE
8
DEFAULT_255_2_778
10
34.1811565
20
10.5979689
11
34.1811565
21
23.2902689
0
LINE
8
DEFAULT_255_2_778
10
34.1811565
20
23.2902689
11
33.4361565
21
24.0326689
0
LINE
8
DEFAULT_255_2_778
10
33.9470565
20
24.5417689
11
34.7008565
21
23.7905689
0
LINE
8
DEFAULT_255_2_778
10
33.4165565
20
24.0543689
11
33.4363565
21
24.0329689
0
LINE
8
DEFAULT_255_2_778
10
33.4363565
20
24.0329689
11
33.4551565
21
18.7103689
0
LINE
8
DEFAULT_255_2_778
10
32.4098565
20
25.3876689
11
32.8437565
21
25.1105689
0
LINE
8
DEFAULT_255_2_778
10
32.8437565
20
25.1105689
11
33.0569565
21
24.9804689
0
LINE
8
DEFAULT_255_2_778
10
33.0569565
20
24.9804689
11
33.2649565
21
24.8579689
0
LINE
8
DEFAULT_255_2_778
10
33.2649565
20
24.8579689
11
33.4641565
21
24.7462689
0
LINE
8
DEFAULT_255_2_778
10
33.4641565
20
24.7462689
11
33.6488565
21
24.6502689
0
LINE
8
DEFAULT_255_2_778
10
33.6488565
20
24.6502689
11
33.8073565
21
24.5785689
0
LINE
8
DEFAULT_255_2_778
10
33.8073565
20
24.5785689
11
33.8705565
21
24.5562689
0
LINE
8
DEFAULT_255_2_778
10
33.8705565
20
24.5562689
11
33.9174565
21
24.5467689
0
LINE
8
DEFAULT_255_2_778
10
33.4165565
20
24.0543689
11
33.3853565
21
24.0792689
0
LINE
8
DEFAULT_255_2_778
10
33.3853565
20
24.0792689
11
33.3432565
21
24.1221689
0
LINE
8
DEFAULT_255_2_778
10
33.3432565
20
24.1221689
11
33.2374565
21
24.2456689
0
LINE
8
DEFAULT_255_2_778
10
33.2374565
20
24.2456689
11
33.1141565
21
24.4020689
0
LINE
8
DEFAULT_255_2_778
10
33.1141565
20
24.4020689
11
32.9810565
21
24.5787689
0
LINE
8
DEFAULT_255_2_778
10
32.9810565
20
24.5787689
11
32.8421565
21
24.7690689
0
LINE
8
DEFAULT_255_2_778
10
32.8421565
20
24.7690689
11
32.6997565
21
24.9687689
0
LINE
8
DEFAULT_255_2_778
10
32.6997565
20
24.9687689
11
32.4098565
21
25.3873689
0
LINE
8
DEFAULT_255_2_778
10
32.4098565
20
25.3873689
11
32.4098565
21
25.3876689
0
LINE
8
DEFAULT_255_2_778
10
34.1817565
20
10.5992689
11
34.6921565
21
10.5865689
0
LINE
8
DEFAULT_255_2_778
10
11.9035565
20
36.6683689
11
12.0189565
21
36.6300689
0
LINE
8
DEFAULT_255_2_778
10
16.4123565
20
36.6300689
11
16.5276565
21
36.6683689
0
LINE
8
DEFAULT_255_2_778
10
21.8907565
20
35.4367689
11
22.0048565
21
35.6640689
0
LINE
8
DEFAULT_255_2_778
10
22.0048565
20
35.6640689
11
22.0048565
21
19.7816689
0
LINE
8
DEFAULT_255_2_778
10
22.0048565
20
19.7816689
11
22.0828565
21
19.7816689
0
LINE
8
DEFAULT_255_2_778
10
22.0828565
20
19.7816689
11
22.0828565
21
11.0254689
0
LINE
8
DEFAULT_255_2_778
10
22.0828565
20
11.0254689
11
21.9309565
21
11.3279689
0
LINE
8
DEFAULT_255_2_778
10
20.9094565
20
10.3097689
11
5.3254565
21
10.3097689
0
LINE
8
DEFAULT_255_2_778
10
5.3254565
20
10.3097689
11
5.3254565
21
11.0665689
0
LINE
8
DEFAULT_255_2_778
10
5.3254565
20
11.0665689
11
20.9110565
21
11.0665689
0
LINE
8
DEFAULT_255_2_778
10
20.9110565
20
11.0665689
11
20.9110565
21
10.3097689
0
LINE
8
DEFAULT_255_2_778
10
20.9110565
20
10.3097689
11
21.0628565
21
10.0071689
0
LINE
8
DEFAULT_255_2_778
10
21.0628565
20
10.0071689
11
5.0217565
21
10.0071689
0
LINE
8
DEFAULT_255_2_778
10
5.0217565
20
10.0071689
11
5.3254565
21
10.3097689
0
LINE
8
DEFAULT_255_2_778
10
4.3039565
20
11.3279689
11
4.0001565
21
11.0252689
0
LINE
8
DEFAULT_255_2_778
10
4.0001565
20
11.0252689
11
4.0017565
21
21.8194689
0
LINE
8
DEFAULT_255_2_778
10
4.0017565
20
21.8194689
11
4.1554565
21
21.9726689
0
LINE
8
DEFAULT_255_2_778
10
4.1554565
20
21.9726689
11
4.1554565
21
35.6648689
0
LINE
8
DEFAULT_255_2_778
10
4.1554565
20
35.6648689
11
4.3846565
21
35.4364689
0
LINE
8
DEFAULT_255_2_778
10
5.4061565
20
36.4545689
11
20.8692565
21
36.4548689
0
LINE
8
DEFAULT_255_2_778
10
22.2360565
20
21.9048689
11
22.0048565
21
21.9048689
0
LINE
8
DEFAULT_255_2_778
10
22.0048565
20
22.4139689
11
22.2360565
21
22.4139689
0
LINE
8
DEFAULT_255_2_778
10
21.9307565
20
11.3284689
11
21.9177565
21
17.2902689
0
LINE
8
DEFAULT_255_2_778
10
21.9177565
20
17.2902689
11
21.8905565
21
35.4372689
0
LINE
8
DEFAULT_255_2_778
10
21.8103565
20
35.3920689
11
21.7153565
21
35.3713689
0
LINE
8
DEFAULT_255_2_778
10
21.7153565
20
35.3713689
11
21.5883565
21
35.3533689
0
LINE
8
DEFAULT_255_2_778
10
21.5883565
20
35.3533689
11
21.4338565
21
35.3385689
0
LINE
8
DEFAULT_255_2_778
10
21.4338565
20
35.3385689
11
21.2578565
21
35.3274689
0
LINE
8
DEFAULT_255_2_778
10
20.8689565
20
35.3182689
11
20.8761565
21
29.1973689
0
LINE
8
DEFAULT_255_2_778
10
20.8761565
20
29.1973689
11
20.9091565
21
11.0667689
0
LINE
8
DEFAULT_255_2_778
10
21.2981565
20
11.0874689
11
21.4740565
21
11.1117689
0
LINE
8
DEFAULT_255_2_778
10
21.4740565
20
11.1117689
11
21.6285565
21
11.1442689
0
LINE
8
DEFAULT_255_2_778
10
21.6285565
20
11.1442689
11
21.7555565
21
11.1839689
0
LINE
8
DEFAULT_255_2_778
10
21.9307565
20
11.3284689
11
21.9307565
21
11.3284689
0
LINE
8
DEFAULT_255_2_778
10
4.0054565
20
22.4144689
11
4.0054565
21
37.1777689
0
LINE
8
DEFAULT_255_2_778
10
4.0054565
20
37.1777689
11
4.0493565
21
37.1777689
0
LINE
8
DEFAULT_255_2_778
10
5.4040565
20
35.3184689
11
5.0172565
21
35.3280689
0
LINE
8
DEFAULT_255_2_778
10
5.0172565
20
35.3280689
11
4.8418565
21
35.3391689
0
LINE
8
DEFAULT_255_2_778
10
4.8418565
20
35.3391689
11
4.6878565
21
35.3539689
0
LINE
8
DEFAULT_255_2_778
10
4.6878565
20
35.3539689
11
4.5608565
21
35.3719689
0
LINE
8
DEFAULT_255_2_778
10
4.5608565
20
35.3719689
11
4.4653565
21
35.3922689
0
LINE
8
DEFAULT_255_2_778
10
4.3825565
20
35.4370689
11
4.3020565
21
11.3281689
0
LINE
8
DEFAULT_255_2_778
10
4.4801565
20
11.1842689
11
4.6071565
21
11.1448689
0
LINE
8
DEFAULT_255_2_778
10
5.3236565
20
11.0667689
11
5.4040565
21
35.3182689
0
LINE
8
DEFAULT_255_2_778
10
5.4040565
20
35.3182689
11
5.4040565
21
35.3184689
0
LINE
8
DEFAULT_255_2_778
10
22.0347565
20
10.7847689
11
22.2357565
21
10.7847689
0
LINE
8
DEFAULT_255_2_778
10
16.4120565
20
36.6686689
11
16.4120565
21
36.6038689
0
LINE
8
DEFAULT_255_2_778
10
16.4120565
20
36.6038689
11
12.0204565
21
36.6038689
0
LINE
8
DEFAULT_255_2_778
10
12.0204565
20
36.6038689
11
12.0204565
21
36.6686689
0
LINE
8
DEFAULT_255_2_778
10
5.1915565
20
36.6686689
11
5.4059565
21
36.4551689
0
LINE
8
DEFAULT_255_2_778
10
5.4059565
20
36.4551689
11
5.4059565
21
35.3184689
0
LINE
8
DEFAULT_255_2_778
10
5.4059565
20
35.3184689
11
20.8708565
21
35.3184689
0
LINE
8
DEFAULT_255_2_778
10
20.8708565
20
35.3184689
11
20.8708565
21
36.4551689
0
LINE
8
DEFAULT_255_2_778
10
20.8708565
20
36.4551689
11
20.9779565
21
36.6686689
0
LINE
8
DEFAULT_255_2_778
10
4.5182565
20
36.6686689
11
4.5182565
21
36.4276689
0
LINE
8
DEFAULT_255_2_778
10
3.7842565
20
20.2038689
11
3.6596565
21
19.6143689
0
LINE
8
DEFAULT_255_2_778
10
3.6596565
20
19.6143689
11
3.6596565
21
10.5188689
0
LINE
8
DEFAULT_255_2_778
10
22.2376565
20
53.9768689
11
22.0333565
21
53.9768689
0
LINE
8
DEFAULT_255_2_778
10
22.0333565
20
53.9768689
11
22.0333565
21
49.9166689
0
LINE
8
DEFAULT_255_2_778
10
22.0333565
20
49.9166689
11
21.9442565
21
49.6499689
0
LINE
8
DEFAULT_255_2_778
10
21.9442565
20
49.6499689
11
21.9442565
21
47.6136689
0
LINE
8
DEFAULT_255_2_778
10
21.9442565
20
47.6136689
11
22.0066565
21
47.4268689
0
LINE
8
DEFAULT_255_2_778
10
22.0066565
20
47.4268689
11
22.0066565
21
43.2186689
0
LINE
8
DEFAULT_255_2_778
10
22.0066565
20
43.2186689
11
21.9442565
21
43.0318689
0
LINE
8
DEFAULT_255_2_778
10
21.9442565
20
43.0318689
11
21.9442565
21
40.9956689
0
LINE
8
DEFAULT_255_2_778
10
21.9442565
20
40.9956689
11
22.0333565
21
40.7289689
0
LINE
8
DEFAULT_255_2_778
10
22.0333565
20
40.7289689
11
22.0333565
21
37.1777689
0
LINE
8
DEFAULT_255_2_778
10
22.0333565
20
37.1777689
11
22.2376565
21
37.1777689
0
LINE
8
DEFAULT_255_2_778
10
22.2376565
20
37.1777689
11
22.0333565
21
37.1777689
0
LINE
8
DEFAULT_255_2_778
10
22.0333565
20
37.1777689
11
22.0333565
21
40.7289689
0
LINE
8
DEFAULT_255_2_778
10
22.0333565
20
40.7289689
11
21.9442565
21
40.9956689
0
LINE
8
DEFAULT_255_2_778
10
21.9442565
20
40.9956689
11
21.9442565
21
43.0318689
0
LINE
8
DEFAULT_255_2_778
10
21.9442565
20
43.0318689
11
22.0066565
21
43.2186689
0
LINE
8
DEFAULT_255_2_778
10
22.0066565
20
43.2186689
11
22.0066565
21
47.4268689
0
LINE
8
DEFAULT_255_2_778
10
22.0066565
20
47.4268689
11
21.9442565
21
47.6136689
0
LINE
8
DEFAULT_255_2_778
10
21.9442565
20
47.6136689
11
21.9442565
21
49.6499689
0
LINE
8
DEFAULT_255_2_778
10
21.9442565
20
49.6499689
11
22.0333565
21
49.9166689
0
LINE
8
DEFAULT_255_2_778
10
22.0333565
20
49.9166689
11
22.0333565
21
53.9768689
0
LINE
8
DEFAULT_255_2_778
10
22.0333565
20
53.9768689
11
22.2376565
21
53.9768689
0
LINE
8
DEFAULT_255_2_778
10
21.9442565
20
42.7770689
11
22.2376565
21
42.7770689
0
LINE
8
DEFAULT_255_2_778
10
22.2376565
20
47.8679689
11
21.9442565
21
47.8679689
0
LINE
8
DEFAULT_255_2_778
10
22.2376565
20
43.2184689
11
22.0066565
21
43.2184689
0
LINE
8
DEFAULT_255_2_778
10
22.0066565
20
47.4266689
11
22.2376565
21
47.4266689
0
LINE
8
DEFAULT_255_2_778
10
5.2053565
20
54.3451689
11
5.0119565
21
54.3459689
0
LINE
8
DEFAULT_255_2_778
10
5.0119565
20
54.3459689
11
4.9243565
21
54.3467689
0
LINE
8
DEFAULT_255_2_778
10
4.9243565
20
54.3467689
11
4.8473565
21
54.3478689
0
LINE
8
DEFAULT_255_2_778
10
4.8473565
20
54.3478689
11
4.7838565
21
54.3491689
0
LINE
8
DEFAULT_255_2_778
10
4.7838565
20
54.3491689
11
4.7359565
21
54.3507689
0
LINE
8
DEFAULT_255_2_778
10
4.7359565
20
54.3507689
11
4.7187565
21
54.3515689
0
LINE
8
DEFAULT_255_2_778
10
4.7187565
20
54.3515689
11
4.7060565
21
54.3523689
0
LINE
8
DEFAULT_255_2_778
10
4.7060565
20
54.3523689
11
4.6981565
21
54.3531689
0
LINE
8
DEFAULT_255_2_778
10
4.6981565
20
54.3531689
11
4.6949565
21
54.3539689
0
LINE
8
DEFAULT_255_2_778
10
4.1840565
20
53.8448689
11
4.1830565
21
49.7006689
0
LINE
8
DEFAULT_255_2_778
10
4.1830565
20
49.7006689
11
4.1692565
21
37.2938689
0
LINE
8
DEFAULT_255_2_778
10
4.1692565
20
37.2938689
11
4.1758565
21
37.2898689
0
LINE
8
DEFAULT_255_2_778
10
4.1758565
20
37.2898689
11
4.1920565
21
37.2859689
0
LINE
8
DEFAULT_255_2_778
10
4.1920565
20
37.2859689
11
4.2174565
21
37.2819689
0
LINE
8
DEFAULT_255_2_778
10
4.2174565
20
37.2819689
11
4.2520565
21
37.2782689
0
LINE
8
DEFAULT_255_2_778
10
4.2520565
20
37.2782689
11
4.3475565
21
37.2711689
0
LINE
8
DEFAULT_255_2_778
10
4.3475565
20
37.2711689
11
4.4745565
21
37.2647689
0
LINE
8
DEFAULT_255_2_778
10
4.4745565
20
37.2647689
11
4.6285565
21
37.2594689
0
LINE
8
DEFAULT_255_2_778
10
4.6285565
20
37.2594689
11
4.8039565
21
37.2554689
0
LINE
8
DEFAULT_255_2_778
10
4.8039565
20
37.2554689
11
4.9942565
21
37.2531689
0
LINE
8
DEFAULT_255_2_778
10
4.9942565
20
37.2531689
11
5.1910565
21
37.2520689
0
LINE
8
DEFAULT_255_2_778
10
5.1910565
20
37.2520689
11
21.3973565
21
37.2520689
0
LINE
8
DEFAULT_255_2_778
10
21.3973565
20
37.2520689
11
21.5907565
21
37.2560689
0
LINE
8
DEFAULT_255_2_778
10
21.5907565
20
37.2560689
11
21.7553565
21
37.2671689
0
LINE
8
DEFAULT_255_2_778
10
21.7553565
20
37.2671689
11
21.8188565
21
37.2748689
0
LINE
8
DEFAULT_255_2_778
10
21.8188565
20
37.2748689
11
21.8666565
21
37.2835689
0
LINE
8
DEFAULT_255_2_778
10
21.8666565
20
37.2835689
11
21.8968565
21
37.2930689
0
LINE
8
DEFAULT_255_2_778
10
21.9082565
20
37.3028689
11
21.9018565
21
41.4274689
0
LINE
8
DEFAULT_255_2_778
10
21.9018565
20
41.4274689
11
21.8931565
21
53.8364689
0
LINE
8
DEFAULT_255_2_778
10
21.8931565
20
53.8364689
11
21.3825565
21
53.8345689
0
LINE
8
DEFAULT_255_2_778
10
21.3825565
20
53.8345689
11
5.2058565
21
53.8345689
0
LINE
8
DEFAULT_255_2_778
10
5.2058565
20
53.8345689
11
4.8190565
21
53.8353689
0
LINE
8
DEFAULT_255_2_778
10
4.8190565
20
53.8353689
11
4.6439565
21
53.8364689
0
LINE
8
DEFAULT_255_2_778
10
4.6439565
20
53.8364689
11
4.4899565
21
53.8377689
0
LINE
8
DEFAULT_255_2_778
10
4.4899565
20
53.8377689
11
4.3629565
21
53.8393689
0
LINE
8
DEFAULT_255_2_778
10
4.3629565
20
53.8393689
11
4.2674565
21
53.8411689
0
LINE
8
DEFAULT_255_2_778
10
4.2674565
20
53.8411689
11
4.2327565
21
53.8422689
0
LINE
8
DEFAULT_255_2_778
10
4.2327565
20
53.8422689
11
4.2073565
21
53.8432689
0
LINE
8
DEFAULT_255_2_778
10
4.2073565
20
53.8432689
11
4.1912565
21
53.8443689
0
LINE
8
DEFAULT_255_2_778
10
4.1912565
20
53.8443689
11
4.1840565
21
53.8448689
0
LINE
8
DEFAULT_255_2_778
10
4.6798565
20
36.7847689
11
4.6912565
21
36.7863689
0
LINE
8
DEFAULT_255_2_778
10
4.6912565
20
36.7863689
11
4.7039565
21
36.7871689
0
LINE
8
DEFAULT_255_2_778
10
4.7039565
20
36.7871689
11
4.7211565
21
36.7879689
0
LINE
8
DEFAULT_255_2_778
10
4.7211565
20
36.7879689
11
4.7687565
21
36.7895689
0
LINE
8
DEFAULT_255_2_778
10
4.7687565
20
36.7895689
11
4.8322565
21
36.7908689
0
LINE
8
DEFAULT_255_2_778
10
4.8322565
20
36.7908689
11
4.9092565
21
36.7919689
0
LINE
8
DEFAULT_255_2_778
10
4.9092565
20
36.7919689
11
4.9971565
21
36.7927689
0
LINE
8
DEFAULT_255_2_778
10
4.9971565
20
36.7927689
11
5.1910565
21
36.7935689
0
LINE
8
DEFAULT_255_2_778
10
22.0341565
20
53.9766689
11
21.8931565
21
53.8361689
0
LINE
8
DEFAULT_255_2_778
10
21.3822565
20
54.3451689
11
5.2056565
21
54.3451689
0
LINE
8
DEFAULT_255_2_778
10
5.2056565
20
54.3451689
11
5.1908565
21
36.7935689
0
LINE
8
DEFAULT_255_2_778
10
5.1908565
20
36.7935689
11
21.3970565
21
36.7935689
0
LINE
8
DEFAULT_255_2_778
10
21.9077565
20
37.3025689
11
22.0339565
21
37.1769689
0
LINE
8
DEFAULT_255_2_778
10
21.5230565
20
36.6678689
11
21.3967565
21
36.7935689
0
LINE
8
DEFAULT_255_2_778
10
21.3967565
20
36.7935689
11
21.3819565
21
54.3451689
0
LINE
8
DEFAULT_255_2_778
10
21.3819565
20
54.3451689
11
21.5230565
21
54.4859689
0
LINE
8
DEFAULT_255_2_778
10
4.2854565
20
36.7263689
11
4.3332565
21
36.7046689
0
LINE
8
DEFAULT_255_2_778
10
4.3332565
20
36.7046689
11
4.3782565
21
36.6892689
0
LINE
8
DEFAULT_255_2_778
10
4.5264565
20
54.4859689
11
22.2376565
21
54.4859689
0
LINE
8
DEFAULT_255_2_778
10
22.2376565
20
36.6681689
11
4.5621565
21
36.6681689
0
LINE
8
DEFAULT_255_2_778
10
4.5621565
20
36.6681689
11
4.6793565
21
36.7850689
0
LINE
8
DEFAULT_255_2_778
10
4.1687565
20
37.2941689
11
4.0515565
21
37.1771689
0
LINE
8
DEFAULT_255_2_778
10
4.0515565
20
37.1771689
11
4.0515565
21
53.9768689
0
LINE
8
DEFAULT_255_2_778
10
4.0515565
20
53.9768689
11
4.1838565
21
53.8451689
0
LINE
8
DEFAULT_255_2_778
10
4.6944565
20
54.3541689
11
4.5621565
21
54.4859689
0
LINE
8
DEFAULT_255_2_778
10
20.7655565
20
54.8418689
11
20.9589565
21
54.8410689
0
LINE
8
DEFAULT_255_2_778
10
20.9589565
20
54.8410689
11
21.0464565
21
54.8402689
0
LINE
8
DEFAULT_255_2_778
10
21.0464565
20
54.8402689
11
21.1234565
21
54.8391689
0
LINE
8
DEFAULT_255_2_778
10
21.1234565
20
54.8391689
11
21.1869565
21
54.8378689
0
LINE
8
DEFAULT_255_2_778
10
21.1869565
20
54.8378689
11
21.2348565
21
54.8362689
0
LINE
8
DEFAULT_255_2_778
10
21.2348565
20
54.8362689
11
21.2520565
21
54.8354689
0
LINE
8
DEFAULT_255_2_778
10
21.2520565
20
54.8354689
11
21.2647565
21
54.8346689
0
LINE
8
DEFAULT_255_2_778
10
21.2647565
20
54.8346689
11
21.2727565
21
54.8338689
0
LINE
8
DEFAULT_255_2_778
10
21.2727565
20
54.8338689
11
21.2758565
21
54.8330689
0
LINE
8
DEFAULT_255_2_778
10
4.8082565
20
54.8330689
11
4.8113565
21
54.8338689
0
LINE
8
DEFAULT_255_2_778
10
4.8113565
20
54.8338689
11
4.8193565
21
54.8346689
0
LINE
8
DEFAULT_255_2_778
10
4.8193565
20
54.8346689
11
4.8320565
21
54.8354689
0
LINE
8
DEFAULT_255_2_778
10
4.8320565
20
54.8354689
11
4.8492565
21
54.8362689
0
LINE
8
DEFAULT_255_2_778
10
4.8492565
20
54.8362689
11
4.8971565
21
54.8378689
0
LINE
8
DEFAULT_255_2_778
10
4.8971565
20
54.8378689
11
4.9606565
21
54.8391689
0
LINE
8
DEFAULT_255_2_778
10
4.9606565
20
54.8391689
11
5.0376565
21
54.8402689
0
LINE
8
DEFAULT_255_2_778
10
5.0376565
20
54.8402689
11
5.1251565
21
54.8410689
0
LINE
8
DEFAULT_255_2_778
10
5.1251565
20
54.8410689
11
5.3186565
21
54.8418689
0
LINE
8
DEFAULT_255_2_778
10
5.2929565
20
77.5729689
11
5.0984565
21
77.5737689
0
LINE
8
DEFAULT_255_2_778
10
5.0984565
20
77.5737689
11
5.0106565
21
77.5745689
0
LINE
8
DEFAULT_255_2_778
10
5.0106565
20
77.5745689
11
4.9336565
21
77.5756689
0
LINE
8
DEFAULT_255_2_778
10
4.9336565
20
77.5756689
11
4.8703565
21
77.5769689
0
LINE
8
DEFAULT_255_2_778
10
4.8703565
20
77.5769689
11
4.8230565
21
77.5785689
0
LINE
8
DEFAULT_255_2_778
10
4.8230565
20
77.5785689
11
4.8058565
21
77.5793689
0
LINE
8
DEFAULT_255_2_778
10
4.8058565
20
77.5793689
11
4.7931565
21
77.5801689
0
LINE
8
DEFAULT_255_2_778
10
4.7931565
20
77.5801689
11
4.7817565
21
77.5816689
0
LINE
8
DEFAULT_255_2_778
10
21.2753565
20
54.8320689
11
21.5216565
21
54.5864689
0
LINE
8
DEFAULT_255_2_778
10
21.5216565
20
54.5864689
11
20.5744565
21
54.5864689
0
LINE
8
DEFAULT_255_2_778
10
20.5744565
20
54.5864689
11
20.5138565
21
54.6470689
0
LINE
8
DEFAULT_255_2_778
10
20.5138565
20
54.6470689
11
19.6023565
21
54.6470689
0
LINE
8
DEFAULT_255_2_778
10
19.0922565
20
54.6380689
11
19.0922565
21
54.5864689
0
LINE
8
DEFAULT_255_2_778
10
19.0922565
20
54.5864689
11
17.2095565
21
54.5864689
0
LINE
8
DEFAULT_255_2_778
10
17.2095565
20
54.5864689
11
17.2095565
21
54.6380689
0
LINE
8
DEFAULT_255_2_778
10
16.6993565
20
54.6470689
11
11.4288565
21
54.6470689
0
LINE
8
DEFAULT_255_2_778
10
10.9187565
20
54.6380689
11
10.9187565
21
54.5864689
0
LINE
8
DEFAULT_255_2_778
10
10.9187565
20
54.5864689
11
9.0359565
21
54.5864689
0
LINE
8
DEFAULT_255_2_778
10
9.0359565
20
54.5864689
11
9.0359565
21
54.6380689
0
LINE
8
DEFAULT_255_2_778
10
8.5258565
20
54.6470689
11
5.5699565
21
54.6470689
0
LINE
8
DEFAULT_255_2_778
10
5.5699565
20
54.6470689
11
5.5093565
21
54.5864689
0
LINE
8
DEFAULT_255_2_778
10
5.5093565
20
54.5864689
11
4.5621565
21
54.5864689
0
LINE
8
DEFAULT_255_2_778
10
4.5621565
20
54.5864689
11
4.8084565
21
54.8320689
0
LINE
8
DEFAULT_255_2_778
10
4.2978565
20
55.3410689
11
4.3044565
21
55.3421689
0
LINE
8
DEFAULT_255_2_778
10
4.3044565
20
55.3421689
11
4.3205565
21
55.3432689
0
LINE
8
DEFAULT_255_2_778
10
4.3205565
20
55.3432689
11
4.3459565
21
55.3442689
0
LINE
8
DEFAULT_255_2_778
10
4.3459565
20
55.3442689
11
4.3806565
21
55.3453689
0
LINE
8
DEFAULT_255_2_778
10
4.3806565
20
55.3453689
11
4.4761565
21
55.3471689
0
LINE
8
DEFAULT_255_2_778
10
4.4761565
20
55.3471689
11
4.6031565
21
55.3487689
0
LINE
8
DEFAULT_255_2_778
10
4.6031565
20
55.3487689
11
4.7571565
21
55.3500689
0
LINE
8
DEFAULT_255_2_778
10
4.7571565
20
55.3500689
11
4.9323565
21
55.3511689
0
LINE
8
DEFAULT_255_2_778
10
4.9323565
20
55.3511689
11
5.3191565
21
55.3519689
0
LINE
8
DEFAULT_255_2_778
10
5.3191565
20
55.3519689
11
20.7652565
21
55.3519689
0
LINE
8
DEFAULT_255_2_778
10
20.7652565
20
55.3519689
11
21.1520565
21
55.3511689
0
LINE
8
DEFAULT_255_2_778
10
21.1520565
20
55.3511689
11
21.3272565
21
55.3500689
0
LINE
8
DEFAULT_255_2_778
10
21.3272565
20
55.3500689
11
21.4812565
21
55.3487689
0
LINE
8
DEFAULT_255_2_778
10
21.4812565
20
55.3487689
11
21.6082565
21
55.3471689
0
LINE
8
DEFAULT_255_2_778
10
21.6082565
20
55.3471689
11
21.7037565
21
55.3453689
0
LINE
8
DEFAULT_255_2_778
10
21.7037565
20
55.3453689
11
21.7383565
21
55.3442689
0
LINE
8
DEFAULT_255_2_778
10
21.7383565
20
55.3442689
11
21.7637565
21
55.3432689
0
LINE
8
DEFAULT_255_2_778
10
21.7637565
20
55.3432689
11
21.7799565
21
55.3421689
0
LINE
8
DEFAULT_255_2_778
10
21.7799565
20
55.3421689
11
21.7865565
21
55.3410689
0
LINE
8
DEFAULT_255_2_778
10
21.3015565
20
77.5814689
11
21.2901565
21
77.5798689
0
LINE
8
DEFAULT_255_2_778
10
21.2901565
20
77.5798689
11
21.2774565
21
77.5790689
0
LINE
8
DEFAULT_255_2_778
10
21.2774565
20
77.5790689
11
21.2602565
21
77.5782689
0
LINE
8
DEFAULT_255_2_778
10
21.2602565
20
77.5782689
11
21.2129565
21
77.5766689
0
LINE
8
DEFAULT_255_2_778
10
21.2129565
20
77.5766689
11
21.1496565
21
77.5753689
0
LINE
8
DEFAULT_255_2_778
10
21.1496565
20
77.5753689
11
21.0726565
21
77.5742689
0
LINE
8
DEFAULT_255_2_778
10
21.0726565
20
77.5742689
11
20.9848565
21
77.5734689
0
LINE
8
DEFAULT_255_2_778
10
20.9848565
20
77.5734689
11
20.7903565
21
77.5727689
0
LINE
8
DEFAULT_255_2_778
10
20.7903565
20
77.5727689
11
5.2934565
21
77.5727689
0
LINE
8
DEFAULT_255_2_778
10
5.2934565
20
77.5727689
11
5.3191565
21
55.3527689
0
LINE
8
DEFAULT_255_2_778
10
5.3191565
20
55.3527689
11
5.3191565
21
54.8415689
0
LINE
8
DEFAULT_255_2_778
10
5.3191565
20
54.8415689
11
20.7652565
21
54.8415689
0
LINE
8
DEFAULT_255_2_778
10
20.7652565
20
54.8415689
11
20.7909565
21
77.5727689
0
LINE
8
DEFAULT_255_2_778
10
11.4286565
20
77.7407689
11
16.6991565
21
77.7407689
0
LINE
8
DEFAULT_255_2_778
10
16.6991565
20
77.7407689
11
17.2092565
21
77.7497689
0
LINE
8
DEFAULT_255_2_778
10
17.2092565
20
77.7497689
11
17.2092565
21
77.8012689
0
LINE
8
DEFAULT_255_2_778
10
17.2092565
20
77.8012689
11
19.0920565
21
77.8012689
0
LINE
8
DEFAULT_255_2_778
10
19.0920565
20
77.8012689
11
19.0920565
21
77.7497689
0
LINE
8
DEFAULT_255_2_778
10
19.6018565
20
77.7409689
11
20.5202565
21
77.7409689
0
LINE
8
DEFAULT_255_2_778
10
20.5202565
20
77.7409689
11
20.5808565
21
77.8015689
0
LINE
8
DEFAULT_255_2_778
10
20.5808565
20
77.8015689
11
21.5219565
21
77.8015689
0
LINE
8
DEFAULT_255_2_778
10
21.5219565
20
77.8015689
11
21.3015565
21
77.5816689
0
LINE
8
DEFAULT_255_2_778
10
21.8124565
20
77.0726689
11
22.0328565
21
77.2925689
0
LINE
8
DEFAULT_255_2_778
10
22.0328565
20
77.2925689
11
22.0328565
21
55.0966689
0
LINE
8
DEFAULT_255_2_778
10
22.0328565
20
55.0966689
11
21.7865565
21
55.3421689
0
LINE
8
DEFAULT_255_2_778
10
21.7865565
20
55.3421689
11
21.8124565
21
77.0729689
0
LINE
8
DEFAULT_255_2_778
10
21.8124565
20
77.0729689
11
21.8058565
21
77.0784689
0
LINE
8
DEFAULT_255_2_778
10
21.8058565
20
77.0784689
11
21.7897565
21
77.0840689
0
LINE
8
DEFAULT_255_2_778
10
21.7897565
20
77.0840689
11
21.7643565
21
77.0895689
0
LINE
8
DEFAULT_255_2_778
10
21.7643565
20
77.0895689
11
21.7296565
21
77.0948689
0
LINE
8
DEFAULT_255_2_778
10
21.7296565
20
77.0948689
11
21.6341565
21
77.1046689
0
LINE
8
DEFAULT_255_2_778
10
21.6341565
20
77.1046689
11
21.5071565
21
77.1133689
0
LINE
8
DEFAULT_255_2_778
10
21.5071565
20
77.1133689
11
21.3531565
21
77.1205689
0
LINE
8
DEFAULT_255_2_778
10
21.3531565
20
77.1205689
11
21.1777565
21
77.1258689
0
LINE
8
DEFAULT_255_2_778
10
21.1777565
20
77.1258689
11
20.7903565
21
77.1305689
0
LINE
8
DEFAULT_255_2_778
10
20.7903565
20
77.1305689
11
5.2934565
21
77.1305689
0
LINE
8
DEFAULT_255_2_778
10
5.2934565
20
77.1305689
11
4.9061565
21
77.1258689
0
LINE
8
DEFAULT_255_2_778
10
4.9061565
20
77.1258689
11
4.7306565
21
77.1205689
0
LINE
8
DEFAULT_255_2_778
10
4.7306565
20
77.1205689
11
4.5767565
21
77.1133689
0
LINE
8
DEFAULT_255_2_778
10
4.5767565
20
77.1133689
11
4.4497565
21
77.1046689
0
LINE
8
DEFAULT_255_2_778
10
4.4497565
20
77.1046689
11
4.3541565
21
77.0948689
0
LINE
8
DEFAULT_255_2_778
10
4.3541565
20
77.0948689
11
4.3195565
21
77.0895689
0
LINE
8
DEFAULT_255_2_778
10
4.3195565
20
77.0895689
11
4.2941565
21
77.0840689
0
LINE
8
DEFAULT_255_2_778
10
4.2941565
20
77.0840689
11
4.2779565
21
77.0784689
0
LINE
8
DEFAULT_255_2_778
10
4.2779565
20
77.0784689
11
4.2713565
21
77.0729689
0
LINE
8
DEFAULT_255_2_778
10
4.2713565
20
77.0729689
11
4.2973565
21
55.3421689
0
LINE
8
DEFAULT_255_2_778
10
4.2973565
20
55.3421689
11
4.0509565
21
55.0966689
0
LINE
8
DEFAULT_255_2_778
10
4.0509565
20
55.0966689
11
4.0509565
21
77.2925689
0
LINE
8
DEFAULT_255_2_778
10
4.0509565
20
77.2925689
11
4.2713565
21
77.0726689
0
LINE
8
DEFAULT_255_2_778
10
4.7820565
20
77.5816689
11
4.5616565
21
77.8015689
0
LINE
8
DEFAULT_255_2_778
10
4.5616565
20
77.8015689
11
5.5027565
21
77.8015689
0
LINE
8
DEFAULT_255_2_778
10
5.5027565
20
77.8015689
11
5.5614565
21
77.7428689
0
LINE
8
DEFAULT_255_2_778
10
5.5614565
20
77.7428689
11
8.5232565
21
77.7428689
0
LINE
8
DEFAULT_255_2_778
10
8.5232565
20
77.7428689
11
8.5237565
21
77.7428689
0
LINE
8
DEFAULT_255_2_778
10
8.5237565
20
77.7428689
11
9.0352565
21
77.7518689
0
LINE
8
DEFAULT_255_2_778
10
9.0352565
20
77.7518689
11
9.0352565
21
77.8015689
0
LINE
8
DEFAULT_255_2_778
10
9.0352565
20
77.8015689
11
10.9179565
21
77.8015689
0
LINE
8
DEFAULT_255_2_778
10
10.9179565
20
77.8015689
11
10.9179565
21
77.7499689
0
LINE
8
DEFAULT_255_2_778
10
4.5245565
20
78.0052689
11
22.2376565
21
78.0052689
0
LINE
8
DEFAULT_255_2_778
10
22.7485565
20
78.5823689
11
22.5781565
21
78.4098689
0
LINE
8
DEFAULT_255_2_778
10
22.5781565
20
78.4098689
11
22.4961565
21
78.3238689
0
LINE
8
DEFAULT_255_2_778
10
22.4961565
20
78.3238689
11
22.4188565
21
78.2405689
0
LINE
8
DEFAULT_255_2_778
10
22.4188565
20
78.2405689
11
22.3492565
21
78.1621689
0
LINE
8
DEFAULT_255_2_778
10
22.3492565
20
78.1621689
11
22.2916565
21
78.0931689
0
LINE
8
DEFAULT_255_2_778
10
22.2916565
20
78.0931689
11
22.2521565
21
78.0399689
0
LINE
8
DEFAULT_255_2_778
10
22.2521565
20
78.0399689
11
22.2416565
21
78.0216689
0
LINE
8
DEFAULT_255_2_778
10
22.2379565
20
78.0100689
11
22.2379565
21
10.2830689
0
LINE
8
DEFAULT_255_2_778
10
4.5208565
20
78.0052689
11
4.5208565
21
77.7999689
0
LINE
8
DEFAULT_255_2_778
10
4.0512565
20
53.9766689
11
4.0102565
21
53.9766689
0
LINE
8
DEFAULT_255_2_778
10
4.0102565
20
53.9766689
11
4.0102565
21
78.5143689
0
LINE
8
DEFAULT_255_2_778
10
4.0102565
20
78.5143689
11
4.1250565
21
78.5143689
0
LINE
8
DEFAULT_255_2_778
10
37.4612565
20
85.0815689
11
23.1573565
21
85.0815689
0
LINE
8
DEFAULT_255_2_778
10
23.1573565
20
85.0815689
11
23.1573565
21
25.9265689
0
LINE
8
DEFAULT_255_2_778
10
23.1573565
20
25.9265689
11
37.4612565
21
25.9265689
0
LINE
8
DEFAULT_255_2_778
10
37.4612565
20
25.9265689
11
37.4612565
21
85.0815689
0
LINE
8
DEFAULT_255_2_778
10
23.3615565
20
84.8778689
11
37.2569565
21
84.8778689
0
LINE
8
DEFAULT_255_2_778
10
37.2569565
20
84.8778689
11
37.2569565
21
26.1300689
0
LINE
8
DEFAULT_255_2_778
10
37.2569565
20
26.1300689
11
23.3615565
21
26.1300689
0
LINE
8
DEFAULT_255_2_778
10
23.3615565
20
26.1300689
11
23.3615565
21
84.8778689
0
LINE
8
DEFAULT_255_2_778
10
19.1597565
20
102.3392689
11
14.0768565
21
102.3392689
0
LINE
8
DEFAULT_255_2_778
10
22.2765565
20
18.5595689
11
22.3238565
21
18.5407689
0
LINE
8
DEFAULT_255_2_778
10
22.3238565
20
18.5407689
11
22.3874565
21
18.5243689
0
LINE
8
DEFAULT_255_2_778
10
22.7485565
20
18.4925689
11
32.4352565
21
18.4925689
0
LINE
8
DEFAULT_255_2_778
10
32.4352565
20
18.4925689
11
32.4114565
21
25.3876689
0
LINE
8
DEFAULT_255_2_778
10
32.4114565
20
25.3876689
11
37.5681565
21
25.3876689
0
LINE
8
DEFAULT_255_2_778
10
37.5681565
20
25.3876689
11
37.5768565
21
24.5467689
0
LINE
8
DEFAULT_255_2_778
10
38.0875565
20
25.0558689
11
38.3806565
21
24.7637689
0
LINE
8
DEFAULT_255_2_778
10
38.3806565
20
24.7637689
11
38.3806565
21
86.2446689
0
LINE
8
DEFAULT_255_2_778
10
38.3806565
20
86.2446689
11
38.0875565
21
85.9525689
0
LINE
8
DEFAULT_255_2_778
10
37.5768565
20
86.4616689
11
37.5681565
21
85.6207689
0
LINE
8
DEFAULT_255_2_778
10
37.5681565
20
85.6207689
11
37.7615565
21
85.6136689
0
LINE
8
DEFAULT_255_2_778
10
37.7615565
20
85.6136689
11
37.9261565
21
85.5943689
0
LINE
8
DEFAULT_255_2_778
10
38.0372565
20
85.5657689
11
38.0671565
21
85.5493689
0
LINE
8
DEFAULT_255_2_778
10
33.4379565
20
86.9754689
11
34.1830565
21
87.7178689
0
LINE
8
DEFAULT_255_2_778
10
34.1830565
20
87.7178689
11
34.1830565
21
100.4088689
0
LINE
8
DEFAULT_255_2_778
10
34.1830565
20
100.4088689
11
33.5252565
21
100.0810689
0
LINE
8
DEFAULT_255_2_778
10
32.5037565
20
101.0991689
11
32.5024565
21
101.0912689
0
LINE
8
DEFAULT_255_2_778
10
32.5024565
20
101.0912689
11
32.5010565
21
101.0706689
0
LINE
8
DEFAULT_255_2_778
10
32.5010565
20
101.0706689
11
32.4995565
21
101.0375689
0
LINE
8
DEFAULT_255_2_778
10
32.4995565
20
101.0375689
11
32.4979565
21
100.9922689
0
LINE
8
DEFAULT_255_2_778
10
32.4979565
20
100.9922689
11
32.4963565
21
100.9354689
0
LINE
8
DEFAULT_255_2_778
10
32.4963565
20
100.9354689
11
32.4947565
21
100.8676689
0
LINE
8
DEFAULT_255_2_778
10
32.4947565
20
100.8676689
11
32.4918565
21
100.7036689
0
LINE
8
DEFAULT_255_2_778
10
32.4918565
20
100.7036689
11
32.4889565
21
100.5086689
0
LINE
8
DEFAULT_255_2_778
10
32.4889565
20
100.5086689
11
32.4857565
21
100.2895689
0
LINE
8
DEFAULT_255_2_778
10
32.4857565
20
100.2895689
11
32.4828565
21
100.0514689
0
LINE
8
DEFAULT_255_2_778
10
32.4828565
20
100.0514689
11
32.4799565
21
99.7990689
0
LINE
8
DEFAULT_255_2_778
10
32.4799565
20
99.7990689
11
32.4743565
21
99.2629689
0
LINE
8
DEFAULT_255_2_778
10
32.4743565
20
99.2629689
11
32.4693565
21
98.6980689
0
LINE
8
DEFAULT_255_2_778
10
32.4693565
20
98.6980689
11
32.4645565
21
98.1136689
0
LINE
8
DEFAULT_255_2_778
10
32.4645565
20
98.1136689
11
32.4603565
21
97.5159689
0
LINE
8
DEFAULT_255_2_778
10
32.4603565
20
97.5159689
11
32.4563565
21
96.9081689
0
LINE
8
DEFAULT_255_2_778
10
32.4563565
20
96.9081689
11
32.4526565
21
96.2932689
0
LINE
8
DEFAULT_255_2_778
10
32.4526565
20
96.2932689
11
32.4460565
21
95.0473689
0
LINE
8
DEFAULT_255_2_778
10
32.4460565
20
95.0473689
11
32.4402565
21
93.7868689
0
LINE
8
DEFAULT_255_2_778
10
32.4402565
20
93.7868689
11
32.4352565
21
92.5163689
0
LINE
8
DEFAULT_255_2_778
10
33.1517565
20
92.4512689
11
33.2787565
21
92.4184689
0
LINE
8
DEFAULT_255_2_778
10
33.4567565
20
92.2986689
11
33.4379565
21
86.9759689
0
LINE
8
DEFAULT_255_2_778
10
33.4379565
20
86.9759689
11
33.4181565
21
86.9545689
0
LINE
8
DEFAULT_255_2_778
10
33.2387565
20
86.7632689
11
32.9823565
21
86.4293689
0
LINE
8
DEFAULT_255_2_778
10
32.9823565
20
86.4293689
11
32.7011565
21
86.0396689
0
LINE
8
DEFAULT_255_2_778
10
32.7011565
20
86.0396689
11
32.4114565
21
85.6210689
0
LINE
8
DEFAULT_255_2_778
10
32.4114565
20
85.6210689
11
32.8450565
21
85.8980689
0
LINE
8
DEFAULT_255_2_778
10
32.8450565
20
85.8980689
11
33.0583565
21
86.0285689
0
LINE
8
DEFAULT_255_2_778
10
33.0583565
20
86.0285689
11
33.2662565
21
86.1507689
0
LINE
8
DEFAULT_255_2_778
10
33.2662565
20
86.1507689
11
33.4655565
21
86.2624689
0
LINE
8
DEFAULT_255_2_778
10
33.4655565
20
86.2624689
11
33.6509565
21
86.3587689
0
LINE
8
DEFAULT_255_2_778
10
33.6509565
20
86.3587689
11
33.8086565
21
86.4304689
0
LINE
8
DEFAULT_255_2_778
10
33.8086565
20
86.4304689
11
33.8711565
21
86.4526689
0
LINE
8
DEFAULT_255_2_778
10
33.8711565
20
86.4526689
11
33.9192565
21
86.4621689
0
LINE
8
DEFAULT_255_2_778
10
33.4567565
20
92.2983689
11
33.4612565
21
93.4029689
0
LINE
8
DEFAULT_255_2_778
10
33.4612565
20
93.4029689
11
33.4662565
21
94.5002689
0
LINE
8
DEFAULT_255_2_778
10
33.4662565
20
94.5002689
11
33.4718565
21
95.5871689
0
LINE
8
DEFAULT_255_2_778
10
33.4718565
20
95.5871689
11
33.4750565
21
96.1250689
0
LINE
8
DEFAULT_255_2_778
10
33.4750565
20
96.1250689
11
33.4784565
21
96.6581689
0
LINE
8
DEFAULT_255_2_778
10
33.4784565
20
96.6581689
11
33.4821565
21
97.1852689
0
LINE
8
DEFAULT_255_2_778
10
33.4821565
20
97.1852689
11
33.4861565
21
97.7040689
0
LINE
8
DEFAULT_255_2_778
10
33.4861565
20
97.7040689
11
33.4906565
21
98.2117689
0
LINE
8
DEFAULT_255_2_778
10
33.4906565
20
98.2117689
11
33.4956565
21
98.7033689
0
LINE
8
DEFAULT_255_2_778
10
33.4956565
20
98.7033689
11
33.4983565
21
98.9404689
0
LINE
8
DEFAULT_255_2_778
10
33.4983565
20
98.9404689
11
33.5012565
21
99.1698689
0
LINE
8
DEFAULT_255_2_778
10
33.5012565
20
99.1698689
11
33.5043565
21
99.3889689
0
LINE
8
DEFAULT_255_2_778
10
33.5043565
20
99.3889689
11
33.5078565
21
99.5939689
0
LINE
8
DEFAULT_255_2_778
10
33.5078565
20
99.5939689
11
33.5115565
21
99.7791689
0
LINE
8
DEFAULT_255_2_778
10
33.5115565
20
99.7791689
11
33.5136565
21
99.8617689
0
LINE
8
DEFAULT_255_2_778
10
33.5136565
20
99.8617689
11
33.5157565
21
99.9344689
0
LINE
8
DEFAULT_255_2_778
10
33.5157565
20
99.9344689
11
33.5181565
21
99.9950689
0
LINE
8
DEFAULT_255_2_778
10
33.5181565
20
99.9950689
11
33.5205565
21
100.0411689
0
LINE
8
DEFAULT_255_2_778
10
33.5205565
20
100.0411689
11
33.5218565
21
100.0580689
0
LINE
8
DEFAULT_255_2_778
10
33.5218565
20
100.0580689
11
33.5231565
21
100.0704689
0
LINE
8
DEFAULT_255_2_778
10
33.5231565
20
100.0704689
11
33.5245565
21
100.0784689
0
LINE
8
DEFAULT_255_2_778
10
33.5245565
20
100.0784689
11
33.5258565
21
100.0815689
0
LINE
8
DEFAULT_255_2_778
10
4.2787565
20
92.4184689
11
4.4057565
21
92.4512689
0
LINE
8
DEFAULT_255_2_778
10
4.7362565
20
92.4986689
11
5.1254565
21
92.5158689
0
LINE
8
DEFAULT_255_2_778
10
5.1254565
20
92.5158689
11
5.1236565
21
93.7868689
0
LINE
8
DEFAULT_255_2_778
10
5.1236565
20
93.7868689
11
5.1214565
21
95.0476689
0
LINE
8
DEFAULT_255_2_778
10
5.1214565
20
95.0476689
11
5.1191565
21
96.2938689
0
LINE
8
DEFAULT_255_2_778
10
5.1191565
20
96.2938689
11
5.1177565
21
96.9089689
0
LINE
8
DEFAULT_255_2_778
10
5.1177565
20
96.9089689
11
5.1161565
21
97.5167689
0
LINE
8
DEFAULT_255_2_778
10
5.1161565
20
97.5167689
11
5.1146565
21
98.1146689
0
LINE
8
DEFAULT_255_2_778
10
5.1146565
20
98.1146689
11
5.1127565
21
98.6988689
0
LINE
8
DEFAULT_255_2_778
10
5.1127565
20
98.6988689
11
5.1103565
21
99.2640689
0
LINE
8
DEFAULT_255_2_778
10
5.1103565
20
99.2640689
11
5.1077565
21
99.8000689
0
LINE
8
DEFAULT_255_2_778
10
5.1077565
20
99.8000689
11
5.1061565
21
100.0522689
0
LINE
8
DEFAULT_255_2_778
10
5.1061565
20
100.0522689
11
5.1045565
21
100.2900689
0
LINE
8
DEFAULT_255_2_778
10
5.1045565
20
100.2900689
11
5.1026565
21
100.5094689
0
LINE
8
DEFAULT_255_2_778
10
5.1026565
20
100.5094689
11
5.1005565
21
100.7041689
0
LINE
8
DEFAULT_255_2_778
10
5.1005565
20
100.7041689
11
5.0984565
21
100.8679689
0
LINE
8
DEFAULT_255_2_778
10
5.0984565
20
100.8679689
11
5.0974565
21
100.9356689
0
LINE
8
DEFAULT_255_2_778
10
5.0974565
20
100.9356689
11
5.0963565
21
100.9928689
0
LINE
8
DEFAULT_255_2_778
10
5.0963565
20
100.9928689
11
5.0950565
21
101.0380689
0
LINE
8
DEFAULT_255_2_778
10
5.0950565
20
101.0380689
11
5.0937565
21
101.0711689
0
LINE
8
DEFAULT_255_2_778
10
5.0937565
20
101.0711689
11
5.0923565
21
101.0917689
0
LINE
8
DEFAULT_255_2_778
10
5.0923565
20
101.0917689
11
5.0910565
21
101.0997689
0
LINE
8
DEFAULT_255_2_778
10
4.0695565
20
100.0815689
11
3.8469565
21
100.3033689
0
LINE
8
DEFAULT_255_2_778
10
3.8469565
20
100.3033689
11
3.8469565
21
91.1013689
0
LINE
8
DEFAULT_255_2_778
10
3.8469565
20
91.1013689
11
3.6596565
21
90.2155689
0
LINE
8
DEFAULT_255_2_778
10
3.6596565
20
90.2155689
11
3.6596565
21
20.7931689
0
LINE
8
DEFAULT_255_2_778
10
3.6596565
20
20.7931689
11
3.8469565
21
19.9072689
0
LINE
8
DEFAULT_255_2_778
10
3.8469565
20
19.9072689
11
3.8469565
21
10.7053689
0
LINE
8
DEFAULT_255_2_778
10
3.8469565
20
10.7053689
11
3.9308565
21
10.7889689
0
LINE
8
DEFAULT_255_2_778
10
3.9308565
20
10.7889689
11
3.9308565
21
22.4142689
0
LINE
8
DEFAULT_255_2_778
10
3.9308565
20
22.4142689
11
4.1554565
21
22.4142689
0
LINE
8
DEFAULT_255_2_778
10
34.1827565
20
100.4086689
11
34.6937565
21
100.4218689
0
LINE
8
DEFAULT_255_2_778
10
38.0875565
20
85.9523689
11
38.0787565
21
85.5318689
0
LINE
8
DEFAULT_255_2_778
10
38.0787565
20
85.5318689
11
38.0787565
21
25.4757689
0
LINE
8
DEFAULT_255_2_778
10
38.0674565
20
25.4587689
11
38.0372565
21
25.4423689
0
LINE
8
DEFAULT_255_2_778
10
37.7615565
20
25.3944689
11
37.5681565
21
25.3873689
0
LINE
8
DEFAULT_255_2_778
10
37.5681565
20
25.3873689
11
37.5665565
21
25.9228689
0
LINE
8
DEFAULT_255_2_778
10
37.5665565
20
25.9228689
11
37.5665565
21
85.0852689
0
LINE
8
DEFAULT_255_2_778
10
37.5665565
20
85.0852689
11
37.5681565
21
85.6207689
0
LINE
8
DEFAULT_255_2_778
10
37.5681565
20
85.6207689
11
32.4114565
21
85.6207689
0
LINE
8
DEFAULT_255_2_778
10
32.4114565
20
85.6207689
11
32.4352565
21
92.5158689
0
LINE
8
DEFAULT_255_2_778
10
32.4352565
20
92.5158689
11
5.1254565
21
92.5158689
0
LINE
8
DEFAULT_255_2_778
10
5.1254565
20
92.5158689
11
5.1468565
21
78.0052689
0
LINE
8
DEFAULT_255_2_778
10
3.8469565
20
91.3940689
11
3.6596565
21
91.3940689
0
LINE
8
DEFAULT_255_2_778
10
37.0434565
20
23.7903689
11
38.0652565
21
23.7725689
0
LINE
8
DEFAULT_255_2_778
10
38.0652565
20
23.7725689
11
38.0652565
21
10.5857689
0
LINE
8
DEFAULT_255_2_778
10
38.0652565
20
10.5857689
11
34.6937565
21
10.5860689
0
LINE
8
DEFAULT_255_2_778
10
34.6937565
20
10.5860689
11
34.6937565
21
23.7900689
0
LINE
8
DEFAULT_255_2_778
10
34.6937565
20
23.7900689
11
37.0434565
21
23.7900689
0
LINE
8
DEFAULT_255_2_778
10
37.0434565
20
23.7900689
11
37.0434565
21
9.5673689
0
LINE
8
DEFAULT_255_2_778
10
37.0434565
20
9.5673689
11
33.1876565
21
9.5673689
0
LINE
8
DEFAULT_255_2_778
10
33.1876565
20
9.5673689
11
32.5037565
21
9.9081689
0
LINE
8
DEFAULT_255_2_778
10
32.5037565
20
9.9081689
11
22.7485565
21
9.9081689
0
LINE
8
DEFAULT_255_2_778
10
4.0695565
20
100.0810689
11
4.0700565
21
100.0778689
0
LINE
8
DEFAULT_255_2_778
10
4.0700565
20
100.0778689
11
4.0705565
21
100.0699689
0
LINE
8
DEFAULT_255_2_778
10
4.0705565
20
100.0699689
11
4.0710565
21
100.0575689
0
LINE
8
DEFAULT_255_2_778
10
4.0710565
20
100.0575689
11
4.0716565
21
100.0405689
0
LINE
8
DEFAULT_255_2_778
10
4.0716565
20
100.0405689
11
4.0726565
21
99.9945689
0
LINE
8
DEFAULT_255_2_778
10
4.0726565
20
99.9945689
11
4.0737565
21
99.9339689
0
LINE
8
DEFAULT_255_2_778
10
4.0737565
20
99.9339689
11
4.0747565
21
99.8612689
0
LINE
8
DEFAULT_255_2_778
10
4.0747565
20
99.8612689
11
4.0758565
21
99.7786689
0
LINE
8
DEFAULT_255_2_778
10
4.0758565
20
99.7786689
11
4.0777565
21
99.5934689
0
LINE
8
DEFAULT_255_2_778
10
4.0777565
20
99.5934689
11
4.0792565
21
99.3883689
0
LINE
8
DEFAULT_255_2_778
10
4.0792565
20
99.3883689
11
4.0808565
21
99.1693689
0
LINE
8
DEFAULT_255_2_778
10
4.0808565
20
99.1693689
11
4.0824565
21
98.9399689
0
LINE
8
DEFAULT_255_2_778
10
4.0824565
20
98.9399689
11
4.0837565
21
98.7028689
0
LINE
8
DEFAULT_255_2_778
10
4.0837565
20
98.7028689
11
4.0861565
21
98.2112689
0
LINE
8
DEFAULT_255_2_778
10
4.0861565
20
98.2112689
11
4.0882565
21
97.7035689
0
LINE
8
DEFAULT_255_2_778
10
4.0882565
20
97.7035689
11
4.0904565
21
97.1846689
0
LINE
8
DEFAULT_255_2_778
10
4.0904565
20
97.1846689
11
4.0922565
21
96.6576689
0
LINE
8
DEFAULT_255_2_778
10
4.0922565
20
96.6576689
11
4.0954565
21
95.5863689
0
LINE
8
DEFAULT_255_2_778
10
4.0954565
20
95.5863689
11
4.0983565
21
94.4994689
0
LINE
8
DEFAULT_255_2_778
10
4.0983565
20
94.4994689
11
4.1007565
21
93.4021689
0
LINE
8
DEFAULT_255_2_778
10
4.1007565
20
93.4021689
11
4.1028565
21
92.2975689
0
LINE
8
DEFAULT_255_2_778
10
4.1028565
20
92.2975689
11
4.1242565
21
78.5138689
0
LINE
8
DEFAULT_255_2_778
10
4.1242565
20
78.5138689
11
4.1300565
21
78.5201689
0
LINE
8
DEFAULT_255_2_778
10
4.1300565
20
78.5201689
11
4.1454565
21
78.5267689
0
LINE
8
DEFAULT_255_2_778
10
4.1454565
20
78.5267689
11
4.2044565
21
78.5397689
0
LINE
8
DEFAULT_255_2_778
10
4.2044565
20
78.5397689
11
4.2994565
21
78.5513689
0
LINE
8
DEFAULT_255_2_778
10
4.2994565
20
78.5513689
11
4.4264565
21
78.5617689
0
LINE
8
DEFAULT_255_2_778
10
4.4264565
20
78.5617689
11
4.5806565
21
78.5701689
0
LINE
8
DEFAULT_255_2_778
10
4.5806565
20
78.5701689
11
4.7566565
21
78.5765689
0
LINE
8
DEFAULT_255_2_778
10
4.7566565
20
78.5765689
11
5.1460565
21
78.5818689
0
LINE
8
DEFAULT_255_2_778
10
5.1460565
20
78.5818689
11
22.7477565
21
78.5818689
0
LINE
8
DEFAULT_255_2_778
10
22.7477565
20
78.5818689
11
22.7477565
21
9.7655689
0
LINE
8
DEFAULT_255_2_778
10
22.7477565
20
9.7655689
11
4.9479565
21
9.7655689
0
LINE
8
DEFAULT_255_2_778
10
4.9479565
20
9.7655689
11
4.8685565
21
9.6864689
0
LINE
8
DEFAULT_255_2_778
10
4.8685565
20
9.6864689
11
10.2837565
21
9.6864689
0
LINE
8
DEFAULT_255_2_778
10
10.2837565
20
9.6864689
11
10.2837565
21
9.4999689
0
LINE
8
DEFAULT_255_2_778
10
10.2837565
20
9.4999689
11
36.9757565
21
9.4999689
0
LINE
8
DEFAULT_255_2_778
10
36.9757565
20
9.4999689
11
37.0434565
21
9.5676689
0
LINE
8
DEFAULT_255_2_778
10
37.0437565
20
101.4399689
11
33.1879565
21
101.4399689
0
LINE
8
DEFAULT_255_2_778
10
33.1879565
20
101.4399689
11
32.5040565
21
101.0991689
0
LINE
8
DEFAULT_255_2_778
10
32.5040565
20
101.0991689
11
5.0913565
21
101.0991689
0
LINE
8
DEFAULT_255_2_778
10
5.0913565
20
101.0991689
11
4.8688565
21
101.3209689
0
LINE
8
DEFAULT_255_2_778
10
4.8688565
20
101.3209689
11
10.2837565
21
101.3209689
0
LINE
8
DEFAULT_255_2_778
10
10.2837565
20
101.3209689
11
10.2837565
21
101.5074689
0
LINE
8
DEFAULT_255_2_778
10
10.2837565
20
101.5074689
11
36.9757565
21
101.5074689
0
LINE
8
DEFAULT_255_2_778
10
36.9757565
20
101.5074689
11
37.0434565
21
101.4397689
0
LINE
8
DEFAULT_255_2_778
10
37.0434565
20
101.4397689
11
37.0434565
21
87.2170689
0
LINE
8
DEFAULT_255_2_778
10
37.0434565
20
87.2170689
11
34.6937565
21
87.2170689
0
LINE
8
DEFAULT_255_2_778
10
34.6937565
20
87.2170689
11
34.6937565
21
100.4221689
0
LINE
8
DEFAULT_255_2_778
10
34.6937565
20
100.4221689
11
38.0652565
21
100.4221689
0
LINE
8
DEFAULT_255_2_778
10
38.0652565
20
100.4221689
11
38.0652565
21
87.2352689
0
LINE
8
DEFAULT_255_2_778
10
3.6596565
20
100.4895689
11
3.6596565
21
91.3940689
0
LINE
8
DEFAULT_255_2_778
10
3.6596565
20
91.3940689
11
3.7842565
21
90.8047689
0
LINE
8
DEFAULT_255_2_778
10
150.9733565
20
101.3211689
11
150.9733565
21
101.3211689
0
LINE
8
DEFAULT_255_2_778
10
150.9733565
20
101.5079689
11
150.9733565
21
101.5079689
0
LINE
8
DEFAULT_255_2_778
10
141.7652565
20
102.3395689
11
136.6821565
21
102.3395689
0
LINE
8
DEFAULT_255_2_778
10
137.0715565
20
92.4182689
11
137.1985565
21
92.4510689
0
LINE
8
DEFAULT_255_2_778
10
137.9150565
20
92.5160689
11
137.9116565
21
93.7868689
0
LINE
8
DEFAULT_255_2_778
10
137.9116565
20
93.7868689
11
137.9076565
21
95.0476689
0
LINE
8
DEFAULT_255_2_778
10
137.9076565
20
95.0476689
11
137.9028565
21
96.2938689
0
LINE
8
DEFAULT_255_2_778
10
137.9028565
20
96.2938689
11
137.9002565
21
96.9089689
0
LINE
8
DEFAULT_255_2_778
10
137.9002565
20
96.9089689
11
137.8973565
21
97.5167689
0
LINE
8
DEFAULT_255_2_778
10
137.8973565
20
97.5167689
11
137.8938565
21
98.1146689
0
LINE
8
DEFAULT_255_2_778
10
137.8938565
20
98.1146689
11
137.8899565
21
98.6988689
0
LINE
8
DEFAULT_255_2_778
10
137.8899565
20
98.6988689
11
137.8854565
21
99.2640689
0
LINE
8
DEFAULT_255_2_778
10
137.8854565
20
99.2640689
11
137.8801565
21
99.8000689
0
LINE
8
DEFAULT_255_2_778
10
137.8801565
20
99.8000689
11
137.8769565
21
100.0522689
0
LINE
8
DEFAULT_255_2_778
10
137.8769565
20
100.0522689
11
137.8735565
21
100.2900689
0
LINE
8
DEFAULT_255_2_778
10
137.8735565
20
100.2900689
11
137.8698565
21
100.5094689
0
LINE
8
DEFAULT_255_2_778
10
137.8698565
20
100.5094689
11
137.8658565
21
100.7041689
0
LINE
8
DEFAULT_255_2_778
10
137.8658565
20
100.7041689
11
137.8616565
21
100.8679689
0
LINE
8
DEFAULT_255_2_778
10
137.8616565
20
100.8679689
11
137.8592565
21
100.9356689
0
LINE
8
DEFAULT_255_2_778
10
137.8592565
20
100.9356689
11
137.8568565
21
100.9928689
0
LINE
8
DEFAULT_255_2_778
10
137.8568565
20
100.9928689
11
137.8544565
21
101.0380689
0
LINE
8
DEFAULT_255_2_778
10
137.8544565
20
101.0380689
11
137.8520565
21
101.0711689
0
LINE
8
DEFAULT_255_2_778
10
137.8520565
20
101.0711689
11
137.8494565
21
101.0917689
0
LINE
8
DEFAULT_255_2_778
10
137.8494565
20
101.0917689
11
137.8467565
21
101.0997689
0
LINE
8
DEFAULT_255_2_778
10
136.8252565
20
100.0815689
11
136.1674565
21
100.4099689
0
LINE
8
DEFAULT_255_2_778
10
136.1674565
20
100.4099689
11
136.1674565
21
87.7181689
0
LINE
8
DEFAULT_255_2_778
10
136.1674565
20
87.7181689
11
136.4471565
21
87.4395689
0
LINE
8
DEFAULT_255_2_778
10
136.8255565
20
100.0815689
11
136.8268565
21
100.0784689
0
LINE
8
DEFAULT_255_2_778
10
136.8268565
20
100.0784689
11
136.8281565
21
100.0704689
0
LINE
8
DEFAULT_255_2_778
10
136.8281565
20
100.0704689
11
136.8294565
21
100.0580689
0
LINE
8
DEFAULT_255_2_778
10
136.8294565
20
100.0580689
11
136.8308565
21
100.0411689
0
LINE
8
DEFAULT_255_2_778
10
136.8308565
20
100.0411689
11
136.8331565
21
99.9950689
0
LINE
8
DEFAULT_255_2_778
10
136.8331565
20
99.9950689
11
136.8355565
21
99.9344689
0
LINE
8
DEFAULT_255_2_778
10
136.8355565
20
99.9344689
11
136.8376565
21
99.8617689
0
LINE
8
DEFAULT_255_2_778
10
136.8376565
20
99.8617689
11
136.8397565
21
99.7791689
0
LINE
8
DEFAULT_255_2_778
10
136.8397565
20
99.7791689
11
136.8434565
21
99.5939689
0
LINE
8
DEFAULT_255_2_778
10
136.8434565
20
99.5939689
11
136.8469565
21
99.3889689
0
LINE
8
DEFAULT_255_2_778
10
136.8469565
20
99.3889689
11
136.8501565
21
99.1698689
0
LINE
8
DEFAULT_255_2_778
10
136.8501565
20
99.1698689
11
136.8530565
21
98.9404689
0
LINE
8
DEFAULT_255_2_778
10
136.8530565
20
98.9404689
11
136.8556565
21
98.7033689
0
LINE
8
DEFAULT_255_2_778
10
136.8556565
20
98.7033689
11
136.8606565
21
98.2117689
0
LINE
8
DEFAULT_255_2_778
10
136.8606565
20
98.2117689
11
136.8651565
21
97.7040689
0
LINE
8
DEFAULT_255_2_778
10
136.8651565
20
97.7040689
11
136.8691565
21
97.1852689
0
LINE
8
DEFAULT_255_2_778
10
136.8691565
20
97.1852689
11
136.8728565
21
96.6581689
0
LINE
8
DEFAULT_255_2_778
10
136.8728565
20
96.6581689
11
136.8763565
21
96.1250689
0
LINE
8
DEFAULT_255_2_778
10
136.8763565
20
96.1250689
11
136.8794565
21
95.5871689
0
LINE
8
DEFAULT_255_2_778
10
136.8794565
20
95.5871689
11
136.8850565
21
94.5002689
0
LINE
8
DEFAULT_255_2_778
10
136.8850565
20
94.5002689
11
136.8900565
21
93.4029689
0
LINE
8
DEFAULT_255_2_778
10
136.8900565
20
93.4029689
11
136.8945565
21
92.2983689
0
LINE
8
DEFAULT_255_2_778
10
136.8945565
20
92.2983689
11
136.9107565
21
87.8308689
0
LINE
8
DEFAULT_255_2_778
10
136.9332565
20
87.8488689
11
136.9932565
21
87.8668689
0
LINE
8
DEFAULT_255_2_778
10
136.9932565
20
87.8668689
11
137.0885565
21
87.8832689
0
LINE
8
DEFAULT_255_2_778
10
137.0885565
20
87.8832689
11
137.2155565
21
87.8975689
0
LINE
8
DEFAULT_255_2_778
10
137.2155565
20
87.8975689
11
137.3694565
21
87.9094689
0
LINE
8
DEFAULT_255_2_778
10
137.3694565
20
87.9094689
11
137.5449565
21
87.9184689
0
LINE
8
DEFAULT_255_2_778
10
137.5449565
20
87.9184689
11
137.9325565
21
87.9261689
0
LINE
8
DEFAULT_255_2_778
10
137.9325565
20
87.9261689
11
150.9746565
21
87.9261689
0
LINE
8
DEFAULT_255_2_778
10
150.9746565
20
87.9261689
11
151.3664565
21
87.9189689
0
LINE
8
DEFAULT_255_2_778
10
151.3664565
20
87.9189689
11
151.5432565
21
87.9099689
0
LINE
8
DEFAULT_255_2_778
10
151.5432565
20
87.9099689
11
151.6979565
21
87.8980689
0
LINE
8
DEFAULT_255_2_778
10
151.6979565
20
87.8980689
11
151.8247565
21
87.8837689
0
LINE
8
DEFAULT_255_2_778
10
151.8247565
20
87.8837689
11
151.9189565
21
87.8671689
0
LINE
8
DEFAULT_255_2_778
10
151.4855565
20
87.3215689
11
137.3917565
21
87.3215689
0
LINE
8
DEFAULT_255_2_778
10
137.3917565
20
87.3215689
11
137.3075565
21
87.3276689
0
LINE
8
DEFAULT_255_2_778
10
137.3075565
20
87.3276689
11
137.2099565
21
87.3461689
0
LINE
8
DEFAULT_255_2_778
10
137.2099565
20
87.3461689
11
137.1199565
21
87.3718689
0
LINE
8
DEFAULT_255_2_778
10
136.1672565
20
100.4088689
11
135.6565565
21
100.4215689
0
LINE
8
DEFAULT_255_2_778
10
137.9314565
20
87.3212689
11
137.9150565
21
92.5155689
0
LINE
8
DEFAULT_255_2_778
10
137.9150565
20
92.5155689
11
150.9733565
21
92.5155689
0
LINE
8
DEFAULT_255_2_778
10
151.3643565
20
92.4989689
11
151.5411565
21
92.4787689
0
LINE
8
DEFAULT_255_2_778
10
151.5411565
20
92.4787689
11
151.6958565
21
92.4518689
0
LINE
8
DEFAULT_255_2_778
10
151.6958565
20
92.4518689
11
151.8228565
21
92.4187689
0
LINE
8
DEFAULT_255_2_778
10
136.6244565
20
87.5305689
11
136.6244565
21
87.8303689
0
LINE
8
DEFAULT_255_2_778
10
136.6244565
20
87.8303689
11
136.9099565
21
87.8303689
0
LINE
8
DEFAULT_255_2_778
10
139.7348565
20
8.6685689
11
139.7348565
21
4.5958689
0
LINE
8
DEFAULT_255_2_778
10
139.7348565
20
4.5958689
11
138.7130565
21
4.5958689
0
LINE
8
DEFAULT_255_2_778
10
136.6823565
20
8.6683689
11
141.7655565
21
8.6683689
0
LINE
8
DEFAULT_255_2_778
10
142.2888565
20
1.5415689
11
142.2888565
21
4.5958689
0
LINE
8
DEFAULT_255_2_778
10
142.2888565
20
4.5958689
11
141.7779565
21
4.5958689
0
LINE
8
DEFAULT_255_2_778
10
141.7779565
20
4.5958689
11
141.7779565
21
1.5415689
0
LINE
8
DEFAULT_255_2_778
10
141.7779565
20
1.5415689
11
142.2888565
21
1.5415689
0
LINE
8
DEFAULT_255_2_778
10
149.9517565
20
9.5001689
11
149.9517565
21
4.5958689
0
LINE
8
DEFAULT_255_2_778
10
149.9517565
20
4.5958689
11
150.9735565
21
4.5958689
0
LINE
8
DEFAULT_255_2_778
10
149.9517565
20
8.8720689
11
150.9735565
21
8.8720689
0
LINE
8
DEFAULT_255_2_778
10
147.9083565
20
4.5958689
11
147.9083565
21
1.5415689
0
LINE
8
DEFAULT_255_2_778
10
147.9083565
20
1.5415689
11
147.3974565
21
1.5415689
0
LINE
8
DEFAULT_255_2_778
10
147.3974565
20
1.5415689
11
147.3974565
21
4.5958689
0
LINE
8
DEFAULT_255_2_778
10
147.3974565
20
4.5958689
11
147.9083565
21
4.5958689
0
LINE
8
DEFAULT_255_2_778
10
138.7130565
20
8.6685689
11
138.7130565
21
1.5415689
0
LINE
8
DEFAULT_255_2_778
10
138.7130565
20
1.5415689
11
139.2239565
21
1.5415689
0
LINE
8
DEFAULT_255_2_778
10
139.2239565
20
1.5415689
11
139.2239565
21
4.5958689
0
LINE
8
DEFAULT_255_2_778
10
109.2453565
20
5.3594689
11
109.2453565
21
5.3822689
0
LINE
8
DEFAULT_255_2_778
10
109.2453565
20
5.3822689
11
111.3638565
21
5.3822689
0
LINE
8
DEFAULT_255_2_778
10
111.3638565
20
5.3822689
11
111.3866565
21
5.3594689
0
LINE
8
DEFAULT_255_2_778
10
111.3866565
20
5.3594689
11
109.2453565
21
5.3594689
0
LINE
8
DEFAULT_255_2_778
10
111.7692565
20
5.0885689
11
111.7692565
21
7.2461689
0
LINE
8
DEFAULT_255_2_778
10
109.1477565
20
8.1222689
11
109.1537565
21
8.1449689
0
LINE
8
DEFAULT_255_2_778
10
115.4085565
20
8.5365689
11
115.4085565
21
7.2737689
0
LINE
8
DEFAULT_255_2_778
10
115.9501565
20
6.5934689
11
115.9501565
21
8.5362689
0
LINE
8
DEFAULT_255_2_778
10
111.3633565
20
8.1222689
11
111.3860565
21
8.1449689
0
LINE
8
DEFAULT_255_2_778
10
115.6127565
20
6.0738689
11
116.1480565
21
6.3817689
0
LINE
8
DEFAULT_255_2_778
10
115.5445565
20
6.0502689
11
114.6232565
21
5.5200689
0
LINE
8
DEFAULT_255_2_778
10
113.0079565
20
5.0887689
11
111.7686565
21
5.0887689
0
LINE
8
DEFAULT_255_2_778
10
111.7686565
20
5.0887689
11
111.7006565
21
5.0752689
0
LINE
8
DEFAULT_255_2_778
10
111.7006565
20
5.0752689
11
109.2448565
21
5.0752689
0
LINE
8
DEFAULT_255_2_778
10
107.6229565
20
5.5083689
11
106.1050565
21
6.3817689
0
LINE
8
DEFAULT_255_2_778
10
111.9052565
20
7.2734689
11
111.9052565
21
8.3484689
0
LINE
8
DEFAULT_255_2_778
10
108.9968565
20
8.5362689
11
109.2056565
21
8.4143689
0
LINE
8
DEFAULT_255_2_778
10
109.2056565
20
8.4143689
11
109.2233565
21
8.4794689
0
LINE
8
DEFAULT_255_2_778
10
109.2233565
20
8.4794689
11
109.1257565
21
8.5362689
0
LINE
8
DEFAULT_255_2_778
10
106.2732565
20
6.5839689
11
107.8038565
21
5.7330689
0
LINE
8
DEFAULT_255_2_778
10
107.8038565
20
5.7330689
11
107.8150565
21
5.7528689
0
LINE
8
DEFAULT_255_2_778
10
107.8150565
20
5.7528689
11
106.2843565
21
6.6037689
0
LINE
8
DEFAULT_255_2_778
10
113.1275565
20
8.5365689
11
112.8476565
21
8.3730689
0
LINE
8
DEFAULT_255_2_778
10
112.8476565
20
8.3730689
11
109.6168565
21
8.3730689
0
LINE
8
DEFAULT_255_2_778
10
109.6168565
20
8.3730689
11
109.5990565
21
8.3079689
0
LINE
8
DEFAULT_255_2_778
10
109.5990565
20
8.3079689
11
111.7006565
21
8.3079689
0
LINE
8
DEFAULT_255_2_778
10
111.7006565
20
8.3079689
11
111.7006565
21
5.0752689
0
LINE
8
DEFAULT_255_2_778
10
108.4386565
20
8.5362689
11
109.1474565
21
8.1222689
0
LINE
8
DEFAULT_255_2_778
10
109.1474565
20
8.1222689
11
111.3633565
21
8.1222689
0
LINE
8
DEFAULT_255_2_778
10
111.3633565
20
8.1222689
11
111.3633565
21
5.3822689
0
LINE
8
DEFAULT_255_2_778
10
115.6127565
20
8.5362689
11
115.6127565
21
6.0735689
0
LINE
8
DEFAULT_255_2_778
10
115.6127565
20
6.0735689
11
115.5448565
21
6.0499689
0
LINE
8
DEFAULT_255_2_778
10
115.5448565
20
6.0499689
11
115.5448565
21
7.2461689
0
LINE
8
DEFAULT_255_2_778
10
115.5448565
20
7.2461689
11
115.4085565
21
7.2731689
0
LINE
8
DEFAULT_255_2_778
10
115.4085565
20
7.2731689
11
111.9052565
21
7.2731689
0
LINE
8
DEFAULT_255_2_778
10
111.9052565
20
7.2731689
11
111.7689565
21
7.2461689
0
LINE
8
DEFAULT_255_2_778
10
111.7689565
20
7.2461689
11
115.5448565
21
7.2461689
0
LINE
8
DEFAULT_255_2_778
10
4.5444565
20
101.4809689
11
1.1905565
21
101.4809689
0
LINE
8
DEFAULT_255_2_778
10
0.1687565
20
100.4628689
11
0.1687565
21
98.0630689
0
LINE
8
DEFAULT_255_2_778
10
0.6796565
20
97.5540689
11
1.1905565
21
97.5540689
0
LINE
8
DEFAULT_255_2_778
10
1.1905565
20
100.3030689
11
3.6596565
21
100.3030689
0
LINE
8
DEFAULT_255_2_778
10
2.2068565
20
99.7992689
11
3.1844565
21
99.7992689
0
LINE
8
DEFAULT_255_2_778
10
1.8440565
20
99.6516689
11
1.1905565
21
100.3030689
0
LINE
8
DEFAULT_255_2_778
10
1.1905565
20
100.3030689
11
1.1905565
21
97.5540689
0
LINE
8
DEFAULT_255_2_778
10
1.6961565
20
98.0630689
11
1.6961565
21
98.0630689
0
LINE
8
DEFAULT_255_2_778
10
1.6961565
20
98.0630689
11
1.6961565
21
99.2902689
0
LINE
8
DEFAULT_255_2_778
10
42.8341565
20
5.3596689
11
42.8341565
21
5.3824689
0
LINE
8
DEFAULT_255_2_778
10
42.8341565
20
5.3824689
11
44.9526565
21
5.3824689
0
LINE
8
DEFAULT_255_2_778
10
44.9526565
20
5.3824689
11
44.9754565
21
5.3596689
0
LINE
8
DEFAULT_255_2_778
10
44.9754565
20
5.3596689
11
42.8341565
21
5.3596689
0
LINE
8
DEFAULT_255_2_778
10
45.3579565
20
5.0887689
11
45.3579565
21
7.2464689
0
LINE
8
DEFAULT_255_2_778
10
42.7364565
20
8.1224689
11
42.7425565
21
8.1452689
0
LINE
8
DEFAULT_255_2_778
10
48.9973565
20
8.5368689
11
48.9973565
21
7.2739689
0
LINE
8
DEFAULT_255_2_778
10
49.5389565
20
6.5937689
11
49.5389565
21
8.5365689
0
LINE
8
DEFAULT_255_2_778
10
44.9521565
20
8.1224689
11
44.9748565
21
8.1452689
0
LINE
8
DEFAULT_255_2_778
10
49.2015565
20
6.0740689
11
49.1335565
21
6.0505689
0
LINE
8
DEFAULT_255_2_778
10
49.7371565
20
6.3820689
11
49.2018565
21
6.0740689
0
LINE
8
DEFAULT_255_2_778
10
49.2018565
20
6.0740689
11
49.2018565
21
8.5368689
0
LINE
8
DEFAULT_255_2_778
10
49.1338565
20
7.2467689
11
49.1338565
21
6.0505689
0
LINE
8
DEFAULT_255_2_778
10
49.1338565
20
6.0505689
11
48.2125565
21
5.5203689
0
LINE
8
DEFAULT_255_2_778
10
46.5973565
20
5.0890689
11
45.3579565
21
5.0890689
0
LINE
8
DEFAULT_255_2_778
10
45.3579565
20
5.0890689
11
45.2899565
21
5.0755689
0
LINE
8
DEFAULT_255_2_778
10
45.2899565
20
5.0755689
11
42.8341565
21
5.0755689
0
LINE
8
DEFAULT_255_2_778
10
41.2122565
20
5.5086689
11
39.6943565
21
6.3820689
0
LINE
8
DEFAULT_255_2_778
10
38.0724565
20
9.1816689
11
38.0724565
21
9.2845689
0
LINE
8
DEFAULT_255_2_778
10
45.2902565
20
8.3082689
11
45.2902565
21
5.0755689
0
LINE
8
DEFAULT_255_2_778
10
46.7168565
20
8.5368689
11
46.4369565
21
8.3733689
0
LINE
8
DEFAULT_255_2_778
10
46.4369565
20
8.3733689
11
43.2061565
21
8.3733689
0
LINE
8
DEFAULT_255_2_778
10
43.2061565
20
8.3733689
11
43.1884565
21
8.3082689
0
LINE
8
DEFAULT_255_2_778
10
43.1884565
20
8.3082689
11
45.2899565
21
8.3082689
0
LINE
8
DEFAULT_255_2_778
10
45.2899565
20
8.3082689
11
45.4942565
21
8.3489689
0
LINE
8
DEFAULT_255_2_778
10
45.4942565
20
8.3489689
11
46.4433565
21
8.3489689
0
LINE
8
DEFAULT_255_2_778
10
46.4433565
20
8.3489689
11
46.7647565
21
8.5368689
0
LINE
8
DEFAULT_255_2_778
10
45.4939565
20
8.3489689
11
45.4939565
21
7.2739689
0
LINE
8
DEFAULT_255_2_778
10
45.4939565
20
7.2739689
11
45.3577565
21
7.2469689
0
LINE
8
DEFAULT_255_2_778
10
45.3577565
20
7.2469689
11
49.1335565
21
7.2469689
0
LINE
8
DEFAULT_255_2_778
10
49.1335565
20
7.2469689
11
48.9973565
21
7.2739689
0
LINE
8
DEFAULT_255_2_778
10
48.9973565
20
7.2739689
11
45.4939565
21
7.2739689
0
LINE
8
DEFAULT_255_2_778
10
42.0104565
20
8.8728689
11
42.7944565
21
8.4148689
0
LINE
8
DEFAULT_255_2_778
10
42.7944565
20
8.4148689
11
42.8121565
21
8.4799689
0
LINE
8
DEFAULT_255_2_778
10
42.8121565
20
8.4799689
11
42.1396565
21
8.8728689
0
LINE
8
DEFAULT_255_2_778
10
41.4974565
20
8.8728689
11
42.7428565
21
8.1455689
0
LINE
8
DEFAULT_255_2_778
10
42.7428565
20
8.1455689
11
44.9751565
21
8.1455689
0
LINE
8
DEFAULT_255_2_778
10
44.9751565
20
8.1455689
11
44.9751565
21
5.3602689
0
LINE
8
DEFAULT_255_2_778
10
39.8618565
20
6.5839689
11
41.3924565
21
5.7330689
0
LINE
8
DEFAULT_255_2_778
10
41.3924565
20
5.7330689
11
41.4035565
21
5.7528689
0
LINE
8
DEFAULT_255_2_778
10
41.4035565
20
5.7528689
11
39.8729565
21
6.6037689
0
LINE
8
DEFAULT_255_2_778
10
3.1847565
20
11.2085689
11
2.2070565
21
11.2091689
0
LINE
8
DEFAULT_255_2_778
10
1.6959565
20
11.7179689
11
1.6961565
21
12.9450689
0
LINE
8
DEFAULT_255_2_778
10
1.1905565
20
13.4541689
11
1.1905565
21
10.7050689
0
LINE
8
DEFAULT_255_2_778
10
1.1905565
20
10.7050689
11
3.6596565
21
10.7050689
0
LINE
8
DEFAULT_255_2_778
10
4.0414565
20
10.7868689
11
3.9311565
21
10.7886689
0
LINE
8
DEFAULT_255_2_778
10
4.9484565
20
9.7663689
11
4.9201565
21
9.7684689
0
LINE
8
DEFAULT_255_2_778
10
1.1908565
20
10.7056689
11
1.8443565
21
11.3570689
0
LINE
8
DEFAULT_255_2_778
10
1.1908565
20
13.4548689
11
0.6796565
21
13.4548689
0
LINE
8
DEFAULT_255_2_778
10
0.1687565
20
12.9458689
11
0.1687565
21
10.5460689
0
LINE
8
DEFAULT_255_2_778
10
1.1905565
20
9.5279689
11
1.1905565
21
9.5279689
0
LINE
8
DEFAULT_255_2_778
10
1.1905565
20
9.5279689
11
4.5441565
21
9.5279689
0
LINE
8
DEFAULT_255_2_778
10
16.1075565
20
8.6696689
11
16.1075565
21
4.5969689
0
LINE
8
DEFAULT_255_2_778
10
16.1075565
20
4.5969689
11
17.1293565
21
4.5969689
0
LINE
8
DEFAULT_255_2_778
10
14.0768565
20
8.6693689
11
19.1600565
21
8.6693689
0
LINE
8
DEFAULT_255_2_778
10
4.8688565
20
4.5966689
11
5.8906565
21
4.5966689
0
LINE
8
DEFAULT_255_2_778
10
5.8906565
20
4.5966689
11
5.8906565
21
9.5009689
0
LINE
8
DEFAULT_255_2_778
10
4.8688565
20
8.8731689
11
5.8906565
21
8.8731689
0
LINE
8
DEFAULT_255_2_778
10
16.6184565
20
4.5969689
11
16.6184565
21
1.5425689
0
LINE
8
DEFAULT_255_2_778
10
16.6184565
20
1.5425689
11
17.1293565
21
1.5425689
0
LINE
8
DEFAULT_255_2_778
10
17.1293565
20
1.5425689
11
17.1293565
21
8.6696689
0
LINE
8
DEFAULT_255_2_778
10
13.5532565
20
4.5969689
11
14.0641565
21
4.5969689
0
LINE
8
DEFAULT_255_2_778
10
14.0641565
20
4.5969689
11
14.0641565
21
1.5425689
0
LINE
8
DEFAULT_255_2_778
10
14.0641565
20
1.5425689
11
13.5532565
21
1.5425689
0
LINE
8
DEFAULT_255_2_778
10
13.5532565
20
1.5425689
11
13.5532565
21
4.5969689
0
LINE
8
DEFAULT_255_2_778
10
9.9773565
20
9.6877689
11
9.9773565
21
9.5012689
0
LINE
8
DEFAULT_255_2_778
10
9.9773565
20
9.5012689
11
4.6812565
21
9.5012689
0
LINE
8
DEFAULT_255_2_778
10
7.9337565
20
4.5971689
11
8.4446565
21
4.5971689
0
LINE
8
DEFAULT_255_2_778
10
8.4446565
20
4.5971689
11
8.4446565
21
1.5428689
0
LINE
8
DEFAULT_255_2_778
10
8.4446565
20
1.5428689
11
7.9337565
21
1.5428689
0
LINE
8
DEFAULT_255_2_778
10
7.9337565
20
1.5428689
11
7.9337565
21
4.5971689
0
LINE
8
DEFAULT_255_2_778
10
5.3794565
20
4.5971689
11
5.3794565
21
1.5428689
0
LINE
8
DEFAULT_255_2_778
10
5.3794565
20
1.5428689
11
4.8685565
21
1.5428689
0
LINE
8
DEFAULT_255_2_778
10
4.8685565
20
1.5428689
11
4.8685565
21
9.5014689
0
LINE
8
DEFAULT_255_2_778
10
159.8675565
20
9.8256689
11
159.8675565
21
101.1835689
0
LINE
8
DEFAULT_255_2_778
10
160.0641565
20
101.1026689
11
160.0863565
21
101.0925689
0
LINE
8
DEFAULT_255_2_778
10
160.1395565
20
101.0515689
11
160.1519565
21
101.0343689
0
LINE
8
DEFAULT_255_2_778
10
159.9675565
20
101.1822689
11
151.9946565
21
101.3209689
0
LINE
8
DEFAULT_255_2_778
10
151.9946565
20
101.3209689
11
151.9946565
21
9.6867689
0
LINE
8
DEFAULT_255_2_778
10
151.9946565
20
9.6867689
11
159.8670565
21
9.8237689
0
LINE
8
DEFAULT_255_2_778
10
160.1681565
20
10.1290689
11
160.1681565
21
100.9788689
0
LINE
8
DEFAULT_255_2_778
10
159.9651565
20
101.1563689
11
159.9672565
21
101.1825689
0
LINE
8
DEFAULT_255_2_778
10
160.0805565
20
17.8996689
11
159.9826565
21
17.8850689
0
LINE
8
DEFAULT_255_2_778
10
159.9826565
20
17.8850689
11
159.8670565
21
17.8797689
0
LINE
8
DEFAULT_255_2_778
10
159.8670565
20
17.8797689
11
151.9946565
21
17.7395689
0
LINE
8
DEFAULT_255_2_778
10
150.9727565
20
101.0991689
11
137.8460565
21
101.0991689
0
LINE
8
DEFAULT_255_2_778
10
137.8460565
20
101.0991689
11
137.1620565
21
101.4399689
0
LINE
8
DEFAULT_255_2_778
10
137.1620565
20
101.4399689
11
133.3062565
21
101.4399689
0
LINE
8
DEFAULT_255_2_778
10
133.3062565
20
101.4399689
11
133.3740565
21
101.5077689
0
LINE
8
DEFAULT_255_2_778
10
133.3740565
20
101.5077689
11
145.5578565
21
101.5077689
0
LINE
8
DEFAULT_255_2_778
10
145.5578565
20
101.5077689
11
145.5578565
21
101.3211689
0
LINE
8
DEFAULT_255_2_778
10
145.5578565
20
101.3211689
11
150.9727565
21
101.3211689
0
LINE
8
DEFAULT_255_2_778
10
150.9727565
20
101.3211689
11
150.9727565
21
87.3215689
0
LINE
8
DEFAULT_255_2_778
10
151.9946565
20
93.2685689
11
159.8670565
21
93.1283689
0
LINE
8
DEFAULT_255_2_778
10
159.8670565
20
93.1283689
11
159.9826565
21
93.1230689
0
LINE
8
DEFAULT_255_2_778
10
159.9826565
20
93.1230689
11
160.0805565
21
93.1085689
0
LINE
8
DEFAULT_255_2_778
10
132.2850565
20
87.2352689
11
132.2850565
21
100.4221689
0
LINE
8
DEFAULT_255_2_778
10
132.2850565
20
100.4221689
11
135.6565565
21
100.4218689
0
LINE
8
DEFAULT_255_2_778
10
135.6565565
20
100.4218689
11
135.6565565
21
87.2178689
0
LINE
8
DEFAULT_255_2_778
10
135.6565565
20
87.2178689
11
133.3068565
21
87.2178689
0
LINE
8
DEFAULT_255_2_778
10
133.3068565
20
87.2178689
11
133.3068565
21
101.4402689
0
LINE
8
DEFAULT_255_2_778
10
150.9735565
20
23.6865689
11
150.9735565
21
9.6869689
0
LINE
8
DEFAULT_255_2_778
10
150.9735565
20
9.6869689
11
145.5586565
21
9.6869689
0
LINE
8
DEFAULT_255_2_778
10
145.5586565
20
9.6869689
11
145.5586565
21
9.5004689
0
LINE
8
DEFAULT_255_2_778
10
145.5586565
20
9.5004689
11
133.3748565
21
9.5004689
0
LINE
8
DEFAULT_255_2_778
10
133.3748565
20
9.5004689
11
133.3070565
21
9.5681689
0
LINE
8
DEFAULT_255_2_778
10
133.3070565
20
9.5681689
11
137.1628565
21
9.5681689
0
LINE
8
DEFAULT_255_2_778
10
137.1628565
20
9.5681689
11
137.8467565
21
9.9089689
0
LINE
8
DEFAULT_255_2_778
10
137.8467565
20
9.9089689
11
150.9735565
21
9.9089689
0
LINE
8
DEFAULT_255_2_778
10
145.8650565
20
9.6872689
11
145.8650565
21
9.5006689
0
LINE
8
DEFAULT_255_2_778
10
145.8650565
20
9.5006689
11
150.9735565
21
9.5006689
0
LINE
8
DEFAULT_255_2_778
10
150.9735565
20
9.5006689
11
150.9735565
21
1.5420689
0
LINE
8
DEFAULT_255_2_778
10
150.9735565
20
1.5420689
11
150.4626565
21
1.5420689
0
LINE
8
DEFAULT_255_2_778
10
150.4626565
20
1.5420689
11
150.4626565
21
4.5963689
0
LINE
8
DEFAULT_255_2_778
10
39.1762565
20
24.2546689
11
37.8702565
21
24.2546689
0
LINE
8
DEFAULT_255_2_778
10
37.8702565
20
24.2546689
11
37.5771565
21
24.5467689
0
LINE
8
DEFAULT_255_2_778
10
37.5771565
20
24.5467689
11
33.9195565
21
24.5467689
0
LINE
8
DEFAULT_255_2_778
10
33.9195565
20
24.5467689
11
33.9491565
21
24.5419689
0
LINE
8
DEFAULT_255_2_778
10
34.7029565
20
87.2178689
11
33.9491565
21
86.4666689
0
LINE
8
DEFAULT_255_2_778
10
33.9491565
20
86.4666689
11
33.9197565
21
86.4619689
0
LINE
8
DEFAULT_255_2_778
10
33.9197565
20
86.4619689
11
37.5773565
21
86.4619689
0
LINE
8
DEFAULT_255_2_778
10
37.5773565
20
86.4619689
11
37.8705565
21
86.7540689
0
LINE
8
DEFAULT_255_2_778
10
37.8705565
20
86.7540689
11
39.1765565
21
86.7540689
0
ENDSEC
0
EOF