0
SECTION
2
HEADER
9
$MEASUREMENT
70
1
0
ENDSEC
0
SECTION
2
TABLES
0
TABLE
2
LTYPE
0
LTYPE
72
65
70
64
2
CONTINUOUS
3
______
73
0
40
0
0
ENDTAB
0
TABLE
2
LAYER
0
LAYER
2
DEFAULT_255_2_778
70
0
62
255
6
CONTINUOUS
0
ENDTAB
0
ENDSEC
0
SECTION
2
ENTITIES
0
LINE
8
DEFAULT_255_2_778
10
61.0115386
20
8.560549
11
61.0115386
21
8.459449
0
LINE
8
DEFAULT_255_2_778
10
61.0115386
20
8.459449
11
55.7606386
21
8.459449
0
LINE
8
DEFAULT_255_2_778
10
55.7606386
20
8.459449
11
55.7606386
21
9.065349
0
ARC
8
DEFAULT_255_2_778
10
53.7900525
20
9.6564316
40
0.304151
50
315.1289917
51
359.9467788
0
ARC
8
DEFAULT_255_2_778
10
53.7914699
20
9.6560523
40
0.3028798
50
282.3214691
51
314.990673
0
LINE
8
DEFAULT_255_2_778
10
55.7606034
20
9.427549
11
55.7606034
21
9.065349
0
LINE
8
DEFAULT_255_2_778
10
55.7606034
20
9.065349
11
61.0115034
21
9.065349
0
LINE
8
DEFAULT_255_2_778
10
61.0115034
20
9.065349
11
61.0115034
21
9.671249
0
LINE
8
DEFAULT_255_2_778
10
54.0942034
20
9.368849
11
54.8059034
21
9.393949
0
LINE
8
DEFAULT_255_2_778
10
52.7815615
20
9.3535209
11
53.7912615
21
9.3535209
0
LINE
8
DEFAULT_255_2_778
10
53.7912615
20
9.3535209
11
53.8560615
21
9.3603209
0
LINE
8
DEFAULT_255_2_778
10
53.8560615
20
9.3603209
11
54.0942615
21
9.3688209
0
LINE
8
DEFAULT_255_2_778
10
54.0942615
20
9.3688209
11
54.0942615
21
9.1368209
0
LINE
8
DEFAULT_255_2_778
10
54.0942615
20
9.1368209
11
54.0942615
21
8.6314209
0
LINE
8
DEFAULT_255_2_778
10
54.0942615
20
8.6314209
11
52.7815615
21
8.6314209
0
LINE
8
DEFAULT_255_2_778
10
55.7602615
20
9.6712209
11
55.7602615
21
9.4275209
0
LINE
8
DEFAULT_255_2_778
10
55.7602615
20
9.4275209
11
54.8059615
21
9.3937209
0
LINE
8
DEFAULT_255_2_778
10
54.8059615
20
9.3937209
11
54.5484615
21
9.1362209
0
LINE
8
DEFAULT_255_2_778
10
54.5484615
20
9.1362209
11
54.0942615
21
9.1362209
0
LINE
8
DEFAULT_255_2_778
10
43.1015615
20
9.6712209
11
62.7008615
21
9.6712209
0
LINE
8
DEFAULT_255_2_778
10
72.6240615
20
9.6712209
11
72.6240615
21
8.8634209
0
LINE
8
DEFAULT_255_2_778
10
72.6240615
20
8.8634209
11
76.8650615
21
4.6224209
0
LINE
8
DEFAULT_255_2_778
10
76.8650615
20
4.6224209
11
77.6728615
21
4.6224209
0
LINE
8
DEFAULT_255_2_778
10
77.6730615
20
1.5930209
11
77.6730615
21
4.6224209
0
LINE
8
DEFAULT_255_2_778
10
77.6730615
20
4.6224209
11
78.1778615
21
4.6224209
0
LINE
8
DEFAULT_255_2_778
10
78.1778615
20
4.6224209
11
78.1778615
21
1.5930209
0
LINE
8
DEFAULT_255_2_778
10
81.0052615
20
72.9286209
11
81.0052615
21
71.2691209
0
LINE
8
DEFAULT_255_2_778
10
81.0052615
20
71.2691209
11
80.7022615
21
70.9662209
0
LINE
8
DEFAULT_255_2_778
10
80.7022615
20
70.9662209
11
79.1875615
21
70.9662209
0
LINE
8
DEFAULT_255_2_778
10
79.1875615
20
70.9662209
11
78.1778615
21
71.9761209
0
LINE
8
DEFAULT_255_2_778
10
78.1778615
20
71.9761209
11
78.1778615
21
72.9532209
0
LINE
8
DEFAULT_255_2_778
10
67.8276615
20
22.7482209
11
67.8276615
21
21.9923209
0
LINE
8
DEFAULT_255_2_778
10
66.0099615
20
21.9765209
11
59.7491615
21
21.9220209
0
LINE
8
DEFAULT_255_2_778
10
59.7491615
20
21.9220209
11
59.7491615
21
21.9910209
0
LINE
8
DEFAULT_255_2_778
10
66.009936
20
21.97656
11
67.827636
21
21.99246
0
LINE
8
DEFAULT_255_2_778
10
67.827636
20
21.99246
11
67.827636
21
20.77906
0
LINE
8
DEFAULT_255_2_778
10
67.827636
20
20.77906
11
59.749436
21
20.77906
0
LINE
8
DEFAULT_255_2_778
10
59.749436
20
20.77906
11
59.749436
21
21.92176
0
LINE
8
DEFAULT_255_2_778
10
59.749136
20
27.64576
11
59.749136
21
28.85756
0
LINE
8
DEFAULT_255_2_778
10
59.749136
20
28.85756
11
67.827436
21
28.85756
0
LINE
8
DEFAULT_255_2_778
10
67.827436
20
28.85756
11
67.827436
21
22.74836
0
LINE
8
DEFAULT_255_2_778
10
67.827436
20
22.74836
11
66.009736
21
22.74836
0
ARC
8
DEFAULT_255_2_778
10
50.3591891
20
9.6566049
40
0.3040718
50
180.0660151
51
224.9039071
0
ARC
8
DEFAULT_255_2_778
10
50.3576573
20
9.6553673
40
0.3021132
50
224.9427302
51
270.0872865
0
LINE
8
DEFAULT_255_2_778
10
66.0100175
20
21.9765546
11
59.7492175
21
21.9908546
0
LINE
8
DEFAULT_255_2_778
10
59.7492175
20
21.9908546
11
59.7492175
21
27.6457546
0
LINE
8
DEFAULT_255_2_778
10
59.7492175
20
27.6457546
11
66.0100175
21
27.6457546
0
LINE
8
DEFAULT_255_2_778
10
66.0100175
20
27.6457546
11
66.0100175
21
22.7483546
0
LINE
8
DEFAULT_255_2_778
10
66.0100175
20
22.7483546
11
66.0100175
21
21.9765546
0
LINE
8
DEFAULT_255_2_778
10
2.8958175
20
85.8001546
11
3.8901175
21
85.6226546
0
LINE
8
DEFAULT_255_2_778
10
81.0053175
20
105.6023546
11
78.1780175
21
105.6023546
0
LINE
8
DEFAULT_255_2_778
10
3.9084175
20
24.0982546
11
3.9084175
21
24.1043546
0
LINE
8
DEFAULT_255_2_778
10
3.9084175
20
24.1043546
11
3.9070175
21
23.9527546
0
LINE
8
DEFAULT_255_2_778
10
50.3581175
20
9.3532546
11
52.7817175
21
9.3532546
0
LINE
8
DEFAULT_255_2_778
10
52.7817175
20
9.3532546
11
52.7817175
21
8.6312546
0
LINE
8
DEFAULT_255_2_778
10
52.7817175
20
8.6312546
11
43.1381175
21
8.6312546
0
LINE
8
DEFAULT_255_2_778
10
43.1381175
20
8.6312546
11
43.1019175
21
9.6713546
0
LINE
8
DEFAULT_255_2_778
10
43.1019175
20
9.6713546
11
34.2521175
21
9.6713546
0
LINE
8
DEFAULT_255_2_778
10
55.7606175
20
39.4604546
11
55.7606175
21
39.7663546
0
LINE
8
DEFAULT_255_2_778
10
34.5548175
20
10.0753546
11
81.0056175
21
10.0753546
0
LINE
8
DEFAULT_255_2_778
10
81.0056175
20
10.0753546
11
81.0056175
21
36.2291546
0
LINE
8
DEFAULT_255_2_778
10
81.0056175
20
36.2291546
11
80.0224175
21
37.2123546
0
LINE
8
DEFAULT_255_2_778
10
80.0224175
20
37.2123546
11
76.9664175
21
37.2390546
0
LINE
8
DEFAULT_255_2_778
10
76.9664175
20
37.2390546
11
76.9664175
21
72.9636546
0
LINE
8
DEFAULT_255_2_778
10
76.9664175
20
72.9636546
11
81.0056175
21
72.9284546
0
LINE
8
DEFAULT_255_2_778
10
81.0056175
20
72.9284546
11
81.0056175
21
100.1492546
0
LINE
8
DEFAULT_255_2_778
10
81.0056175
20
100.1492546
11
34.5548175
21
100.1492546
0
LINE
8
DEFAULT_255_2_778
10
34.5548175
20
100.1492546
11
34.5548175
21
99.4402546
0
LINE
8
DEFAULT_255_2_778
10
34.5548175
20
10.8852546
11
34.2518175
21
10.8831546
0
LINE
8
DEFAULT_255_2_778
10
55.4576864
20
39.4603767
11
55.7605864
21
39.4603767
0
LINE
8
DEFAULT_255_2_778
10
55.7605864
20
39.4603767
11
55.7605864
21
20.3953767
0
LINE
8
DEFAULT_255_2_778
10
55.7605864
20
20.3953767
11
34.5547864
21
19.5169767
0
LINE
8
DEFAULT_255_2_778
10
34.5547864
20
19.5169767
11
34.5547864
21
9.6714767
0
LINE
8
DEFAULT_255_2_778
10
55.4576864
20
39.7689767
11
55.7605864
21
39.7662767
0
LINE
8
DEFAULT_255_2_778
10
55.7605864
20
39.7662767
11
55.7605864
21
70.4584767
0
LINE
8
DEFAULT_255_2_778
10
55.4576817
20
70.4559106
11
55.7605817
21
70.4585106
0
LINE
8
DEFAULT_255_2_778
10
55.7605817
20
70.4585106
11
55.7605817
21
70.7641106
0
LINE
8
DEFAULT_255_2_778
10
55.4576817
20
29.6148106
11
55.4576817
21
20.6859106
0
LINE
8
DEFAULT_255_2_778
10
55.4576817
20
20.6859106
11
34.2518817
21
19.8075106
0
LINE
8
DEFAULT_255_2_778
10
34.2518817
20
19.8075106
11
34.2518817
21
9.6713106
0
LINE
8
DEFAULT_255_2_778
10
34.2518817
20
9.6713106
11
9.1727817
21
9.6713106
0
ARC
8
DEFAULT_255_2_778
10
23.1442509
20
79.0946359
40
1.5149197
50
90.0075849
51
134.9994883
0
ARC
8
DEFAULT_255_2_778
10
23.1439075
20
79.0948055
40
1.5145572
50
134.9948381
51
180.0018866
0
ARC
8
DEFAULT_255_2_778
10
23.1438495
20
31.1292817
40
1.5144992
50
180.0009868
51
225.0060702
0
ARC
8
DEFAULT_255_2_778
10
23.1440764
20
31.1290547
40
1.5144992
50
224.9939298
51
269.9990132
0
LINE
8
DEFAULT_255_2_778
10
55.4576503
20
80.6095556
11
23.1440503
21
80.6095556
0
LINE
8
DEFAULT_255_2_778
10
21.6293503
20
79.0947556
11
21.6293503
21
31.1292556
0
LINE
8
DEFAULT_255_2_778
10
23.1440503
20
29.6145556
11
55.4576503
21
29.6145556
0
LINE
8
DEFAULT_255_2_778
10
55.4576503
20
29.6145556
11
55.4576503
21
89.5384556
0
LINE
8
DEFAULT_255_2_778
10
55.4576503
20
89.5384556
11
34.2518503
21
90.4168556
0
LINE
8
DEFAULT_255_2_778
10
34.2518503
20
90.4168556
11
34.2518503
21
97.3838556
0
LINE
8
DEFAULT_255_2_778
10
59.7491503
20
84.5983556
11
59.7491503
21
83.3865556
0
LINE
8
DEFAULT_255_2_778
10
59.7491503
20
83.3865556
11
67.8274503
21
83.3865556
0
LINE
8
DEFAULT_255_2_778
10
67.8274503
20
83.3865556
11
67.8274503
21
87.4762556
0
LINE
8
DEFAULT_255_2_778
10
67.8277569
20
89.5029296
11
67.8277569
21
87.4762296
0
LINE
8
DEFAULT_255_2_778
10
67.8277569
20
87.4762296
11
66.0100569
21
87.4762296
0
LINE
8
DEFAULT_255_2_778
10
66.0100569
20
87.4762296
11
66.0100569
21
89.5029296
0
LINE
8
DEFAULT_255_2_778
10
66.0100569
20
91.4651296
11
67.8277569
21
91.4651296
0
LINE
8
DEFAULT_255_2_778
10
67.8277569
20
91.4651296
11
67.8277569
21
89.6979296
0
LINE
8
DEFAULT_255_2_778
10
66.0100569
20
90.253279
11
66.0100569
21
89.697879
0
LINE
8
DEFAULT_255_2_778
10
66.0100569
20
89.697879
11
67.8277569
21
89.697879
0
LINE
8
DEFAULT_255_2_778
10
67.8277569
20
89.697879
11
67.8277569
21
89.502879
0
LINE
8
DEFAULT_255_2_778
10
67.8277569
20
89.502879
11
66.0100569
21
89.502879
0
LINE
8
DEFAULT_255_2_778
10
66.0100569
20
89.502879
11
66.0100569
21
89.697879
0
LINE
8
DEFAULT_255_2_778
10
59.7491542
20
90.2532703
11
59.7491542
21
91.4650703
0
LINE
8
DEFAULT_255_2_778
10
59.7491542
20
91.4650703
11
66.0100542
21
91.4650703
0
LINE
8
DEFAULT_255_2_778
10
66.0100542
20
91.4650703
11
66.0100542
21
90.2532703
0
LINE
8
DEFAULT_255_2_778
10
66.0100542
20
90.2532703
11
59.7491542
21
90.2532703
0
LINE
8
DEFAULT_255_2_778
10
59.7491542
20
90.2532703
11
59.7491542
21
84.5983703
0
LINE
8
DEFAULT_255_2_778
10
59.7491542
20
84.5983703
11
66.0100542
21
84.5983703
0
LINE
8
DEFAULT_255_2_778
10
66.0100542
20
84.5983703
11
66.0100542
21
87.4762703
0
LINE
8
DEFAULT_255_2_778
10
34.5547542
20
100.5532703
11
34.2518542
21
100.5532703
0
LINE
8
DEFAULT_255_2_778
10
3.6149542
20
23.2531703
11
3.6149542
21
23.5560703
0
LINE
8
DEFAULT_255_2_778
10
3.9811542
20
25.1054703
11
20.4175542
21
24.8186703
0
ARC
8
DEFAULT_255_2_778
10
3.5672418
20
86.1630833
40
0.5054449
50
90.0493979
51
169.0460297
0
LINE
8
DEFAULT_255_2_778
10
20.4176061
20
23.8087281
11
20.4176061
21
58.0408281
0
LINE
8
DEFAULT_255_2_778
10
3.8904061
20
85.6226281
11
20.4176061
21
85.9110281
0
LINE
8
DEFAULT_255_2_778
10
20.4176061
20
52.1840281
11
20.1570061
21
52.1840281
0
LINE
8
DEFAULT_255_2_778
10
20.1570061
20
52.1840281
11
20.1570061
21
50.5684281
0
LINE
8
DEFAULT_255_2_778
10
20.1570061
20
50.5684281
11
20.4176061
21
50.5684281
0
LINE
8
DEFAULT_255_2_778
10
3.5668061
20
86.6685281
11
3.6150061
21
86.6685281
0
LINE
8
DEFAULT_255_2_778
10
3.6150061
20
86.6685281
11
20.4176061
21
86.6685281
0
LINE
8
DEFAULT_255_2_778
10
20.4176061
20
86.6685281
11
20.4176061
21
58.0408281
0
LINE
8
DEFAULT_255_2_778
10
20.4176061
20
58.0408281
11
20.1570061
21
58.0408281
0
LINE
8
DEFAULT_255_2_778
10
20.1570061
20
58.0408281
11
20.1570061
21
59.6564281
0
LINE
8
DEFAULT_255_2_778
10
20.1570061
20
59.6564281
11
20.4176061
21
59.6564281
0
LINE
8
DEFAULT_255_2_778
10
3.6150061
20
86.6685281
11
3.6150061
21
86.9714281
0
LINE
8
DEFAULT_255_2_778
10
9.1080061
20
48.4907281
11
8.6743061
21
49.1863281
0
LINE
8
DEFAULT_255_2_778
10
8.6743061
20
49.1863281
11
8.3002061
21
49.8887281
0
LINE
8
DEFAULT_255_2_778
10
8.3002061
20
49.8887281
11
8.3002061
21
60.3361281
0
LINE
8
DEFAULT_255_2_778
10
8.3002061
20
60.3361281
11
8.6743061
21
61.0385281
0
LINE
8
DEFAULT_255_2_778
10
8.6743061
20
61.0385281
11
9.1080061
21
61.7341281
0
LINE
8
DEFAULT_255_2_778
10
1.3324061
20
49.7472281
11
1.3324061
21
61.4870281
0
ARC
8
DEFAULT_255_2_778
10
171.8105572
20
55.6173347
40
170.5789848
50
179.9999998
51
181.9720174
0
ARC
8
DEFAULT_255_2_778
10
172.6114444
20
55.6173353
40
171.379872
50
179.9707058
51
180
0
ARC
8
DEFAULT_255_2_778
10
171.81725
20
55.617298
40
170.5856776
50
178.0280221
51
179.9705569
0
LINE
8
DEFAULT_255_2_778
10
1.3325974
20
61.4872728
11
1.3325974
21
61.5695728
0
LINE
8
DEFAULT_255_2_778
10
1.3325974
20
61.5695728
11
1.3325974
21
61.6518728
0
LINE
8
DEFAULT_255_2_778
10
1.3325974
20
61.6518728
11
1.3325974
21
61.7343728
0
ARC
8
DEFAULT_255_2_778
10
171.8783684
20
55.6162421
40
170.6469688
50
182.3931443
51
190.2995552
0
LINE
8
DEFAULT_255_2_778
10
1.3006322
20
48.4954895
11
1.3022322
21
48.5536895
0
LINE
8
DEFAULT_255_2_778
10
1.3022322
20
48.5536895
11
1.3202322
21
49.2444895
0
LINE
8
DEFAULT_255_2_778
10
1.3202322
20
49.2444895
11
1.3323322
21
49.7474895
0
LINE
8
DEFAULT_255_2_778
10
1.3323322
20
49.7474895
11
1.7361322
21
49.7474895
0
LINE
8
DEFAULT_255_2_778
10
1.3802322
20
48.4906895
11
9.1079322
21
48.4906895
0
LINE
8
DEFAULT_255_2_778
10
9.1079322
20
48.4906895
11
9.1079322
21
61.7341895
0
LINE
8
DEFAULT_255_2_778
10
9.1079322
20
61.7341895
11
1.3323322
21
61.7341895
0
LINE
8
DEFAULT_255_2_778
10
81.0055322
20
100.1492895
11
81.0055322
21
100.5532895
0
LINE
8
DEFAULT_255_2_778
10
81.0055322
20
100.5532895
11
68.3325322
21
100.5532895
0
LINE
8
DEFAULT_255_2_778
10
61.0115322
20
100.5532895
11
61.0115322
21
101.1591895
0
LINE
8
DEFAULT_255_2_778
10
61.0115322
20
101.6639895
11
61.0115322
21
101.7650895
0
LINE
8
DEFAULT_255_2_778
10
61.0115322
20
101.7650895
11
55.7606322
21
101.7650895
0
LINE
8
DEFAULT_255_2_778
10
55.7606322
20
101.7650895
11
55.7606322
21
100.5532895
0
LINE
8
DEFAULT_255_2_778
10
55.7606322
20
100.5532895
11
34.5548322
21
100.5532895
0
LINE
8
DEFAULT_255_2_778
10
34.5548322
20
100.5532895
11
34.5548322
21
100.1492895
0
LINE
8
DEFAULT_255_2_778
10
65.3030322
20
100.5532895
11
68.3325322
21
100.5532895
0
ARC
8
DEFAULT_255_2_778
10
65.0821276
20
96.3511996
40
5.3125262
50
52.2775324
51
61.7355707
0
LINE
8
DEFAULT_255_2_778
10
67.597829
20
101.030321
11
68.332529
21
100.553321
0
ARC
8
DEFAULT_255_2_778
10
66.342559
20
98.5923471
40
2.7448597
50
71.7649698
51
80.6401383
0
ARC
8
DEFAULT_255_2_778
10
66.3105924
20
98.5649802
40
2.7809406
50
62.5561801
51
71.3158674
0
LINE
8
DEFAULT_255_2_778
10
66.7831686
20
101.3017626
11
66.7889686
21
101.3006626
0
LINE
8
DEFAULT_255_2_778
10
67.5922686
20
101.0329626
11
67.5978686
21
101.0300626
0
LINE
8
DEFAULT_255_2_778
10
67.5978686
20
101.0300626
11
67.5946686
21
101.0321626
0
LINE
8
DEFAULT_255_2_778
10
67.5946686
20
101.0321626
11
66.7868686
21
101.3014626
0
LINE
8
DEFAULT_255_2_778
10
66.7868686
20
101.3014626
11
66.7831686
21
101.3017626
0
ARC
8
DEFAULT_255_2_778
10
65.9886204
20
96.0621361
40
5.299496
50
81.3773737
51
90.8613764
0
LINE
8
DEFAULT_255_2_778
10
61.9862515
20
101.3610332
11
65.9089515
21
101.3610332
0
LINE
8
DEFAULT_255_2_778
10
65.9089515
20
101.3610332
11
66.7831515
21
101.3017332
0
ARC
8
DEFAULT_255_2_778
10
78.178394
20
111.1557238
40
0.5052404
50
90.0499072
51
179.9500814
0
LINE
8
DEFAULT_255_2_778
10
62.7008539
20
100.553264
11
65.3030539
21
100.553264
0
LINE
8
DEFAULT_255_2_778
10
65.3030539
20
100.553264
11
65.3030539
21
101.360964
0
LINE
8
DEFAULT_255_2_778
10
55.7605539
20
101.159164
11
61.0115539
21
101.159164
0
LINE
8
DEFAULT_255_2_778
10
61.0115539
20
101.159164
11
61.0115539
21
101.663964
0
LINE
8
DEFAULT_255_2_778
10
61.0115539
20
101.663964
11
61.7184539
21
101.663964
0
LINE
8
DEFAULT_255_2_778
10
61.7184539
20
101.663964
11
62.7011539
21
100.553264
0
LINE
8
DEFAULT_255_2_778
10
62.7011539
20
100.553264
11
55.7605539
21
100.553264
0
LINE
8
DEFAULT_255_2_778
10
34.5547539
20
97.384264
11
34.5547539
21
90.707564
0
LINE
8
DEFAULT_255_2_778
10
34.5547539
20
90.707564
11
55.7605539
21
89.829364
0
LINE
8
DEFAULT_255_2_778
10
55.7605539
20
89.829364
11
55.7605539
21
70.764064
0
LINE
8
DEFAULT_255_2_778
10
55.7605539
20
70.764064
11
55.4576539
21
70.764064
0
LINE
8
DEFAULT_255_2_778
10
2.9878539
20
24.924964
11
3.9810539
21
25.105464
0
LINE
8
DEFAULT_255_2_778
10
3.9810539
20
25.105464
11
3.9633539
21
24.095764
0
LINE
8
DEFAULT_255_2_778
10
77.6731539
20
111.659864
11
77.6731539
21
111.155864
0
LINE
8
DEFAULT_255_2_778
10
77.6731539
20
105.602264
11
78.1779539
21
105.602264
0
LINE
8
DEFAULT_255_2_778
10
78.1779539
20
105.602264
11
78.1779539
21
111.660964
0
LINE
8
DEFAULT_255_2_778
10
77.6731539
20
111.156164
11
77.6731539
21
105.602264
0
LINE
8
DEFAULT_255_2_778
10
77.6731539
20
105.602264
11
76.8653539
21
105.602264
0
LINE
8
DEFAULT_255_2_778
10
76.8653539
20
105.602264
11
72.6243539
21
101.360964
0
LINE
8
DEFAULT_255_2_778
10
72.6243539
20
101.360964
11
72.6243539
21
100.553264
0
LINE
8
DEFAULT_255_2_778
10
78.1779539
20
111.660964
11
81.0052539
21
111.660964
0
LINE
8
DEFAULT_255_2_778
10
81.0052539
20
111.660964
11
81.0052539
21
100.553264
0
LINE
8
DEFAULT_255_2_778
10
78.1782539
20
-0.174136
11
81.0055539
21
-0.174136
0
LINE
8
DEFAULT_255_2_778
10
81.0055539
20
-0.174136
11
81.0055539
21
10.075264
0
ARC
8
DEFAULT_255_2_778
10
78.1787821
20
0.331258
40
0.5053678
50
179.9963127
51
269.9356209
0
LINE
8
DEFAULT_255_2_778
10
81.0056143
20
1.5930906
11
78.1782143
21
1.5930906
0
LINE
8
DEFAULT_255_2_778
10
78.1782143
20
1.5930906
11
78.1782143
21
-0.1741094
0
LINE
8
DEFAULT_255_2_778
10
77.6734143
20
0.3312906
11
77.6734143
21
1.5930906
0
LINE
8
DEFAULT_255_2_778
10
77.6734143
20
1.5930906
11
78.1782143
21
1.5930906
0
LINE
8
DEFAULT_255_2_778
10
3.0278143
20
24.8030906
11
2.9220143
21
24.7840906
0
ARC
8
DEFAULT_255_2_778
10
171.9964677
20
55.1102745
40
171.7749478
50
179.9407004
51
179.9999996
0
ARC
8
DEFAULT_255_2_778
10
171.8683848
20
55.1110998
40
171.646865
50
180.0002751
51
190.1766335
0
LINE
8
DEFAULT_255_2_778
10
2.9219119
20
24.7839569
11
2.9227119
21
24.7792569
0
LINE
8
DEFAULT_255_2_778
10
3.6149119
20
23.2530569
11
3.4863119
21
23.2350569
0
LINE
8
DEFAULT_255_2_778
10
3.4863119
20
23.2350569
11
3.2146119
21
23.1967569
0
ARC
8
DEFAULT_255_2_778
10
3.8827982
20
85.6261131
40
1.0019775
50
145.2493696
51
170.0034006
0
ARC
8
DEFAULT_255_2_778
10
171.879538
20
55.6180626
40
171.6577326
50
169.8732394
51
173.5072494
0
ARC
8
DEFAULT_255_2_778
10
171.8801839
20
55.6180981
40
171.6583705
50
173.5072855
51
178.9618314
0
ARC
8
DEFAULT_255_2_778
10
171.8863798
20
55.617931
40
171.6645683
50
178.9618131
51
179.9712359
0
ARC
8
DEFAULT_255_2_778
10
172.0807677
20
55.6179471
40
171.8589561
50
179.9712738
51
180
0
ARC
8
DEFAULT_255_2_778
10
171.8831382
20
55.6179014
40
171.6613267
50
179.9999847
51
186.1102761
0
ARC
8
DEFAULT_255_2_778
10
171.8821693
20
55.6178988
40
171.660363
50
186.1103097
51
189.775535
0
ARC
8
DEFAULT_255_2_778
10
171.8995694
20
55.6208674
40
171.6780145
50
189.7755254
51
190.2998006
0
ARC
8
DEFAULT_255_2_778
10
3.981455
20
25.1053432
40
1.0096509
50
190.2866961
51
268.9999175
0
LINE
8
DEFAULT_255_2_778
10
3.2143327
20
23.1967461
11
3.2143327
21
23.1975461
0
LINE
8
DEFAULT_255_2_778
10
3.9638327
20
24.0958461
11
20.4177327
21
23.8087461
0
LINE
8
DEFAULT_255_2_778
10
3.0566327
20
86.1821461
11
3.0592327
21
86.1972461
0
LINE
8
DEFAULT_255_2_778
10
3.6151327
20
86.9713461
11
3.5148327
21
86.9854461
0
LINE
8
DEFAULT_255_2_778
10
3.5148327
20
86.9854461
11
3.4119327
21
86.9999461
0
LINE
8
DEFAULT_255_2_778
10
3.4119327
20
86.9999461
11
3.2148327
21
87.0277461
0
LINE
8
DEFAULT_255_2_778
10
3.2145327
20
87.0277461
11
4.2419327
21
92.0463461
0
LINE
8
DEFAULT_255_2_778
10
9.1727327
20
100.5532461
11
34.2517327
21
100.5532461
0
LINE
8
DEFAULT_255_2_778
10
34.2517327
20
100.5532461
11
34.2517327
21
100.1492461
0
ARC
8
DEFAULT_255_2_778
10
9.171146
20
98.3987025
40
2.1545545
50
90.0194604
51
97.2448452
0
ARC
8
DEFAULT_255_2_778
10
9.1709944
20
99.205613
40
1.347644
50
89.925966
51
90.0246667
0
LINE
8
DEFAULT_255_2_778
10
9.1727358
20
100.5532557
11
9.1727358
21
100.1492557
0
LINE
8
DEFAULT_255_2_778
10
9.1727358
20
100.1492557
11
34.2518358
21
100.1492557
0
LINE
8
DEFAULT_255_2_778
10
34.2518358
20
100.1492557
11
34.2518358
21
99.4422557
0
LINE
8
DEFAULT_255_2_778
10
34.2518358
20
99.4422557
11
34.5548358
21
99.4401557
0
LINE
8
DEFAULT_255_2_778
10
34.5548358
20
99.4401557
11
34.5548358
21
97.3840557
0
LINE
8
DEFAULT_255_2_778
10
34.5548358
20
97.3840557
11
34.2518358
21
97.3835557
0
LINE
8
DEFAULT_255_2_778
10
34.2518358
20
97.3835557
11
34.2518358
21
99.4419557
0
LINE
8
DEFAULT_255_2_778
10
5.2310358
20
14.4467557
11
6.0988358
21
11.0396557
0
LINE
8
DEFAULT_255_2_778
10
7.0569358
20
10.2890557
11
7.0569358
21
10.2890557
0
LINE
8
DEFAULT_255_2_778
10
1.3323358
20
61.7341557
11
1.4728358
21
61.5203557
0
LINE
8
DEFAULT_255_2_778
10
1.4728358
20
61.5203557
11
1.6075358
21
61.3054557
0
LINE
8
DEFAULT_255_2_778
10
1.6075358
20
61.3054557
11
1.7364358
21
61.0898557
0
LINE
8
DEFAULT_255_2_778
10
1.7364358
20
61.0898557
11
1.7364358
21
49.7474557
0
LINE
8
DEFAULT_255_2_778
10
1.7364358
20
49.7474557
11
1.7364358
21
49.1357557
0
LINE
8
DEFAULT_255_2_778
10
1.7364358
20
49.1357557
11
1.5993358
21
48.9182557
0
LINE
8
DEFAULT_255_2_778
10
1.5993358
20
48.9182557
11
1.4541358
21
48.7047557
0
LINE
8
DEFAULT_255_2_778
10
1.4541358
20
48.7047557
11
1.3006358
21
48.4954557
0
LINE
8
DEFAULT_255_2_778
10
1.3006358
20
48.4954557
11
1.3406358
21
48.4919557
0
LINE
8
DEFAULT_255_2_778
10
1.3406358
20
48.4919557
11
1.3802358
21
48.4909557
0
LINE
8
DEFAULT_255_2_778
10
61.9862358
20
8.8634557
11
61.7182358
21
8.5605557
0
LINE
8
DEFAULT_255_2_778
10
61.7182358
20
8.5605557
11
61.0112358
21
8.5605557
0
LINE
8
DEFAULT_255_2_778
10
61.0112358
20
8.5605557
11
61.0112358
21
9.0653557
0
LINE
8
DEFAULT_255_2_778
10
65.9089358
20
8.8634557
11
61.9862358
21
8.8634557
0
LINE
8
DEFAULT_255_2_778
10
61.9862358
20
8.8634557
11
62.7009358
21
9.6712557
0
LINE
8
DEFAULT_255_2_778
10
62.7009358
20
9.6712557
11
65.3030358
21
9.6712557
0
ARC
8
DEFAULT_255_2_778
10
65.1048673
20
13.8392552
40
5.2716391
50
298.1533441
51
307.7533617
0
ARC
8
DEFAULT_255_2_778
10
65.9898056
20
14.1381618
40
5.2752678
50
269.1212371
51
278.7159703
0
ARC
8
DEFAULT_255_2_778
10
66.3181081
20
11.6402126
40
2.7602434
50
288.6632418
51
297.4895577
0
ARC
8
DEFAULT_255_2_778
10
66.3337211
20
11.666498
40
2.7802471
50
279.429094
51
288.1850548
0
ARC
8
DEFAULT_255_2_778
10
3.2861396
20
10.6583271
40
3.7723011
50
357.4236782
51
357.7376467
0
ARC
8
DEFAULT_255_2_778
10
21.4029942
20
9.8561428
40
14.3623058
50
177.4754668
51
177.4949964
0
ARC
8
DEFAULT_255_2_778
10
8.2388047
20
10.4246896
40
1.1858695
50
177.1394461
51
179.6073369
0
ARC
8
DEFAULT_255_2_778
10
7.4015853
20
10.4295474
40
0.3486375
50
179.4627274
51
186.6598116
0
ARC
8
DEFAULT_255_2_778
10
7.3997215
20
10.4317029
40
0.3470442
50
187.0489576
51
188.801082
0
ARC
8
DEFAULT_255_2_778
10
10.9637055
20
10.9682119
40
3.9511813
50
188.5819182
51
188.6055372
0
ARC
8
DEFAULT_255_2_778
10
6.8710175
20
10.344507
40
0.188805
50
0.8942422
51
9.9076975
0
ARC
8
DEFAULT_255_2_778
10
6.9143163
20
10.3483011
40
0.1454856
50
346.5309126
51
359.6662223
0
ARC
8
DEFAULT_255_2_778
10
6.6060512
20
10.4199101
40
0.4619563
50
346.3141117
51
346.7990575
0
ARC
8
DEFAULT_255_2_778
10
9.2725299
20
9.7748628
40
2.2814354
50
166.4184119
51
166.4348485
0
ARC
8
DEFAULT_255_2_778
10
7.1203671
20
10.2913806
40
0.0682129
50
164.1808776
51
176.3308122
0
ARC
8
DEFAULT_255_2_778
10
7.0574989
20
10.2943806
40
0.0053808
50
165.3003677
51
265.7530581
0
LINE
8
DEFAULT_255_2_778
10
68.3325004
20
9.6712145
11
65.3030004
21
9.6712145
0
LINE
8
DEFAULT_255_2_778
10
65.3030004
20
9.6712145
11
65.3030004
21
8.8635145
0
LINE
8
DEFAULT_255_2_778
10
68.3325004
20
9.6712145
11
81.0055004
21
9.6712145
0
LINE
8
DEFAULT_255_2_778
10
68.3325004
20
9.6712145
11
67.5922004
21
9.1913145
0
LINE
8
DEFAULT_255_2_778
10
66.7892004
20
8.9238145
11
65.9089004
21
8.8635145
0
LINE
8
DEFAULT_255_2_778
10
66.7892004
20
8.9238145
11
67.5922004
21
9.1916145
0
LINE
8
DEFAULT_255_2_778
10
7.6228004
20
10.2793145
11
7.6297004
21
10.2793145
0
LINE
8
DEFAULT_255_2_778
10
7.0590004
20
10.8523145
11
7.0568004
21
10.6693145
0
LINE
8
DEFAULT_255_2_778
10
7.0568004
20
10.6693145
11
7.0555004
21
10.5094145
0
LINE
8
DEFAULT_255_2_778
10
7.0571004
20
10.2890145
11
7.6230004
21
10.2793145
0
LINE
8
DEFAULT_255_2_778
10
7.0590004
20
10.8584145
11
7.0590004
21
10.8526145
0
LINE
8
DEFAULT_255_2_778
10
7.0590004
20
10.8526145
11
6.8830004
21
11.0770145
0
LINE
8
DEFAULT_255_2_778
10
6.8830004
20
11.0770145
11
6.7777004
21
11.2225145
0
ARC
8
DEFAULT_255_2_778
10
5.6491741
20
14.2811973
40
3.24837
50
282.4974793
51
283.0275638
0
ARC
8
DEFAULT_255_2_778
10
0.9114948
20
35.5046482
40
24.9941818
50
282.5636012
51
282.5725282
0
ARC
8
DEFAULT_255_2_778
10
6.484417
20
10.393137
40
0.7286363
50
100.7659334
51
110.6110321
0
ARC
8
DEFAULT_255_2_778
10
6.4245181
20
10.6232787
40
0.492772
50
113.5132766
51
115.2337505
0
LINE
8
DEFAULT_255_2_778
10
6.2144433
20
11.0690286
11
6.214131
21
11.0688832
0
ARC
8
DEFAULT_255_2_778
10
6.1338582
20
11.2204768
40
0.1715352
50
269.8674869
51
297.9024182
0
ARC
8
DEFAULT_255_2_778
10
6.1316275
20
11.282508
40
0.2335733
50
269.9983947
51
270.4498632
0
ARC
8
DEFAULT_255_2_778
10
6.1325916
20
11.5697851
40
0.5208513
50
269.2662937
51
269.8932295
0
ARC
8
DEFAULT_255_2_778
10
6.1192687
20
10.5328748
40
0.5161445
50
89.2684012
51
89.8943491
0
ARC
8
DEFAULT_255_2_778
10
6.1139598
20
11.0316759
40
0.0184378
50
70.1502727
51
146.8131981
0
ARC
8
DEFAULT_255_2_778
10
6.1063937
20
11.0418583
40
0.0078647
50
180.656485
51
195.664978
0
ARC
8
DEFAULT_255_2_778
10
7.074786
20
11.2989934
40
1.0098132
50
194.8766673
51
268.9976567
0
ARC
8
DEFAULT_255_2_778
10
172.7387536
20
55.2891185
40
172.1312354
50
190.7260036
51
192.4208676
0
LINE
8
DEFAULT_255_2_778
10
6.778021
20
11.2225347
11
6.581621
21
11.1698347
0
LINE
8
DEFAULT_255_2_778
10
6.581621
20
11.1698347
11
6.381421
21
11.1164347
0
LINE
8
DEFAULT_255_2_778
10
6.781421
20
11.2235347
11
6.778021
21
11.2227347
0
LINE
8
DEFAULT_255_2_778
10
6.778021
20
11.2227347
11
6.631421
21
11.4400347
0
LINE
8
DEFAULT_255_2_778
10
6.631421
20
11.4400347
11
6.384021
21
11.8466347
0
LINE
8
DEFAULT_255_2_778
10
6.384021
20
11.8466347
11
6.137721
21
12.3046347
0
LINE
8
DEFAULT_255_2_778
10
6.137721
20
12.3046347
11
5.891121
21
12.8206347
0
LINE
8
DEFAULT_255_2_778
10
5.891121
20
12.8206347
11
5.645821
21
13.3950347
0
LINE
8
DEFAULT_255_2_778
10
5.645821
20
13.3950347
11
5.404521
21
14.0249347
0
LINE
8
DEFAULT_255_2_778
10
5.404521
20
14.0249347
11
5.166921
21
14.7142347
0
LINE
8
DEFAULT_255_2_778
10
5.166921
20
14.7142347
11
4.931721
21
15.4696347
0
LINE
8
DEFAULT_255_2_778
10
4.931721
20
15.4696347
11
4.698921
21
16.2959347
0
LINE
8
DEFAULT_255_2_778
10
4.698921
20
16.2959347
11
4.469221
21
17.1962347
0
LINE
8
DEFAULT_255_2_778
10
4.469221
20
17.1962347
11
4.460821
21
17.2312347
0
LINE
8
DEFAULT_255_2_778
10
4.460821
20
17.2312347
11
4.241921
21
18.1784347
0
LINE
8
DEFAULT_255_2_778
10
3.214321
20
23.1975347
11
4.241921
21
18.1781347
0
LINE
8
DEFAULT_255_2_778
10
4.241921
20
18.1781347
11
4.636421
21
18.2652347
0
LINE
8
DEFAULT_255_2_778
10
3.614921
20
23.2533347
11
20.720521
21
23.2533347
0
LINE
8
DEFAULT_255_2_778
10
20.720521
20
23.2533347
11
20.417521
21
23.5563347
0
LINE
8
DEFAULT_255_2_778
10
9.172721
20
9.6712347
11
8.994121
21
9.6786347
0
LINE
8
DEFAULT_255_2_778
10
8.994121
20
9.6786347
11
8.961321
21
9.6815347
0
ARC
8
DEFAULT_255_2_778
10
9.1666463
20
11.7444994
40
2.0732567
50
269.9963725
51
270.1707281
0
ARC
8
DEFAULT_255_2_778
10
9.1665863
20
11.721672
40
2.0504293
50
264.5382551
51
269.9980094
0
ARC
8
DEFAULT_255_2_778
10
9.1828941
20
11.8634837
40
2.1935502
50
251.0795438
51
257.876995
0
ARC
8
DEFAULT_255_2_778
10
9.2346305
20
12.0114234
40
2.3502725
50
244.1595246
51
251.055877
0
ARC
8
DEFAULT_255_2_778
10
9.3894973
20
12.323071
40
2.6982627
50
237.588135
51
244.0842487
0
ARC
8
DEFAULT_255_2_778
10
9.6341719
20
12.6935768
40
3.142206
50
231.4212404
51
237.4428686
0
LINE
8
DEFAULT_255_2_778
10
8.9714241
20
9.6805519
11
8.9272241
21
9.6850519
0
LINE
8
DEFAULT_255_2_778
10
8.9272241
20
9.6852519
11
8.7222241
21
9.7188519
0
LINE
8
DEFAULT_255_2_778
10
7.6747241
20
10.2371519
11
7.6231241
21
10.2792519
0
LINE
8
DEFAULT_255_2_778
10
7.6231241
20
10.2792519
11
7.4075241
21
10.4729519
0
LINE
8
DEFAULT_255_2_778
10
7.4075241
20
10.4729519
11
7.1429241
21
10.7533519
0
LINE
8
DEFAULT_255_2_778
10
7.1429241
20
10.7533519
11
7.0590241
21
10.8523519
0
ARC
8
DEFAULT_255_2_778
10
9.1727652
20
11.8498037
40
1.7741749
50
267.7302001
51
269.9981136
0
ARC
8
DEFAULT_255_2_778
10
9.1723119
20
11.8426422
40
1.7670011
50
264.3160652
51
267.7356905
0
ARC
8
DEFAULT_255_2_778
10
9.1693577
20
11.8023167
40
1.7265816
50
257.8787072
51
264.2810815
0
ARC
8
DEFAULT_255_2_778
10
9.1838049
20
11.8651143
40
1.791013
50
251.0540798
51
257.8486768
0
ARC
8
DEFAULT_255_2_778
10
9.2495721
20
12.0504973
40
1.9877068
50
244.2463059
51
250.9959981
0
ARC
8
DEFAULT_255_2_778
10
9.368865
20
12.2888541
40
2.2542243
50
237.5583143
51
244.1477692
0
ARC
8
DEFAULT_255_2_778
10
9.609486
20
12.6563638
40
2.6934651
50
231.3297059
51
237.4323422
0
ARC
8
DEFAULT_255_2_778
10
9.9810514
20
13.1218423
40
3.2890579
50
225.81632
51
231.3427242
0
ARC
8
DEFAULT_255_2_778
10
9.1745789
20
98.4245533
40
1.7246765
50
90.0621924
51
92.2453873
0
ARC
8
DEFAULT_255_2_778
10
9.1788524
20
98.3624308
40
1.7869196
50
92.3042668
51
108.768934
0
ARC
8
DEFAULT_255_2_778
10
9.3198771
20
98.011864
40
2.1643188
50
109.3177225
51
126.2069326
0
ARC
8
DEFAULT_255_2_778
10
10.0343985
20
97.0261073
40
3.38179
50
126.1095063
51
138.5660292
0
ARC
8
DEFAULT_255_2_778
10
11.6302376
20
95.5935382
40
5.5262618
50
138.3797477
51
147.0003379
0
ARC
8
DEFAULT_255_2_778
10
14.3017406
20
93.8352431
40
8.7244309
50
146.8713269
51
152.9610984
0
ARC
8
DEFAULT_255_2_778
10
11.6263954
20
95.5961454
40
5.9257739
50
138.3520548
51
146.9772209
0
ARC
8
DEFAULT_255_2_778
10
10.0511733
20
97.0082761
40
3.8102768
50
126.1105224
51
138.4781728
0
ARC
8
DEFAULT_255_2_778
10
9.3225923
20
98.004754
40
2.5758555
50
109.2676733
51
126.0807556
0
ARC
8
DEFAULT_255_2_778
10
9.1776365
20
98.3651265
40
2.187909
50
90.1421897
51
108.798386
0
ARC
8
DEFAULT_255_2_778
10
3.8889083
20
85.6245917
40
1.0077739
50
90.9438995
51
112.6812326
0
ARC
8
DEFAULT_255_2_778
10
173.1362848
20
55.4205831
40
171.9196459
50
169.8820377
51
177.895407
0
LINE
8
DEFAULT_255_2_778
10
8.9050068
20
9.6882288
11
8.9272068
21
9.6856288
0
LINE
8
DEFAULT_255_2_778
10
8.9272068
20
9.6856288
11
8.9613068
21
9.6819288
0
LINE
8
DEFAULT_255_2_778
10
8.9613068
20
9.6819288
11
9.1727068
21
9.6715288
0
LINE
8
DEFAULT_255_2_778
10
9.1727068
20
9.6715288
11
9.1727068
21
10.0756288
0
LINE
8
DEFAULT_255_2_778
10
7.6887068
20
10.7632288
11
7.4479068
21
11.0185288
0
LINE
8
DEFAULT_255_2_778
10
7.4479068
20
11.0185288
11
7.2071068
21
11.3186288
0
LINE
8
DEFAULT_255_2_778
10
7.2071068
20
11.3186288
11
6.9703068
21
11.6599288
0
LINE
8
DEFAULT_255_2_778
10
6.9703068
20
11.6599288
11
6.7349068
21
12.0470288
0
LINE
8
DEFAULT_255_2_778
10
6.7349068
20
12.0470288
11
6.4981068
21
12.4872288
0
LINE
8
DEFAULT_255_2_778
10
6.4981068
20
12.4872288
11
6.2594068
21
12.9868288
0
LINE
8
DEFAULT_255_2_778
10
6.2594068
20
12.9868288
11
6.0205068
21
13.5464288
0
LINE
8
DEFAULT_255_2_778
10
6.0205068
20
13.5464288
11
5.7845068
21
14.1628288
0
LINE
8
DEFAULT_255_2_778
10
5.7845068
20
14.1628288
11
5.5511068
21
14.8399288
0
LINE
8
DEFAULT_255_2_778
10
5.5511068
20
14.8399288
11
5.3193068
21
15.5844288
0
LINE
8
DEFAULT_255_2_778
10
5.3193068
20
15.5844288
11
5.0894068
21
16.4007288
0
LINE
8
DEFAULT_255_2_778
10
5.0894068
20
16.4007288
11
4.8619068
21
17.2918288
0
LINE
8
DEFAULT_255_2_778
10
4.8619068
20
17.2918288
11
4.6367068
21
18.2652288
0
LINE
8
DEFAULT_255_2_778
10
6.5309068
20
97.8013288
11
6.1004068
21
96.8724288
0
LINE
8
DEFAULT_255_2_778
10
6.1004068
20
96.8724288
11
5.6993068
21
95.8228288
0
LINE
8
DEFAULT_255_2_778
10
5.6993068
20
95.8228288
11
5.3244068
21
94.6576288
0
LINE
8
DEFAULT_255_2_778
10
5.3244068
20
94.6576288
11
4.9711068
21
93.3727288
0
LINE
8
DEFAULT_255_2_778
10
4.9711068
20
93.3727288
11
4.6365068
21
91.9593288
0
LINE
8
DEFAULT_255_2_778
10
4.6365068
20
91.9593288
11
4.2420068
21
92.0461288
0
LINE
8
DEFAULT_255_2_778
10
4.2420068
20
92.0461288
11
4.5796068
21
93.4725288
0
LINE
8
DEFAULT_255_2_778
10
4.5796068
20
93.4725288
11
4.9367068
21
94.7726288
0
LINE
8
DEFAULT_255_2_778
10
4.9367068
20
94.7726288
11
5.3177068
21
95.9561288
0
LINE
8
DEFAULT_255_2_778
10
5.3177068
20
95.9561288
11
5.7276068
21
97.0285288
0
LINE
8
DEFAULT_255_2_778
10
5.7276068
20
97.0285288
11
6.1716068
21
97.9863288
0
LINE
8
DEFAULT_255_2_778
10
6.1716068
20
97.9863288
11
6.6579068
21
98.8255288
0
LINE
8
DEFAULT_255_2_778
10
34.2518068
20
10.0753288
11
9.1727068
21
10.0753288
0
LINE
8
DEFAULT_255_2_778
10
3.8723068
20
86.6322288
11
3.8903068
21
85.6226288
0
LINE
8
DEFAULT_255_2_778
10
3.4926646
20
86.5406462
11
3.5003646
21
86.5541462
0
ARC
8
DEFAULT_255_2_778
10
3.5133718
20
86.9715018
40
0.3039466
50
169.3240487
51
175.3377728
0
ARC
8
DEFAULT_255_2_778
10
3.5131566
20
86.9715217
40
0.3037304
50
175.338216
51
179.9998414
0
ARC
8
DEFAULT_255_2_778
10
3.5120309
20
86.9713372
40
0.3026047
50
179.9649071
51
219.6345523
0
ARC
8
DEFAULT_255_2_778
10
3.5126028
20
86.9719361
40
0.3034272
50
219.6527559
51
269.9402435
0
LINE
8
DEFAULT_255_2_778
10
3.0709864
20
86.2592091
11
3.2146864
21
87.0278091
0
LINE
8
DEFAULT_255_2_778
10
3.5122864
20
86.6685091
11
3.5667864
21
86.6685091
0
ARC
8
DEFAULT_255_2_778
10
3.0891032
20
86.2390356
40
0.0271658
50
82.0007869
51
132.048602
0
LINE
8
DEFAULT_255_2_778
10
3.0928836
20
86.265937
11
3.0934941
21
86.2659758
0
ARC
8
DEFAULT_255_2_778
10
3.0861269
20
86.4090218
40
0.1432356
50
272.9482676
51
276.8491809
0
LINE
8
DEFAULT_255_2_778
10
3.0701086
20
86.2552083
11
3.0709086
21
86.2592083
0
LINE
8
DEFAULT_255_2_778
10
3.1032086
20
86.2668083
11
3.1151086
21
86.2700083
0
ARC
8
DEFAULT_255_2_778
10
3.8903846
20
85.6219491
40
1.0104361
50
112.705095
51
140.1305021
0
ARC
8
DEFAULT_255_2_778
10
3.637493
20
86.57694
40
0.1078582
50
144.9103038
51
147.0656083
0
ARC
8
DEFAULT_255_2_778
10
-1.8823226
20
90.4211224
40
6.6186649
50
325.1491994
51
325.1628153
0
ARC
8
DEFAULT_255_2_778
10
3.5098043
20
86.6703304
40
0.0503235
50
323.2691999
51
339.5892767
0
ARC
8
DEFAULT_255_2_778
10
3.4939297
20
86.675575
40
0.0670334
50
340.1199583
51
342.4418753
0
ARC
8
DEFAULT_255_2_778
10
3.2019831
20
86.7677988
40
0.3732001
50
342.4641692
51
342.9144759
0
ARC
8
DEFAULT_255_2_778
10
3.5698173
20
86.6579188
40
0.011107
50
104.3298871
51
178.7912416
0
ARC
8
DEFAULT_255_2_778
10
3.915792
20
24.9619764
40
1.0094265
50
235.5703472
51
269.0790934
0
ARC
8
DEFAULT_255_2_778
10
3.5137633
20
23.2530328
40
0.3045053
50
184.6313675
51
190.5116559
0
ARC
8
DEFAULT_255_2_778
10
3.513383
20
23.2530018
40
0.3041237
50
179.9995295
51
184.6313404
0
ARC
8
DEFAULT_255_2_778
10
3.5125486
20
23.2531464
40
0.3032893
50
140.3975793
51
180.0268358
0
ARC
8
DEFAULT_255_2_778
10
3.5126526
20
23.2524961
40
0.3037844
50
90.0724863
51
140.3155841
0
LINE
8
DEFAULT_255_2_778
10
3.1151683
20
86.2699802
11
3.0595683
21
86.1971802
0
LINE
8
DEFAULT_255_2_778
10
3.0595683
20
86.1971802
11
3.0709683
21
86.2590802
0
LINE
8
DEFAULT_255_2_778
10
3.1225683
20
86.2728802
11
3.1148683
21
86.2696802
0
LINE
8
DEFAULT_255_2_778
10
3.5003683
20
86.5540802
11
3.5167683
21
86.5829802
0
LINE
8
DEFAULT_255_2_778
10
3.5167683
20
86.5829802
11
3.5334683
21
86.6122802
0
LINE
8
DEFAULT_255_2_778
10
3.5334683
20
86.6122802
11
3.5469683
21
86.6355802
0
LINE
8
DEFAULT_255_2_778
10
3.9070683
20
23.9526802
11
14.6332683
21
23.8589802
0
LINE
8
DEFAULT_255_2_778
10
14.6332683
20
23.8589802
11
3.3950683
21
23.8589802
0
LINE
8
DEFAULT_255_2_778
10
3.3950683
20
23.8589802
11
3.3450683
21
24.1293802
0
LINE
8
DEFAULT_255_2_778
10
3.8995683
20
23.9526802
11
3.9070683
21
23.9526802
0
LINE
8
DEFAULT_255_2_778
10
3.9070683
20
23.9526802
11
3.9070683
21
23.9526802
0
LINE
8
DEFAULT_255_2_778
10
3.0709683
20
23.9653802
11
3.2143683
21
23.1974802
0
LINE
8
DEFAULT_255_2_778
10
3.5122683
20
23.5562802
11
3.5577683
21
23.5562802
0
ARC
8
DEFAULT_255_2_778
10
3.089429
20
23.9866069
40
0.0281794
50
228.9227145
51
277.0506408
0
ARC
8
DEFAULT_255_2_778
10
3.1805749
20
25.2130427
40
1.2574632
50
266.0013352
51
266.0624364
0
ARC
8
DEFAULT_255_2_778
10
3.0844361
20
23.7942523
40
0.1645869
50
83.4491359
51
86.5900302
0
LINE
8
DEFAULT_255_2_778
10
3.070113
20
23.9693646
11
3.070913
21
23.9653646
0
LINE
8
DEFAULT_255_2_778
10
3.103213
20
23.9577646
11
3.127813
21
23.9492646
0
LINE
8
DEFAULT_255_2_778
10
3.127813
20
23.9492646
11
3.159313
21
23.9386646
0
LINE
8
DEFAULT_255_2_778
10
3.159313
20
23.9386646
11
3.197113
21
23.9259646
0
LINE
8
DEFAULT_255_2_778
10
3.197113
20
23.9259646
11
3.240813
21
23.9111646
0
LINE
8
DEFAULT_255_2_778
10
3.240813
20
23.9111646
11
3.289213
21
23.8947646
0
LINE
8
DEFAULT_255_2_778
10
3.289213
20
23.8947646
11
3.395313
21
23.8590646
0
ARC
8
DEFAULT_255_2_778
10
3.9144896
20
24.9612351
40
1.0082912
50
190.3995094
51
235.6153616
0
LINE
8
DEFAULT_255_2_778
10
2.9227614
20
24.7792277
11
3.0709614
21
23.9653277
0
ARC
8
DEFAULT_255_2_778
10
3.8433982
20
23.8172387
40
0.3717166
50
213.5811631
51
214.1586387
0
ARC
8
DEFAULT_255_2_778
10
7.6347768
20
26.3818947
40
4.9490531
50
214.0823531
51
214.0942722
0
ARC
8
DEFAULT_255_2_778
10
3.4603843
20
23.5526456
40
0.0938297
50
22.4226984
51
35.9056578
0
ARC
8
DEFAULT_255_2_778
10
3.4214445
20
23.5424557
40
0.1338225
50
15.6290513
51
20.0957142
0
LINE
8
DEFAULT_255_2_778
10
3.5503191
20
23.5785085
11
3.550381
21
23.5782983
0
ARC
8
DEFAULT_255_2_778
10
3.5740735
20
23.5783581
40
0.0236926
50
180.1445349
51
251.9181419
0
ARC
8
DEFAULT_255_2_778
10
3.5671181
20
24.0611506
40
0.5054023
50
190.9514525
51
268.9345003
0
LINE
8
DEFAULT_255_2_778
10
3.3950199
20
23.8590357
11
3.4225199
21
23.8093357
0
LINE
8
DEFAULT_255_2_778
10
3.4225199
20
23.8093357
11
3.4493199
21
23.7614357
0
LINE
8
DEFAULT_255_2_778
10
3.4493199
20
23.7614357
11
3.4744199
21
23.7167357
0
LINE
8
DEFAULT_255_2_778
10
3.4744199
20
23.7167357
11
3.4971199
21
23.6762357
0
LINE
8
DEFAULT_255_2_778
10
3.4971199
20
23.6762357
11
3.5170199
21
23.6410357
0
LINE
8
DEFAULT_255_2_778
10
3.5170199
20
23.6410357
11
3.5337199
21
23.6116357
0
LINE
8
DEFAULT_255_2_778
10
3.5667199
20
23.5558357
11
3.5577199
21
23.5558357
0
LINE
8
DEFAULT_255_2_778
10
20.7205199
20
86.9714357
11
3.6149199
21
86.9714357
0
LINE
8
DEFAULT_255_2_778
10
3.6149199
20
86.9714357
11
4.6364199
21
91.9596357
0
LINE
8
DEFAULT_255_2_778
10
20.7205199
20
23.2531357
11
20.7205199
21
86.9714357
0
LINE
8
DEFAULT_255_2_778
10
20.7205199
20
86.9714357
11
20.4175199
21
86.6685357
0
LINE
8
DEFAULT_255_2_778
10
14.6332087
20
23.8590491
11
20.4175087
21
23.8085491
0
LINE
8
DEFAULT_255_2_778
10
20.4175087
20
23.8085491
11
20.4175087
21
23.5561491
0
LINE
8
DEFAULT_255_2_778
10
20.4175087
20
23.5561491
11
3.5654087
21
23.5561491
0
LINE
8
DEFAULT_255_2_778
10
74.4420087
20
27.6457491
11
74.4420087
21
21.9908491
0
LINE
8
DEFAULT_255_2_778
10
74.4420087
20
21.9908491
11
69.0395087
21
21.9908491
0
LINE
8
DEFAULT_255_2_778
10
69.0395087
20
21.9908491
11
69.0395087
21
27.6457491
0
LINE
8
DEFAULT_255_2_778
10
69.0395087
20
27.6457491
11
74.4420087
21
27.6457491
0
LINE
8
DEFAULT_255_2_778
10
74.4420087
20
84.5984491
11
69.0395087
21
84.5984491
0
LINE
8
DEFAULT_255_2_778
10
69.0395087
20
84.5984491
11
69.0395087
21
90.2533491
0
LINE
8
DEFAULT_255_2_778
10
69.0395087
20
90.2533491
11
74.4420087
21
90.2533491
0
LINE
8
DEFAULT_255_2_778
10
74.4420087
20
90.2533491
11
74.4420087
21
84.5984491
0
ENDSEC
0
EOF