0
SECTION
2
HEADER
9
$MEASUREMENT
70
1
0
ENDSEC
0
SECTION
2
TABLES
0
TABLE
2
LTYPE
0
LTYPE
72
65
70
64
2
CONTINUOUS
3
______
73
0
40
0
0
ENDTAB
0
TABLE
2
LAYER
0
LAYER
2
DEFAULT_255_2_778
70
0
62
255
6
CONTINUOUS
0
LAYER
2
DEFAULT_255_1_388
70
0
62
255
6
CONTINUOUS
0
ENDTAB
0
ENDSEC
0
SECTION
2
ENTITIES
0
ARC
8
DEFAULT_255_2_778
10
3.5700693
20
123.4302024
40
0.7914215
50
129.1312896
51
180.1450914
0
ARC
8
DEFAULT_255_2_778
10
3.5703345
20
123.4306895
40
0.7912112
50
89.854026
51
129.1684493
0
ARC
8
DEFAULT_255_2_778
10
25.7993937
20
123.430376
40
0.7915249
50
39.4792447
51
90.147911
0
ARC
8
DEFAULT_255_2_778
10
25.7999935
20
123.4302227
40
0.7911595
50
359.8533901
51
39.5154338
0
ARC
8
DEFAULT_255_2_778
10
25.7996693
20
-1.9863499
40
0.7914836
50
309.4761667
51
0.1482649
0
ARC
8
DEFAULT_255_2_778
10
25.799398
20
-1.986781
40
0.7913235
50
269.8517415
51
309.511178
0
ARC
8
DEFAULT_255_2_778
10
3.570342
20
-1.9867228
40
0.7913815
50
219.1282118
51
270.1454017
0
ARC
8
DEFAULT_255_2_778
10
3.5700247
20
-1.9863403
40
0.7913769
50
179.8524075
51
219.1641908
0
LINE
8
DEFAULT_255_2_778
10
3.5723503
20
124.2218982
11
25.7973503
21
124.2218982
0
LINE
8
DEFAULT_255_2_778
10
26.5911503
20
123.4281982
11
26.5911503
21
-1.9843018
0
LINE
8
DEFAULT_255_2_778
10
25.7973503
20
-2.7781018
11
3.5723503
21
-2.7781018
0
LINE
8
DEFAULT_255_2_778
10
2.7786503
20
-1.9843018
11
2.7786503
21
123.4281982
0
LINE
8
DEFAULT_255_1_388
10
7.3704318
20
-0.5033618
11
7.3704318
21
-0.6398
0
LINE
8
DEFAULT_255_1_388
10
7.3704318
20
-0.6398
11
6.5084313
21
-0.6398
0
LINE
8
DEFAULT_255_1_388
10
6.5084313
20
-0.6398
11
6.5084313
21
-0.5196259
0
LINE
8
DEFAULT_255_1_388
10
6.5084313
20
-0.5196259
11
6.9638278
21
-0.0136298
0
LINE
8
DEFAULT_255_1_388
10
6.6502909
20
0.2881607
11
6.4831315
21
0.2881607
0
LINE
8
DEFAULT_255_1_388
10
7.0623163
20
-0.121154
11
6.7099262
21
-0.5033618
0
LINE
8
DEFAULT_255_1_388
10
6.7099262
20
-0.5033618
11
7.3704318
21
-0.5033618
0
ARC
8
DEFAULT_255_1_388
10
5.4462337
20
1.3283983
40
2.0258655
50
318.5132526
51
320.7829045
0
ARC
8
DEFAULT_255_1_388
10
6.0410294
20
0.8442929
40
1.2589638
50
320.7372878
51
323.9739031
0
ARC
8
DEFAULT_255_1_388
10
6.4819226
20
0.5248554
40
0.7145141
50
323.8962701
51
328.64194
0
ARC
8
DEFAULT_255_1_388
10
6.7121484
20
0.3828545
40
0.4440242
50
328.8294576
51
331.7891185
0
ARC
8
DEFAULT_255_1_388
10
6.8243804
20
0.3249374
40
0.3177517
50
331.4254512
51
352.9365785
0
ARC
8
DEFAULT_255_1_388
10
6.8396804
20
0.321505
40
0.3021496
50
353.2257659
51
0.0166158
0
ARC
8
DEFAULT_255_1_388
10
6.8633564
20
0.3240894
40
0.2784847
50
359.486299
51
15.9343185
0
ARC
8
DEFAULT_255_1_388
10
6.9203831
20
0.3394269
40
0.2194403
50
16.1712913
51
43.5286088
0
ARC
8
DEFAULT_255_1_388
10
6.9290776
20
0.3481191
40
0.2071504
50
43.4417391
51
83.1661095
0
ARC
8
DEFAULT_255_1_388
10
6.9139937
20
0.2652316
40
0.2912888
50
82.160179
51
90.1505708
0
ARC
8
DEFAULT_255_1_388
10
6.9104418
20
0.2048279
40
0.3517025
50
89.5460741
51
102.5418361
0
ARC
8
DEFAULT_255_1_388
10
6.8831138
20
0.3207933
40
0.2325748
50
102.1738499
51
129.206123
0
ARC
8
DEFAULT_255_1_388
10
6.8742592
20
0.3347664
40
0.2161591
50
129.72865
51
135.753947
0
ARC
8
DEFAULT_255_1_388
10
6.8879074
20
0.3238728
40
0.2335433
50
136.1757367
51
166.3673339
0
ARC
8
DEFAULT_255_1_388
10
7.0011762
20
0.2935148
40
0.3507873
50
165.9090694
51
178.8684636
0
ARC
8
DEFAULT_255_1_388
10
7.0987534
20
0.2882263
40
0.4484624
50
178.4391136
51
180.0083808
0
ARC
8
DEFAULT_255_1_388
10
6.9408235
20
0.2926197
40
0.4577138
50
163.2878482
51
180.5581842
0
ARC
8
DEFAULT_255_1_388
10
6.8506276
20
0.3174393
40
0.3641968
50
133.4540601
51
162.947111
0
ARC
8
DEFAULT_255_1_388
10
6.8707158
20
0.2960789
40
0.3935189
50
100.7869829
51
133.4382499
0
ARC
8
DEFAULT_255_1_388
10
6.9098403
20
0.1218399
40
0.5720313
50
89.660664
51
101.3702276
0
ARC
8
DEFAULT_255_1_388
10
6.9173012
20
0.1287263
40
0.5651495
50
78.2172678
51
90.412935
0
ARC
8
DEFAULT_255_1_388
10
6.9572478
20
0.3114511
40
0.378122
50
55.9269121
51
78.4888449
0
ARC
8
DEFAULT_255_1_388
10
6.9793193
20
0.3495187
40
0.3342379
50
47.929771
51
55.4049217
0
ARC
8
DEFAULT_255_1_388
10
6.9907723
20
0.3611618
40
0.3179217
50
4.334829
51
48.0560205
0
ARC
8
DEFAULT_255_1_388
10
6.8675525
20
0.3420487
40
0.442341
50
359.9251713
51
5.5971671
0
ARC
8
DEFAULT_255_1_388
10
6.915768
20
0.3483728
40
0.3941854
50
337.8914027
51
358.9967534
0
ARC
8
DEFAULT_255_1_388
10
6.610525
20
0.4661295
40
0.7213271
50
326.9132501
51
338.3508308
0
ARC
8
DEFAULT_255_1_388
10
6.1621362
20
0.7535105
40
1.2538973
50
319.6471833
51
327.0959558
0
ARC
8
DEFAULT_255_1_388
10
5.730802
20
1.109305
40
1.8129975
50
317.2588228
51
319.9045804
0
LINE
8
DEFAULT_255_1_388
10
8.3724848
20
0.138169
11
8.3724848
21
-0.0786865
0
LINE
8
DEFAULT_255_1_388
10
7.542109
20
-0.1012756
11
7.542109
21
0.1219048
0
LINE
8
DEFAULT_255_1_388
10
8.2053253
20
-0.1238647
11
8.2053253
21
0.1499153
0
LINE
8
DEFAULT_255_1_388
10
7.7092685
20
0.1625652
11
7.7092685
21
-0.1048898
0
ARC
8
DEFAULT_255_1_388
10
6.9947182
20
-0.0841882
40
1.3777776
50
353.8440855
51
0.2287917
0
ARC
8
DEFAULT_255_1_388
10
7.5166199
20
-0.1424586
40
0.852639
50
344.4934746
51
353.9763743
0
ARC
8
DEFAULT_255_1_388
10
7.8533006
20
-0.2381809
40
0.5026273
50
329.2803599
51
344.7473406
0
ARC
8
DEFAULT_255_1_388
10
7.9648502
20
-0.2993962
40
0.3754848
50
324.9361395
51
328.6153007
0
ARC
8
DEFAULT_255_1_388
10
8.0074152
20
-0.3291414
40
0.3235566
50
280.5801797
51
324.9173226
0
ARC
8
DEFAULT_255_1_388
10
7.962278
20
-0.1411764
40
0.5167077
50
269.5979457
51
281.6732777
0
ARC
8
DEFAULT_255_1_388
10
7.9541684
20
-0.1546887
40
0.5032026
50
256.6228565
51
270.5105488
0
ARC
8
DEFAULT_255_1_388
10
7.9089427
20
-0.3288655
40
0.3233092
50
215.8618351
51
257.2787793
0
ARC
8
DEFAULT_255_1_388
10
8.0238134
20
-0.2517894
40
0.4615831
50
197.9695203
51
215.2622745
0
ARC
8
DEFAULT_255_1_388
10
8.3033809
20
-0.1574359
40
0.7566307
50
187.8816486
51
198.2346584
0
ARC
8
DEFAULT_255_1_388
10
8.7487048
20
-0.0931547
40
1.2065653
50
180.8977266
51
188.0054894
0
ARC
8
DEFAULT_255_1_388
10
9.0537261
20
-0.08166
40
1.5117443
50
180.7434591
51
181.152202
0
ARC
8
DEFAULT_255_1_388
10
8.8862257
20
0.1273371
40
1.3441277
50
173.7674302
51
180.2315596
0
ARC
8
DEFAULT_255_1_388
10
8.3780126
20
0.1847779
40
0.8326847
50
164.3058537
51
173.9000553
0
ARC
8
DEFAULT_255_1_388
10
8.0504126
20
0.2791652
40
0.4917711
50
148.7922028
51
164.5682288
0
ARC
8
DEFAULT_255_1_388
10
7.9434864
20
0.3388457
40
0.3694204
50
144.5883979
51
148.1161588
0
ARC
8
DEFAULT_255_1_388
10
7.9047609
20
0.3658667
40
0.322202
50
101.6440149
51
144.5142619
0
ARC
8
DEFAULT_255_1_388
10
7.9525801
20
0.1758337
40
0.5180451
50
89.528284
51
102.5820197
0
ARC
8
DEFAULT_255_1_388
10
7.9614793
20
0.1714376
40
0.5224441
50
77.0437914
51
90.508231
0
ARC
8
DEFAULT_255_1_388
10
8.0067047
20
0.3562272
40
0.3322297
50
48.2777708
51
77.4996087
0
ARC
8
DEFAULT_255_1_388
10
8.0148787
20
0.3707557
40
0.315966
50
36.3141586
51
47.6307332
0
ARC
8
DEFAULT_255_1_388
10
7.9171509
20
0.3049159
40
0.4337313
50
18.2931065
51
35.6770203
0
ARC
8
DEFAULT_255_1_388
10
7.631035
20
0.2067107
40
0.7362203
50
8.0246996
51
18.5605636
0
ARC
8
DEFAULT_255_1_388
10
7.1626705
20
0.1375432
40
1.2096583
50
1.127539
51
8.1718423
0
ARC
8
DEFAULT_255_1_388
10
6.7977839
20
0.1232374
40
1.5747719
50
0.5432713
51
1.38669
0
ARC
8
DEFAULT_255_1_388
10
7.0035217
20
0.1539163
40
1.2018103
50
359.8092569
51
4.9408001
0
ARC
8
DEFAULT_255_1_388
10
7.4771799
20
0.19619
40
0.7262727
50
4.8364937
51
12.2906017
0
ARC
8
DEFAULT_255_1_388
10
7.7871263
20
0.2652485
40
0.4087324
50
12.0806994
51
23.8171225
0
ARC
8
DEFAULT_255_1_388
10
7.9191659
20
0.3211508
40
0.2653719
50
24.2874621
51
31.3934353
0
ARC
8
DEFAULT_255_1_388
10
7.9782095
20
0.3597822
40
0.1948607
50
30.7407708
51
82.4658033
0
ARC
8
DEFAULT_255_1_388
10
7.9579756
20
0.2604017
40
0.2961198
50
81.1057101
51
90.2187368
0
ARC
8
DEFAULT_255_1_388
10
7.9539568
20
0.2894421
40
0.2670929
50
89.380395
51
105.6763916
0
ARC
8
DEFAULT_255_1_388
10
7.933329
20
0.364432
40
0.1893189
50
105.7980655
51
149.7387869
0
ARC
8
DEFAULT_255_1_388
10
8.053043
20
0.2924719
40
0.3289892
50
149.4208441
51
163.628295
0
ARC
8
DEFAULT_255_1_388
10
8.288266
20
0.2207345
40
0.5749004
50
163.3764549
51
172.141138
0
ARC
8
DEFAULT_255_1_388
10
8.6595381
20
0.1675582
40
0.9499585
50
172.0258462
51
178.0705453
0
ARC
8
DEFAULT_255_1_388
10
9.0016934
20
0.1513682
40
1.2924734
50
177.8639301
51
179.5036263
0
ARC
8
DEFAULT_255_1_388
10
8.8797953
20
-0.1089849
40
1.170534
50
179.7995545
51
185.246089
0
ARC
8
DEFAULT_255_1_388
10
8.4249546
20
-0.1520596
40
0.7136613
50
185.1411911
51
193.0082205
0
ARC
8
DEFAULT_255_1_388
10
8.1275806
20
-0.2223559
40
0.4080987
50
192.7897338
51
205.2507384
0
ARC
8
DEFAULT_255_1_388
10
8.0098016
20
-0.2749462
40
0.2791522
50
205.8001921
51
211.2545876
0
ARC
8
DEFAULT_255_1_388
10
7.9509555
20
-0.3143868
40
0.2084074
50
210.3789935
51
238.4007996
0
ARC
8
DEFAULT_255_1_388
10
7.9487641
20
-0.3091214
40
0.2117943
50
239.6521916
51
265.9793852
0
ARC
8
DEFAULT_255_1_388
10
7.958349
20
-0.2334642
40
0.2879689
50
265.1324455
51
270.0603288
0
ARC
8
DEFAULT_255_1_388
10
7.9615867
20
-0.2699582
40
0.2514919
50
269.3314378
51
287.2180039
0
ARC
8
DEFAULT_255_1_388
10
7.977095
20
-0.3265709
40
0.1928357
50
287.7957942
51
329.0808983
0
ARC
8
DEFAULT_255_1_388
10
7.8693707
20
-0.2593349
40
0.319808
50
328.6635261
51
343.3325043
0
ARC
8
DEFAULT_255_1_388
10
7.6249165
20
-0.1831805
40
0.5758408
50
343.0498092
51
351.9392499
0
ARC
8
DEFAULT_255_1_388
10
7.2348487
20
-0.1256795
40
0.9701202
50
351.8071632
51
357.7957897
0
ARC
8
DEFAULT_255_1_388
10
6.8713964
20
-0.1068276
40
1.3340376
50
357.5870923
51
359.2682493
0
ARC
8
DEFAULT_255_1_388
10
9.0669801
20
0.329572
40
0.3175098
50
338.8762533
51
0.5167111
0
ARC
8
DEFAULT_255_1_388
10
9.0859394
20
0.32446
40
0.2979894
50
325.8415285
51
338.4793574
0
ARC
8
DEFAULT_255_1_388
10
9.0420028
20
0.3549242
40
0.351452
50
296.7587686
51
325.7536481
0
ARC
8
DEFAULT_255_1_388
10
9.0091656
20
0.4103363
40
0.4157374
50
296.0927901
51
297.3613472
0
ARC
8
DEFAULT_255_1_388
10
9.0385851
20
-0.3279407
40
0.395855
50
47.9007294
51
67.1948823
0
ARC
8
DEFAULT_255_1_388
10
9.0606493
20
-0.3002401
40
0.360516
50
35.2363914
51
47.551141
0
ARC
8
DEFAULT_255_1_388
10
9.0900897
20
-0.2805907
40
0.3251343
50
359.2759765
51
35.4014143
0
ARC
8
DEFAULT_255_1_388
10
9.0062824
20
-0.2888213
40
0.4089365
50
343.1293083
51
0.5775513
0
ARC
8
DEFAULT_255_1_388
10
9.0877937
20
-0.3112664
40
0.3244269
50
310.8496669
51
342.7449331
0
ARC
8
DEFAULT_255_1_388
10
9.0407812
20
-0.2576087
40
0.3957651
50
281.5472888
51
310.9170406
0
ARC
8
DEFAULT_255_1_388
10
9.0006686
20
-0.0829186
40
0.5749654
50
269.619248
51
281.9789564
0
ARC
8
DEFAULT_255_1_388
10
8.9925464
20
-0.0828224
40
0.5750649
50
257.4585678
51
270.4285689
0
ARC
8
DEFAULT_255_1_388
10
8.9496984
20
-0.2632259
40
0.389671
50
228.7554326
51
257.8484789
0
ARC
8
DEFAULT_255_1_388
10
8.914847
20
-0.3051772
40
0.335154
50
184.0104975
51
228.5071184
0
ARC
8
DEFAULT_255_1_388
10
9.0456862
20
-0.285257
40
0.4671891
50
179.9315832
51
185.3253753
0
ARC
8
DEFAULT_255_1_388
10
8.9133375
20
-0.2810408
40
0.33486
50
145.6796023
51
180.6259786
0
ARC
8
DEFAULT_255_1_388
10
8.9317141
20
-0.2938729
40
0.3572723
50
115.5537685
51
145.6415986
0
ARC
8
DEFAULT_255_1_388
10
8.9700184
20
-0.3624913
40
0.4357296
50
113.243307
51
116.2057839
0
ARC
8
DEFAULT_255_1_388
10
8.9528836
20
0.3572379
40
0.3549126
50
222.9549744
51
244.1370481
0
ARC
8
DEFAULT_255_1_388
10
8.939148
20
0.3418378
40
0.3343711
50
213.3436887
51
222.6274467
0
ARC
8
DEFAULT_255_1_388
10
8.9175549
20
0.3271653
40
0.3082678
50
180.431584
51
213.271499
0
ARC
8
DEFAULT_255_1_388
10
8.9810548
20
0.3324296
40
0.3718363
50
179.9991191
51
181.1690594
0
ARC
8
DEFAULT_255_1_388
10
9.0283004
20
0.3363072
40
0.4190996
50
164.6186169
51
180.529336
0
ARC
8
DEFAULT_255_1_388
10
8.9272653
20
0.363478
40
0.3144772
50
132.2455553
51
164.5090724
0
ARC
8
DEFAULT_255_1_388
10
8.9595631
20
0.326907
40
0.3632644
50
100.7053914
51
132.1386381
0
ARC
8
DEFAULT_255_1_388
10
8.9938692
20
0.1719118
40
0.5219578
50
89.6730358
51
101.2451698
0
ARC
8
DEFAULT_255_1_388
10
9.0008683
20
0.1915648
40
0.5023124
50
76.287748
51
90.4586006
0
ARC
8
DEFAULT_255_1_388
10
9.0353185
20
0.3290671
40
0.3605639
50
47.8240511
51
76.4266241
0
ARC
8
DEFAULT_255_1_388
10
9.0603569
20
0.3583599
40
0.3220463
50
6.9168387
51
47.6262497
0
ARC
8
DEFAULT_255_1_388
10
8.9269022
20
0.3337004
40
0.4575765
50
359.8415968
51
7.9697453
0
ARC
8
DEFAULT_255_1_388
10
8.9653292
20
-0.2783481
40
0.2827228
50
359.445363
51
16.9256873
0
ARC
8
DEFAULT_255_1_388
10
9.0180726
20
-0.2638219
40
0.2280396
50
17.2920767
51
45.4630727
0
ARC
8
DEFAULT_255_1_388
10
9.0119861
20
-0.2690676
40
0.2360485
50
45.30305
51
83.1920945
0
ARC
8
DEFAULT_255_1_388
10
8.9958606
20
-0.3592527
40
0.3275527
50
82.2612665
51
90.1434275
0
ARC
8
DEFAULT_255_1_388
10
8.9923883
20
-0.3330131
40
0.3013237
50
89.4956434
51
104.8580688
0
ARC
8
DEFAULT_255_1_388
10
8.9725072
20
-0.2576545
40
0.2233867
50
104.8856641
51
135.244616
0
ARC
8
DEFAULT_255_1_388
10
8.9781061
20
-0.2626648
40
0.2308906
50
135.3399546
51
172.1044062
0
ARC
8
DEFAULT_255_1_388
10
9.0688586
20
-0.2800333
40
0.3232034
50
171.2645637
51
180.186429
0
ARC
8
DEFAULT_255_1_388
10
9.049859
20
-0.2836574
40
0.304213
50
179.5154935
51
193.6464289
0
ARC
8
DEFAULT_255_1_388
10
8.9580266
20
-0.3070527
40
0.209456
50
193.3540274
51
225.8258581
0
ARC
8
DEFAULT_255_1_388
10
8.9626138
20
-0.2990924
40
0.2183738
50
226.4180634
51
255.8552336
0
ARC
8
DEFAULT_255_1_388
10
8.9914605
20
-0.1937479
40
0.3275812
50
255.4654104
51
268.7987425
0
ARC
8
DEFAULT_255_1_388
10
8.9967781
20
-0.0995455
40
0.4218877
50
268.3449238
51
270.0094605
0
ARC
8
DEFAULT_255_1_388
10
8.9994015
20
-0.1763906
40
0.3450519
50
269.5759586
51
282.0820163
0
ARC
8
DEFAULT_255_1_388
10
9.0247051
20
-0.2882637
40
0.2303642
50
281.752014
51
306.6056188
0
ARC
8
DEFAULT_255_1_388
10
9.0357859
20
-0.3064198
40
0.2091906
50
307.1346085
51
314.027845
0
ARC
8
DEFAULT_255_1_388
10
9.0317371
20
-0.3034541
40
0.2141385
50
314.2552483
51
350.1694025
0
ARC
8
DEFAULT_255_1_388
10
8.9359608
20
-0.2826825
40
0.312082
50
349.4140529
51
0.2933014
0
ARC
8
DEFAULT_255_1_388
10
8.9944885
20
0.2976924
40
0.2588377
50
89.477747
51
105.729729
0
ARC
8
DEFAULT_255_1_388
10
8.9791805
20
0.3545367
40
0.1999733
50
105.9233417
51
135.1660906
0
ARC
8
DEFAULT_255_1_388
10
8.9814836
20
0.3529412
40
0.2027322
50
135.3052302
51
168.9883645
0
ARC
8
DEFAULT_255_1_388
10
9.0745852
20
0.3315996
40
0.2982129
50
168.3801673
51
180.3602268
0
ARC
8
DEFAULT_255_1_388
10
9.0488969
20
0.3273622
40
0.2725291
50
179.5033122
51
194.9125571
0
ARC
8
DEFAULT_255_1_388
10
8.9830376
20
0.3100427
40
0.204431
50
194.9720816
51
224.194444
0
ARC
8
DEFAULT_255_1_388
10
8.9798741
20
0.3074635
40
0.2003651
50
224.2962453
51
262.015664
0
ARC
8
DEFAULT_255_1_388
10
8.9958745
20
0.3897315
40
0.2840925
50
261.1245923
51
270.1962896
0
ARC
8
DEFAULT_255_1_388
10
8.9992227
20
0.3686859
40
0.2630559
50
269.4827276
51
285.0987215
0
ARC
8
DEFAULT_255_1_388
10
9.0165663
20
0.3036175
40
0.1957162
50
285.1585357
51
315.9484501
0
ARC
8
DEFAULT_255_1_388
10
9.0065536
20
0.3128315
40
0.2093195
50
316.0413965
51
351.916092
0
ARC
8
DEFAULT_255_1_388
10
8.9240911
20
0.3287323
40
0.2932279
50
351.105835
51
0.1939062
0
ARC
8
DEFAULT_255_1_388
10
8.9536545
20
0.3321224
40
0.2636739
50
359.4789618
51
16.0678224
0
ARC
8
DEFAULT_255_1_388
10
9.0072017
20
0.3465721
40
0.2082215
50
16.3252067
51
44.7913869
0
ARC
8
DEFAULT_255_1_388
10
9.0052079
20
0.346632
40
0.2095992
50
44.3957814
51
88.2499162
0
ARC
8
DEFAULT_255_1_388
10
8.9969413
20
0.2778006
40
0.2787189
50
86.9833854
51
90.0192215
0
LINE
8
DEFAULT_255_1_388
10
10.450683
20
0.138169
11
10.450683
21
-0.0786865
0
LINE
8
DEFAULT_255_1_388
10
9.6203073
20
-0.1012756
11
9.6203073
21
0.1219048
0
LINE
8
DEFAULT_255_1_388
10
10.2835236
20
-0.1238647
11
10.2835236
21
0.1499153
0
LINE
8
DEFAULT_255_1_388
10
9.7874667
20
0.1625652
11
9.7874667
21
-0.1048898
0
ARC
8
DEFAULT_255_1_388
10
9.0729164
20
-0.0841882
40
1.3777776
50
353.8440855
51
0.2287917
0
ARC
8
DEFAULT_255_1_388
10
9.5948181
20
-0.1424586
40
0.852639
50
344.4934746
51
353.9763743
0
ARC
8
DEFAULT_255_1_388
10
9.9314989
20
-0.2381809
40
0.5026273
50
329.2803599
51
344.7473406
0
ARC
8
DEFAULT_255_1_388
10
10.0430484
20
-0.2993962
40
0.3754848
50
324.9361395
51
328.6153007
0
ARC
8
DEFAULT_255_1_388
10
10.0856134
20
-0.3291414
40
0.3235566
50
280.5801797
51
324.9173226
0
ARC
8
DEFAULT_255_1_388
10
10.0404763
20
-0.1411764
40
0.5167077
50
269.5979457
51
281.6732777
0
ARC
8
DEFAULT_255_1_388
10
10.0323666
20
-0.1546887
40
0.5032026
50
256.6228565
51
270.5105488
0
ARC
8
DEFAULT_255_1_388
10
9.9871409
20
-0.3288655
40
0.3233092
50
215.8618351
51
257.2787793
0
ARC
8
DEFAULT_255_1_388
10
10.1020116
20
-0.2517894
40
0.4615831
50
197.9695203
51
215.2622745
0
ARC
8
DEFAULT_255_1_388
10
10.3815792
20
-0.1574359
40
0.7566307
50
187.8816486
51
198.2346584
0
ARC
8
DEFAULT_255_1_388
10
10.826903
20
-0.0931547
40
1.2065653
50
180.8977266
51
188.0054894
0
ARC
8
DEFAULT_255_1_388
10
11.1319244
20
-0.08166
40
1.5117443
50
180.7434591
51
181.152202
0
ARC
8
DEFAULT_255_1_388
10
10.964424
20
0.1273371
40
1.3441277
50
173.7674302
51
180.2315596
0
ARC
8
DEFAULT_255_1_388
10
10.4562108
20
0.1847779
40
0.8326847
50
164.3058537
51
173.9000553
0
ARC
8
DEFAULT_255_1_388
10
10.1286109
20
0.2791652
40
0.4917711
50
148.7922028
51
164.5682288
0
ARC
8
DEFAULT_255_1_388
10
10.0216846
20
0.3388457
40
0.3694204
50
144.5883979
51
148.1161588
0
ARC
8
DEFAULT_255_1_388
10
9.9829591
20
0.3658667
40
0.322202
50
101.6440149
51
144.5142619
0
ARC
8
DEFAULT_255_1_388
10
10.0307783
20
0.1758337
40
0.5180451
50
89.528284
51
102.5820197
0
ARC
8
DEFAULT_255_1_388
10
10.0396775
20
0.1714376
40
0.5224441
50
77.0437914
51
90.508231
0
ARC
8
DEFAULT_255_1_388
10
10.0849029
20
0.3562272
40
0.3322297
50
48.2777708
51
77.4996087
0
ARC
8
DEFAULT_255_1_388
10
10.0930769
20
0.3707557
40
0.315966
50
36.3141586
51
47.6307332
0
ARC
8
DEFAULT_255_1_388
10
9.9953491
20
0.3049159
40
0.4337313
50
18.2931065
51
35.6770203
0
ARC
8
DEFAULT_255_1_388
10
9.7092332
20
0.2067107
40
0.7362203
50
8.0246996
51
18.5605636
0
ARC
8
DEFAULT_255_1_388
10
9.2408688
20
0.1375432
40
1.2096583
50
1.127539
51
8.1718423
0
ARC
8
DEFAULT_255_1_388
10
8.8759821
20
0.1232374
40
1.5747719
50
0.5432713
51
1.38669
0
ARC
8
DEFAULT_255_1_388
10
9.08172
20
0.1539163
40
1.2018103
50
359.8092569
51
4.9408001
0
ARC
8
DEFAULT_255_1_388
10
9.5553781
20
0.19619
40
0.7262727
50
4.8364937
51
12.2906017
0
ARC
8
DEFAULT_255_1_388
10
9.8653246
20
0.2652485
40
0.4087324
50
12.0806994
51
23.8171225
0
ARC
8
DEFAULT_255_1_388
10
9.9973642
20
0.3211508
40
0.2653719
50
24.2874621
51
31.3934353
0
ARC
8
DEFAULT_255_1_388
10
10.0564078
20
0.3597822
40
0.1948607
50
30.7407708
51
82.4658033
0
ARC
8
DEFAULT_255_1_388
10
10.0361738
20
0.2604017
40
0.2961198
50
81.1057101
51
90.2187368
0
ARC
8
DEFAULT_255_1_388
10
10.032155
20
0.2894421
40
0.2670929
50
89.380395
51
105.6763916
0
ARC
8
DEFAULT_255_1_388
10
10.0115272
20
0.364432
40
0.1893189
50
105.7980655
51
149.7387869
0
ARC
8
DEFAULT_255_1_388
10
10.1312412
20
0.2924719
40
0.3289892
50
149.4208441
51
163.628295
0
ARC
8
DEFAULT_255_1_388
10
10.3664642
20
0.2207345
40
0.5749004
50
163.3764549
51
172.141138
0
ARC
8
DEFAULT_255_1_388
10
10.7377363
20
0.1675582
40
0.9499585
50
172.0258462
51
178.0705453
0
ARC
8
DEFAULT_255_1_388
10
11.0798916
20
0.1513682
40
1.2924734
50
177.8639301
51
179.5036263
0
ARC
8
DEFAULT_255_1_388
10
10.9579935
20
-0.1089849
40
1.170534
50
179.7995545
51
185.246089
0
ARC
8
DEFAULT_255_1_388
10
10.5031528
20
-0.1520596
40
0.7136613
50
185.1411911
51
193.0082205
0
ARC
8
DEFAULT_255_1_388
10
10.2057789
20
-0.2223559
40
0.4080987
50
192.7897338
51
205.2507384
0
ARC
8
DEFAULT_255_1_388
10
10.0879999
20
-0.2749462
40
0.2791522
50
205.8001921
51
211.2545876
0
ARC
8
DEFAULT_255_1_388
10
10.0291538
20
-0.3143868
40
0.2084074
50
210.3789935
51
238.4007996
0
ARC
8
DEFAULT_255_1_388
10
10.0269624
20
-0.3091214
40
0.2117943
50
239.6521916
51
265.9793852
0
ARC
8
DEFAULT_255_1_388
10
10.0365473
20
-0.2334642
40
0.2879689
50
265.1324455
51
270.0603288
0
ARC
8
DEFAULT_255_1_388
10
10.039785
20
-0.2699582
40
0.2514919
50
269.3314378
51
287.2180039
0
ARC
8
DEFAULT_255_1_388
10
10.0552932
20
-0.3265709
40
0.1928357
50
287.7957942
51
329.0808983
0
ARC
8
DEFAULT_255_1_388
10
9.9475689
20
-0.2593349
40
0.319808
50
328.6635261
51
343.3325043
0
ARC
8
DEFAULT_255_1_388
10
9.7031148
20
-0.1831805
40
0.5758408
50
343.0498092
51
351.9392499
0
ARC
8
DEFAULT_255_1_388
10
9.3130469
20
-0.1256795
40
0.9701202
50
351.8071632
51
357.7957897
0
ARC
8
DEFAULT_255_1_388
10
8.9495946
20
-0.1068276
40
1.3340376
50
357.5870923
51
359.2682493
0
LINE
8
DEFAULT_255_1_388
10
11.0298678
20
-0.0127263
11
11.0298678
21
-0.1491645
0
LINE
8
DEFAULT_255_1_388
10
11.0298678
20
-0.1491645
11
10.5889284
21
-0.1491645
0
LINE
8
DEFAULT_255_1_388
10
10.5889284
20
-0.1491645
11
10.5889284
21
-0.0127263
0
LINE
8
DEFAULT_255_1_388
10
10.5889284
20
-0.0127263
11
11.0298678
21
-0.0127263
0
LINE
8
DEFAULT_255_1_388
10
11.3931007
20
0.6757898
11
11.3931007
21
-0.4979404
0
LINE
8
DEFAULT_255_1_388
10
11.3931007
20
-0.4979404
11
12.0165602
21
-0.4979404
0
LINE
8
DEFAULT_255_1_388
10
12.0165602
20
-0.4979404
11
12.0165602
21
-0.6398
0
LINE
8
DEFAULT_255_1_388
10
12.0165602
20
-0.6398
11
11.2187128
21
-0.6398
0
LINE
8
DEFAULT_255_1_388
10
11.2187128
20
-0.6398
11
11.2187128
21
0.6757898
0
LINE
8
DEFAULT_255_1_388
10
11.2187128
20
0.6757898
11
11.3931007
21
0.6757898
0
LINE
8
DEFAULT_255_1_388
10
12.9490387
20
-0.2223532
11
13.1234267
21
-0.2223532
0
LINE
8
DEFAULT_255_1_388
10
12.1105309
20
-0.0434475
11
12.1105309
21
0.0830516
0
LINE
8
DEFAULT_255_1_388
10
13.1234267
20
0.2529217
11
12.9490387
21
0.2529217
0
LINE
8
DEFAULT_255_1_388
10
12.2849188
20
0.0785337
11
12.2849188
21
-0.0488688
0
ARC
8
DEFAULT_255_1_388
10
12.5068501
20
-0.1551671
40
0.6202263
50
340.1774904
51
353.7812217
0
ARC
8
DEFAULT_255_1_388
10
12.6836353
20
-0.2210107
40
0.4315926
50
311.4560052
51
340.4420756
0
ARC
8
DEFAULT_255_1_388
10
12.6798893
20
-0.2085335
40
0.4434573
50
282.4332229
51
310.7514507
0
ARC
8
DEFAULT_255_1_388
10
12.6304711
20
-0.0043297
40
0.6535262
50
269.9358869
51
282.8096729
0
ARC
8
DEFAULT_255_1_388
10
12.624665
20
0.1469329
40
0.8048043
50
269.9995752
51
270.3612856
0
ARC
8
DEFAULT_255_1_388
10
12.618714
20
-0.1329219
40
0.5249831
50
250.7885263
51
270.6488451
0
ARC
8
DEFAULT_255_1_388
10
12.5997965
20
-0.2046147
40
0.4510942
50
219.3628377
51
250.0611024
0
ARC
8
DEFAULT_255_1_388
10
12.6930839
20
-0.1253347
40
0.5735046
50
193.5480293
51
219.5755675
0
ARC
8
DEFAULT_255_1_388
10
12.9599048
20
-0.056048
40
0.849146
50
181.1220183
51
193.8754971
0
ARC
8
DEFAULT_255_1_388
10
13.1922282
20
-0.0436086
40
1.0816971
50
179.9914644
51
181.5398227
0
ARC
8
DEFAULT_255_1_388
10
12.9845592
20
0.0872586
40
0.8740384
50
169.5837606
51
180.275782
0
ARC
8
DEFAULT_255_1_388
10
12.777894
20
0.1254439
40
0.6638751
50
155.0367033
51
169.6002779
0
ARC
8
DEFAULT_255_1_388
10
12.6501398
20
0.1870336
40
0.5220662
50
136.7831557
51
155.2472983
0
ARC
8
DEFAULT_255_1_388
10
12.6063189
20
0.2242577
40
0.4646502
50
121.7633063
51
136.4281161
0
ARC
8
DEFAULT_255_1_388
10
12.6215029
20
0.1962049
40
0.4964979
50
95.6460018
51
121.5489589
0
ARC
8
DEFAULT_255_1_388
10
12.6392003
20
0.0714704
40
0.6223912
50
89.9245727
51
96.1375919
0
ARC
8
DEFAULT_255_1_388
10
12.6448708
20
0.0848721
40
0.6090084
50
76.6779212
51
90.456405
0
ARC
8
DEFAULT_255_1_388
10
12.6891521
20
0.263806
40
0.42469
50
47.4858803
51
76.9287069
0
ARC
8
DEFAULT_255_1_388
10
12.6726135
20
0.2525623
40
0.4441778
50
16.5424081
51
46.8934505
0
ARC
8
DEFAULT_255_1_388
10
12.4917185
20
0.1931265
40
0.6345318
50
5.4072971
51
17.0363711
0
ARC
8
DEFAULT_255_1_388
10
12.329891
20
0.1671304
40
0.6250632
50
7.8888693
51
15.9242022
0
ARC
8
DEFAULT_255_1_388
10
12.5533895
20
0.2320309
40
0.3923364
50
15.7650676
51
27.9410069
0
ARC
8
DEFAULT_255_1_388
10
12.6776065
20
0.2985317
40
0.2514401
50
27.8167196
51
46.4007942
0
ARC
8
DEFAULT_255_1_388
10
12.6831906
20
0.2978882
40
0.2480958
50
47.4372362
51
75.0695672
0
ARC
8
DEFAULT_255_1_388
10
12.6484742
20
0.1770277
40
0.3738281
50
74.7009379
51
87.8124314
0
ARC
8
DEFAULT_255_1_388
10
12.6402359
20
0.0586659
40
0.4924321
50
87.3802571
51
90.0251599
0
ARC
8
DEFAULT_255_1_388
10
12.6359006
20
0.1906997
40
0.3604218
50
89.3451886
51
108.5744412
0
ARC
8
DEFAULT_255_1_388
10
12.6204999
20
0.2484836
40
0.3007661
50
109.2998307
51
143.3037387
0
ARC
8
DEFAULT_255_1_388
10
12.7062288
20
0.1825584
40
0.4089031
50
143.075267
51
163.1918576
0
ARC
8
DEFAULT_255_1_388
10
12.9258123
20
0.1132652
40
0.6391492
50
162.9375929
51
174.6208776
0
ARC
8
DEFAULT_255_1_388
10
13.2212505
20
0.0808711
40
0.9363344
50
174.342123
51
180.1430283
0
ARC
8
DEFAULT_255_1_388
10
13.1165046
20
-0.0534883
40
0.8315986
50
179.6817261
51
189.150555
0
ARC
8
DEFAULT_255_1_388
10
12.8351795
20
-0.1003441
40
0.5464044
50
188.9911061
51
203.5772363
0
ARC
8
DEFAULT_255_1_388
10
12.7137087
20
-0.1507461
40
0.4149206
50
203.9075402
51
215.1312435
0
ARC
8
DEFAULT_255_1_388
10
12.6098884
20
-0.2312093
40
0.2837747
50
213.9071511
51
263.8848919
0
ARC
8
DEFAULT_255_1_388
10
12.6239877
20
-0.1429481
40
0.3730641
50
263.1757928
51
270.1031044
0
ARC
8
DEFAULT_255_1_388
10
12.6275957
20
-0.0026489
40
0.5133712
50
269.6722503
51
279.0606936
0
ARC
8
DEFAULT_255_1_388
10
12.6576112
20
-0.184085
40
0.3294739
50
278.8749101
51
293.6349581
0
ARC
8
DEFAULT_255_1_388
10
12.6936316
20
-0.2686749
40
0.2375405
50
293.8553806
51
310.0518171
0
ARC
8
DEFAULT_255_1_388
10
12.6941825
20
-0.2756979
40
0.2318463
50
311.0644687
51
332.0111037
0
ARC
8
DEFAULT_255_1_388
10
12.5600498
20
-0.2017298
40
0.3850112
50
331.6586806
51
343.2877423
0
ARC
8
DEFAULT_255_1_388
10
12.3279964
20
-0.1304194
40
0.6277712
50
343.1446576
51
351.0103568
0
ARC
8
DEFAULT_255_1_388
10
12.1647287
20
-0.1004127
40
0.7937327
50
350.71248
51
351.1626997
0
LINE
8
DEFAULT_255_1_388
10
13.5598483
20
-0.0371225
11
13.5598483
21
0.0993157
0
LINE
8
DEFAULT_255_1_388
10
13.5598483
20
0.0993157
11
13.6854438
21
0.0993157
0
LINE
8
DEFAULT_255_1_388
10
13.471299
20
0.3306282
11
13.3041396
21
0.3306282
0
LINE
8
DEFAULT_255_1_388
10
13.2923932
20
-0.2928312
11
13.4604562
21
-0.2928312
0
LINE
8
DEFAULT_255_1_388
10
13.6854438
20
-0.0371225
11
13.5598483
21
-0.0371225
0
ARC
8
DEFAULT_255_1_388
10
13.6821664
20
0.4809922
40
0.3816905
50
270.491971
51
281.8953028
0
ARC
8
DEFAULT_255_1_388
10
13.7093091
20
0.3570199
40
0.2547877
50
281.6690378
51
301.2943765
0
ARC
8
DEFAULT_255_1_388
10
13.7284542
20
0.3219926
40
0.2149197
50
301.7834992
51
311.754567
0
ARC
8
DEFAULT_255_1_388
10
13.7387584
20
0.310565
40
0.1995326
50
311.7325027
51
354.2803031
0
ARC
8
DEFAULT_255_1_388
10
13.657
20
0.324628
40
0.2823461
50
353.0941646
51
0.1174696
0
ARC
8
DEFAULT_255_1_388
10
13.6051557
20
0.3299874
40
0.3342238
50
359.1804452
51
15.0452323
0
ARC
8
DEFAULT_255_1_388
10
13.7565616
20
0.3741546
40
0.1765747
50
13.957816
51
77.6713812
0
ARC
8
DEFAULT_255_1_388
10
13.7130852
20
0.2183464
40
0.3381982
50
76.111571
51
90.7028736
0
ARC
8
DEFAULT_255_1_388
10
13.7064264
20
0.249125
40
0.3074046
50
89.5321574
51
103.5319393
0
ARC
8
DEFAULT_255_1_388
10
13.6838647
20
0.3390443
40
0.2147041
50
103.2930114
51
133.5619756
0
ARC
8
DEFAULT_255_1_388
10
13.6788589
20
0.3457351
40
0.2064084
50
133.8349761
51
173.5343225
0
ARC
8
DEFAULT_255_1_388
10
13.7602246
20
0.3313144
40
0.2889266
50
172.5097183
51
180.1360699
0
ARC
8
DEFAULT_255_1_388
10
13.653201
20
0.335188
40
0.3490913
50
155.3483706
51
180.7484035
0
ARC
8
DEFAULT_255_1_388
10
13.6476986
20
0.3319519
40
0.3454798
50
131.5745177
51
154.4799474
0
ARC
8
DEFAULT_255_1_388
10
13.6829269
20
0.2963422
40
0.3955058
50
96.9874487
51
131.9690874
0
ARC
8
DEFAULT_255_1_388
10
13.7076161
20
0.1562407
40
0.537622
50
89.8592909
51
97.7827481
0
ARC
8
DEFAULT_255_1_388
10
13.713027
20
0.126736
40
0.5671399
50
78.3654493
51
90.4132586
0
ARC
8
DEFAULT_255_1_388
10
13.7532911
20
0.3133918
40
0.3762034
50
56.6229818
51
78.6387103
0
ARC
8
DEFAULT_255_1_388
10
13.7774741
20
0.3556846
40
0.3275964
50
47.0254604
51
56.085558
0
ARC
8
DEFAULT_255_1_388
10
13.7796992
20
0.3601189
40
0.3228382
50
10.9207523
51
46.777927
0
ARC
8
DEFAULT_255_1_388
10
13.6262586
20
0.3246401
40
0.4802559
50
359.6364235
51
11.6087615
0
ARC
8
DEFAULT_255_1_388
10
13.8326751
20
0.3229404
40
0.273833
50
332.3549969
51
359.7179765
0
ARC
8
DEFAULT_255_1_388
10
13.7595152
20
0.3576285
40
0.3547505
50
325.2332381
51
332.8746682
0
ARC
8
DEFAULT_255_1_388
10
13.7766735
20
0.3456763
40
0.3338396
50
292.9803892
51
325.2391113
0
ARC
8
DEFAULT_255_1_388
10
13.7455931
20
0.4061679
40
0.4016959
50
292.542178
51
293.6931461
0
ARC
8
DEFAULT_255_1_388
10
13.7899502
20
-0.3203964
40
0.372079
50
57.643292
51
72.8626085
0
ARC
8
DEFAULT_255_1_388
10
13.8298337
20
-0.2557727
40
0.2961455
50
36.7246661
51
57.4701329
0
ARC
8
DEFAULT_255_1_388
10
13.8285494
20
-0.254353
40
0.2963321
50
8.054535
51
36.3561529
0
ARC
8
DEFAULT_255_1_388
10
13.7315166
20
-0.2717927
40
0.3948682
50
359.8316595
51
8.5873361
0
ARC
8
DEFAULT_255_1_388
10
13.6892641
20
-0.277203
40
0.4371398
50
343.9831631
51
0.557075
0
ARC
8
DEFAULT_255_1_388
10
13.788969
20
-0.3045037
40
0.3337749
50
311.6358204
51
343.7652116
0
ARC
8
DEFAULT_255_1_388
10
13.7463944
20
-0.2565045
40
0.3979351
50
279.7829743
51
311.625622
0
ARC
8
DEFAULT_255_1_388
10
13.7125079
20
-0.0948358
40
0.5630417
50
269.7285092
51
280.3857694
0
ARC
8
DEFAULT_255_1_388
10
13.7055392
20
-0.0994759
40
0.5584119
50
256.6827433
51
270.4412869
0
ARC
8
DEFAULT_255_1_388
10
13.6674379
20
-0.2552302
40
0.3980715
50
229.4223821
51
256.8554507
0
ARC
8
DEFAULT_255_1_388
10
13.6207932
20
-0.3077317
40
0.3278564
50
181.8183354
51
229.6455015
0
ARC
8
DEFAULT_255_1_388
10
13.7377541
20
-0.2930175
40
0.4453611
50
179.9760419
51
183.2330638
0
ARC
8
DEFAULT_255_1_388
10
13.7184094
20
-0.2953219
40
0.2579652
50
179.4467996
51
196.2871626
0
ARC
8
DEFAULT_255_1_388
10
13.6635547
20
-0.3103291
40
0.2011057
50
196.5661293
51
227.7059371
0
ARC
8
DEFAULT_255_1_388
10
13.6820155
20
-0.2896845
40
0.2287994
50
227.7653015
51
257.8763321
0
ARC
8
DEFAULT_255_1_388
10
13.7073238
20
-0.1836039
40
0.3378385
50
257.4583525
51
270.4267406
0
ARC
8
DEFAULT_255_1_388
10
13.7124487
20
-0.150977
40
0.3704652
50
269.5965319
51
280.8788143
0
ARC
8
DEFAULT_255_1_388
10
13.7382715
20
-0.2799471
40
0.2389415
50
280.6347277
51
299.8594068
0
ARC
8
DEFAULT_255_1_388
10
13.7597485
20
-0.3207264
40
0.19289
50
300.3575552
51
314.5515667
0
ARC
8
DEFAULT_255_1_388
10
13.7504161
20
-0.3138975
40
0.204312
50
315.0730962
51
345.0429362
0
ARC
8
DEFAULT_255_1_388
10
13.6465668
20
-0.2836461
40
0.31246
50
344.598526
51
357.9270698
0
ARC
8
DEFAULT_255_1_388
10
13.5455973
20
-0.2767295
40
0.4136265
50
357.4755098
51
0.0224936
0
ARC
8
DEFAULT_255_1_388
10
13.6608851
20
-0.2739901
40
0.2983498
50
359.5051035
51
13.4236939
0
ARC
8
DEFAULT_255_1_388
10
13.7583941
20
-0.2490363
40
0.1977186
50
12.9497905
51
48.7550905
0
ARC
8
DEFAULT_255_1_388
10
13.7378862
20
-0.2770627
40
0.2323321
50
49.509109
51
72.1832965
0
ARC
8
DEFAULT_255_1_388
10
13.6976331
20
-0.3965368
40
0.358397
50
71.9008458
51
84.3555134
0
ARC
8
DEFAULT_255_1_388
10
13.6794725
20
-0.5497288
40
0.512641
50
84.019632
51
89.3326067
0
LINE
8
DEFAULT_255_1_388
10
15.1808429
20
0.138169
11
15.1808429
21
-0.0786865
0
LINE
8
DEFAULT_255_1_388
10
14.3504672
20
-0.1012756
11
14.3504672
21
0.1219048
0
LINE
8
DEFAULT_255_1_388
10
15.0136835
20
-0.1238647
11
15.0136835
21
0.1499153
0
LINE
8
DEFAULT_255_1_388
10
14.5176266
20
0.1625652
11
14.5176266
21
-0.1048898
0
ARC
8
DEFAULT_255_1_388
10
13.8030763
20
-0.0841882
40
1.3777776
50
353.8440855
51
0.2287917
0
ARC
8
DEFAULT_255_1_388
10
14.3249781
20
-0.1424586
40
0.852639
50
344.4934746
51
353.9763743
0
ARC
8
DEFAULT_255_1_388
10
14.6616588
20
-0.2381809
40
0.5026273
50
329.2803599
51
344.7473406
0
ARC
8
DEFAULT_255_1_388
10
14.7732083
20
-0.2993962
40
0.3754848
50
324.9361395
51
328.6153007
0
ARC
8
DEFAULT_255_1_388
10
14.8157733
20
-0.3291414
40
0.3235566
50
280.5801797
51
324.9173226
0
ARC
8
DEFAULT_255_1_388
10
14.7706362
20
-0.1411764
40
0.5167077
50
269.5979457
51
281.6732777
0
ARC
8
DEFAULT_255_1_388
10
14.7625265
20
-0.1546887
40
0.5032026
50
256.6228565
51
270.5105488
0
ARC
8
DEFAULT_255_1_388
10
14.7173008
20
-0.3288655
40
0.3233092
50
215.8618351
51
257.2787793
0
ARC
8
DEFAULT_255_1_388
10
14.8321715
20
-0.2517894
40
0.4615831
50
197.9695203
51
215.2622745
0
ARC
8
DEFAULT_255_1_388
10
15.1117391
20
-0.1574359
40
0.7566307
50
187.8816486
51
198.2346584
0
ARC
8
DEFAULT_255_1_388
10
15.5570629
20
-0.0931547
40
1.2065653
50
180.8977266
51
188.0054894
0
ARC
8
DEFAULT_255_1_388
10
15.8620843
20
-0.08166
40
1.5117443
50
180.7434591
51
181.152202
0
ARC
8
DEFAULT_255_1_388
10
15.6945839
20
0.1273371
40
1.3441277
50
173.7674302
51
180.2315596
0
ARC
8
DEFAULT_255_1_388
10
15.1863708
20
0.1847779
40
0.8326847
50
164.3058537
51
173.9000553
0
ARC
8
DEFAULT_255_1_388
10
14.8587708
20
0.2791652
40
0.4917711
50
148.7922028
51
164.5682288
0
ARC
8
DEFAULT_255_1_388
10
14.7518445
20
0.3388457
40
0.3694204
50
144.5883979
51
148.1161588
0
ARC
8
DEFAULT_255_1_388
10
14.713119
20
0.3658667
40
0.322202
50
101.6440149
51
144.5142619
0
ARC
8
DEFAULT_255_1_388
10
14.7609383
20
0.1758337
40
0.5180451
50
89.528284
51
102.5820197
0
ARC
8
DEFAULT_255_1_388
10
14.7698374
20
0.1714376
40
0.5224441
50
77.0437914
51
90.508231
0
ARC
8
DEFAULT_255_1_388
10
14.8150628
20
0.3562272
40
0.3322297
50
48.2777708
51
77.4996087
0
ARC
8
DEFAULT_255_1_388
10
14.8232368
20
0.3707557
40
0.315966
50
36.3141586
51
47.6307332
0
ARC
8
DEFAULT_255_1_388
10
14.725509
20
0.3049159
40
0.4337313
50
18.2931065
51
35.6770203
0
ARC
8
DEFAULT_255_1_388
10
14.4393931
20
0.2067107
40
0.7362203
50
8.0246996
51
18.5605636
0
ARC
8
DEFAULT_255_1_388
10
13.9710287
20
0.1375432
40
1.2096583
50
1.127539
51
8.1718423
0
ARC
8
DEFAULT_255_1_388
10
13.606142
20
0.1232374
40
1.5747719
50
0.5432713
51
1.38669
0
ARC
8
DEFAULT_255_1_388
10
13.8118799
20
0.1539163
40
1.2018103
50
359.8092569
51
4.9408001
0
ARC
8
DEFAULT_255_1_388
10
14.285538
20
0.19619
40
0.7262727
50
4.8364937
51
12.2906017
0
ARC
8
DEFAULT_255_1_388
10
14.5954845
20
0.2652485
40
0.4087324
50
12.0806994
51
23.8171225
0
ARC
8
DEFAULT_255_1_388
10
14.7275241
20
0.3211508
40
0.2653719
50
24.2874621
51
31.3934353
0
ARC
8
DEFAULT_255_1_388
10
14.7865677
20
0.3597822
40
0.1948607
50
30.7407708
51
82.4658033
0
ARC
8
DEFAULT_255_1_388
10
14.7663338
20
0.2604017
40
0.2961198
50
81.1057101
51
90.2187368
0
ARC
8
DEFAULT_255_1_388
10
14.7623149
20
0.2894421
40
0.2670929
50
89.380395
51
105.6763916
0
ARC
8
DEFAULT_255_1_388
10
14.7416871
20
0.364432
40
0.1893189
50
105.7980655
51
149.7387869
0
ARC
8
DEFAULT_255_1_388
10
14.8614011
20
0.2924719
40
0.3289892
50
149.4208441
51
163.628295
0
ARC
8
DEFAULT_255_1_388
10
15.0966241
20
0.2207345
40
0.5749004
50
163.3764549
51
172.141138
0
ARC
8
DEFAULT_255_1_388
10
15.4678963
20
0.1675582
40
0.9499585
50
172.0258462
51
178.0705453
0
ARC
8
DEFAULT_255_1_388
10
15.8100515
20
0.1513682
40
1.2924734
50
177.8639301
51
179.5036263
0
ARC
8
DEFAULT_255_1_388
10
15.6881534
20
-0.1089849
40
1.170534
50
179.7995545
51
185.246089
0
ARC
8
DEFAULT_255_1_388
10
15.2333127
20
-0.1520596
40
0.7136613
50
185.1411911
51
193.0082205
0
ARC
8
DEFAULT_255_1_388
10
14.9359388
20
-0.2223559
40
0.4080987
50
192.7897338
51
205.2507384
0
ARC
8
DEFAULT_255_1_388
10
14.8181598
20
-0.2749462
40
0.2791522
50
205.8001921
51
211.2545876
0
ARC
8
DEFAULT_255_1_388
10
14.7593137
20
-0.3143868
40
0.2084074
50
210.3789935
51
238.4007996
0
ARC
8
DEFAULT_255_1_388
10
14.7571223
20
-0.3091214
40
0.2117943
50
239.6521916
51
265.9793852
0
ARC
8
DEFAULT_255_1_388
10
14.7667072
20
-0.2334642
40
0.2879689
50
265.1324455
51
270.0603288
0
ARC
8
DEFAULT_255_1_388
10
14.7699449
20
-0.2699582
40
0.2514919
50
269.3314378
51
287.2180039
0
ARC
8
DEFAULT_255_1_388
10
14.7854531
20
-0.3265709
40
0.1928357
50
287.7957942
51
329.0808983
0
ARC
8
DEFAULT_255_1_388
10
14.6777288
20
-0.2593349
40
0.319808
50
328.6635261
51
343.3325043
0
ARC
8
DEFAULT_255_1_388
10
14.4332747
20
-0.1831805
40
0.5758408
50
343.0498092
51
351.9392499
0
ARC
8
DEFAULT_255_1_388
10
14.0432068
20
-0.1256795
40
0.9701202
50
351.8071632
51
357.7957897
0
ARC
8
DEFAULT_255_1_388
10
13.6797545
20
-0.1068276
40
1.3340376
50
357.5870923
51
359.2682493
0
LINE
8
DEFAULT_255_1_388
10
15.7600277
20
-0.0127263
11
15.7600277
21
-0.1491645
0
LINE
8
DEFAULT_255_1_388
10
15.7600277
20
-0.1491645
11
15.3190883
21
-0.1491645
0
LINE
8
DEFAULT_255_1_388
10
15.3190883
20
-0.1491645
11
15.3190883
21
-0.0127263
0
LINE
8
DEFAULT_255_1_388
10
15.3190883
20
-0.0127263
11
15.7600277
21
-0.0127263
0
LINE
8
DEFAULT_255_1_388
10
16.7675021
20
-0.5033618
11
16.7675021
21
-0.6398
0
LINE
8
DEFAULT_255_1_388
10
16.7675021
20
-0.6398
11
15.9055016
21
-0.6398
0
LINE
8
DEFAULT_255_1_388
10
15.9055016
20
-0.6398
11
15.9055016
21
-0.5196259
0
LINE
8
DEFAULT_255_1_388
10
15.9055016
20
-0.5196259
11
16.3608981
21
-0.0136298
0
LINE
8
DEFAULT_255_1_388
10
16.0473612
20
0.2881607
11
15.8802018
21
0.2881607
0
LINE
8
DEFAULT_255_1_388
10
16.4593866
20
-0.121154
11
16.1069965
21
-0.5033618
0
LINE
8
DEFAULT_255_1_388
10
16.1069965
20
-0.5033618
11
16.7675021
21
-0.5033618
0
ARC
8
DEFAULT_255_1_388
10
14.8433041
20
1.3283983
40
2.0258655
50
318.5132526
51
320.7829045
0
ARC
8
DEFAULT_255_1_388
10
15.4380997
20
0.8442929
40
1.2589638
50
320.7372878
51
323.9739031
0
ARC
8
DEFAULT_255_1_388
10
15.8789929
20
0.5248554
40
0.7145141
50
323.8962701
51
328.64194
0
ARC
8
DEFAULT_255_1_388
10
16.1092187
20
0.3828545
40
0.4440242
50
328.8294576
51
331.7891185
0
ARC
8
DEFAULT_255_1_388
10
16.2214507
20
0.3249374
40
0.3177517
50
331.4254512
51
352.9365785
0
ARC
8
DEFAULT_255_1_388
10
16.2367507
20
0.321505
40
0.3021496
50
353.2257659
51
0.0166158
0
ARC
8
DEFAULT_255_1_388
10
16.2604267
20
0.3240894
40
0.2784847
50
359.486299
51
15.9343185
0
ARC
8
DEFAULT_255_1_388
10
16.3174534
20
0.3394269
40
0.2194403
50
16.1712913
51
43.5286088
0
ARC
8
DEFAULT_255_1_388
10
16.3261479
20
0.3481191
40
0.2071504
50
43.4417391
51
83.1661095
0
ARC
8
DEFAULT_255_1_388
10
16.311064
20
0.2652316
40
0.2912888
50
82.160179
51
90.1505708
0
ARC
8
DEFAULT_255_1_388
10
16.3075122
20
0.2048279
40
0.3517025
50
89.5460741
51
102.5418361
0
ARC
8
DEFAULT_255_1_388
10
16.2801841
20
0.3207933
40
0.2325748
50
102.1738499
51
129.206123
0
ARC
8
DEFAULT_255_1_388
10
16.2713295
20
0.3347664
40
0.2161591
50
129.72865
51
135.753947
0
ARC
8
DEFAULT_255_1_388
10
16.2849777
20
0.3238728
40
0.2335433
50
136.1757367
51
166.3673339
0
ARC
8
DEFAULT_255_1_388
10
16.3982465
20
0.2935148
40
0.3507873
50
165.9090694
51
178.8684636
0
ARC
8
DEFAULT_255_1_388
10
16.4958237
20
0.2882263
40
0.4484624
50
178.4391136
51
180.0083808
0
ARC
8
DEFAULT_255_1_388
10
16.3378938
20
0.2926197
40
0.4577138
50
163.2878482
51
180.5581842
0
ARC
8
DEFAULT_255_1_388
10
16.247698
20
0.3174393
40
0.3641968
50
133.4540601
51
162.947111
0
ARC
8
DEFAULT_255_1_388
10
16.2677861
20
0.2960789
40
0.3935189
50
100.7869829
51
133.4382499
0
ARC
8
DEFAULT_255_1_388
10
16.3069106
20
0.1218399
40
0.5720313
50
89.660664
51
101.3702276
0
ARC
8
DEFAULT_255_1_388
10
16.3143715
20
0.1287263
40
0.5651495
50
78.2172678
51
90.412935
0
ARC
8
DEFAULT_255_1_388
10
16.3543181
20
0.3114511
40
0.378122
50
55.9269121
51
78.4888449
0
ARC
8
DEFAULT_255_1_388
10
16.3763896
20
0.3495187
40
0.3342379
50
47.929771
51
55.4049217
0
ARC
8
DEFAULT_255_1_388
10
16.3878426
20
0.3611618
40
0.3179217
50
4.334829
51
48.0560205
0
ARC
8
DEFAULT_255_1_388
10
16.2646228
20
0.3420487
40
0.442341
50
359.9251713
51
5.5971671
0
ARC
8
DEFAULT_255_1_388
10
16.3128383
20
0.3483728
40
0.3941854
50
337.8914027
51
358.9967534
0
ARC
8
DEFAULT_255_1_388
10
16.0075953
20
0.4661295
40
0.7213271
50
326.9132501
51
338.3508308
0
ARC
8
DEFAULT_255_1_388
10
15.5592065
20
0.7535105
40
1.2538973
50
319.6471833
51
327.0959558
0
ARC
8
DEFAULT_255_1_388
10
15.1278723
20
1.109305
40
1.8129975
50
317.2588228
51
319.9045804
0
LINE
8
DEFAULT_255_1_388
10
17.6502846
20
0.6757898
11
17.6502846
21
-0.197957
0
LINE
8
DEFAULT_255_1_388
10
17.6502846
20
-0.197957
11
17.8328046
21
-0.197957
0
LINE
8
DEFAULT_255_1_388
10
17.8328046
20
-0.197957
11
17.8328046
21
-0.3343952
0
LINE
8
DEFAULT_255_1_388
10
17.8328046
20
-0.3343952
11
17.6502846
21
-0.3343952
0
LINE
8
DEFAULT_255_1_388
10
17.6502846
20
-0.3343952
11
17.6502846
21
-0.6398
0
LINE
8
DEFAULT_255_1_388
10
17.6502846
20
-0.6398
11
17.4822216
21
-0.6398
0
LINE
8
DEFAULT_255_1_388
10
17.4822216
20
-0.6398
11
17.4822216
21
-0.3343952
0
LINE
8
DEFAULT_255_1_388
10
17.4822216
20
-0.3343952
11
16.8831583
21
-0.3343952
0
LINE
8
DEFAULT_255_1_388
10
16.8831583
20
-0.3343952
11
16.8831583
21
-0.2359067
0
LINE
8
DEFAULT_255_1_388
10
16.8831583
20
-0.2359067
11
17.4722824
21
0.6757898
0
LINE
8
DEFAULT_255_1_388
10
17.4722824
20
0.6757898
11
17.6502846
21
0.6757898
0
LINE
8
DEFAULT_255_1_388
10
17.4623432
20
0.4110455
11
17.0729069
21
-0.197957
0
LINE
8
DEFAULT_255_1_388
10
17.0729069
20
-0.197957
11
17.4822216
21
-0.197957
0
LINE
8
DEFAULT_255_1_388
10
17.4822216
20
-0.197957
11
17.4822216
21
0.447188
0
LINE
8
DEFAULT_255_1_388
10
17.4822216
20
0.447188
11
17.4623432
21
0.4110455
0
LINE
8
DEFAULT_255_1_388
10
19.0318346
20
0.0595589
11
19.0318346
21
-0.0244726
0
LINE
8
DEFAULT_255_1_388
10
18.8014257
20
-0.5684184
11
19.0363524
21
-0.7527456
0
LINE
8
DEFAULT_255_1_388
10
19.0363524
20
-0.7527456
11
18.9179855
21
-0.8620769
0
LINE
8
DEFAULT_255_1_388
10
18.9179855
20
-0.8620769
11
18.6405912
21
-0.6416071
0
LINE
8
DEFAULT_255_1_388
10
17.9728571
20
-0.0362189
11
17.9728571
21
0.0586553
0
LINE
8
DEFAULT_255_1_388
10
18.8583502
20
-0.0371225
11
18.8583502
21
0.0604625
0
LINE
8
DEFAULT_255_1_388
10
18.1463415
20
0.0722088
11
18.1463415
21
-0.0244726
0
ARC
8
DEFAULT_255_1_388
10
18.0245226
20
-0.0288471
40
1.0073215
50
351.4530536
51
0.2488167
0
ARC
8
DEFAULT_255_1_388
10
18.3153394
20
-0.0738251
40
0.7130509
50
338.6860608
51
351.554089
0
ARC
8
DEFAULT_255_1_388
10
18.4205851
20
-0.1110427
40
0.6014866
50
336.2886209
51
338.3448103
0
ARC
8
DEFAULT_255_1_388
10
18.4586095
20
-0.1319048
40
0.5582958
50
321.1168943
51
336.6796496
0
ARC
8
DEFAULT_255_1_388
10
18.5296869
20
-0.1866356
40
0.4686152
50
305.4418419
51
320.8706891
0
ARC
8
DEFAULT_255_1_388
10
18.5075734
20
-0.1025508
40
0.5552257
50
271.6372169
51
283.8614231
0
ARC
8
DEFAULT_255_1_388
10
18.5033187
20
-0.0284729
40
0.6293984
50
269.993693
51
271.8317035
0
ARC
8
DEFAULT_255_1_388
10
18.4991011
20
-0.119632
40
0.5382553
50
252.5221437
51
270.441579
0
ARC
8
DEFAULT_255_1_388
10
18.4829262
20
-0.1802954
40
0.4755426
50
237.5349961
51
252.1858334
0
ARC
8
DEFAULT_255_1_388
10
18.4929638
20
-0.167488
40
0.4917393
50
209.0632754
51
237.3492577
0
ARC
8
DEFAULT_255_1_388
10
18.5908963
20
-0.1059896
40
0.6072464
50
205.118533
51
209.6465345
0
ARC
8
DEFAULT_255_1_388
10
18.6804966
20
-0.0679826
40
0.7045164
50
188.7216633
51
204.8239753
0
ARC
8
DEFAULT_255_1_388
10
18.9051741
20
-0.0301613
40
0.9323368
50
180.3722704
51
188.9253909
0
ARC
8
DEFAULT_255_1_388
10
18.9021302
20
0.0631416
40
0.929284
50
169.5253055
51
180.2766048
0
ARC
8
DEFAULT_255_1_388
10
18.6881101
20
0.1025024
40
0.7116745
50
155.8314601
51
169.5088611
0
ARC
8
DEFAULT_255_1_388
10
18.5440565
20
0.1693312
40
0.5528904
50
139.6259579
51
156.0379072
0
ARC
8
DEFAULT_255_1_388
10
18.4777098
20
0.2227143
40
0.4677708
50
122.6414784
51
139.3431662
0
ARC
8
DEFAULT_255_1_388
10
18.4890353
20
0.2020787
40
0.4912586
50
93.0224537
51
122.4556091
0
ARC
8
DEFAULT_255_1_388
10
18.5011874
20
0.0934776
40
0.6003837
50
89.9756766
51
93.6340839
0
ARC
8
DEFAULT_255_1_388
10
18.5055572
20
0.1362547
40
0.5576216
50
73.9666049
51
90.4228101
0
ARC
8
DEFAULT_255_1_388
10
18.5262221
20
0.2167139
40
0.4745905
50
57.5177173
51
73.6814962
0
ARC
8
DEFAULT_255_1_388
10
18.5212444
20
0.2126592
40
0.4806881
50
28.7260666
51
57.2767723
0
ARC
8
DEFAULT_255_1_388
10
18.4187852
20
0.1493397
40
0.6010032
50
24.2451459
51
29.3250018
0
ARC
8
DEFAULT_255_1_388
10
18.3146316
20
0.1062744
40
0.713663
50
9.0643887
51
23.9639114
0
ARC
8
DEFAULT_255_1_388
10
18.0608753
20
0.0636505
40
0.9709678
50
359.7585581
51
9.1891216
0
ARC
8
DEFAULT_255_1_388
10
17.9197342
20
0.0651562
40
0.9386278
50
359.7134836
51
7.9655743
0
ARC
8
DEFAULT_255_1_388
10
18.2530041
20
0.1132391
40
0.6019121
50
7.8289718
51
20.0423308
0
ARC
8
DEFAULT_255_1_388
10
18.4357508
20
0.1797145
40
0.4074504
50
20.0676743
51
35.9162425
0
ARC
8
DEFAULT_255_1_388
10
18.5229388
20
0.2445196
40
0.2988273
50
35.659429
51
85.1578517
0
ARC
8
DEFAULT_255_1_388
10
18.5021549
20
0.1190214
40
0.4257521
50
83.7963246
51
90.0959039
0
ARC
8
DEFAULT_255_1_388
10
18.4973094
20
0.2015384
40
0.3432594
50
89.3101324
51
109.9889786
0
ARC
8
DEFAULT_255_1_388
10
18.4880284
20
0.2415665
40
0.3025108
50
110.9286914
51
143.9411475
0
ARC
8
DEFAULT_255_1_388
10
18.5927586
20
0.1614455
40
0.434348
50
143.5289166
51
163.2980252
0
ARC
8
DEFAULT_255_1_388
10
18.8073873
20
0.0939685
40
0.659321
50
163.0418884
51
174.3139873
0
ARC
8
DEFAULT_255_1_388
10
19.0778838
20
0.0627378
40
0.9315905
50
174.050934
51
179.4174954
0
ARC
8
DEFAULT_255_1_388
10
19.0200552
20
-0.0293078
40
0.8737271
50
179.6829249
51
188.9631837
0
ARC
8
DEFAULT_255_1_388
10
18.7196283
20
-0.0782352
40
0.569348
50
188.8098723
51
202.9300437
0
ARC
8
DEFAULT_255_1_388
10
18.5828015
20
-0.1339032
40
0.4216493
50
203.2071737
51
215.7877161
0
ARC
8
DEFAULT_255_1_388
10
18.4873298
20
-0.209415
40
0.3000949
50
214.7520738
51
264.283405
0
ARC
8
DEFAULT_255_1_388
10
18.5025889
20
-0.1132355
40
0.3973553
50
263.4754673
51
270.0952411
0
ARC
8
DEFAULT_255_1_388
10
18.5073282
20
-0.1426192
40
0.3679937
50
269.3649295
51
287.5149684
0
ARC
8
DEFAULT_255_1_388
10
18.5273722
20
-0.2154286
40
0.2925408
50
288.0629019
51
323.8115617
0
ARC
8
DEFAULT_255_1_388
10
18.4293699
20
-0.1423246
40
0.4148018
50
323.6546541
51
342.6591359
0
ARC
8
DEFAULT_255_1_388
10
18.2008356
20
-0.067972
40
0.6551163
50
342.4092446
51
353.6451501
0
ARC
8
DEFAULT_255_1_388
10
17.882315
20
-0.0283435
40
0.9760748
50
353.4027553
51
359.4846611
0
LINE
8
DEFAULT_255_1_388
10
19.3571178
20
0.6757898
11
19.5649376
21
-0.2250639
0
LINE
8
DEFAULT_255_1_388
10
19.5649376
20
-0.2250639
11
19.5902375
21
-0.3985483
0
LINE
8
DEFAULT_255_1_388
10
19.5902375
20
-0.3985483
11
19.6272836
21
-0.2422316
0
LINE
8
DEFAULT_255_1_388
10
19.6272836
20
-0.2422316
11
19.8875102
21
0.6757898
0
LINE
8
DEFAULT_255_1_388
10
19.8875102
20
0.6757898
11
20.0338876
21
0.6757898
0
LINE
8
DEFAULT_255_1_388
10
20.0338876
20
0.6757898
11
20.2877892
21
-0.2422316
0
LINE
8
DEFAULT_255_1_388
10
20.2877892
20
-0.2422316
11
20.3239318
21
-0.401259
0
LINE
8
DEFAULT_255_1_388
10
20.3239318
20
-0.401259
11
20.3519423
21
-0.2241604
0
LINE
8
DEFAULT_255_1_388
10
20.3519423
20
-0.2241604
11
20.5561479
21
0.6757898
0
LINE
8
DEFAULT_255_1_388
10
20.5561479
20
0.6757898
11
20.7305358
21
0.6757898
0
LINE
8
DEFAULT_255_1_388
10
20.7305358
20
0.6757898
11
20.4115775
21
-0.6398
0
LINE
8
DEFAULT_255_1_388
10
20.4115775
20
-0.6398
11
20.2534538
21
-0.6398
0
LINE
8
DEFAULT_255_1_388
10
20.2534538
20
-0.6398
11
19.9823844
21
0.3188819
0
LINE
8
DEFAULT_255_1_388
10
19.9823844
20
0.3188819
11
19.9616024
21
0.4191775
0
LINE
8
DEFAULT_255_1_388
10
19.9616024
20
0.4191775
11
19.9408205
21
0.3188819
0
LINE
8
DEFAULT_255_1_388
10
19.9408205
20
0.3188819
11
19.6598119
21
-0.6398
0
LINE
8
DEFAULT_255_1_388
10
19.6598119
20
-0.6398
11
19.5016881
21
-0.6398
0
LINE
8
DEFAULT_255_1_388
10
19.5016881
20
-0.6398
11
19.1836334
21
0.6757898
0
LINE
8
DEFAULT_255_1_388
10
19.1836334
20
0.6757898
11
19.3571178
21
0.6757898
0
LINE
8
DEFAULT_255_1_388
10
21.3792951
20
-0.6398
11
20.922995
21
-0.6398
0
LINE
8
DEFAULT_255_1_388
10
20.922995
20
-0.6398
11
20.922995
21
0.6757898
0
LINE
8
DEFAULT_255_1_388
10
20.922995
20
0.6757898
11
21.3530917
21
0.6757898
0
LINE
8
DEFAULT_255_1_388
10
21.38562
20
-0.0244726
11
21.0964794
21
-0.0244726
0
LINE
8
DEFAULT_255_1_388
10
21.0964794
20
-0.0244726
11
21.0964794
21
-0.4979404
0
LINE
8
DEFAULT_255_1_388
10
21.0964794
20
-0.4979404
11
21.3829093
21
-0.4979404
0
LINE
8
DEFAULT_255_1_388
10
21.0964794
20
0.5330267
11
21.0964794
21
0.1146763
0
LINE
8
DEFAULT_255_1_388
10
21.0964794
20
0.1146763
11
21.3585131
21
0.1146763
0
LINE
8
DEFAULT_255_1_388
10
21.3530917
20
0.5330267
11
21.0964794
21
0.5330267
0
ARC
8
DEFAULT_255_1_388
10
21.3573337
20
-0.1530176
40
0.8288183
50
82.1256322
51
90.2932506
0
ARC
8
DEFAULT_255_1_388
10
21.4010912
20
0.152759
40
0.5199321
50
69.9044202
51
82.2857574
0
ARC
8
DEFAULT_255_1_388
10
21.4652905
20
0.3262993
40
0.3348993
50
51.1840204
51
70.018125
0
ARC
8
DEFAULT_255_1_388
10
21.4939737
20
0.3679945
40
0.2844579
50
12.1018086
51
50.421322
0
ARC
8
DEFAULT_255_1_388
10
21.3382609
20
0.3288937
40
0.4449429
50
359.5252354
51
12.8212369
0
ARC
8
DEFAULT_255_1_388
10
21.5160039
20
0.3210943
40
0.2672162
50
323.4907456
51
0.8818258
0
ARC
8
DEFAULT_255_1_388
10
21.4689451
20
0.3574523
40
0.3266736
50
298.6824053
51
323.2758285
0
ARC
8
DEFAULT_255_1_388
10
21.4282743
20
0.4250509
40
0.4055105
50
293.1994739
51
299.139634
0
ARC
8
DEFAULT_255_1_388
10
21.5039692
20
-0.2595349
40
0.3229926
50
54.0009997
51
74.9168635
0
ARC
8
DEFAULT_255_1_388
10
21.5170619
20
-0.2373489
40
0.2973581
50
36.3578854
51
53.5293172
0
ARC
8
DEFAULT_255_1_388
10
21.5027987
20
-0.247515
40
0.3148715
50
4.8189348
51
36.3090187
0
ARC
8
DEFAULT_255_1_388
10
21.4151011
20
-0.2598617
40
0.4033265
50
359.9373213
51
5.5201284
0
ARC
8
DEFAULT_255_1_388
10
21.3786342
20
-0.2644267
40
0.4398126
50
344.7479357
51
0.5372278
0
ARC
8
DEFAULT_255_1_388
10
21.490124
20
-0.2944795
40
0.3243441
50
311.1785587
51
344.6887681
0
ARC
8
DEFAULT_255_1_388
10
21.4572783
20
-0.2535916
40
0.3767511
50
286.0417804
51
310.8440924
0
ARC
8
DEFAULT_255_1_388
10
21.4002193
20
-0.0683115
40
0.5705957
50
274.1044074
51
286.4070149
0
ARC
8
DEFAULT_255_1_388
10
21.3803408
20
0.1434901
40
0.7832907
50
269.9235077
51
274.4458593
0
ARC
8
DEFAULT_255_1_388
10
21.3855126
20
-0.1196538
40
0.3782955
50
269.6057074
51
281.3740795
0
ARC
8
DEFAULT_255_1_388
10
21.4114625
20
-0.2426431
40
0.2526069
50
281.105298
51
302.5134029
0
ARC
8
DEFAULT_255_1_388
10
21.4280012
20
-0.2723056
40
0.2187131
50
303.0365425
51
311.8818034
0
ARC
8
DEFAULT_255_1_388
10
21.4360189
20
-0.2818398
40
0.2062624
50
311.9916937
51
351.7143773
0
ARC
8
DEFAULT_255_1_388
10
21.3441214
20
-0.2632729
40
0.2999202
50
350.7343295
51
0.2221526
0
ARC
8
DEFAULT_255_1_388
10
21.3320302
20
-0.256913
40
0.3120525
50
359.045729
51
17.2295312
0
ARC
8
DEFAULT_255_1_388
10
21.4489333
20
-0.2221845
40
0.1901144
50
17.6685208
51
78.9940245
0
ARC
8
DEFAULT_255_1_388
10
21.3907693
20
-0.4309989
40
0.4065575
50
76.565218
51
90.7103392
0
LINE
8
DEFAULT_255_1_388
10
21.3857291
20
-0.0244726
11
21.38562
21
-0.0244726
0
ARC
8
DEFAULT_255_1_388
10
21.3610519
20
0.4842949
40
0.3696273
50
269.6064514
51
281.4533785
0
ARC
8
DEFAULT_255_1_388
10
21.386116
20
0.3660283
40
0.2487412
50
281.2044438
51
302.5143998
0
ARC
8
DEFAULT_255_1_388
10
21.4015414
20
0.3382576
40
0.2170405
50
303.0211308
51
309.8378766
0
ARC
8
DEFAULT_255_1_388
10
21.4221531
20
0.3151486
40
0.1860946
50
309.5229446
51
356.9509628
0
ARC
8
DEFAULT_255_1_388
10
21.3475657
20
0.3258831
40
0.2612347
50
355.4699226
51
0.0498632
0
ARC
8
DEFAULT_255_1_388
10
21.3161331
20
0.3283789
40
0.2926762
50
359.5558955
51
11.2092924
0
ARC
8
DEFAULT_255_1_388
10
21.4238298
20
0.3506667
40
0.1827036
50
10.9185717
51
31.322519
0
ARC
8
DEFAULT_255_1_388
10
21.4559846
20
0.3685571
40
0.1459418
50
31.8850633
51
52.1415586
0
ARC
8
DEFAULT_255_1_388
10
21.4251276
20
0.3249674
40
0.1993088
50
52.8283418
51
71.9850132
0
ARC
8
DEFAULT_255_1_388
10
21.3828436
20
0.2005158
40
0.3307407
50
71.686634
51
82.8453416
0
ARC
8
DEFAULT_255_1_388
10
21.3559083
20
-0.0030108
40
0.536039
50
82.6981895
51
90.1730083
0
ARC
8
DEFAULT_255_1_388
10
21.3533915
20
0.0848836
40
0.4481429
50
89.8851568
51
90.0383283
0
LINE
8
DEFAULT_255_2_778
10
11.0359959
20
120.7481531
11
10.9838959
21
121.0854531
0
LINE
8
DEFAULT_255_2_778
10
10.9838959
20
121.0854531
11
10.4068959
21
121.0854531
0
LINE
8
DEFAULT_255_2_778
10
10.4068959
20
121.0854531
11
10.2364959
21
120.7481531
0
LINE
8
DEFAULT_255_2_778
10
10.2364959
20
120.7481531
11
9.8694959
21
120.7481531
0
LINE
8
DEFAULT_255_2_778
10
9.8694959
20
120.7481531
11
10.7531959
21
122.3856531
0
LINE
8
DEFAULT_255_2_778
10
10.7531959
20
122.3856531
11
11.0608959
21
122.3856531
0
LINE
8
DEFAULT_255_2_778
10
11.0608959
20
122.3856531
11
11.3754959
21
120.7481531
0
LINE
8
DEFAULT_255_2_778
10
11.3754959
20
120.7481531
11
11.0357959
21
120.7481531
0
LINE
8
DEFAULT_255_2_778
10
11.0357959
20
120.7481531
11
11.0359959
21
120.7481531
0
LINE
8
DEFAULT_255_2_778
10
10.8486959
20
121.9684531
11
10.5430959
21
121.3588531
0
LINE
8
DEFAULT_255_2_778
10
10.5430959
20
121.3588531
11
10.9418959
21
121.3588531
0
LINE
8
DEFAULT_255_2_778
10
10.9418959
20
121.3588531
11
10.8486959
21
121.9684531
0
LINE
8
DEFAULT_255_2_778
10
10.8486959
20
121.9684531
11
10.8486959
21
121.9684531
0
LINE
8
DEFAULT_255_2_778
10
12.1615594
20
122.4756646
11
11.8593594
21
120.7479646
0
LINE
8
DEFAULT_255_2_778
10
11.8593594
20
120.7479646
11
11.5368594
21
120.7479646
0
LINE
8
DEFAULT_255_2_778
10
11.5368594
20
120.7479646
11
11.8400594
21
122.4756646
0
LINE
8
DEFAULT_255_2_778
10
11.8400594
20
122.4756646
11
12.1615594
21
122.4756646
0
LINE
8
DEFAULT_255_2_778
10
12.1615594
20
122.4756646
11
12.1615594
21
122.4756646
0
LINE
8
DEFAULT_255_2_778
10
12.7717594
20
122.4756646
11
12.4695594
21
120.7479646
0
LINE
8
DEFAULT_255_2_778
10
12.4695594
20
120.7479646
11
12.1470594
21
120.7479646
0
LINE
8
DEFAULT_255_2_778
10
12.1470594
20
120.7479646
11
12.4502594
21
122.4756646
0
LINE
8
DEFAULT_255_2_778
10
12.4502594
20
122.4756646
11
12.7717594
21
122.4756646
0
LINE
8
DEFAULT_255_2_778
10
12.7717594
20
122.4756646
11
12.7717594
21
122.4756646
0
ARC
8
DEFAULT_255_2_778
10
13.3180767
20
121.2637764
40
0.5383522
50
238.763891
51
270.7055166
0
ARC
8
DEFAULT_255_2_778
10
13.2867625
20
121.208452
40
0.4748131
50
204.061185
51
238.5328679
0
ARC
8
DEFAULT_255_2_778
10
13.3693681
20
121.2480331
40
0.5663841
50
179.4896096
51
204.3103027
0
ARC
8
DEFAULT_255_2_778
10
13.4933843
20
121.2525727
40
0.6903781
50
175.123126
51
179.9580366
0
ARC
8
DEFAULT_255_2_778
10
13.5850479
20
121.2875152
40
0.7790728
50
149.5392097
51
174.9446897
0
ARC
8
DEFAULT_255_2_778
10
13.459184
20
121.3710212
40
0.628301
50
120.7003982
51
150.2846053
0
ARC
8
DEFAULT_255_2_778
10
13.4196851
20
121.4307024
40
0.556829
50
89.4236852
51
120.3409826
0
ARC
8
DEFAULT_255_2_778
10
13.4252352
20
121.3319671
40
0.6555361
50
88.4553682
51
89.9955718
0
ARC
8
DEFAULT_255_2_778
10
13.4481363
20
121.5161369
40
0.4711572
50
58.4514404
51
90.636095
0
ARC
8
DEFAULT_255_2_778
10
13.4744403
20
121.5795423
40
0.403504
50
35.6058989
51
56.9235594
0
ARC
8
DEFAULT_255_2_778
10
13.3641882
20
121.5057058
40
0.5361477
50
0.6851965
51
35.1616077
0
ARC
8
DEFAULT_255_2_778
10
13.1616313
20
121.4853229
40
0.7391521
50
359.9888194
51
2.0774415
0
ARC
8
DEFAULT_255_2_778
10
13.0480025
20
121.4870249
40
0.852783
50
353.383538
51
359.8759623
0
ARC
8
DEFAULT_255_2_778
10
13.534221
20
121.2346119
40
0.4107176
50
177.8018731
51
179.9839782
0
ARC
8
DEFAULT_255_2_778
10
13.3756217
20
121.223124
40
0.2523852
50
177.3650374
51
219.8309448
0
ARC
8
DEFAULT_255_2_778
10
13.3462068
20
121.2098401
40
0.2214564
50
222.0668323
51
271.55222
0
ARC
8
DEFAULT_255_2_778
10
13.3632002
20
121.4146289
40
0.4263057
50
268.5221572
51
269.9980687
0
ARC
8
DEFAULT_255_2_778
10
13.3616001
20
121.3850217
40
0.3967017
50
270.2290309
51
318.5203973
0
ARC
8
DEFAULT_255_2_778
10
13.4310056
20
121.2017979
40
0.4555006
50
292.4982989
51
325.2807674
0
ARC
8
DEFAULT_255_2_778
10
13.3411907
20
121.3803545
40
0.6549996
50
269.6158853
51
293.7802026
0
ARC
8
DEFAULT_255_2_778
10
13.3368026
20
121.467233
40
0.7418635
50
269.0811303
51
269.9997673
0
ARC
8
DEFAULT_255_2_778
10
13.4205249
20
121.4601977
40
0.2651417
50
88.6426435
51
89.9971979
0
ARC
8
DEFAULT_255_2_778
10
13.4187009
20
121.4954788
40
0.2298681
50
89.5421073
51
130.5025885
0
ARC
8
DEFAULT_255_2_778
10
13.5174398
20
121.3953327
40
0.370282
50
132.0556576
51
154.4346079
0
ARC
8
DEFAULT_255_2_778
10
13.9187288
20
121.1777869
40
0.8264843
50
152.8348001
51
159.2008974
0
ARC
8
DEFAULT_255_2_778
10
13.283715
20
121.5487268
40
0.3137404
50
351.1327381
51
359.8552777
0
ARC
8
DEFAULT_255_2_778
10
13.3301744
20
121.5483274
40
0.2672803
50
359.9157472
51
8.073482
0
ARC
8
DEFAULT_255_2_778
10
13.4328726
20
121.5636276
40
0.1634528
50
7.8192239
51
49.4174523
0
ARC
8
DEFAULT_255_2_778
10
13.4309336
20
121.5504377
40
0.174876
50
51.746929
51
91.3525911
0
LINE
8
DEFAULT_255_2_778
10
12.8055056
20
121.311265
11
12.8090056
21
121.356165
0
LINE
8
DEFAULT_255_2_778
10
13.8951056
20
121.388765
11
13.8768056
21
121.250365
0
LINE
8
DEFAULT_255_2_778
10
13.8768056
20
121.250365
11
13.1238056
21
121.250365
0
LINE
8
DEFAULT_255_2_778
10
13.6588056
20
121.122265
11
13.8054056
21
120.942365
0
LINE
8
DEFAULT_255_2_778
10
13.3249056
20
120.725465
11
13.3247056
21
120.725465
0
LINE
8
DEFAULT_255_2_778
10
13.1461056
20
121.471265
11
13.5868056
21
121.471265
0
LINE
8
DEFAULT_255_2_778
10
13.5868056
20
121.471265
11
13.5937056
21
121.500365
0
LINE
8
DEFAULT_255_2_778
10
13.4268056
20
121.725265
11
13.4268056
21
121.725265
0
ARC
8
DEFAULT_255_2_778
10
14.7973588
20
121.5438783
40
0.4439397
50
89.8554796
51
141.1589213
0
ARC
8
DEFAULT_255_2_778
10
14.7984572
20
121.482943
40
0.5048737
50
88.7717605
51
89.9975792
0
ARC
8
DEFAULT_255_2_778
10
14.8178417
20
121.6718406
40
0.315976
50
50.4893295
51
91.5528058
0
ARC
8
DEFAULT_255_2_778
10
14.8339359
20
121.7062178
40
0.2793745
50
33.8414583
51
48.5499238
0
ARC
8
DEFAULT_255_2_778
10
14.731985
20
121.6473286
40
0.3969262
50
4.3932888
51
32.7062485
0
ARC
8
DEFAULT_255_2_778
10
14.4819065
20
121.6119301
40
0.6491822
50
359.8769204
51
5.8177478
0
ARC
8
DEFAULT_255_2_778
10
14.2701804
20
121.6128881
40
0.8609097
50
353.9399056
51
359.8434284
0
ARC
8
DEFAULT_255_2_778
10
14.4164047
20
121.5785967
40
0.3954956
50
352.2407688
51
359.7520116
0
ARC
8
DEFAULT_255_2_778
10
14.5201997
20
121.5774041
40
0.2916973
50
359.8980094
51
5.448398
0
ARC
8
DEFAULT_255_2_778
10
14.6814536
20
121.5945865
40
0.129553
50
4.6550554
51
97.2610773
0
ARC
8
DEFAULT_255_2_778
10
14.655996
20
121.4688531
40
0.2544097
50
87.9539208
51
89.9945997
0
ARC
8
DEFAULT_255_2_778
10
14.6629447
20
121.4532668
40
0.2700847
50
91.4691634
51
141.078713
0
ARC
8
DEFAULT_255_2_778
10
14.7966376
20
121.3114301
40
0.4639576
50
137.8219849
51
140.394746
0
ARC
8
DEFAULT_255_2_778
10
16.9661161
20
121.358211
40
1.026426
50
77.5141066
51
90.4821212
0
ARC
8
DEFAULT_255_2_778
10
17.0845798
20
121.8674611
40
0.5036389
50
52.814306
51
78.1469212
0
ARC
8
DEFAULT_255_2_778
10
17.1732245
20
121.9957438
40
0.3479303
50
357.5432245
51
51.6759047
0
ARC
8
DEFAULT_255_2_778
10
16.9814613
20
121.9811938
40
0.5393738
50
356.248244
51
359.9613012
0
ARC
8
DEFAULT_255_2_778
10
17.128092
20
121.9685882
40
0.3922439
50
295.0867564
51
356.6841236
0
ARC
8
DEFAULT_255_2_778
10
16.9599154
20
122.2313279
40
0.7026958
50
292.6018649
51
298.4245718
0
ARC
8
DEFAULT_255_2_778
10
17.1412835
20
121.318675
40
0.2784307
50
29.5992916
51
71.4243751
0
ARC
8
DEFAULT_255_2_778
10
17.0686219
20
121.2764727
40
0.3624559
50
358.8250622
51
29.7265593
0
ARC
8
DEFAULT_255_2_778
10
16.932071
20
121.2693262
40
0.4989307
50
356.3312443
51
359.9671937
0
ARC
8
DEFAULT_255_2_778
10
16.9581925
20
121.2505387
40
0.4719696
50
307.6792206
51
358.4048608
0
ARC
8
DEFAULT_255_2_778
10
16.8807048
20
121.3713643
40
0.6150877
50
279.1080464
51
306.5123219
0
ARC
8
DEFAULT_255_2_778
10
16.7961448
20
121.7934116
40
1.0453321
50
269.63465
51
280.0226117
0
ARC
8
DEFAULT_255_2_778
10
16.8094212
20
121.3585308
40
0.3407431
50
267.9747348
51
304.6141501
0
ARC
8
DEFAULT_255_2_778
10
16.8661516
20
121.2723067
40
0.2375665
50
305.166569
51
352.3059676
0
ARC
8
DEFAULT_255_2_778
10
16.775822
20
121.2933166
40
0.3300111
50
350.7906063
51
359.6837465
0
ARC
8
DEFAULT_255_2_778
10
16.9356152
20
121.2989465
40
0.170376
50
357.4933304
51
35.754963
0
ARC
8
DEFAULT_255_2_778
10
16.9423472
20
121.2846963
40
0.1739313
50
40.8670445
51
88.9145542
0
ARC
8
DEFAULT_255_2_778
10
16.9113357
20
121.0994792
40
0.360752
50
84.5431107
51
87.5464559
0
ARC
8
DEFAULT_255_2_778
10
16.8864523
20
122.0715688
40
0.3741259
50
268.9933192
51
299.9063201
0
ARC
8
DEFAULT_255_2_778
10
16.9296435
20
121.9787438
40
0.2722705
50
301.7671328
51
305.0688299
0
ARC
8
DEFAULT_255_2_778
10
16.9572403
20
121.9426463
40
0.2268776
50
304.6024496
51
352.3134516
0
ARC
8
DEFAULT_255_2_778
10
16.9035208
20
121.9533322
40
0.2815642
50
351.6205962
51
359.745937
0
ARC
8
DEFAULT_255_2_778
10
17.0391775
20
121.9594083
40
0.1460884
50
357.1260689
51
87.9509322
0
ARC
8
DEFAULT_255_2_778
10
16.9733166
20
121.6800677
40
0.4312349
50
80.5121161
51
90.1776895
0
ARC
8
DEFAULT_255_2_778
10
18.304359
20
121.0082308
40
0.6634375
50
79.3314563
51
88.7113465
0
ARC
8
DEFAULT_255_2_778
10
18.3079683
20
121.2416839
40
0.4299655
50
88.4925657
51
89.9946723
0
ARC
8
DEFAULT_255_2_778
10
18.2982438
20
121.3617608
40
0.3100425
50
88.1952228
51
143.885382
0
ARC
8
DEFAULT_255_2_778
10
18.4077805
20
121.6067129
40
0.3980768
50
117.0828142
51
147.9763761
0
ARC
8
DEFAULT_255_2_778
10
18.3544747
20
121.6900295
40
0.2997784
50
89.5977622
51
115.2613452
0
ARC
8
DEFAULT_255_2_778
10
18.3464621
20
121.5178482
40
0.4720608
50
75.0830674
51
88.7719532
0
ARC
8
DEFAULT_255_2_778
10
19.3883565
20
120.8350588
40
0.303463
50
178.9513385
51
196.6911244
0
ARC
8
DEFAULT_255_2_778
10
19.5567182
20
120.8404238
40
0.4717738
50
177.8405456
51
179.9770623
0
ARC
8
DEFAULT_255_2_778
10
18.7787325
20
121.1450947
40
0.4198561
50
270.5473861
51
316.8967404
0
ARC
8
DEFAULT_255_2_778
10
18.7827705
20
121.1554581
40
0.4302003
50
268.5226571
51
269.9964175
0
ARC
8
DEFAULT_255_2_778
10
18.7647216
20
121.1035252
40
0.3781887
50
226.455184
51
271.0541416
0
ARC
8
DEFAULT_255_2_778
10
18.7161161
20
121.0581869
40
0.311866
50
179.0506747
51
227.1894377
0
ARC
8
DEFAULT_255_2_778
10
18.7977006
20
121.0632683
40
0.3934079
50
177.4603384
51
179.9875271
0
ARC
8
DEFAULT_255_2_778
10
18.7677222
20
121.0792892
40
0.3630457
50
122.3464314
51
179.7772632
0
ARC
8
DEFAULT_255_2_778
10
18.9127921
20
120.8521577
40
0.6325515
50
98.6956815
51
122.4402135
0
ARC
8
DEFAULT_255_2_778
10
18.9977072
20
120.3971789
40
1.0952432
50
89.6404969
51
99.4883828
0
ARC
8
DEFAULT_255_2_778
10
18.91142
20
121.612456
40
0.2635833
50
349.2520325
51
359.7979352
0
ARC
8
DEFAULT_255_2_778
10
18.9485896
20
121.6116836
40
0.2264121
50
359.9602232
51
5.7075699
0
ARC
8
DEFAULT_255_2_778
10
19.0517084
20
121.6258244
40
0.1224577
50
3.9221136
51
47.9806675
0
ARC
8
DEFAULT_255_2_778
10
19.0461009
20
121.6084028
40
0.1393558
50
51.0640414
51
91.6537281
0
ARC
8
DEFAULT_255_2_778
10
19.0343864
20
121.4742856
40
0.2735232
50
88.3883484
51
89.9950272
0
ARC
8
DEFAULT_255_2_778
10
19.0289472
20
121.5521996
40
0.1956856
50
88.4002709
51
125.6558116
0
ARC
8
DEFAULT_255_2_778
10
19.0229477
20
121.5704867
40
0.1774238
50
127.5242925
51
170.6536699
0
ARC
8
DEFAULT_255_2_778
10
18.8789596
20
121.5842573
40
0.3527561
50
122.7014157
51
177.7346919
0
ARC
8
DEFAULT_255_2_778
10
19.030198
20
121.3792043
40
0.6072396
50
91.7146868
51
124.2570002
0
ARC
8
DEFAULT_255_2_778
10
19.05893
20
121.1223064
40
0.865138
50
89.9735854
51
93.1077226
0
ARC
8
DEFAULT_255_2_778
10
19.0592938
20
121.065756
40
0.9216883
50
89.4414218
51
89.9978259
0
ARC
8
DEFAULT_255_2_778
10
19.0704714
20
121.4672068
40
0.5201984
50
63.6868659
51
90.2414521
0
ARC
8
DEFAULT_255_2_778
10
19.1244671
20
121.5951249
40
0.3816898
50
44.805062
51
62.4405121
0
ARC
8
DEFAULT_255_2_778
10
19.1511934
20
121.6193957
40
0.3456276
50
358.4368244
51
45.0725574
0
ARC
8
DEFAULT_255_2_778
10
18.9988451
20
121.6107092
40
0.4978477
50
354.0151208
51
359.9146153
0
ARC
8
DEFAULT_255_2_778
10
19.916384
20
120.8884006
40
0.5223437
50
178.2666392
51
179.9853875
0
ARC
8
DEFAULT_255_2_778
10
19.7189724
20
120.8805635
40
0.3250299
50
178.5948625
51
200.018038
0
ARC
8
DEFAULT_255_2_778
10
18.8607749
20
121.2694835
40
0.2979407
50
268.1351457
51
269.9967975
0
ARC
8
DEFAULT_255_2_778
10
18.8555143
20
121.2669809
40
0.2954847
50
271.0168715
51
323.4470831
0
ARC
8
DEFAULT_255_2_778
10
19.0185177
20
120.9074003
40
0.3950093
50
89.6139406
51
115.9632081
0
ARC
8
DEFAULT_255_2_778
10
18.9568146
20
121.0485476
40
0.2411766
50
117.4642621
51
142.4598629
0
ARC
8
DEFAULT_255_2_778
10
18.9147894
20
121.0854762
40
0.1853888
50
143.595728
51
174.110017
0
ARC
8
DEFAULT_255_2_778
10
18.8922711
20
121.0799244
40
0.1637466
50
171.368069
51
179.7835889
0
ARC
8
DEFAULT_255_2_778
10
18.8267207
20
121.0768088
40
0.098266
50
177.8221965
51
224.0379617
0
ARC
8
DEFAULT_255_2_778
10
18.8464576
20
121.1018517
40
0.1299333
50
225.9269812
51
272.0384171
0
ARC
8
DEFAULT_255_2_778
10
20.216987
20
121.6369976
40
0.3515032
50
37.8132465
51
89.9360651
0
ARC
8
DEFAULT_255_2_778
10
20.0346749
20
121.1467418
40
0.4267183
50
285.291584
51
321.0175046
0
ARC
8
DEFAULT_255_2_778
10
20.0570669
20
121.1005225
40
0.3763475
50
269.8450062
51
283.8588709
0
ARC
8
DEFAULT_255_2_778
10
20.0560587
20
121.1332286
40
0.4090522
50
268.5880369
51
269.9986183
0
ARC
8
DEFAULT_255_2_778
10
20.0420305
20
121.0800487
40
0.3557701
50
236.3475668
51
270.6359501
0
ARC
8
DEFAULT_255_2_778
10
20.0598141
20
121.0915321
40
0.3752788
50
201.8435891
51
235.058908
0
ARC
8
DEFAULT_255_2_778
10
20.3322211
20
121.2105871
40
0.6724873
50
181.1917384
51
202.6233367
0
ARC
8
DEFAULT_255_2_778
10
20.6351677
20
121.2436339
40
0.9764219
50
180.0156472
51
182.7609519
0
ARC
8
DEFAULT_255_2_778
10
20.5470549
20
121.2442658
40
0.8883095
50
174.2087211
51
180.0579587
0
ARC
8
DEFAULT_255_2_778
10
20.6346038
20
121.2571468
40
0.9727968
50
152.6606942
51
172.4775279
0
ARC
8
DEFAULT_255_2_778
10
20.4685375
20
121.3316269
40
0.7911386
50
151.1967159
51
151.9287309
0
ARC
8
DEFAULT_255_2_778
10
20.2724416
20
121.4556657
40
0.559722
50
125.8155177
51
152.6517649
0
ARC
8
DEFAULT_255_2_778
10
20.1926864
20
121.5501789
40
0.4365104
50
121.2895022
51
124.5859333
0
ARC
8
DEFAULT_255_2_778
10
20.2005174
20
121.5358255
40
0.4528439
50
89.3885498
51
121.1930117
0
ARC
8
DEFAULT_255_2_778
10
20.205315
20
121.4540492
40
0.5345942
50
88.6747242
51
89.9962477
0
ARC
8
DEFAULT_255_2_778
10
21.0229427
20
121.2166181
40
1.044966
50
173.5557888
51
179.5636493
0
ARC
8
DEFAULT_255_2_778
10
20.5582157
20
121.223589
40
0.5802095
50
179.9025124
51
183.3187157
0
ARC
8
DEFAULT_255_2_778
10
20.270534
20
121.194649
40
0.2915917
50
180.9134286
51
207.6247443
0
ARC
8
DEFAULT_255_2_778
10
20.135005
20
121.1302881
40
0.1417894
50
209.9763709
51
272.172214
0
ARC
8
DEFAULT_255_2_778
10
20.1512082
20
121.2540383
40
0.2656585
50
267.6638236
51
269.9934853
0
ARC
8
DEFAULT_255_2_778
10
20.1452669
20
121.2578962
40
0.2695812
50
271.2564257
51
323.4819236
0
ARC
8
DEFAULT_255_2_778
10
20.0042443
20
121.3967425
40
0.4663623
50
320.0808185
51
322.7722781
0
ARC
8
DEFAULT_255_2_778
10
20.2905955
20
121.5430938
40
0.1811681
50
17.7085133
51
91.4917236
0
ARC
8
DEFAULT_255_2_778
10
20.2776466
20
121.4423302
40
0.2819906
50
88.3270304
51
89.9962875
0
ARC
8
DEFAULT_255_2_778
10
20.2751839
20
121.4904886
40
0.2338453
50
89.3920923
51
141.8934507
0
ARC
8
DEFAULT_255_2_778
10
20.4150372
20
121.3808724
40
0.411538
50
141.9009784
51
164.0634131
0
ARC
8
DEFAULT_255_2_778
10
20.9401614
20
121.2131385
40
0.9626867
50
163.0454941
51
172.7936709
0
LINE
8
DEFAULT_255_2_778
10
14.1790793
20
121.9652006
11
14.4788793
21
121.9663006
0
LINE
8
DEFAULT_255_2_778
10
14.4788793
20
121.9663006
11
14.4515793
21
121.8223006
0
LINE
8
DEFAULT_255_2_778
10
15.1262793
20
121.5220006
11
14.9968793
21
120.7481006
0
LINE
8
DEFAULT_255_2_778
10
14.9968793
20
120.7481006
11
14.6764793
21
120.7481006
0
LINE
8
DEFAULT_255_2_778
10
14.6764793
20
120.7481006
11
14.8082793
21
121.5252006
0
LINE
8
DEFAULT_255_2_778
10
14.4391793
20
121.6072006
11
14.2856793
21
120.7479006
0
LINE
8
DEFAULT_255_2_778
10
14.2856793
20
120.7479006
11
13.9652793
21
120.7479006
0
LINE
8
DEFAULT_255_2_778
10
13.9652793
20
120.7479006
11
14.1787793
21
121.9650006
0
LINE
8
DEFAULT_255_2_778
10
14.1787793
20
121.9650006
11
14.1790793
21
121.9652006
0
LINE
8
DEFAULT_255_2_778
10
16.0157793
20
121.5803006
11
15.9692793
21
121.3183006
0
LINE
8
DEFAULT_255_2_778
10
15.9692793
20
121.3183006
11
15.3466793
21
121.3183006
0
LINE
8
DEFAULT_255_2_778
10
15.3466793
20
121.3183006
11
15.3921793
21
121.5803006
0
LINE
8
DEFAULT_255_2_778
10
15.3921793
20
121.5803006
11
16.0157793
21
121.5803006
0
LINE
8
DEFAULT_255_2_778
10
16.0157793
20
121.5803006
11
16.0157793
21
121.5803006
0
LINE
8
DEFAULT_255_2_778
10
16.7894793
20
120.7481006
11
16.1544793
21
120.7481006
0
LINE
8
DEFAULT_255_2_778
10
16.1544793
20
120.7481006
11
16.4417793
21
122.3856006
0
LINE
8
DEFAULT_255_2_778
10
16.4417793
20
122.3856006
11
16.9574793
21
122.3846006
0
LINE
8
DEFAULT_255_2_778
10
16.7894793
20
120.7481006
11
16.7894793
21
120.7481006
0
LINE
8
DEFAULT_255_2_778
10
16.9267793
20
121.4601006
11
16.6131793
21
121.4612006
0
LINE
8
DEFAULT_255_2_778
10
16.6131793
20
121.4612006
11
16.5348793
21
121.0191006
0
LINE
8
DEFAULT_255_2_778
10
16.5348793
20
121.0191006
11
16.7973793
21
121.0180006
0
LINE
8
DEFAULT_255_2_778
10
16.9267793
20
121.4599006
11
16.9267793
21
121.4601006
0
LINE
8
DEFAULT_255_2_778
10
16.7267793
20
122.1126006
11
16.6539793
21
121.6998006
0
LINE
8
DEFAULT_255_2_778
10
16.6539793
20
121.6998006
11
16.8798793
21
121.6975006
0
LINE
8
DEFAULT_255_2_778
10
16.9719793
20
122.1113006
11
16.7267793
21
122.1123006
0
LINE
8
DEFAULT_255_2_778
10
16.7267793
20
122.1123006
11
16.7267793
21
122.1126006
0
LINE
8
DEFAULT_255_2_778
10
18.4681793
20
121.9740006
11
18.4271793
21
121.6602006
0
LINE
8
DEFAULT_255_2_778
10
18.0477793
20
121.5445006
11
17.9056793
21
120.7481006
0
LINE
8
DEFAULT_255_2_778
10
17.9056793
20
120.7481006
11
17.5852793
21
120.7481006
0
LINE
8
DEFAULT_255_2_778
10
17.5852793
20
120.7481006
11
17.7987793
21
121.9652006
0
LINE
8
DEFAULT_255_2_778
10
17.7987793
20
121.9652006
11
18.0998793
21
121.9663006
0
LINE
8
DEFAULT_255_2_778
10
18.0998793
20
121.9663006
11
18.0702793
21
121.8178006
0
LINE
8
DEFAULT_255_2_778
10
18.4679793
20
121.9740006
11
18.4681793
21
121.9740006
0
LINE
8
DEFAULT_255_2_778
10
19.4122793
20
120.7479006
11
19.0976793
21
120.7479006
0
LINE
8
DEFAULT_255_2_778
10
19.0045793
20
121.4924006
11
19.1545793
21
121.4903006
0
LINE
8
DEFAULT_255_2_778
10
19.1545793
20
121.4903006
11
19.1703793
21
121.5633006
0
LINE
8
DEFAULT_255_2_778
10
18.8478793
20
121.5993006
11
18.5264793
21
121.5982006
0
LINE
8
DEFAULT_255_2_778
10
19.4939793
20
121.5588006
11
19.3997793
21
120.9762006
0
LINE
8
DEFAULT_255_2_778
10
19.3997793
20
120.9762006
11
19.3942793
21
120.9042006
0
LINE
8
DEFAULT_255_2_778
10
19.4135793
20
120.7693006
11
19.4124793
21
120.7479006
0
LINE
8
DEFAULT_255_2_778
10
19.4124793
20
120.7479006
11
19.4122793
21
120.7479006
0
LINE
8
DEFAULT_255_2_778
10
19.0928793
20
121.0910006
11
19.1325793
21
121.3014006
0
LINE
8
DEFAULT_255_2_778
10
19.1325793
20
121.3014006
11
19.0211793
21
121.3024006
0
LINE
8
DEFAULT_255_2_778
10
18.8510793
20
120.9720006
11
18.8510793
21
120.9717006
0
LINE
8
DEFAULT_255_2_778
10
20.4946793
20
121.8525006
11
20.6150793
21
122.4756006
0
LINE
8
DEFAULT_255_2_778
10
20.6150793
20
122.4756006
11
20.9364793
21
122.4756006
0
LINE
8
DEFAULT_255_2_778
10
20.9364793
20
122.4756006
11
20.6343793
21
120.7479006
0
LINE
8
DEFAULT_255_2_778
10
20.6343793
20
120.7479006
11
20.3480793
21
120.7479006
0
LINE
8
DEFAULT_255_2_778
10
20.3480793
20
120.7479006
11
20.3663793
21
120.8783006
0
LINE
8
DEFAULT_255_2_778
10
19.6632793
20
121.3339006
11
19.6701793
21
121.3845006
0
LINE
8
DEFAULT_255_2_778
10
20.2176793
20
121.9885006
11
20.2173793
21
121.9885006
0
LINE
8
DEFAULT_255_2_778
10
20.3755793
20
121.1146006
11
20.4631793
21
121.5982006
0
LINE
8
DEFAULT_255_2_778
10
19.9850793
20
121.3339006
11
19.9845793
21
121.3339006
0
LINE
8
DEFAULT_255_2_778
10
21.5304594
20
122.4756646
11
21.2282594
21
120.7479646
0
LINE
8
DEFAULT_255_2_778
10
21.2282594
20
120.7479646
11
20.9057594
21
120.7479646
0
LINE
8
DEFAULT_255_2_778
10
20.9057594
20
120.7479646
11
21.2089594
21
122.4756646
0
LINE
8
DEFAULT_255_2_778
10
21.2089594
20
122.4756646
11
21.5304594
21
122.4756646
0
LINE
8
DEFAULT_255_2_778
10
21.5304594
20
122.4756646
11
21.5304594
21
122.4756646
0
ARC
8
DEFAULT_255_2_778
10
22.0768767
20
121.2637764
40
0.5383522
50
238.763891
51
270.7055166
0
ARC
8
DEFAULT_255_2_778
10
22.0455625
20
121.208452
40
0.4748131
50
204.061185
51
238.5328679
0
ARC
8
DEFAULT_255_2_778
10
22.1281681
20
121.2480331
40
0.5663841
50
179.4896096
51
204.3103027
0
ARC
8
DEFAULT_255_2_778
10
22.2521843
20
121.2525727
40
0.6903781
50
175.123126
51
179.9580366
0
ARC
8
DEFAULT_255_2_778
10
22.3438479
20
121.2875152
40
0.7790728
50
149.5392097
51
174.9446897
0
ARC
8
DEFAULT_255_2_778
10
22.217984
20
121.3710212
40
0.628301
50
120.7003982
51
150.2846053
0
ARC
8
DEFAULT_255_2_778
10
22.1784851
20
121.4307024
40
0.556829
50
89.4236852
51
120.3409826
0
ARC
8
DEFAULT_255_2_778
10
22.1840352
20
121.3319671
40
0.6555361
50
88.4553682
51
89.9955718
0
ARC
8
DEFAULT_255_2_778
10
22.2069363
20
121.5161369
40
0.4711572
50
58.4514404
51
90.636095
0
ARC
8
DEFAULT_255_2_778
10
22.2332403
20
121.5795423
40
0.403504
50
35.6058989
51
56.9235594
0
ARC
8
DEFAULT_255_2_778
10
22.1229882
20
121.5057058
40
0.5361477
50
0.6851965
51
35.1616077
0
ARC
8
DEFAULT_255_2_778
10
21.9204313
20
121.4853229
40
0.7391521
50
359.9888194
51
2.0774415
0
ARC
8
DEFAULT_255_2_778
10
21.8068025
20
121.4870249
40
0.852783
50
353.383538
51
359.8759623
0
ARC
8
DEFAULT_255_2_778
10
22.293021
20
121.2346119
40
0.4107176
50
177.8018731
51
179.9839782
0
ARC
8
DEFAULT_255_2_778
10
22.1344217
20
121.223124
40
0.2523852
50
177.3650374
51
219.8309448
0
ARC
8
DEFAULT_255_2_778
10
22.1050068
20
121.2098401
40
0.2214564
50
222.0668323
51
271.55222
0
ARC
8
DEFAULT_255_2_778
10
22.1220002
20
121.4146289
40
0.4263057
50
268.5221572
51
269.9980687
0
ARC
8
DEFAULT_255_2_778
10
22.1204001
20
121.3850217
40
0.3967017
50
270.2290309
51
318.5203973
0
ARC
8
DEFAULT_255_2_778
10
22.1898056
20
121.2017979
40
0.4555006
50
292.4982989
51
325.2807674
0
ARC
8
DEFAULT_255_2_778
10
22.0999907
20
121.3803545
40
0.6549996
50
269.6158853
51
293.7802026
0
ARC
8
DEFAULT_255_2_778
10
22.0956026
20
121.467233
40
0.7418635
50
269.0811303
51
269.9997673
0
ARC
8
DEFAULT_255_2_778
10
22.1793249
20
121.4601977
40
0.2651417
50
88.6426435
51
89.9971979
0
ARC
8
DEFAULT_255_2_778
10
22.1775009
20
121.4954788
40
0.2298681
50
89.5421073
51
130.5025885
0
ARC
8
DEFAULT_255_2_778
10
22.2762398
20
121.3953327
40
0.370282
50
132.0556576
51
154.4346079
0
ARC
8
DEFAULT_255_2_778
10
22.6775288
20
121.1777869
40
0.8264843
50
152.8348001
51
159.2008974
0
ARC
8
DEFAULT_255_2_778
10
22.042515
20
121.5487268
40
0.3137404
50
351.1327381
51
359.8552777
0
ARC
8
DEFAULT_255_2_778
10
22.0889744
20
121.5483274
40
0.2672803
50
359.9157472
51
8.073482
0
ARC
8
DEFAULT_255_2_778
10
22.1916726
20
121.5636276
40
0.1634528
50
7.8192239
51
49.4174523
0
ARC
8
DEFAULT_255_2_778
10
22.1897336
20
121.5504377
40
0.174876
50
51.746929
51
91.3525911
0
LINE
8
DEFAULT_255_2_778
10
21.5643056
20
121.311265
11
21.5678056
21
121.356165
0
LINE
8
DEFAULT_255_2_778
10
22.6539056
20
121.388765
11
22.6356056
21
121.250365
0
LINE
8
DEFAULT_255_2_778
10
22.6356056
20
121.250365
11
21.8826056
21
121.250365
0
LINE
8
DEFAULT_255_2_778
10
22.4176056
20
121.122265
11
22.5642056
21
120.942365
0
LINE
8
DEFAULT_255_2_778
10
22.0837056
20
120.725465
11
22.0835056
21
120.725465
0
LINE
8
DEFAULT_255_2_778
10
21.9049056
20
121.471265
11
22.3456056
21
121.471265
0
LINE
8
DEFAULT_255_2_778
10
22.3456056
20
121.471265
11
22.3525056
21
121.500365
0
LINE
8
DEFAULT_255_2_778
10
22.1856056
20
121.725265
11
22.1856056
21
121.725265
0
ARC
8
DEFAULT_255_2_778
10
22.5732251
20
120.8643848
40
0.7187609
50
318.1171527
51
335.3457065
0
ARC
8
DEFAULT_255_2_778
10
22.7861338
20
120.6822586
40
0.4387075
50
306.2044829
51
317.2623563
0
ARC
8
DEFAULT_255_2_778
10
22.8118587
20
120.6515063
40
0.3987066
50
269.0092455
51
305.8318035
0
ARC
8
DEFAULT_255_2_778
10
22.8209703
20
120.8161254
40
0.5634934
50
257.9736769
51
268.3723286
0
ARC
8
DEFAULT_255_2_778
10
22.976467
20
121.6703273
40
1.431581
50
256.8370098
51
259.0102636
0
ARC
8
DEFAULT_255_2_778
10
22.7299218
20
120.918381
40
0.396887
50
268.3457775
51
269.9906226
0
ARC
8
DEFAULT_255_2_778
10
22.744688
20
120.7589479
40
0.2379166
50
266.425992
51
328.6474802
0
LINE
8
DEFAULT_255_2_778
10
23.1491646
20
121.9649594
11
23.2378646
21
121.2114594
0
LINE
8
DEFAULT_255_2_778
10
23.2378646
20
121.2114594
11
23.5889646
21
121.9649594
0
LINE
8
DEFAULT_255_2_778
10
23.5889646
20
121.9649594
11
23.9453646
21
121.9649594
0
LINE
8
DEFAULT_255_2_778
10
23.9453646
20
121.9649594
11
23.2264646
21
120.5645594
0
LINE
8
DEFAULT_255_2_778
10
22.6504646
20
120.2763594
11
22.6742646
21
120.5237594
0
LINE
8
DEFAULT_255_2_778
10
22.6742646
20
120.5237594
11
22.7184646
21
120.5216594
0
LINE
8
DEFAULT_255_2_778
10
22.9478646
20
120.6351594
11
23.0182646
21
120.7645594
0
LINE
8
DEFAULT_255_2_778
10
23.0182646
20
120.7645594
11
22.8171646
21
121.9646594
0
LINE
8
DEFAULT_255_2_778
10
22.8171646
20
121.9646594
11
23.1489646
21
121.9646594
0
LINE
8
DEFAULT_255_2_778
10
23.1489646
20
121.9646594
11
23.1491646
21
121.9649594
0
LINE
8
DEFAULT_255_2_778
10
5.4244542
20
122.3644666
11
5.4244542
21
121.1791666
0
LINE
8
DEFAULT_255_2_778
10
5.4244542
20
121.1791666
11
8.3507542
21
121.1421666
0
LINE
8
DEFAULT_255_2_778
10
8.3507542
20
121.1421666
11
8.3507542
21
122.3644666
0
LINE
8
DEFAULT_255_2_778
10
8.3507542
20
122.3644666
11
7.4246542
21
123.2164666
0
LINE
8
DEFAULT_255_2_778
10
7.4246542
20
123.2164666
11
6.2764542
21
123.2164666
0
LINE
8
DEFAULT_255_2_778
10
6.2764542
20
123.2164666
11
5.4244542
21
122.3644666
0
LINE
8
DEFAULT_255_2_778
10
5.5726542
20
120.9569666
11
8.2025542
21
120.9569666
0
LINE
8
DEFAULT_255_2_778
10
8.2025542
20
120.9569666
11
7.4617542
21
120.2531666
0
LINE
8
DEFAULT_255_2_778
10
7.4617542
20
120.2531666
11
6.3504542
21
120.2531666
0
LINE
8
DEFAULT_255_2_778
10
6.3504542
20
120.2531666
11
5.5726542
21
120.9569666
0
ARC
8
DEFAULT_255_2_778
10
7.8458226
20
121.5060768
40
0.1423419
50
264.5115721
51
318.4176283
0
ARC
8
DEFAULT_255_2_778
10
7.8189879
20
121.5031225
40
0.1616977
50
325.5297452
51
3.3557414
0
ARC
8
DEFAULT_255_2_778
10
7.8389795
20
121.8596157
40
0.142084
50
354.4959081
51
48.5537602
0
ARC
8
DEFAULT_255_2_778
10
7.8416444
20
121.8324068
40
0.1619557
50
55.6500697
51
93.3401169
0
ARC
8
DEFAULT_255_2_778
10
7.8414709
20
122.058925
40
0.0654958
50
261.8698976
51
8.1301024
0
ARC
8
DEFAULT_255_2_778
10
7.7988672
20
122.4416455
40
0.1074847
50
358.3696885
51
95.9524071
0
ARC
8
DEFAULT_255_2_778
10
7.7588839
20
122.2132916
40
0.3364968
50
85.0838783
51
90.1320543
0
LINE
8
DEFAULT_255_2_778
10
5.6838084
20
121.3643875
11
6.1283084
21
122.5867875
0
LINE
8
DEFAULT_255_2_778
10
6.1283084
20
122.5867875
11
6.3876084
21
122.5867875
0
LINE
8
DEFAULT_255_2_778
10
6.3876084
20
122.5867875
11
6.8691084
21
121.4014875
0
LINE
8
DEFAULT_255_2_778
10
6.8691084
20
121.4014875
11
6.5358084
21
121.4014875
0
LINE
8
DEFAULT_255_2_778
10
6.5358084
20
121.4014875
11
6.4246084
21
121.6607875
0
LINE
8
DEFAULT_255_2_778
10
6.4246084
20
121.6607875
11
6.0913084
21
121.6607875
0
LINE
8
DEFAULT_255_2_778
10
6.0913084
20
121.6607875
11
6.0913084
21
121.8088875
0
LINE
8
DEFAULT_255_2_778
10
6.0913084
20
121.8088875
11
6.3876084
21
121.8088875
0
LINE
8
DEFAULT_255_2_778
10
6.3876084
20
121.8088875
11
6.2024084
21
122.2533875
0
LINE
8
DEFAULT_255_2_778
10
6.2024084
20
122.2533875
11
5.8690084
21
121.3643875
0
LINE
8
DEFAULT_255_2_778
10
5.8690084
20
121.3643875
11
5.6838084
21
121.3643875
0
LINE
8
DEFAULT_255_2_778
10
5.6838084
20
121.3643875
11
5.6838084
21
121.3643875
0
LINE
8
DEFAULT_255_2_778
10
6.7580084
20
122.0311875
11
6.9062084
21
122.0311875
0
LINE
8
DEFAULT_255_2_778
10
6.9062084
20
122.0311875
11
6.9062084
21
121.8829875
0
LINE
8
DEFAULT_255_2_778
10
6.9062084
20
121.8829875
11
6.7580084
21
121.8829875
0
LINE
8
DEFAULT_255_2_778
10
6.7580084
20
121.8829875
11
6.7580084
21
122.0311875
0
LINE
8
DEFAULT_255_2_778
10
7.2766084
20
122.3645875
11
7.6100084
21
122.3645875
0
LINE
8
DEFAULT_255_2_778
10
7.6100084
20
122.3645875
11
7.6100084
21
121.9940875
0
LINE
8
DEFAULT_255_2_778
10
7.6100084
20
121.9940875
11
7.3507084
21
121.9940875
0
LINE
8
DEFAULT_255_2_778
10
7.3507084
20
121.9940875
11
7.3507084
21
121.8459875
0
LINE
8
DEFAULT_255_2_778
10
7.3507084
20
121.8459875
11
7.6840084
21
121.8459875
0
LINE
8
DEFAULT_255_2_778
10
7.6840084
20
121.8459875
11
7.6840084
21
121.5125875
0
LINE
8
DEFAULT_255_2_778
10
7.6840084
20
121.5125875
11
7.2766084
21
121.5125875
0
LINE
8
DEFAULT_255_2_778
10
7.2766084
20
121.5125875
11
7.2766084
21
122.3645875
0
LINE
8
DEFAULT_255_2_778
10
7.2766084
20
122.3645875
11
7.2766084
21
122.3645875
0
LINE
8
DEFAULT_255_2_778
10
6.9803084
20
122.5497875
11
6.9803084
21
121.3643875
0
LINE
8
DEFAULT_255_2_778
10
6.9803084
20
121.3643875
11
7.8322084
21
121.3643875
0
LINE
8
DEFAULT_255_2_778
10
7.9804084
20
121.5125875
11
7.9804084
21
121.8459875
0
LINE
8
DEFAULT_255_2_778
10
7.9063084
20
122.0681875
11
7.9063084
21
122.4385875
0
LINE
8
DEFAULT_255_2_778
10
7.7581084
20
122.5497875
11
6.9803084
21
122.5497875
0
LINE
8
DEFAULT_255_2_778
10
6.9803084
20
122.5497875
11
6.9803084
21
122.5497875
0
LINE
8
DEFAULT_255_2_778
10
6.3394427
20
120.5740198
11
6.3367427
21
120.5740198
0
ARC
8
DEFAULT_255_2_778
10
6.3340483
20
120.6990854
40
0.1250946
50
247.1356448
51
271.2341787
0
ARC
8
DEFAULT_255_2_778
10
6.3160916
20
120.6567164
40
0.0790776
50
215.0349981
51
247.1960091
0
ARC
8
DEFAULT_255_2_778
10
6.3109464
20
120.6513964
40
0.0718243
50
178.625123
51
213.9163394
0
ARC
8
DEFAULT_255_2_778
10
6.3131693
20
120.7684391
40
0.0740421
50
147.0420611
51
181.175799
0
ARC
8
DEFAULT_255_2_778
10
6.3147919
20
120.7645628
40
0.0775487
50
112.4780918
51
145.2909011
0
ARC
8
DEFAULT_255_2_778
10
6.333917
20
120.7201534
40
0.1258981
50
88.7138988
51
112.7934617
0
ARC
8
DEFAULT_255_2_778
10
6.339481
20
120.7206878
40
0.1253619
50
67.159311
51
91.2516049
0
ARC
8
DEFAULT_255_2_778
10
6.3569794
20
120.7626852
40
0.0798654
50
35.1978461
51
67.0331611
0
ARC
8
DEFAULT_255_2_778
10
6.3626391
20
120.7686431
40
0.0718243
50
358.625123
51
33.9163394
0
ARC
8
DEFAULT_255_2_778
10
6.3604162
20
120.6516004
40
0.0740421
50
327.0420611
51
1.175799
0
ARC
8
DEFAULT_255_2_778
10
6.361381
20
120.6528218
40
0.0739133
50
291.6436853
51
325.8406333
0
ARC
8
DEFAULT_255_2_778
10
6.3401809
20
120.661874
40
0.0482768
50
265.9160158
51
308.3617549
0
ARC
8
DEFAULT_255_2_778
10
6.3451719
20
120.6508207
40
0.036631
50
312.9754563
51
3.2850623
0
ARC
8
DEFAULT_255_2_778
10
6.3448152
20
120.768502
40
0.0369754
50
357.082104
51
47.4006092
0
ARC
8
DEFAULT_255_2_778
10
6.339634
20
120.7583686
40
0.0480383
50
51.0349629
51
93.4505724
0
ARC
8
DEFAULT_255_2_778
10
6.3340455
20
120.758049
40
0.0483461
50
86.8017862
51
128.8135095
0
ARC
8
DEFAULT_255_2_778
10
6.3287702
20
120.768502
40
0.0369754
50
132.5993908
51
182.917896
0
ARC
8
DEFAULT_255_2_778
10
6.3284135
20
120.6508207
40
0.036631
50
176.7149377
51
227.0245437
0
ARC
8
DEFAULT_255_2_778
10
6.3334908
20
120.662186
40
0.0485752
50
231.7867693
51
273.8385805
0
ARC
8
DEFAULT_255_2_778
10
6.5570034
20
120.6505567
40
0.0766655
50
226.2029837
51
273.3195937
0
ARC
8
DEFAULT_255_2_778
10
6.5622798
20
120.6485746
40
0.0790566
50
176.8492311
51
222.4458356
0
ARC
8
DEFAULT_255_2_778
10
6.5699928
20
120.6504647
40
0.043631
50
176.5112098
51
217.639275
0
ARC
8
DEFAULT_255_2_778
10
6.5593879
20
120.6453664
40
0.0322122
50
221.9818643
51
273.6574471
0
ARC
8
DEFAULT_255_2_778
10
6.5632217
20
120.6458151
40
0.0326438
50
266.8760675
51
317.6392064
0
ARC
8
DEFAULT_255_2_778
10
6.5527926
20
120.6504647
40
0.043631
50
322.360725
51
3.4887902
0
ARC
8
DEFAULT_255_2_778
10
6.5605056
20
120.6485746
40
0.0790566
50
317.5541644
51
3.1507689
0
ARC
8
DEFAULT_255_2_778
10
6.5656687
20
120.6508223
40
0.0769357
50
266.6274163
51
313.7210327
0
LINE
8
DEFAULT_255_2_778
10
6.4394427
20
120.5124198
11
6.3828427
21
120.5124198
0
LINE
8
DEFAULT_255_2_778
10
6.3828427
20
120.5124198
11
6.3394427
21
120.5740198
0
LINE
8
DEFAULT_255_2_778
10
6.2391427
20
120.6531198
11
6.2391427
21
120.7669198
0
LINE
8
DEFAULT_255_2_778
10
6.4344427
20
120.7669198
11
6.4344427
21
120.6531198
0
LINE
8
DEFAULT_255_2_778
10
6.3886427
20
120.5841198
11
6.4394427
21
120.5126198
0
LINE
8
DEFAULT_255_2_778
10
6.4394427
20
120.5126198
11
6.4394427
21
120.5124198
0
LINE
8
DEFAULT_255_2_778
10
6.3817427
20
120.6529198
11
6.3817427
21
120.7666198
0
LINE
8
DEFAULT_255_2_778
10
6.2918427
20
120.7666198
11
6.2918427
21
120.6529198
0
LINE
8
DEFAULT_255_2_778
10
6.3367427
20
120.6137198
11
6.3367427
21
120.6137198
0
LINE
8
DEFAULT_255_2_778
10
6.4833427
20
120.6529198
11
6.4833427
21
120.8420198
0
LINE
8
DEFAULT_255_2_778
10
6.4833427
20
120.8420198
11
6.5264427
21
120.8420198
0
LINE
8
DEFAULT_255_2_778
10
6.5264427
20
120.8420198
11
6.5264427
21
120.6531198
0
LINE
8
DEFAULT_255_2_778
10
6.5963427
20
120.6531198
11
6.5963427
21
120.8420198
0
LINE
8
DEFAULT_255_2_778
10
6.5963427
20
120.8420198
11
6.6394427
21
120.8420198
0
LINE
8
DEFAULT_255_2_778
10
6.6394427
20
120.8420198
11
6.6394427
21
120.6529198
0
LINE
8
DEFAULT_255_2_778
10
6.5611427
20
120.5740198
11
6.5614427
21
120.5740198
0
ARC
8
DEFAULT_255_2_778
10
12.1641553
20
121.8771635
40
5.5033955
50
191.4837585
51
191.8239227
0
ARC
8
DEFAULT_255_2_778
10
8.3589245
20
121.0733972
40
1.6145995
50
189.6626565
51
190.4158531
0
ARC
8
DEFAULT_255_2_778
10
6.1197449
20
120.9062409
40
0.6557616
50
349.0334606
51
350.8880298
0
ARC
8
DEFAULT_255_2_778
10
6.0674183
20
120.9098866
40
0.7078549
50
346.9283592
51
349.5494987
0
ARC
8
DEFAULT_255_2_778
10
7.2958769
20
120.6790243
40
0.1856762
50
15.5793022
51
22.5708948
0
ARC
8
DEFAULT_255_2_778
10
7.3328007
20
120.6838058
40
0.1489195
50
11.1061152
51
17.6230497
0
ARC
8
DEFAULT_255_2_778
10
8.063214
20
120.5680593
40
0.6018696
50
164.5010167
51
166.1150622
0
ARC
8
DEFAULT_255_2_778
10
7.6620856
20
120.6790243
40
0.1856762
50
157.4291052
51
164.4206978
0
LINE
8
DEFAULT_255_2_778
10
6.7201313
20
120.5774917
11
6.6762313
21
120.5774917
0
LINE
8
DEFAULT_255_2_778
10
6.6762313
20
120.5774917
11
6.7392313
21
120.8420917
0
LINE
8
DEFAULT_255_2_778
10
6.7392313
20
120.8420917
11
6.7942313
21
120.8420917
0
LINE
8
DEFAULT_255_2_778
10
6.7942313
20
120.8420917
11
6.8577313
21
120.5774917
0
LINE
8
DEFAULT_255_2_778
10
6.8577313
20
120.5774917
11
6.8138313
21
120.5774917
0
LINE
8
DEFAULT_255_2_778
10
6.8138313
20
120.5774917
11
6.8000313
21
120.6414917
0
LINE
8
DEFAULT_255_2_778
10
6.8000313
20
120.6414917
11
6.7336313
21
120.6414917
0
LINE
8
DEFAULT_255_2_778
10
6.7336313
20
120.6414917
11
6.7199313
21
120.5774917
0
LINE
8
DEFAULT_255_2_778
10
6.7199313
20
120.5774917
11
6.7201313
21
120.5774917
0
LINE
8
DEFAULT_255_2_778
10
6.7569313
20
120.7499917
11
6.7418313
21
120.6785917
0
LINE
8
DEFAULT_255_2_778
10
6.7418313
20
120.6785917
11
6.7926313
21
120.6785917
0
LINE
8
DEFAULT_255_2_778
10
6.7926313
20
120.6785917
11
6.7775313
21
120.7494917
0
LINE
8
DEFAULT_255_2_778
10
6.7569313
20
120.7497917
11
6.7569313
21
120.7499917
0
LINE
8
DEFAULT_255_2_778
10
7.0231313
20
120.5774917
11
6.8741313
21
120.5774917
0
LINE
8
DEFAULT_255_2_778
10
6.8741313
20
120.5774917
11
6.8741313
21
120.8420917
0
LINE
8
DEFAULT_255_2_778
10
6.8741313
20
120.8420917
11
6.9170313
21
120.8420917
0
LINE
8
DEFAULT_255_2_778
10
6.9170313
20
120.8420917
11
6.9170313
21
120.6184917
0
LINE
8
DEFAULT_255_2_778
10
6.9170313
20
120.6184917
11
7.0231313
21
120.6184917
0
LINE
8
DEFAULT_255_2_778
10
7.0231313
20
120.6184917
11
7.0231313
21
120.5774917
0
LINE
8
DEFAULT_255_2_778
10
7.0231313
20
120.5774917
11
7.0231313
21
120.5774917
0
LINE
8
DEFAULT_255_2_778
10
7.1760313
20
120.5774917
11
7.0321313
21
120.5774917
0
LINE
8
DEFAULT_255_2_778
10
7.0321313
20
120.5774917
11
7.0321313
21
120.6184917
0
LINE
8
DEFAULT_255_2_778
10
7.0321313
20
120.6184917
11
7.0823313
21
120.6184917
0
LINE
8
DEFAULT_255_2_778
10
7.0823313
20
120.6184917
11
7.0823313
21
120.8010917
0
LINE
8
DEFAULT_255_2_778
10
7.0823313
20
120.8010917
11
7.0321313
21
120.8010917
0
LINE
8
DEFAULT_255_2_778
10
7.0321313
20
120.8010917
11
7.0321313
21
120.8420917
0
LINE
8
DEFAULT_255_2_778
10
7.0321313
20
120.8420917
11
7.1760313
21
120.8420917
0
LINE
8
DEFAULT_255_2_778
10
7.1760313
20
120.8420917
11
7.1760313
21
120.8010917
0
LINE
8
DEFAULT_255_2_778
10
7.1760313
20
120.8010917
11
7.1257313
21
120.8010917
0
LINE
8
DEFAULT_255_2_778
10
7.1257313
20
120.8010917
11
7.1257313
21
120.6184917
0
LINE
8
DEFAULT_255_2_778
10
7.1257313
20
120.6184917
11
7.1760313
21
120.6184917
0
LINE
8
DEFAULT_255_2_778
10
7.1760313
20
120.6184917
11
7.1760313
21
120.5774917
0
LINE
8
DEFAULT_255_2_778
10
7.1760313
20
120.5774917
11
7.1760313
21
120.5774917
0
LINE
8
DEFAULT_255_2_778
10
7.2940313
20
120.5774917
11
7.2509313
21
120.5774917
0
LINE
8
DEFAULT_255_2_778
10
7.2509313
20
120.5774917
11
7.2509313
21
120.8010917
0
LINE
8
DEFAULT_255_2_778
10
7.2509313
20
120.8010917
11
7.1855313
21
120.8010917
0
LINE
8
DEFAULT_255_2_778
10
7.1855313
20
120.8010917
11
7.1855313
21
120.8420917
0
LINE
8
DEFAULT_255_2_778
10
7.1855313
20
120.8420917
11
7.3596313
21
120.8420917
0
LINE
8
DEFAULT_255_2_778
10
7.3596313
20
120.8420917
11
7.3596313
21
120.8010917
0
LINE
8
DEFAULT_255_2_778
10
7.3596313
20
120.8010917
11
7.2943313
21
120.8010917
0
LINE
8
DEFAULT_255_2_778
10
7.2943313
20
120.8010917
11
7.2943313
21
120.5774917
0
LINE
8
DEFAULT_255_2_778
10
7.2943313
20
120.5774917
11
7.2940313
21
120.5774917
0
LINE
8
DEFAULT_255_2_778
10
7.4996313
20
120.5774917
11
7.4565313
21
120.5774917
0
LINE
8
DEFAULT_255_2_778
10
7.4565313
20
120.5774917
11
7.4565313
21
120.6735917
0
LINE
8
DEFAULT_255_2_778
10
7.4565313
20
120.6735917
11
7.3832313
21
120.8420917
0
LINE
8
DEFAULT_255_2_778
10
7.3832313
20
120.8420917
11
7.4281313
21
120.8420917
0
LINE
8
DEFAULT_255_2_778
10
7.4281313
20
120.8420917
11
7.4673313
21
120.7502917
0
LINE
8
DEFAULT_255_2_778
10
7.4906313
20
120.7502917
11
7.5287313
21
120.8420917
0
LINE
8
DEFAULT_255_2_778
10
7.5287313
20
120.8420917
11
7.5731313
21
120.8420917
0
LINE
8
DEFAULT_255_2_778
10
7.5731313
20
120.8420917
11
7.4998313
21
120.6735917
0
LINE
8
DEFAULT_255_2_778
10
7.4998313
20
120.6735917
11
7.4998313
21
120.5774917
0
LINE
8
DEFAULT_255_2_778
10
7.4998313
20
120.5774917
11
7.4996313
21
120.5774917
0
LINE
8
DEFAULT_255_1_388
10
10.4043024
20
119.0768898
11
10.6283864
21
119.0768898
0
LINE
8
DEFAULT_255_1_388
10
10.6283864
20
119.0768898
11
11.0584831
21
118.0034553
0
LINE
8
DEFAULT_255_1_388
10
11.0584831
20
118.0034553
11
11.4885797
21
119.0768898
0
LINE
8
DEFAULT_255_1_388
10
11.4885797
20
119.0768898
11
11.7135673
21
119.0768898
0
LINE
8
DEFAULT_255_1_388
10
11.7135673
20
119.0768898
11
11.7135673
21
117.7613
0
LINE
8
DEFAULT_255_1_388
10
11.7135673
20
117.7613
11
11.5400829
21
117.7613
0
LINE
8
DEFAULT_255_1_388
10
11.5400829
20
117.7613
11
11.5400829
21
118.273621
0
LINE
8
DEFAULT_255_1_388
10
11.5400829
20
118.273621
11
11.5563471
21
118.8266025
0
LINE
8
DEFAULT_255_1_388
10
11.5563471
20
118.8266025
11
11.1244433
21
117.7613
0
LINE
8
DEFAULT_255_1_388
10
11.1244433
20
117.7613
11
10.9916193
21
117.7613
0
LINE
8
DEFAULT_255_1_388
10
10.9916193
20
117.7613
11
10.560619
21
118.8238918
0
LINE
8
DEFAULT_255_1_388
10
10.560619
20
118.8238918
11
10.5777868
21
118.273621
0
LINE
8
DEFAULT_255_1_388
10
10.5777868
20
118.273621
11
10.5777868
21
117.7613
0
LINE
8
DEFAULT_255_1_388
10
10.5777868
20
117.7613
11
10.4043024
21
117.7613
0
LINE
8
DEFAULT_255_1_388
10
10.4043024
20
117.7613
11
10.4043024
21
119.0768898
0
LINE
8
DEFAULT_255_1_388
10
12.1752887
20
118.7389567
11
12.1752887
21
117.7613
0
LINE
8
DEFAULT_255_1_388
10
12.1752887
20
117.7613
11
12.0081293
21
117.7613
0
LINE
8
DEFAULT_255_1_388
10
12.0081293
20
117.7613
11
12.0081293
21
118.7389567
0
LINE
8
DEFAULT_255_1_388
10
12.0081293
20
118.7389567
11
12.1752887
21
118.7389567
0
ARC
8
DEFAULT_255_1_388
10
12.1046655
20
118.9993428
40
0.1100948
50
161.4148232
51
180.5532607
0
ARC
8
DEFAULT_255_1_388
10
12.0906965
20
119.0031875
40
0.0956324
50
138.1830164
51
160.9307633
0
ARC
8
DEFAULT_255_1_388
10
12.0783152
20
119.0139313
40
0.0792417
50
104.6371663
51
138.0036136
0
ARC
8
DEFAULT_255_1_388
10
12.0903691
20
118.9726963
40
0.1221906
50
92.0601206
51
105.2198859
0
ARC
8
DEFAULT_255_1_388
10
12.0930055
20
118.9338583
40
0.161103
50
89.9790681
51
92.5006086
0
ARC
8
DEFAULT_255_1_388
10
12.0941231
20
118.9594998
40
0.1354654
50
78.0234649
51
90.4478111
0
ARC
8
DEFAULT_255_1_388
10
12.1044815
20
119.0060203
40
0.0878096
50
55.0521508
51
78.336297
0
ARC
8
DEFAULT_255_1_388
10
12.110135
20
119.0155168
40
0.0767913
50
42.0506198
51
54.4508489
0
ARC
8
DEFAULT_255_1_388
10
12.0949383
20
119.0015821
40
0.0974091
50
1.7493657
51
42.1498724
0
ARC
8
DEFAULT_255_1_388
10
12.0663288
20
118.9983166
40
0.1261276
50
359.9832635
51
2.8353994
0
ARC
8
DEFAULT_255_1_388
10
12.0849698
20
118.9972412
40
0.1074916
50
342.1062453
51
0.5535864
0
ARC
8
DEFAULT_255_1_388
10
12.1010122
20
118.9928197
40
0.0908695
50
316.7110111
51
341.6513114
0
ARC
8
DEFAULT_255_1_388
10
12.1085554
20
118.9860607
40
0.0807447
50
285.4398289
51
316.5320129
0
ARC
8
DEFAULT_255_1_388
10
12.0961725
20
119.0272023
40
0.1237022
50
272.3543902
51
285.8951677
0
ARC
8
DEFAULT_255_1_388
10
12.0931435
20
119.0687742
40
0.1653687
50
269.9725761
51
272.8112722
0
ARC
8
DEFAULT_255_1_388
10
12.0920487
20
119.0436727
40
0.1402709
50
258.8433431
51
270.4148607
0
ARC
8
DEFAULT_255_1_388
10
12.0819267
20
118.9946739
40
0.0902407
50
238.54281
51
259.1289544
0
ARC
8
DEFAULT_255_1_388
10
12.0742588
20
118.9807694
40
0.0743817
50
222.5056676
51
237.9918132
0
ARC
8
DEFAULT_255_1_388
10
12.0886182
20
118.9938295
40
0.0937918
50
184.1070774
51
222.4604165
0
ARC
8
DEFAULT_255_1_388
10
12.1188596
20
118.9981538
40
0.1242838
50
179.9419581
51
185.0970785
0
LINE
8
DEFAULT_255_1_388
10
13.0652997
20
118.0694155
11
13.2234235
21
118.0694155
0
LINE
8
DEFAULT_255_1_388
10
12.3993727
20
118.2410927
11
12.3993727
21
118.2691032
0
LINE
8
DEFAULT_255_1_388
10
13.2234235
20
118.4028308
11
13.0652997
21
118.4028308
0
LINE
8
DEFAULT_255_1_388
10
12.5665321
20
118.2627783
11
12.5665321
21
118.2311535
0
ARC
8
DEFAULT_255_1_388
10
12.8389554
20
118.1204109
40
0.2407783
50
269.0327343
51
309.2224588
0
ARC
8
DEFAULT_255_1_388
10
12.8625558
20
118.096219
40
0.207135
50
308.3965377
51
329.6987678
0
ARC
8
DEFAULT_255_1_388
10
12.8780616
20
118.0844899
40
0.1878439
50
330.4013397
51
355.3970937
0
ARC
8
DEFAULT_255_1_388
10
12.92946
20
118.0864312
40
0.2944555
50
329.2357424
51
356.6872018
0
ARC
8
DEFAULT_255_1_388
10
12.8676495
20
118.1191153
40
0.3643032
50
324.8702872
51
329.7911998
0
ARC
8
DEFAULT_255_1_388
10
12.8587777
20
118.1267113
40
0.3759315
50
298.8769973
51
324.7015261
0
ARC
8
DEFAULT_255_1_388
10
12.8214321
20
118.186229
40
0.4461015
50
296.902888
51
299.3854973
0
ARC
8
DEFAULT_255_1_388
10
12.8360318
20
118.1538595
40
0.4106323
50
269.8407861
51
297.1298875
0
ARC
8
DEFAULT_255_1_388
10
12.8300314
20
118.2256354
40
0.4824312
50
253.3156606
51
270.5771301
0
ARC
8
DEFAULT_255_1_388
10
12.8022492
20
118.1250943
40
0.3781531
50
221.1002518
51
252.9743523
0
ARC
8
DEFAULT_255_1_388
10
12.8539962
20
118.1695131
40
0.4463481
50
194.5394284
51
221.0302764
0
ARC
8
DEFAULT_255_1_388
10
13.0619783
20
118.2274897
40
0.6622359
50
182.0498004
51
194.8774376
0
ARC
8
DEFAULT_255_1_388
10
13.2612873
20
118.2407778
40
0.8619146
50
179.9790673
51
182.4586753
0
ARC
8
DEFAULT_255_1_388
10
13.0656187
20
118.2724412
40
0.6662543
50
168.615001
51
180.2870547
0
ARC
8
DEFAULT_255_1_388
10
12.9304095
20
118.2989636
40
0.5284705
50
154.9162417
51
168.5402053
0
ARC
8
DEFAULT_255_1_388
10
12.8267371
20
118.3501942
40
0.4128641
50
133.5745308
51
155.2559538
0
ARC
8
DEFAULT_255_1_388
10
12.8084214
20
118.3658116
40
0.3889328
50
122.0165845
51
133.2056002
0
ARC
8
DEFAULT_255_1_388
10
12.8124538
20
118.3558977
40
0.3994808
50
97.8732516
51
121.753124
0
ARC
8
DEFAULT_255_1_388
10
12.8325996
20
118.236959
40
0.5200708
50
89.8471322
51
98.2768545
0
ARC
8
DEFAULT_255_1_388
10
12.8380844
20
118.3055809
40
0.4514657
50
73.3760755
51
90.5199878
0
ARC
8
DEFAULT_255_1_388
10
12.8601761
20
118.386855
40
0.3672743
50
47.7085939
51
73.0510707
0
ARC
8
DEFAULT_255_1_388
10
12.8747863
20
118.3995231
40
0.3480795
50
3.7442743
51
48.0844373
0
ARC
8
DEFAULT_255_1_388
10
12.7635857
20
118.3817946
40
0.4603187
50
2.6192831
51
5.0424684
0
ARC
8
DEFAULT_255_1_388
10
12.8151328
20
118.3862986
40
0.2507126
50
3.78087
51
23.9354314
0
ARC
8
DEFAULT_255_1_388
10
12.8408588
20
118.3953644
40
0.2235311
50
24.4867863
51
46.9439952
0
ARC
8
DEFAULT_255_1_388
10
12.8409533
20
118.3979874
40
0.2215567
50
46.4987715
51
89.3298168
0
ARC
8
DEFAULT_255_1_388
10
12.8340192
20
118.3313742
40
0.2883121
50
88.1066411
51
90.0063536
0
ARC
8
DEFAULT_255_1_388
10
12.8309168
20
118.3371548
40
0.2825481
50
89.3773571
51
107.2070287
0
ARC
8
DEFAULT_255_1_388
10
12.8148436
20
118.3953667
40
0.2221946
50
107.688418
51
143.3582986
0
ARC
8
DEFAULT_255_1_388
10
12.878673
20
118.3474064
40
0.3020337
50
143.2845866
51
162.9352432
0
ARC
8
DEFAULT_255_1_388
10
13.0480746
20
118.2930401
40
0.4799362
50
162.6652705
51
174.0802646
0
ARC
8
DEFAULT_255_1_388
10
13.2891227
20
118.2650287
40
0.7225942
50
173.8422673
51
180.1784414
0
ARC
8
DEFAULT_255_1_388
10
13.2274898
20
118.2277276
40
0.6609665
50
179.7030218
51
188.2277356
0
ARC
8
DEFAULT_255_1_388
10
12.9910505
20
118.1923143
40
0.4218948
50
188.0630838
51
201.115837
0
ARC
8
DEFAULT_255_1_388
10
12.867539
20
118.145173
40
0.2896941
50
201.2186162
51
216.9761863
0
ARC
8
DEFAULT_255_1_388
10
12.8167548
20
118.1071225
40
0.2262366
50
217.0136373
51
265.2055518
0
ARC
8
DEFAULT_255_1_388
10
12.8342885
20
118.2108503
40
0.3311837
50
263.6824874
51
270.1042034
0
LINE
8
DEFAULT_255_1_388
10
13.8839291
20
118.7443781
11
13.8839291
21
118.588965
0
LINE
8
DEFAULT_255_1_388
10
13.5785243
20
118.4552375
11
13.5785243
21
117.7613
0
LINE
8
DEFAULT_255_1_388
10
13.5785243
20
117.7613
11
13.4113649
21
117.7613
0
LINE
8
DEFAULT_255_1_388
10
13.4113649
20
117.7613
11
13.4113649
21
118.7389567
0
LINE
8
DEFAULT_255_1_388
10
13.4113649
20
118.7389567
11
13.5740065
21
118.7389567
0
LINE
8
DEFAULT_255_1_388
10
13.5740065
20
118.7389567
11
13.5767172
21
118.6260112
0
ARC
8
DEFAULT_255_1_388
10
13.8089451
20
118.1323068
40
0.4627735
50
80.6751522
51
86.893806
0
ARC
8
DEFAULT_255_1_388
10
13.8021281
20
118.0231103
40
0.5721798
50
86.8046851
51
90.0423898
0
ARC
8
DEFAULT_255_1_388
10
13.79797
20
118.2998197
40
0.2954939
50
89.2758283
51
106.6212906
0
ARC
8
DEFAULT_255_1_388
10
13.7749725
20
118.3834009
40
0.2088351
50
107.1347109
51
157.6456887
0
ARC
8
DEFAULT_255_1_388
10
13.8517787
20
118.3406908
40
0.296292
50
155.6557383
51
157.256838
0
ARC
8
DEFAULT_255_1_388
10
13.8297401
20
118.4717472
40
0.296341
50
127.8167201
51
148.6300223
0
ARC
8
DEFAULT_255_1_388
10
13.8012149
20
118.5010066
40
0.2557782
50
91.3329934
51
126.7875218
0
ARC
8
DEFAULT_255_1_388
10
13.8097536
20
118.4206718
40
0.3363561
50
89.9858247
51
92.4688453
0
ARC
8
DEFAULT_255_1_388
10
13.8107029
20
118.4515114
40
0.3055179
50
85.3587643
51
90.1624243
0
ARC
8
DEFAULT_255_1_388
10
13.8202094
20
118.5644458
40
0.1921848
50
78.4019195
51
85.4592653
0
ARC
8
DEFAULT_255_1_388
10
13.8365155
20
118.6422142
40
0.1127267
50
67.7849217
51
78.573798
0
ARC
8
DEFAULT_255_1_388
10
13.8486789
20
118.6737374
40
0.0789473
50
63.4805074
51
67.3074739
0
LINE
8
DEFAULT_255_1_388
10
13.9751891
20
118.2474177
11
13.9751891
21
118.259164
0
LINE
8
DEFAULT_255_1_388
10
14.8652001
20
118.2510319
11
14.8652001
21
118.2392856
0
ARC
8
DEFAULT_255_1_388
10
14.6036336
20
118.262804
40
0.628455
50
166.3005265
51
180.3318609
0
ARC
8
DEFAULT_255_1_388
10
14.5065685
20
118.2845267
40
0.52901
50
153.8608648
51
166.0965672
0
ARC
8
DEFAULT_255_1_388
10
14.4316851
20
118.3246652
40
0.4441126
50
135.1317053
51
154.2534962
0
ARC
8
DEFAULT_255_1_388
10
14.4003502
20
118.3523431
40
0.4023863
50
121.7042632
51
134.7771455
0
ARC
8
DEFAULT_255_1_388
10
14.4078934
20
118.3378469
40
0.4186852
50
93.4001111
51
121.5399523
0
ARC
8
DEFAULT_255_1_388
10
14.4185768
20
118.2448759
40
0.5121521
50
89.9706387
51
93.9763381
0
ARC
8
DEFAULT_255_1_388
10
14.4238753
20
118.2888563
40
0.4681988
50
71.3321659
51
90.6162917
0
ARC
8
DEFAULT_255_1_388
10
14.4421786
20
118.3566003
40
0.3981841
50
41.1813875
51
70.7072086
0
ARC
8
DEFAULT_255_1_388
10
14.3884503
20
118.307813
40
0.4707474
50
12.1971434
51
41.3446641
0
ARC
8
DEFAULT_255_1_388
10
14.1717766
20
118.2562328
40
0.6934429
50
359.5702713
51
12.5803533
0
ARC
8
DEFAULT_255_1_388
10
14.2250082
20
118.2357207
40
0.6402018
50
347.0196754
51
0.3190452
0
ARC
8
DEFAULT_255_1_388
10
14.3328136
20
118.2125189
40
0.5299421
50
334.350439
51
346.8460534
0
ARC
8
DEFAULT_255_1_388
10
14.4279382
20
118.1631244
40
0.4228234
50
310.4228125
51
334.8045131
0
ARC
8
DEFAULT_255_1_388
10
14.437136
20
118.1559301
40
0.4113892
50
301.8488154
51
310.0972985
0
ARC
8
DEFAULT_255_1_388
10
14.43351
20
118.1644573
40
0.4205483
50
274.3078723
51
301.6554173
0
ARC
8
DEFAULT_255_1_388
10
14.4210556
20
118.2631943
40
0.5199658
50
269.954904
51
274.859116
0
ARC
8
DEFAULT_255_1_388
10
14.415538
20
118.2068239
40
0.4636233
50
250.8887647
51
270.6313164
0
ARC
8
DEFAULT_255_1_388
10
14.3986541
20
118.1439405
40
0.398705
50
221.1701369
51
250.2227012
0
ARC
8
DEFAULT_255_1_388
10
14.4531206
20
118.1935716
40
0.4723796
50
191.6263861
51
221.3526879
0
ARC
8
DEFAULT_255_1_388
10
14.6655052
20
118.2427203
40
0.6903321
50
179.6101251
51
192.0694841
0
ARC
8
DEFAULT_255_1_388
10
14.7131399
20
118.2356681
40
0.5698993
50
179.636304
51
190.6161344
0
ARC
8
DEFAULT_255_1_388
10
14.5283731
20
118.1996635
40
0.3816643
50
190.4136062
51
208.7168709
0
ARC
8
DEFAULT_255_1_388
10
14.4709765
20
118.1711905
40
0.3176572
50
209.187109
51
217.4221816
0
ARC
8
DEFAULT_255_1_388
10
14.4114235
20
118.1187729
40
0.2385702
50
216.1156863
51
265.2575395
0
ARC
8
DEFAULT_255_1_388
10
14.4203272
20
118.1832608
40
0.3035941
50
264.5891546
51
270.0602378
0
ARC
8
DEFAULT_255_1_388
10
14.4240469
20
118.1405539
40
0.2609091
50
269.2532353
51
291.8793864
0
ARC
8
DEFAULT_255_1_388
10
14.4273348
20
118.1205359
40
0.241148
50
292.9269367
51
323.1777736
0
ARC
8
DEFAULT_255_1_388
10
14.3802633
20
118.1618762
40
0.3036446
50
322.25666
51
323.087958
0
ARC
8
DEFAULT_255_1_388
10
14.3499891
20
118.1801332
40
0.3388345
50
323.6941379
51
343.8493587
0
ARC
8
DEFAULT_255_1_388
10
14.1724327
20
118.2341698
40
0.5244204
50
343.5746655
51
355.008149
0
ARC
8
DEFAULT_255_1_388
10
13.9466018
20
118.2575797
40
0.7514406
50
354.728272
51
0.1208026
0
ARC
8
DEFAULT_255_1_388
10
14.1455044
20
118.2627947
40
0.5525482
50
359.6235211
51
11.2016685
0
ARC
8
DEFAULT_255_1_388
10
14.3180871
20
118.2983284
40
0.3763527
50
10.9991302
51
30.8317616
0
ARC
8
DEFAULT_255_1_388
10
14.3626175
20
118.3217988
40
0.3260975
50
31.3007463
51
37.395541
0
ARC
8
DEFAULT_255_1_388
10
14.4184894
20
118.3689773
40
0.253082
50
36.5918894
51
62.2439906
0
ARC
8
DEFAULT_255_1_388
10
14.4237186
20
118.3686378
40
0.2509927
50
63.3364883
51
89.7193846
0
ARC
8
DEFAULT_255_1_388
10
14.4188639
20
118.3038375
40
0.3158485
50
88.8962924
51
90.004475
0
ARC
8
DEFAULT_255_1_388
10
14.4153067
20
118.3691071
40
0.250604
50
89.1923115
51
114.7099029
0
ARC
8
DEFAULT_255_1_388
10
14.4185408
20
118.3733675
40
0.2481307
50
115.7996284
51
142.2901353
0
ARC
8
DEFAULT_255_1_388
10
14.4653679
20
118.3314752
40
0.310833
50
141.4607507
51
142.383894
0
ARC
8
DEFAULT_255_1_388
10
14.4801531
20
118.3246449
40
0.3267335
50
143.0176473
51
163.2340089
0
ARC
8
DEFAULT_255_1_388
10
14.6576819
20
118.2684553
40
0.5129308
50
162.9446504
51
174.3733893
0
ARC
8
DEFAULT_255_1_388
10
14.8990792
20
118.2413483
40
0.75583
50
174.1225809
51
180.1563667
0
ARC
8
DEFAULT_255_1_388
10
15.5380098
20
118.730672
40
0.3175098
50
338.8762533
51
0.5167111
0
ARC
8
DEFAULT_255_1_388
10
15.5569692
20
118.72556
40
0.2979894
50
325.8415285
51
338.4793574
0
ARC
8
DEFAULT_255_1_388
10
15.5130326
20
118.7560242
40
0.351452
50
296.7587686
51
325.7536481
0
ARC
8
DEFAULT_255_1_388
10
15.4801954
20
118.8114363
40
0.4157374
50
296.0927901
51
297.3613472
0
ARC
8
DEFAULT_255_1_388
10
15.5096149
20
118.0731593
40
0.395855
50
47.9007294
51
67.1948823
0
ARC
8
DEFAULT_255_1_388
10
15.5316791
20
118.1008599
40
0.360516
50
35.2363914
51
47.551141
0
ARC
8
DEFAULT_255_1_388
10
15.5611195
20
118.1205093
40
0.3251343
50
359.2759765
51
35.4014143
0
ARC
8
DEFAULT_255_1_388
10
15.4773122
20
118.1122787
40
0.4089365
50
343.1293083
51
0.5775513
0
ARC
8
DEFAULT_255_1_388
10
15.5588235
20
118.0898336
40
0.3244269
50
310.8496669
51
342.7449331
0
ARC
8
DEFAULT_255_1_388
10
15.511811
20
118.1434913
40
0.3957651
50
281.5472888
51
310.9170406
0
ARC
8
DEFAULT_255_1_388
10
15.4716984
20
118.3181814
40
0.5749654
50
269.619248
51
281.9789564
0
ARC
8
DEFAULT_255_1_388
10
15.4635762
20
118.3182776
40
0.5750649
50
257.4585678
51
270.4285689
0
ARC
8
DEFAULT_255_1_388
10
15.4207282
20
118.1378741
40
0.389671
50
228.7554326
51
257.8484789
0
ARC
8
DEFAULT_255_1_388
10
15.3858767
20
118.0959228
40
0.335154
50
184.0104975
51
228.5071184
0
ARC
8
DEFAULT_255_1_388
10
15.516716
20
118.115843
40
0.4671891
50
179.9315832
51
185.3253753
0
ARC
8
DEFAULT_255_1_388
10
15.3843673
20
118.1200592
40
0.33486
50
145.6796023
51
180.6259786
0
ARC
8
DEFAULT_255_1_388
10
15.4027438
20
118.1072271
40
0.3572723
50
115.5537685
51
145.6415986
0
ARC
8
DEFAULT_255_1_388
10
15.4410482
20
118.0386087
40
0.4357296
50
113.243307
51
116.2057839
0
ARC
8
DEFAULT_255_1_388
10
15.4239134
20
118.7583379
40
0.3549126
50
222.9549744
51
244.1370481
0
ARC
8
DEFAULT_255_1_388
10
15.4101777
20
118.7429378
40
0.3343711
50
213.3436887
51
222.6274467
0
ARC
8
DEFAULT_255_1_388
10
15.3885847
20
118.7282653
40
0.3082678
50
180.431584
51
213.271499
0
ARC
8
DEFAULT_255_1_388
10
15.4520846
20
118.7335296
40
0.3718363
50
179.9991191
51
181.1690594
0
ARC
8
DEFAULT_255_1_388
10
15.4993302
20
118.7374072
40
0.4190996
50
164.6186169
51
180.529336
0
ARC
8
DEFAULT_255_1_388
10
15.398295
20
118.764578
40
0.3144772
50
132.2455553
51
164.5090724
0
ARC
8
DEFAULT_255_1_388
10
15.4305929
20
118.728007
40
0.3632644
50
100.7053914
51
132.1386381
0
ARC
8
DEFAULT_255_1_388
10
15.464899
20
118.5730118
40
0.5219578
50
89.6730358
51
101.2451698
0
ARC
8
DEFAULT_255_1_388
10
15.4718981
20
118.5926648
40
0.5023124
50
76.287748
51
90.4586006
0
ARC
8
DEFAULT_255_1_388
10
15.5063483
20
118.7301671
40
0.3605639
50
47.8240511
51
76.4266241
0
ARC
8
DEFAULT_255_1_388
10
15.5313867
20
118.7594599
40
0.3220463
50
6.9168387
51
47.6262497
0
ARC
8
DEFAULT_255_1_388
10
15.397932
20
118.7348004
40
0.4575765
50
359.8415968
51
7.9697453
0
ARC
8
DEFAULT_255_1_388
10
15.436359
20
118.1227519
40
0.2827228
50
359.445363
51
16.9256873
0
ARC
8
DEFAULT_255_1_388
10
15.4891024
20
118.1372781
40
0.2280396
50
17.2920767
51
45.4630727
0
ARC
8
DEFAULT_255_1_388
10
15.4830159
20
118.1320324
40
0.2360485
50
45.30305
51
83.1920945
0
ARC
8
DEFAULT_255_1_388
10
15.4668904
20
118.0418473
40
0.3275527
50
82.2612665
51
90.1434275
0
ARC
8
DEFAULT_255_1_388
10
15.463418
20
118.0680869
40
0.3013237
50
89.4956434
51
104.8580688
0
ARC
8
DEFAULT_255_1_388
10
15.443537
20
118.1434455
40
0.2233867
50
104.8856641
51
135.244616
0
ARC
8
DEFAULT_255_1_388
10
15.4491359
20
118.1384352
40
0.2308906
50
135.3399546
51
172.1044062
0
ARC
8
DEFAULT_255_1_388
10
15.5398884
20
118.1210667
40
0.3232034
50
171.2645637
51
180.186429
0
ARC
8
DEFAULT_255_1_388
10
15.5208888
20
118.1174426
40
0.304213
50
179.5154935
51
193.6464289
0
ARC
8
DEFAULT_255_1_388
10
15.4290564
20
118.0940473
40
0.209456
50
193.3540274
51
225.8258581
0
ARC
8
DEFAULT_255_1_388
10
15.4336436
20
118.1020076
40
0.2183738
50
226.4180634
51
255.8552336
0
ARC
8
DEFAULT_255_1_388
10
15.4624903
20
118.2073521
40
0.3275812
50
255.4654104
51
268.7987425
0
ARC
8
DEFAULT_255_1_388
10
15.4678079
20
118.3015545
40
0.4218877
50
268.3449238
51
270.0094605
0
ARC
8
DEFAULT_255_1_388
10
15.4704313
20
118.2247094
40
0.3450519
50
269.5759586
51
282.0820163
0
ARC
8
DEFAULT_255_1_388
10
15.4957349
20
118.1128363
40
0.2303642
50
281.752014
51
306.6056188
0
ARC
8
DEFAULT_255_1_388
10
15.5068157
20
118.0946802
40
0.2091906
50
307.1346085
51
314.027845
0
ARC
8
DEFAULT_255_1_388
10
15.5027669
20
118.0976459
40
0.2141385
50
314.2552483
51
350.1694025
0
ARC
8
DEFAULT_255_1_388
10
15.4069906
20
118.1184175
40
0.312082
50
349.4140529
51
0.2933014
0
ARC
8
DEFAULT_255_1_388
10
15.4655183
20
118.6987924
40
0.2588377
50
89.477747
51
105.729729
0
ARC
8
DEFAULT_255_1_388
10
15.4502103
20
118.7556367
40
0.1999733
50
105.9233417
51
135.1660906
0
ARC
8
DEFAULT_255_1_388
10
15.4525134
20
118.7540412
40
0.2027322
50
135.3052302
51
168.9883645
0
ARC
8
DEFAULT_255_1_388
10
15.545615
20
118.7326996
40
0.2982129
50
168.3801673
51
180.3602268
0
ARC
8
DEFAULT_255_1_388
10
15.5199267
20
118.7284622
40
0.2725291
50
179.5033122
51
194.9125571
0
ARC
8
DEFAULT_255_1_388
10
15.4540674
20
118.7111427
40
0.204431
50
194.9720816
51
224.194444
0
ARC
8
DEFAULT_255_1_388
10
15.4509039
20
118.7085635
40
0.2003651
50
224.2962453
51
262.015664
0
ARC
8
DEFAULT_255_1_388
10
15.4669043
20
118.7908315
40
0.2840925
50
261.1245923
51
270.1962896
0
ARC
8
DEFAULT_255_1_388
10
15.4702525
20
118.7697859
40
0.2630559
50
269.4827276
51
285.0987215
0
ARC
8
DEFAULT_255_1_388
10
15.4875961
20
118.7047175
40
0.1957162
50
285.1585357
51
315.9484501
0
ARC
8
DEFAULT_255_1_388
10
15.4775834
20
118.7139315
40
0.2093195
50
316.0413965
51
351.916092
0
ARC
8
DEFAULT_255_1_388
10
15.3951209
20
118.7298323
40
0.2932279
50
351.105835
51
0.1939062
0
ARC
8
DEFAULT_255_1_388
10
15.4246843
20
118.7332224
40
0.2636739
50
359.4789618
51
16.0678224
0
ARC
8
DEFAULT_255_1_388
10
15.4782314
20
118.7476721
40
0.2082215
50
16.3252067
51
44.7913869
0
ARC
8
DEFAULT_255_1_388
10
15.4762377
20
118.747732
40
0.2095992
50
44.3957814
51
88.2499162
0
ARC
8
DEFAULT_255_1_388
10
15.4679711
20
118.6789006
40
0.2787189
50
86.9833854
51
90.0192215
0
LINE
8
DEFAULT_255_1_388
10
16.3398173
20
118.3639775
11
16.3398173
21
118.5004157
0
LINE
8
DEFAULT_255_1_388
10
16.3398173
20
118.5004157
11
16.4654127
21
118.5004157
0
LINE
8
DEFAULT_255_1_388
10
16.251268
20
118.7317282
11
16.0841085
21
118.7317282
0
LINE
8
DEFAULT_255_1_388
10
16.0723622
20
118.1082688
11
16.2404252
21
118.1082688
0
LINE
8
DEFAULT_255_1_388
10
16.4654127
20
118.3639775
11
16.3398173
21
118.3639775
0
ARC
8
DEFAULT_255_1_388
10
16.4621354
20
118.8820922
40
0.3816905
50
270.491971
51
281.8953028
0
ARC
8
DEFAULT_255_1_388
10
16.4892781
20
118.7581199
40
0.2547877
50
281.6690378
51
301.2943765
0
ARC
8
DEFAULT_255_1_388
10
16.5084232
20
118.7230926
40
0.2149197
50
301.7834992
51
311.754567
0
ARC
8
DEFAULT_255_1_388
10
16.5187274
20
118.711665
40
0.1995326
50
311.7325027
51
354.2803031
0
ARC
8
DEFAULT_255_1_388
10
16.436969
20
118.725728
40
0.2823461
50
353.0941646
51
0.1174696
0
ARC
8
DEFAULT_255_1_388
10
16.3851247
20
118.7310874
40
0.3342238
50
359.1804452
51
15.0452323
0
ARC
8
DEFAULT_255_1_388
10
16.5365306
20
118.7752546
40
0.1765747
50
13.957816
51
77.6713812
0
ARC
8
DEFAULT_255_1_388
10
16.4930542
20
118.6194464
40
0.3381982
50
76.111571
51
90.7028736
0
ARC
8
DEFAULT_255_1_388
10
16.4863954
20
118.650225
40
0.3074046
50
89.5321574
51
103.5319393
0
ARC
8
DEFAULT_255_1_388
10
16.4638337
20
118.7401443
40
0.2147041
50
103.2930114
51
133.5619756
0
ARC
8
DEFAULT_255_1_388
10
16.4588279
20
118.7468351
40
0.2064084
50
133.8349761
51
173.5343225
0
ARC
8
DEFAULT_255_1_388
10
16.5401936
20
118.7324144
40
0.2889266
50
172.5097183
51
180.1360699
0
ARC
8
DEFAULT_255_1_388
10
16.43317
20
118.736288
40
0.3490913
50
155.3483706
51
180.7484035
0
ARC
8
DEFAULT_255_1_388
10
16.4276676
20
118.7330519
40
0.3454798
50
131.5745177
51
154.4799474
0
ARC
8
DEFAULT_255_1_388
10
16.4628958
20
118.6974422
40
0.3955058
50
96.9874487
51
131.9690874
0
ARC
8
DEFAULT_255_1_388
10
16.4875851
20
118.5573407
40
0.537622
50
89.8592909
51
97.7827481
0
ARC
8
DEFAULT_255_1_388
10
16.492996
20
118.527836
40
0.5671399
50
78.3654493
51
90.4132586
0
ARC
8
DEFAULT_255_1_388
10
16.5332601
20
118.7144918
40
0.3762034
50
56.6229818
51
78.6387103
0
ARC
8
DEFAULT_255_1_388
10
16.5574431
20
118.7567846
40
0.3275964
50
47.0254604
51
56.085558
0
ARC
8
DEFAULT_255_1_388
10
16.5596682
20
118.7612189
40
0.3228382
50
10.9207523
51
46.777927
0
ARC
8
DEFAULT_255_1_388
10
16.4062275
20
118.7257401
40
0.4802559
50
359.6364235
51
11.6087615
0
ARC
8
DEFAULT_255_1_388
10
16.6126441
20
118.7240404
40
0.273833
50
332.3549969
51
359.7179765
0
ARC
8
DEFAULT_255_1_388
10
16.5394842
20
118.7587285
40
0.3547505
50
325.2332381
51
332.8746682
0
ARC
8
DEFAULT_255_1_388
10
16.5566425
20
118.7467763
40
0.3338396
50
292.9803892
51
325.2391113
0
ARC
8
DEFAULT_255_1_388
10
16.525562
20
118.8072679
40
0.4016959
50
292.542178
51
293.6931461
0
ARC
8
DEFAULT_255_1_388
10
16.5699192
20
118.0807036
40
0.372079
50
57.643292
51
72.8626085
0
ARC
8
DEFAULT_255_1_388
10
16.6098027
20
118.1453273
40
0.2961455
50
36.7246661
51
57.4701329
0
ARC
8
DEFAULT_255_1_388
10
16.6085184
20
118.146747
40
0.2963321
50
8.054535
51
36.3561529
0
ARC
8
DEFAULT_255_1_388
10
16.5114856
20
118.1293073
40
0.3948682
50
359.8316595
51
8.5873361
0
ARC
8
DEFAULT_255_1_388
10
16.469233
20
118.123897
40
0.4371398
50
343.9831631
51
0.557075
0
ARC
8
DEFAULT_255_1_388
10
16.568938
20
118.0965963
40
0.3337749
50
311.6358204
51
343.7652116
0
ARC
8
DEFAULT_255_1_388
10
16.5263634
20
118.1445955
40
0.3979351
50
279.7829743
51
311.625622
0
ARC
8
DEFAULT_255_1_388
10
16.4924769
20
118.3062642
40
0.5630417
50
269.7285092
51
280.3857694
0
ARC
8
DEFAULT_255_1_388
10
16.4855082
20
118.3016241
40
0.5584119
50
256.6827433
51
270.4412869
0
ARC
8
DEFAULT_255_1_388
10
16.4474068
20
118.1458698
40
0.3980715
50
229.4223821
51
256.8554507
0
ARC
8
DEFAULT_255_1_388
10
16.4007622
20
118.0933683
40
0.3278564
50
181.8183354
51
229.6455015
0
ARC
8
DEFAULT_255_1_388
10
16.5177231
20
118.1080825
40
0.4453611
50
179.9760419
51
183.2330638
0
ARC
8
DEFAULT_255_1_388
10
16.4983784
20
118.1057781
40
0.2579652
50
179.4467996
51
196.2871626
0
ARC
8
DEFAULT_255_1_388
10
16.4435237
20
118.0907709
40
0.2011057
50
196.5661293
51
227.7059371
0
ARC
8
DEFAULT_255_1_388
10
16.4619844
20
118.1114155
40
0.2287994
50
227.7653015
51
257.8763321
0
ARC
8
DEFAULT_255_1_388
10
16.4872928
20
118.2174961
40
0.3378385
50
257.4583525
51
270.4267406
0
ARC
8
DEFAULT_255_1_388
10
16.4924177
20
118.250123
40
0.3704652
50
269.5965319
51
280.8788143
0
ARC
8
DEFAULT_255_1_388
10
16.5182405
20
118.1211529
40
0.2389415
50
280.6347277
51
299.8594068
0
ARC
8
DEFAULT_255_1_388
10
16.5397175
20
118.0803736
40
0.19289
50
300.3575552
51
314.5515667
0
ARC
8
DEFAULT_255_1_388
10
16.5303851
20
118.0872025
40
0.204312
50
315.0730962
51
345.0429362
0
ARC
8
DEFAULT_255_1_388
10
16.4265358
20
118.1174539
40
0.31246
50
344.598526
51
357.9270698
0
ARC
8
DEFAULT_255_1_388
10
16.3255663
20
118.1243705
40
0.4136265
50
357.4755098
51
0.0224936
0
ARC
8
DEFAULT_255_1_388
10
16.4408541
20
118.1271099
40
0.2983498
50
359.5051035
51
13.4236939
0
ARC
8
DEFAULT_255_1_388
10
16.538363
20
118.1520637
40
0.1977186
50
12.9497905
51
48.7550905
0
ARC
8
DEFAULT_255_1_388
10
16.5178552
20
118.1240373
40
0.2323321
50
49.509109
51
72.1832965
0
ARC
8
DEFAULT_255_1_388
10
16.4776021
20
118.0045632
40
0.358397
50
71.9008458
51
84.3555134
0
ARC
8
DEFAULT_255_1_388
10
16.4594415
20
117.8513712
40
0.512641
50
84.019632
51
89.3326067
0
LINE
8
DEFAULT_255_1_388
10
17.9608119
20
118.539269
11
17.9608119
21
118.3224135
0
LINE
8
DEFAULT_255_1_388
10
17.1304362
20
118.2998244
11
17.1304362
21
118.5230048
0
LINE
8
DEFAULT_255_1_388
10
17.7936525
20
118.2772353
11
17.7936525
21
118.5510153
0
LINE
8
DEFAULT_255_1_388
10
17.2975956
20
118.5636652
11
17.2975956
21
118.2962102
0
ARC
8
DEFAULT_255_1_388
10
16.5830453
20
118.3169118
40
1.3777776
50
353.8440855
51
0.2287917
0
ARC
8
DEFAULT_255_1_388
10
17.104947
20
118.2586414
40
0.852639
50
344.4934746
51
353.9763743
0
ARC
8
DEFAULT_255_1_388
10
17.4416278
20
118.1629191
40
0.5026273
50
329.2803599
51
344.7473406
0
ARC
8
DEFAULT_255_1_388
10
17.5531773
20
118.1017038
40
0.3754848
50
324.9361395
51
328.6153007
0
ARC
8
DEFAULT_255_1_388
10
17.5957423
20
118.0719586
40
0.3235566
50
280.5801797
51
324.9173226
0
ARC
8
DEFAULT_255_1_388
10
17.5506052
20
118.2599236
40
0.5167077
50
269.5979457
51
281.6732777
0
ARC
8
DEFAULT_255_1_388
10
17.5424955
20
118.2464113
40
0.5032026
50
256.6228565
51
270.5105488
0
ARC
8
DEFAULT_255_1_388
10
17.4972698
20
118.0722345
40
0.3233092
50
215.8618351
51
257.2787793
0
ARC
8
DEFAULT_255_1_388
10
17.6121405
20
118.1493106
40
0.4615831
50
197.9695203
51
215.2622745
0
ARC
8
DEFAULT_255_1_388
10
17.8917081
20
118.2436641
40
0.7566307
50
187.8816486
51
198.2346584
0
ARC
8
DEFAULT_255_1_388
10
18.3370319
20
118.3079453
40
1.2065653
50
180.8977266
51
188.0054894
0
ARC
8
DEFAULT_255_1_388
10
18.6420533
20
118.31944
40
1.5117443
50
180.7434591
51
181.152202
0
ARC
8
DEFAULT_255_1_388
10
18.4745529
20
118.5284371
40
1.3441277
50
173.7674302
51
180.2315596
0
ARC
8
DEFAULT_255_1_388
10
17.9663398
20
118.5858779
40
0.8326847
50
164.3058537
51
173.9000553
0
ARC
8
DEFAULT_255_1_388
10
17.6387398
20
118.6802652
40
0.4917711
50
148.7922028
51
164.5682288
0
ARC
8
DEFAULT_255_1_388
10
17.5318135
20
118.7399457
40
0.3694204
50
144.5883979
51
148.1161588
0
ARC
8
DEFAULT_255_1_388
10
17.493088
20
118.7669667
40
0.322202
50
101.6440149
51
144.5142619
0
ARC
8
DEFAULT_255_1_388
10
17.5409073
20
118.5769337
40
0.5180451
50
89.528284
51
102.5820197
0
ARC
8
DEFAULT_255_1_388
10
17.5498064
20
118.5725376
40
0.5224441
50
77.0437914
51
90.508231
0
ARC
8
DEFAULT_255_1_388
10
17.5950318
20
118.7573272
40
0.3322297
50
48.2777708
51
77.4996087
0
ARC
8
DEFAULT_255_1_388
10
17.6032058
20
118.7718557
40
0.315966
50
36.3141586
51
47.6307332
0
ARC
8
DEFAULT_255_1_388
10
17.505478
20
118.7060159
40
0.4337313
50
18.2931065
51
35.6770203
0
ARC
8
DEFAULT_255_1_388
10
17.2193621
20
118.6078107
40
0.7362203
50
8.0246996
51
18.5605636
0
ARC
8
DEFAULT_255_1_388
10
16.7509977
20
118.5386432
40
1.2096583
50
1.127539
51
8.1718423
0
ARC
8
DEFAULT_255_1_388
10
16.386111
20
118.5243374
40
1.5747719
50
0.5432713
51
1.38669
0
ARC
8
DEFAULT_255_1_388
10
16.5918489
20
118.5550163
40
1.2018103
50
359.8092569
51
4.9408001
0
ARC
8
DEFAULT_255_1_388
10
17.065507
20
118.59729
40
0.7262727
50
4.8364937
51
12.2906017
0
ARC
8
DEFAULT_255_1_388
10
17.3754535
20
118.6663485
40
0.4087324
50
12.0806994
51
23.8171225
0
ARC
8
DEFAULT_255_1_388
10
17.5074931
20
118.7222508
40
0.2653719
50
24.2874621
51
31.3934353
0
ARC
8
DEFAULT_255_1_388
10
17.5665367
20
118.7608822
40
0.1948607
50
30.7407708
51
82.4658033
0
ARC
8
DEFAULT_255_1_388
10
17.5463028
20
118.6615017
40
0.2961198
50
81.1057101
51
90.2187368
0
ARC
8
DEFAULT_255_1_388
10
17.5422839
20
118.6905421
40
0.2670929
50
89.380395
51
105.6763916
0
ARC
8
DEFAULT_255_1_388
10
17.5216561
20
118.765532
40
0.1893189
50
105.7980655
51
149.7387869
0
ARC
8
DEFAULT_255_1_388
10
17.6413701
20
118.6935719
40
0.3289892
50
149.4208441
51
163.628295
0
ARC
8
DEFAULT_255_1_388
10
17.8765931
20
118.6218345
40
0.5749004
50
163.3764549
51
172.141138
0
ARC
8
DEFAULT_255_1_388
10
18.2478653
20
118.5686582
40
0.9499585
50
172.0258462
51
178.0705453
0
ARC
8
DEFAULT_255_1_388
10
18.5900205
20
118.5524682
40
1.2924734
50
177.8639301
51
179.5036263
0
ARC
8
DEFAULT_255_1_388
10
18.4681224
20
118.2921151
40
1.170534
50
179.7995545
51
185.246089
0
ARC
8
DEFAULT_255_1_388
10
18.0132817
20
118.2490404
40
0.7136613
50
185.1411911
51
193.0082205
0
ARC
8
DEFAULT_255_1_388
10
17.7159078
20
118.1787441
40
0.4080987
50
192.7897338
51
205.2507384
0
ARC
8
DEFAULT_255_1_388
10
17.5981288
20
118.1261538
40
0.2791522
50
205.8001921
51
211.2545876
0
ARC
8
DEFAULT_255_1_388
10
17.5392827
20
118.0867132
40
0.2084074
50
210.3789935
51
238.4007996
0
ARC
8
DEFAULT_255_1_388
10
17.5370913
20
118.0919786
40
0.2117943
50
239.6521916
51
265.9793852
0
ARC
8
DEFAULT_255_1_388
10
17.5466762
20
118.1676358
40
0.2879689
50
265.1324455
51
270.0603288
0
ARC
8
DEFAULT_255_1_388
10
17.5499139
20
118.1311418
40
0.2514919
50
269.3314378
51
287.2180039
0
ARC
8
DEFAULT_255_1_388
10
17.5654221
20
118.0745291
40
0.1928357
50
287.7957942
51
329.0808983
0
ARC
8
DEFAULT_255_1_388
10
17.4576978
20
118.1417651
40
0.319808
50
328.6635261
51
343.3325043
0
ARC
8
DEFAULT_255_1_388
10
17.2132437
20
118.2179195
40
0.5758408
50
343.0498092
51
351.9392499
0
ARC
8
DEFAULT_255_1_388
10
16.8231758
20
118.2754205
40
0.9701202
50
351.8071632
51
357.7957897
0
ARC
8
DEFAULT_255_1_388
10
16.4597235
20
118.2942724
40
1.3340376
50
357.5870923
51
359.2682493
0
LINE
8
DEFAULT_255_2_778
10
9.3932417
20
108.3468486
11
10.7161417
21
108.3468486
0
LINE
8
DEFAULT_255_2_778
10
10.7161417
20
108.3468486
11
10.7161417
21
59.3989486
0
LINE
8
DEFAULT_255_2_778
10
10.7161417
20
54.1072486
11
10.7161417
21
5.1593486
0
LINE
8
DEFAULT_255_2_778
10
10.7161417
20
5.1593486
11
9.3932417
21
5.1593486
0
LINE
8
DEFAULT_255_2_778
10
9.3932834
20
59.3989333
11
12.0390834
21
59.3989333
0
LINE
8
DEFAULT_255_2_778
10
12.0390834
20
59.3989333
11
12.0390834
21
54.1072333
0
LINE
8
DEFAULT_255_2_778
10
12.0390834
20
54.1072333
11
9.3932834
21
54.1072333
0
LINE
8
DEFAULT_255_2_778
10
9.3932834
20
54.1072333
11
9.3932834
21
59.3989333
0
LINE
8
DEFAULT_255_2_778
10
10.187
20
54.6364666
11
10.187
21
58.8697666
0
LINE
8
DEFAULT_255_2_778
10
9.9224167
20
58.076075
11
10.1870167
21
58.869775
0
LINE
8
DEFAULT_255_2_778
10
10.1870167
20
58.869775
11
10.4516167
21
58.076075
0
LINE
8
DEFAULT_255_2_778
10
10.4516167
20
58.076075
11
9.9224167
21
58.076075
0
LINE
8
DEFAULT_255_2_778
10
11.2453
20
58.8697666
11
11.2453
21
54.6364666
0
LINE
8
DEFAULT_255_2_778
10
10.9807167
20
55.430175
11
11.2453167
21
54.636475
0
LINE
8
DEFAULT_255_2_778
10
11.2453167
20
54.636475
11
11.5099167
21
55.430175
0
LINE
8
DEFAULT_255_2_778
10
11.5099167
20
55.430175
11
10.9807167
21
55.430175
0
LINE
8
DEFAULT_255_2_778
10
19.9765417
20
108.346849
11
18.6536417
21
108.346849
0
LINE
8
DEFAULT_255_2_778
10
18.6536417
20
108.346849
11
18.6536417
21
75.273949
0
LINE
8
DEFAULT_255_2_778
10
18.6536417
20
69.982249
11
18.6536417
21
36.909349
0
LINE
8
DEFAULT_255_2_778
10
18.6536417
20
36.909349
11
19.9765417
21
36.909349
0
LINE
8
DEFAULT_255_2_778
10
17.3307834
20
75.2739333
11
19.9765834
21
75.2739333
0
LINE
8
DEFAULT_255_2_778
10
19.9765834
20
75.2739333
11
19.9765834
21
69.9822333
0
LINE
8
DEFAULT_255_2_778
10
19.9765834
20
69.9822333
11
17.3307834
21
69.9822333
0
LINE
8
DEFAULT_255_2_778
10
17.3307834
20
69.9822333
11
17.3307834
21
75.2739333
0
LINE
8
DEFAULT_255_2_778
10
18.1245
20
70.5114666
11
18.1245
21
74.7447666
0
LINE
8
DEFAULT_255_2_778
10
17.8599167
20
73.951075
11
18.1245167
21
74.744775
0
LINE
8
DEFAULT_255_2_778
10
18.1245167
20
74.744775
11
18.3891167
21
73.951075
0
LINE
8
DEFAULT_255_2_778
10
18.3891167
20
73.951075
11
17.8599167
21
73.951075
0
LINE
8
DEFAULT_255_2_778
10
19.1828
20
74.7447666
11
19.1828
21
70.5114666
0
LINE
8
DEFAULT_255_2_778
10
18.9182167
20
71.305175
11
19.1828167
21
70.511475
0
LINE
8
DEFAULT_255_2_778
10
19.1828167
20
70.511475
11
19.4474167
21
71.305175
0
LINE
8
DEFAULT_255_2_778
10
19.4474167
20
71.305175
11
18.9182167
21
71.305175
0
LINE
8
DEFAULT_255_1_388
10
4.8132318
20
115.9133382
11
4.8132318
21
115.7769
0
LINE
8
DEFAULT_255_1_388
10
4.8132318
20
115.7769
11
3.9512313
21
115.7769
0
LINE
8
DEFAULT_255_1_388
10
3.9512313
20
115.7769
11
3.9512313
21
115.8970741
0
LINE
8
DEFAULT_255_1_388
10
3.9512313
20
115.8970741
11
4.4066278
21
116.4030702
0
LINE
8
DEFAULT_255_1_388
10
4.0930909
20
116.7048607
11
3.9259315
21
116.7048607
0
LINE
8
DEFAULT_255_1_388
10
4.5051163
20
116.295546
11
4.1527262
21
115.9133382
0
LINE
8
DEFAULT_255_1_388
10
4.1527262
20
115.9133382
11
4.8132318
21
115.9133382
0
ARC
8
DEFAULT_255_1_388
10
2.8890337
20
117.7450983
40
2.0258655
50
318.5132526
51
320.7829045
0
ARC
8
DEFAULT_255_1_388
10
3.4838294
20
117.2609929
40
1.2589638
50
320.7372878
51
323.9739031
0
ARC
8
DEFAULT_255_1_388
10
3.9247226
20
116.9415554
40
0.7145141
50
323.8962701
51
328.64194
0
ARC
8
DEFAULT_255_1_388
10
4.1549484
20
116.7995545
40
0.4440242
50
328.8294576
51
331.7891185
0
ARC
8
DEFAULT_255_1_388
10
4.2671804
20
116.7416374
40
0.3177517
50
331.4254512
51
352.9365785
0
ARC
8
DEFAULT_255_1_388
10
4.2824804
20
116.738205
40
0.3021496
50
353.2257659
51
0.0166158
0
ARC
8
DEFAULT_255_1_388
10
4.3061564
20
116.7407894
40
0.2784847
50
359.486299
51
15.9343185
0
ARC
8
DEFAULT_255_1_388
10
4.3631831
20
116.7561269
40
0.2194403
50
16.1712913
51
43.5286088
0
ARC
8
DEFAULT_255_1_388
10
4.3718776
20
116.7648191
40
0.2071504
50
43.4417391
51
83.1661095
0
ARC
8
DEFAULT_255_1_388
10
4.3567937
20
116.6819316
40
0.2912888
50
82.160179
51
90.1505708
0
ARC
8
DEFAULT_255_1_388
10
4.3532418
20
116.6215279
40
0.3517025
50
89.5460741
51
102.5418361
0
ARC
8
DEFAULT_255_1_388
10
4.3259138
20
116.7374933
40
0.2325748
50
102.1738499
51
129.206123
0
ARC
8
DEFAULT_255_1_388
10
4.3170592
20
116.7514664
40
0.2161591
50
129.72865
51
135.753947
0
ARC
8
DEFAULT_255_1_388
10
4.3307074
20
116.7405728
40
0.2335433
50
136.1757367
51
166.3673339
0
ARC
8
DEFAULT_255_1_388
10
4.4439762
20
116.7102148
40
0.3507873
50
165.9090694
51
178.8684636
0
ARC
8
DEFAULT_255_1_388
10
4.5415534
20
116.7049263
40
0.4484624
50
178.4391136
51
180.0083808
0
ARC
8
DEFAULT_255_1_388
10
4.3836235
20
116.7093197
40
0.4577138
50
163.2878482
51
180.5581842
0
ARC
8
DEFAULT_255_1_388
10
4.2934276
20
116.7341393
40
0.3641968
50
133.4540601
51
162.947111
0
ARC
8
DEFAULT_255_1_388
10
4.3135158
20
116.7127789
40
0.3935189
50
100.7869829
51
133.4382499
0
ARC
8
DEFAULT_255_1_388
10
4.3526403
20
116.5385399
40
0.5720313
50
89.660664
51
101.3702276
0
ARC
8
DEFAULT_255_1_388
10
4.3601012
20
116.5454263
40
0.5651495
50
78.2172678
51
90.412935
0
ARC
8
DEFAULT_255_1_388
10
4.4000478
20
116.7281511
40
0.378122
50
55.9269121
51
78.4888449
0
ARC
8
DEFAULT_255_1_388
10
4.4221193
20
116.7662187
40
0.3342379
50
47.929771
51
55.4049217
0
ARC
8
DEFAULT_255_1_388
10
4.4335723
20
116.7778618
40
0.3179217
50
4.334829
51
48.0560205
0
ARC
8
DEFAULT_255_1_388
10
4.3103525
20
116.7587487
40
0.442341
50
359.9251713
51
5.5971671
0
ARC
8
DEFAULT_255_1_388
10
4.358568
20
116.7650728
40
0.3941854
50
337.8914027
51
358.9967534
0
ARC
8
DEFAULT_255_1_388
10
4.053325
20
116.8828295
40
0.7213271
50
326.9132501
51
338.3508308
0
ARC
8
DEFAULT_255_1_388
10
3.6049362
20
117.1702105
40
1.2538973
50
319.6471833
51
327.0959558
0
ARC
8
DEFAULT_255_1_388
10
3.173602
20
117.526005
40
1.8129975
50
317.2588228
51
319.9045804
0
LINE
8
DEFAULT_255_1_388
10
5.6960143
20
117.0924898
11
5.6960143
21
116.218743
0
LINE
8
DEFAULT_255_1_388
10
5.6960143
20
116.218743
11
5.8785343
21
116.218743
0
LINE
8
DEFAULT_255_1_388
10
5.8785343
20
116.218743
11
5.8785343
21
116.0823048
0
LINE
8
DEFAULT_255_1_388
10
5.8785343
20
116.0823048
11
5.6960143
21
116.0823048
0
LINE
8
DEFAULT_255_1_388
10
5.6960143
20
116.0823048
11
5.6960143
21
115.7769
0
LINE
8
DEFAULT_255_1_388
10
5.6960143
20
115.7769
11
5.5279513
21
115.7769
0
LINE
8
DEFAULT_255_1_388
10
5.5279513
20
115.7769
11
5.5279513
21
116.0823048
0
LINE
8
DEFAULT_255_1_388
10
5.5279513
20
116.0823048
11
4.928888
21
116.0823048
0
LINE
8
DEFAULT_255_1_388
10
4.928888
20
116.0823048
11
4.928888
21
116.1807933
0
LINE
8
DEFAULT_255_1_388
10
4.928888
20
116.1807933
11
5.5180121
21
117.0924898
0
LINE
8
DEFAULT_255_1_388
10
5.5180121
20
117.0924898
11
5.6960143
21
117.0924898
0
LINE
8
DEFAULT_255_1_388
10
5.5080729
20
116.8277455
11
5.1186366
21
116.218743
0
LINE
8
DEFAULT_255_1_388
10
5.1186366
20
116.218743
11
5.5279513
21
116.218743
0
LINE
8
DEFAULT_255_1_388
10
5.5279513
20
116.218743
11
5.5279513
21
116.863888
0
LINE
8
DEFAULT_255_1_388
10
5.5279513
20
116.863888
11
5.5080729
21
116.8277455
0
LINE
8
DEFAULT_255_1_388
10
6.5254864
20
116.8665987
11
6.5254864
21
116.4825838
0
LINE
8
DEFAULT_255_1_388
10
6.5254864
20
116.4825838
11
6.8923336
21
116.4825838
0
LINE
8
DEFAULT_255_1_388
10
6.8923336
20
116.4825838
11
6.8923336
21
116.3244601
0
LINE
8
DEFAULT_255_1_388
10
6.8923336
20
116.3244601
11
6.5254864
21
116.3244601
0
LINE
8
DEFAULT_255_1_388
10
6.5254864
20
116.3244601
11
6.5254864
21
115.9088204
0
LINE
8
DEFAULT_255_1_388
10
6.5254864
20
115.9088204
11
6.3574234
21
115.9088204
0
LINE
8
DEFAULT_255_1_388
10
6.3574234
20
115.9088204
11
6.3574234
21
116.3244601
0
LINE
8
DEFAULT_255_1_388
10
6.3574234
20
116.3244601
11
5.9905763
21
116.3244601
0
LINE
8
DEFAULT_255_1_388
10
5.9905763
20
116.3244601
11
5.9905763
21
116.4825838
0
LINE
8
DEFAULT_255_1_388
10
5.9905763
20
116.4825838
11
6.3574234
21
116.4825838
0
LINE
8
DEFAULT_255_1_388
10
6.3574234
20
116.4825838
11
6.3574234
21
116.8665987
0
LINE
8
DEFAULT_255_1_388
10
6.3574234
20
116.8665987
11
6.5254864
21
116.8665987
0
LINE
8
DEFAULT_255_1_388
10
4.1838367
20
5.9674898
11
4.1838367
21
4.6519
0
LINE
8
DEFAULT_255_1_388
10
4.1838367
20
4.6519
11
4.0103523
21
4.6519
0
LINE
8
DEFAULT_255_1_388
10
4.0103523
20
4.6519
11
4.0103523
21
5.9674898
0
LINE
8
DEFAULT_255_1_388
10
4.0103523
20
5.9674898
11
4.1838367
21
5.9674898
0
LINE
8
DEFAULT_255_1_388
10
5.0069839
20
5.9738148
11
5.0069839
21
4.6519
0
LINE
8
DEFAULT_255_1_388
10
5.0069839
20
4.6519
11
4.8389209
21
4.6519
0
LINE
8
DEFAULT_255_1_388
10
4.8389209
20
4.6519
11
4.8389209
21
5.765995
0
LINE
8
DEFAULT_255_1_388
10
4.8389209
20
5.765995
11
4.5018914
21
5.6422066
0
LINE
8
DEFAULT_255_1_388
10
4.5018914
20
5.6422066
11
4.5018914
21
5.7940055
0
LINE
8
DEFAULT_255_1_388
10
4.5018914
20
5.7940055
11
4.9807805
21
5.9738148
0
LINE
8
DEFAULT_255_1_388
10
4.9807805
20
5.9738148
11
5.0069839
21
5.9738148
0
LINE
8
DEFAULT_255_1_388
10
5.7397747
20
5.2545775
11
5.7397747
21
5.3910157
0
LINE
8
DEFAULT_255_1_388
10
5.7397747
20
5.3910157
11
5.8653701
21
5.3910157
0
LINE
8
DEFAULT_255_1_388
10
5.6512253
20
5.6223282
11
5.4840659
21
5.6223282
0
LINE
8
DEFAULT_255_1_388
10
5.4723196
20
4.9988687
11
5.6403826
21
4.9988687
0
LINE
8
DEFAULT_255_1_388
10
5.8653701
20
5.2545775
11
5.7397747
21
5.2545775
0
ARC
8
DEFAULT_255_1_388
10
5.8620928
20
5.7726922
40
0.3816905
50
270.491971
51
281.8953028
0
ARC
8
DEFAULT_255_1_388
10
5.8892355
20
5.6487199
40
0.2547877
50
281.6690378
51
301.2943765
0
ARC
8
DEFAULT_255_1_388
10
5.9083806
20
5.6136926
40
0.2149197
50
301.7834992
51
311.754567
0
ARC
8
DEFAULT_255_1_388
10
5.9186847
20
5.602265
40
0.1995326
50
311.7325027
51
354.2803031
0
ARC
8
DEFAULT_255_1_388
10
5.8369263
20
5.616328
40
0.2823461
50
353.0941646
51
0.1174696
0
ARC
8
DEFAULT_255_1_388
10
5.7850821
20
5.6216874
40
0.3342238
50
359.1804452
51
15.0452323
0
ARC
8
DEFAULT_255_1_388
10
5.936488
20
5.6658546
40
0.1765747
50
13.957816
51
77.6713812
0
ARC
8
DEFAULT_255_1_388
10
5.8930115
20
5.5100464
40
0.3381982
50
76.111571
51
90.7028736
0
ARC
8
DEFAULT_255_1_388
10
5.8863527
20
5.540825
40
0.3074046
50
89.5321574
51
103.5319393
0
ARC
8
DEFAULT_255_1_388
10
5.8637911
20
5.6307443
40
0.2147041
50
103.2930114
51
133.5619756
0
ARC
8
DEFAULT_255_1_388
10
5.8587853
20
5.6374351
40
0.2064084
50
133.8349761
51
173.5343225
0
ARC
8
DEFAULT_255_1_388
10
5.940151
20
5.6230144
40
0.2889266
50
172.5097183
51
180.1360699
0
ARC
8
DEFAULT_255_1_388
10
5.8331274
20
5.626888
40
0.3490913
50
155.3483706
51
180.7484035
0
ARC
8
DEFAULT_255_1_388
10
5.827625
20
5.6236519
40
0.3454798
50
131.5745177
51
154.4799474
0
ARC
8
DEFAULT_255_1_388
10
5.8628532
20
5.5880422
40
0.3955058
50
96.9874487
51
131.9690874
0
ARC
8
DEFAULT_255_1_388
10
5.8875425
20
5.4479407
40
0.537622
50
89.8592909
51
97.7827481
0
ARC
8
DEFAULT_255_1_388
10
5.8929534
20
5.418436
40
0.5671399
50
78.3654493
51
90.4132586
0
ARC
8
DEFAULT_255_1_388
10
5.9332175
20
5.6050918
40
0.3762034
50
56.6229818
51
78.6387103
0
ARC
8
DEFAULT_255_1_388
10
5.9574004
20
5.6473846
40
0.3275964
50
47.0254604
51
56.085558
0
ARC
8
DEFAULT_255_1_388
10
5.9596255
20
5.6518189
40
0.3228382
50
10.9207523
51
46.777927
0
ARC
8
DEFAULT_255_1_388
10
5.8061849
20
5.6163401
40
0.4802559
50
359.6364235
51
11.6087615
0
ARC
8
DEFAULT_255_1_388
10
6.0126015
20
5.6146404
40
0.273833
50
332.3549969
51
359.7179765
0
ARC
8
DEFAULT_255_1_388
10
5.9394416
20
5.6493285
40
0.3547505
50
325.2332381
51
332.8746682
0
ARC
8
DEFAULT_255_1_388
10
5.9565998
20
5.6373763
40
0.3338396
50
292.9803892
51
325.2391113
0
ARC
8
DEFAULT_255_1_388
10
5.9255194
20
5.6978679
40
0.4016959
50
292.542178
51
293.6931461
0
ARC
8
DEFAULT_255_1_388
10
5.9698766
20
4.9713036
40
0.372079
50
57.643292
51
72.8626085
0
ARC
8
DEFAULT_255_1_388
10
6.0097601
20
5.0359273
40
0.2961455
50
36.7246661
51
57.4701329
0
ARC
8
DEFAULT_255_1_388
10
6.0084757
20
5.037347
40
0.2963321
50
8.054535
51
36.3561529
0
ARC
8
DEFAULT_255_1_388
10
5.911443
20
5.0199073
40
0.3948682
50
359.8316595
51
8.5873361
0
ARC
8
DEFAULT_255_1_388
10
5.8691904
20
5.014497
40
0.4371398
50
343.9831631
51
0.557075
0
ARC
8
DEFAULT_255_1_388
10
5.9688954
20
4.9871963
40
0.3337749
50
311.6358204
51
343.7652116
0
ARC
8
DEFAULT_255_1_388
10
5.9263207
20
5.0351955
40
0.3979351
50
279.7829743
51
311.625622
0
ARC
8
DEFAULT_255_1_388
10
5.8924343
20
5.1968642
40
0.5630417
50
269.7285092
51
280.3857694
0
ARC
8
DEFAULT_255_1_388
10
5.8854656
20
5.1922241
40
0.5584119
50
256.6827433
51
270.4412869
0
ARC
8
DEFAULT_255_1_388
10
5.8473642
20
5.0364698
40
0.3980715
50
229.4223821
51
256.8554507
0
ARC
8
DEFAULT_255_1_388
10
5.8007196
20
4.9839683
40
0.3278564
50
181.8183354
51
229.6455015
0
ARC
8
DEFAULT_255_1_388
10
5.9176805
20
4.9986825
40
0.4453611
50
179.9760419
51
183.2330638
0
ARC
8
DEFAULT_255_1_388
10
5.8983357
20
4.9963781
40
0.2579652
50
179.4467996
51
196.2871626
0
ARC
8
DEFAULT_255_1_388
10
5.8434811
20
4.9813709
40
0.2011057
50
196.5661293
51
227.7059371
0
ARC
8
DEFAULT_255_1_388
10
5.8619418
20
5.0020155
40
0.2287994
50
227.7653015
51
257.8763321
0
ARC
8
DEFAULT_255_1_388
10
5.8872501
20
5.1080961
40
0.3378385
50
257.4583525
51
270.4267406
0
ARC
8
DEFAULT_255_1_388
10
5.8923751
20
5.140723
40
0.3704652
50
269.5965319
51
280.8788143
0
ARC
8
DEFAULT_255_1_388
10
5.9181979
20
5.0117529
40
0.2389415
50
280.6347277
51
299.8594068
0
ARC
8
DEFAULT_255_1_388
10
5.9396749
20
4.9709736
40
0.19289
50
300.3575552
51
314.5515667
0
ARC
8
DEFAULT_255_1_388
10
5.9303424
20
4.9778025
40
0.204312
50
315.0730962
51
345.0429362
0
ARC
8
DEFAULT_255_1_388
10
5.8264932
20
5.0080539
40
0.31246
50
344.598526
51
357.9270698
0
ARC
8
DEFAULT_255_1_388
10
5.7255237
20
5.0149705
40
0.4136265
50
357.4755098
51
0.0224936
0
ARC
8
DEFAULT_255_1_388
10
5.8408114
20
5.0177099
40
0.2983498
50
359.5051035
51
13.4236939
0
ARC
8
DEFAULT_255_1_388
10
5.9383204
20
5.0426637
40
0.1977186
50
12.9497905
51
48.7550905
0
ARC
8
DEFAULT_255_1_388
10
5.9178126
20
5.0146373
40
0.2323321
50
49.509109
51
72.1832965
0
ARC
8
DEFAULT_255_1_388
10
5.8775594
20
4.8951632
40
0.358397
50
71.9008458
51
84.3555134
0
ARC
8
DEFAULT_255_1_388
10
5.8593989
20
4.7419712
40
0.512641
50
84.019632
51
89.3326067
0
LINE
8
DEFAULT_255_1_388
10
4.1838367
20
13.9049898
11
4.1838367
21
12.5894
0
LINE
8
DEFAULT_255_1_388
10
4.1838367
20
12.5894
11
4.0103523
21
12.5894
0
LINE
8
DEFAULT_255_1_388
10
4.0103523
20
12.5894
11
4.0103523
21
13.9049898
0
LINE
8
DEFAULT_255_1_388
10
4.0103523
20
13.9049898
11
4.1838367
21
13.9049898
0
LINE
8
DEFAULT_255_1_388
10
5.0069839
20
13.9113148
11
5.0069839
21
12.5894
0
LINE
8
DEFAULT_255_1_388
10
5.0069839
20
12.5894
11
4.8389209
21
12.5894
0
LINE
8
DEFAULT_255_1_388
10
4.8389209
20
12.5894
11
4.8389209
21
13.703495
0
LINE
8
DEFAULT_255_1_388
10
4.8389209
20
13.703495
11
4.5018914
21
13.5797066
0
LINE
8
DEFAULT_255_1_388
10
4.5018914
20
13.5797066
11
4.5018914
21
13.7315055
0
LINE
8
DEFAULT_255_1_388
10
4.5018914
20
13.7315055
11
4.9807805
21
13.9113148
0
LINE
8
DEFAULT_255_1_388
10
4.9807805
20
13.9113148
11
5.0069839
21
13.9113148
0
LINE
8
DEFAULT_255_1_388
10
6.3587163
20
12.7258382
11
6.3587163
21
12.5894
0
LINE
8
DEFAULT_255_1_388
10
6.3587163
20
12.5894
11
5.4967158
21
12.5894
0
LINE
8
DEFAULT_255_1_388
10
5.4967158
20
12.5894
11
5.4967158
21
12.7095741
0
LINE
8
DEFAULT_255_1_388
10
5.4967158
20
12.7095741
11
5.9521123
21
13.2155702
0
LINE
8
DEFAULT_255_1_388
10
5.6385754
20
13.5173607
11
5.471416
21
13.5173607
0
LINE
8
DEFAULT_255_1_388
10
6.0506008
20
13.108046
11
5.6982107
21
12.7258382
0
LINE
8
DEFAULT_255_1_388
10
5.6982107
20
12.7258382
11
6.3587163
21
12.7258382
0
ARC
8
DEFAULT_255_1_388
10
4.4345183
20
14.5575983
40
2.0258655
50
318.5132526
51
320.7829045
0
ARC
8
DEFAULT_255_1_388
10
5.029314
20
14.0734929
40
1.2589638
50
320.7372878
51
323.9739031
0
ARC
8
DEFAULT_255_1_388
10
5.4702071
20
13.7540554
40
0.7145141
50
323.8962701
51
328.64194
0
ARC
8
DEFAULT_255_1_388
10
5.7004329
20
13.6120545
40
0.4440242
50
328.8294576
51
331.7891185
0
ARC
8
DEFAULT_255_1_388
10
5.8126649
20
13.5541374
40
0.3177517
50
331.4254512
51
352.9365785
0
ARC
8
DEFAULT_255_1_388
10
5.8279649
20
13.550705
40
0.3021496
50
353.2257659
51
0.0166158
0
ARC
8
DEFAULT_255_1_388
10
5.8516409
20
13.5532894
40
0.2784847
50
359.486299
51
15.9343185
0
ARC
8
DEFAULT_255_1_388
10
5.9086676
20
13.5686269
40
0.2194403
50
16.1712913
51
43.5286088
0
ARC
8
DEFAULT_255_1_388
10
5.9173621
20
13.5773191
40
0.2071504
50
43.4417391
51
83.1661095
0
ARC
8
DEFAULT_255_1_388
10
5.9022782
20
13.4944316
40
0.2912888
50
82.160179
51
90.1505708
0
ARC
8
DEFAULT_255_1_388
10
5.8987264
20
13.4340279
40
0.3517025
50
89.5460741
51
102.5418361
0
ARC
8
DEFAULT_255_1_388
10
5.8713984
20
13.5499933
40
0.2325748
50
102.1738499
51
129.206123
0
ARC
8
DEFAULT_255_1_388
10
5.8625437
20
13.5639664
40
0.2161591
50
129.72865
51
135.753947
0
ARC
8
DEFAULT_255_1_388
10
5.8761919
20
13.5530728
40
0.2335433
50
136.1757367
51
166.3673339
0
ARC
8
DEFAULT_255_1_388
10
5.9894608
20
13.5227148
40
0.3507873
50
165.9090694
51
178.8684636
0
ARC
8
DEFAULT_255_1_388
10
6.0870379
20
13.5174263
40
0.4484624
50
178.4391136
51
180.0083808
0
ARC
8
DEFAULT_255_1_388
10
5.9291081
20
13.5218197
40
0.4577138
50
163.2878482
51
180.5581842
0
ARC
8
DEFAULT_255_1_388
10
5.8389122
20
13.5466393
40
0.3641968
50
133.4540601
51
162.947111
0
ARC
8
DEFAULT_255_1_388
10
5.8590003
20
13.5252789
40
0.3935189
50
100.7869829
51
133.4382499
0
ARC
8
DEFAULT_255_1_388
10
5.8981248
20
13.3510399
40
0.5720313
50
89.660664
51
101.3702276
0
ARC
8
DEFAULT_255_1_388
10
5.9055857
20
13.3579263
40
0.5651495
50
78.2172678
51
90.412935
0
ARC
8
DEFAULT_255_1_388
10
5.9455323
20
13.5406511
40
0.378122
50
55.9269121
51
78.4888449
0
ARC
8
DEFAULT_255_1_388
10
5.9676038
20
13.5787187
40
0.3342379
50
47.929771
51
55.4049217
0
ARC
8
DEFAULT_255_1_388
10
5.9790569
20
13.5903618
40
0.3179217
50
4.334829
51
48.0560205
0
ARC
8
DEFAULT_255_1_388
10
5.855837
20
13.5712487
40
0.442341
50
359.9251713
51
5.5971671
0
ARC
8
DEFAULT_255_1_388
10
5.9040525
20
13.5775728
40
0.3941854
50
337.8914027
51
358.9967534
0
ARC
8
DEFAULT_255_1_388
10
5.5988095
20
13.6953295
40
0.7213271
50
326.9132501
51
338.3508308
0
ARC
8
DEFAULT_255_1_388
10
5.1504207
20
13.9827105
40
1.2538973
50
319.6471833
51
327.0959558
0
ARC
8
DEFAULT_255_1_388
10
4.7190865
20
14.338505
40
1.8129975
50
317.2588228
51
319.9045804
0
LINE
8
DEFAULT_255_1_388
10
4.1747367
20
21.8424898
11
4.1747367
21
20.5269
0
LINE
8
DEFAULT_255_1_388
10
4.1747367
20
20.5269
11
4.0012523
21
20.5269
0
LINE
8
DEFAULT_255_1_388
10
4.0012523
20
20.5269
11
4.0012523
21
21.8424898
0
LINE
8
DEFAULT_255_1_388
10
4.0012523
20
21.8424898
11
4.1747367
21
21.8424898
0
LINE
8
DEFAULT_255_1_388
10
4.9978839
20
21.8488148
11
4.9978839
21
20.5269
0
LINE
8
DEFAULT_255_1_388
10
4.9978839
20
20.5269
11
4.8298209
21
20.5269
0
LINE
8
DEFAULT_255_1_388
10
4.8298209
20
20.5269
11
4.8298209
21
21.640995
0
LINE
8
DEFAULT_255_1_388
10
4.8298209
20
21.640995
11
4.4927914
21
21.5172066
0
LINE
8
DEFAULT_255_1_388
10
4.4927914
20
21.5172066
11
4.4927914
21
21.6690055
0
LINE
8
DEFAULT_255_1_388
10
4.4927914
20
21.6690055
11
4.9716805
21
21.8488148
0
LINE
8
DEFAULT_255_1_388
10
4.9716805
20
21.8488148
11
4.9978839
21
21.8488148
0
LINE
8
DEFAULT_255_1_388
10
6.036983
20
21.8488148
11
6.036983
21
20.5269
0
LINE
8
DEFAULT_255_1_388
10
6.036983
20
20.5269
11
5.86892
21
20.5269
0
LINE
8
DEFAULT_255_1_388
10
5.86892
20
20.5269
11
5.86892
21
21.640995
0
LINE
8
DEFAULT_255_1_388
10
5.86892
20
21.640995
11
5.5318905
21
21.5172066
0
LINE
8
DEFAULT_255_1_388
10
5.5318905
20
21.5172066
11
5.5318905
21
21.6690055
0
LINE
8
DEFAULT_255_1_388
10
5.5318905
20
21.6690055
11
6.0107796
21
21.8488148
0
LINE
8
DEFAULT_255_1_388
10
6.0107796
20
21.8488148
11
6.036983
21
21.8488148
0
LINE
8
DEFAULT_255_1_388
10
4.1838367
20
29.7799898
11
4.1838367
21
28.4644
0
LINE
8
DEFAULT_255_1_388
10
4.1838367
20
28.4644
11
4.0103523
21
28.4644
0
LINE
8
DEFAULT_255_1_388
10
4.0103523
20
28.4644
11
4.0103523
21
29.7799898
0
LINE
8
DEFAULT_255_1_388
10
4.0103523
20
29.7799898
11
4.1838367
21
29.7799898
0
LINE
8
DEFAULT_255_1_388
10
5.0069839
20
29.7863148
11
5.0069839
21
28.4644
0
LINE
8
DEFAULT_255_1_388
10
5.0069839
20
28.4644
11
4.8389209
21
28.4644
0
LINE
8
DEFAULT_255_1_388
10
4.8389209
20
28.4644
11
4.8389209
21
29.578495
0
LINE
8
DEFAULT_255_1_388
10
4.8389209
20
29.578495
11
4.5018914
21
29.4547066
0
LINE
8
DEFAULT_255_1_388
10
4.5018914
20
29.4547066
11
4.5018914
21
29.6065055
0
LINE
8
DEFAULT_255_1_388
10
4.5018914
20
29.6065055
11
4.9807805
21
29.7863148
0
LINE
8
DEFAULT_255_1_388
10
4.9807805
20
29.7863148
11
5.0069839
21
29.7863148
0
LINE
8
DEFAULT_255_1_388
10
6.3216702
20
29.242369
11
6.3216702
21
29.0255135
0
LINE
8
DEFAULT_255_1_388
10
5.4912944
20
29.0029244
11
5.4912944
21
29.2261048
0
LINE
8
DEFAULT_255_1_388
10
6.1545107
20
28.9803353
11
6.1545107
21
29.2541153
0
LINE
8
DEFAULT_255_1_388
10
5.6584539
20
29.2667652
11
5.6584539
21
28.9993102
0
ARC
8
DEFAULT_255_1_388
10
4.9439036
20
29.0200118
40
1.3777776
50
353.8440855
51
0.2287917
0
ARC
8
DEFAULT_255_1_388
10
5.4658053
20
28.9617414
40
0.852639
50
344.4934746
51
353.9763743
0
ARC
8
DEFAULT_255_1_388
10
5.802486
20
28.8660191
40
0.5026273
50
329.2803599
51
344.7473406
0
ARC
8
DEFAULT_255_1_388
10
5.9140356
20
28.8048038
40
0.3754848
50
324.9361395
51
328.6153007
0
ARC
8
DEFAULT_255_1_388
10
5.9566006
20
28.7750586
40
0.3235566
50
280.5801797
51
324.9173226
0
ARC
8
DEFAULT_255_1_388
10
5.9114634
20
28.9630236
40
0.5167077
50
269.5979457
51
281.6732777
0
ARC
8
DEFAULT_255_1_388
10
5.9033538
20
28.9495113
40
0.5032026
50
256.6228565
51
270.5105488
0
ARC
8
DEFAULT_255_1_388
10
5.8581281
20
28.7753345
40
0.3233092
50
215.8618351
51
257.2787793
0
ARC
8
DEFAULT_255_1_388
10
5.9729988
20
28.8524106
40
0.4615831
50
197.9695203
51
215.2622745
0
ARC
8
DEFAULT_255_1_388
10
6.2525663
20
28.9467641
40
0.7566307
50
187.8816486
51
198.2346584
0
ARC
8
DEFAULT_255_1_388
10
6.6978902
20
29.0110453
40
1.2065653
50
180.8977266
51
188.0054894
0
ARC
8
DEFAULT_255_1_388
10
7.0029115
20
29.02254
40
1.5117443
50
180.7434591
51
181.152202
0
ARC
8
DEFAULT_255_1_388
10
6.8354111
20
29.2315371
40
1.3441277
50
173.7674302
51
180.2315596
0
ARC
8
DEFAULT_255_1_388
10
6.327198
20
29.2889779
40
0.8326847
50
164.3058537
51
173.9000553
0
ARC
8
DEFAULT_255_1_388
10
5.999598
20
29.3833652
40
0.4917711
50
148.7922028
51
164.5682288
0
ARC
8
DEFAULT_255_1_388
10
5.8926718
20
29.4430457
40
0.3694204
50
144.5883979
51
148.1161588
0
ARC
8
DEFAULT_255_1_388
10
5.8539463
20
29.4700667
40
0.322202
50
101.6440149
51
144.5142619
0
ARC
8
DEFAULT_255_1_388
10
5.9017655
20
29.2800337
40
0.5180451
50
89.528284
51
102.5820197
0
ARC
8
DEFAULT_255_1_388
10
5.9106647
20
29.2756376
40
0.5224441
50
77.0437914
51
90.508231
0
ARC
8
DEFAULT_255_1_388
10
5.9558901
20
29.4604272
40
0.3322297
50
48.2777708
51
77.4996087
0
ARC
8
DEFAULT_255_1_388
10
5.9640641
20
29.4749557
40
0.315966
50
36.3141586
51
47.6307332
0
ARC
8
DEFAULT_255_1_388
10
5.8663363
20
29.4091159
40
0.4337313
50
18.2931065
51
35.6770203
0
ARC
8
DEFAULT_255_1_388
10
5.5802204
20
29.3109107
40
0.7362203
50
8.0246996
51
18.5605636
0
ARC
8
DEFAULT_255_1_388
10
5.1118559
20
29.2417432
40
1.2096583
50
1.127539
51
8.1718423
0
ARC
8
DEFAULT_255_1_388
10
4.7469693
20
29.2274374
40
1.5747719
50
0.5432713
51
1.38669
0
ARC
8
DEFAULT_255_1_388
10
4.9527071
20
29.2581163
40
1.2018103
50
359.8092569
51
4.9408001
0
ARC
8
DEFAULT_255_1_388
10
5.4263653
20
29.30039
40
0.7262727
50
4.8364937
51
12.2906017
0
ARC
8
DEFAULT_255_1_388
10
5.7363117
20
29.3694485
40
0.4087324
50
12.0806994
51
23.8171225
0
ARC
8
DEFAULT_255_1_388
10
5.8683513
20
29.4253508
40
0.2653719
50
24.2874621
51
31.3934353
0
ARC
8
DEFAULT_255_1_388
10
5.9273949
20
29.4639822
40
0.1948607
50
30.7407708
51
82.4658033
0
ARC
8
DEFAULT_255_1_388
10
5.907161
20
29.3646017
40
0.2961198
50
81.1057101
51
90.2187368
0
ARC
8
DEFAULT_255_1_388
10
5.9031422
20
29.3936421
40
0.2670929
50
89.380395
51
105.6763916
0
ARC
8
DEFAULT_255_1_388
10
5.8825144
20
29.468632
40
0.1893189
50
105.7980655
51
149.7387869
0
ARC
8
DEFAULT_255_1_388
10
6.0022284
20
29.3966719
40
0.3289892
50
149.4208441
51
163.628295
0
ARC
8
DEFAULT_255_1_388
10
6.2374514
20
29.3249345
40
0.5749004
50
163.3764549
51
172.141138
0
ARC
8
DEFAULT_255_1_388
10
6.6087235
20
29.2717582
40
0.9499585
50
172.0258462
51
178.0705453
0
ARC
8
DEFAULT_255_1_388
10
6.9508788
20
29.2555682
40
1.2924734
50
177.8639301
51
179.5036263
0
ARC
8
DEFAULT_255_1_388
10
6.8289807
20
28.9952151
40
1.170534
50
179.7995545
51
185.246089
0
ARC
8
DEFAULT_255_1_388
10
6.37414
20
28.9521404
40
0.7136613
50
185.1411911
51
193.0082205
0
ARC
8
DEFAULT_255_1_388
10
6.076766
20
28.8818441
40
0.4080987
50
192.7897338
51
205.2507384
0
ARC
8
DEFAULT_255_1_388
10
5.958987
20
28.8292538
40
0.2791522
50
205.8001921
51
211.2545876
0
ARC
8
DEFAULT_255_1_388
10
5.9001409
20
28.7898132
40
0.2084074
50
210.3789935
51
238.4007996
0
ARC
8
DEFAULT_255_1_388
10
5.8979495
20
28.7950786
40
0.2117943
50
239.6521916
51
265.9793852
0
ARC
8
DEFAULT_255_1_388
10
5.9075344
20
28.8707358
40
0.2879689
50
265.1324455
51
270.0603288
0
ARC
8
DEFAULT_255_1_388
10
5.9107721
20
28.8342418
40
0.2514919
50
269.3314378
51
287.2180039
0
ARC
8
DEFAULT_255_1_388
10
5.9262804
20
28.7776291
40
0.1928357
50
287.7957942
51
329.0808983
0
ARC
8
DEFAULT_255_1_388
10
5.8185561
20
28.8448651
40
0.319808
50
328.6635261
51
343.3325043
0
ARC
8
DEFAULT_255_1_388
10
5.5741019
20
28.9210195
40
0.5758408
50
343.0498092
51
351.9392499
0
ARC
8
DEFAULT_255_1_388
10
5.1840341
20
28.9785205
40
0.9701202
50
351.8071632
51
357.7957897
0
ARC
8
DEFAULT_255_1_388
10
4.8205818
20
28.9973724
40
1.3340376
50
357.5870923
51
359.2682493
0
LINE
8
DEFAULT_255_1_388
10
4.1838367
20
37.7174898
11
4.1838367
21
36.4019
0
LINE
8
DEFAULT_255_1_388
10
4.1838367
20
36.4019
11
4.0103523
21
36.4019
0
LINE
8
DEFAULT_255_1_388
10
4.0103523
20
36.4019
11
4.0103523
21
37.7174898
0
LINE
8
DEFAULT_255_1_388
10
4.0103523
20
37.7174898
11
4.1838367
21
37.7174898
0
LINE
8
DEFAULT_255_1_388
10
5.282571
20
37.179869
11
5.282571
21
36.9630135
0
LINE
8
DEFAULT_255_1_388
10
4.4521953
20
36.9404244
11
4.4521953
21
37.1636048
0
LINE
8
DEFAULT_255_1_388
10
5.1154116
20
36.9178353
11
5.1154116
21
37.1916153
0
LINE
8
DEFAULT_255_1_388
10
4.6193547
20
37.2042652
11
4.6193547
21
36.9368102
0
ARC
8
DEFAULT_255_1_388
10
3.9048044
20
36.9575118
40
1.3777776
50
353.8440855
51
0.2287917
0
ARC
8
DEFAULT_255_1_388
10
4.4267062
20
36.8992414
40
0.852639
50
344.4934746
51
353.9763743
0
ARC
8
DEFAULT_255_1_388
10
4.7633869
20
36.8035191
40
0.5026273
50
329.2803599
51
344.7473406
0
ARC
8
DEFAULT_255_1_388
10
4.8749365
20
36.7423038
40
0.3754848
50
324.9361395
51
328.6153007
0
ARC
8
DEFAULT_255_1_388
10
4.9175015
20
36.7125586
40
0.3235566
50
280.5801797
51
324.9173226
0
ARC
8
DEFAULT_255_1_388
10
4.8723643
20
36.9005236
40
0.5167077
50
269.5979457
51
281.6732777
0
ARC
8
DEFAULT_255_1_388
10
4.8642547
20
36.8870113
40
0.5032026
50
256.6228565
51
270.5105488
0
ARC
8
DEFAULT_255_1_388
10
4.8190289
20
36.7128345
40
0.3233092
50
215.8618351
51
257.2787793
0
ARC
8
DEFAULT_255_1_388
10
4.9338996
20
36.7899106
40
0.4615831
50
197.9695203
51
215.2622745
0
ARC
8
DEFAULT_255_1_388
10
5.2134672
20
36.8842641
40
0.7566307
50
187.8816486
51
198.2346584
0
ARC
8
DEFAULT_255_1_388
10
5.658791
20
36.9485453
40
1.2065653
50
180.8977266
51
188.0054894
0
ARC
8
DEFAULT_255_1_388
10
5.9638124
20
36.96004
40
1.5117443
50
180.7434591
51
181.152202
0
ARC
8
DEFAULT_255_1_388
10
5.796312
20
37.1690371
40
1.3441277
50
173.7674302
51
180.2315596
0
ARC
8
DEFAULT_255_1_388
10
5.2880989
20
37.2264779
40
0.8326847
50
164.3058537
51
173.9000553
0
ARC
8
DEFAULT_255_1_388
10
4.9604989
20
37.3208652
40
0.4917711
50
148.7922028
51
164.5682288
0
ARC
8
DEFAULT_255_1_388
10
4.8535726
20
37.3805457
40
0.3694204
50
144.5883979
51
148.1161588
0
ARC
8
DEFAULT_255_1_388
10
4.8148472
20
37.4075667
40
0.322202
50
101.6440149
51
144.5142619
0
ARC
8
DEFAULT_255_1_388
10
4.8626664
20
37.2175337
40
0.5180451
50
89.528284
51
102.5820197
0
ARC
8
DEFAULT_255_1_388
10
4.8715656
20
37.2131376
40
0.5224441
50
77.0437914
51
90.508231
0
ARC
8
DEFAULT_255_1_388
10
4.9167909
20
37.3979272
40
0.3322297
50
48.2777708
51
77.4996087
0
ARC
8
DEFAULT_255_1_388
10
4.9249649
20
37.4124557
40
0.315966
50
36.3141586
51
47.6307332
0
ARC
8
DEFAULT_255_1_388
10
4.8272372
20
37.3466159
40
0.4337313
50
18.2931065
51
35.6770203
0
ARC
8
DEFAULT_255_1_388
10
4.5411212
20
37.2484107
40
0.7362203
50
8.0246996
51
18.5605636
0
ARC
8
DEFAULT_255_1_388
10
4.0727568
20
37.1792432
40
1.2096583
50
1.127539
51
8.1718423
0
ARC
8
DEFAULT_255_1_388
10
3.7078701
20
37.1649374
40
1.5747719
50
0.5432713
51
1.38669
0
ARC
8
DEFAULT_255_1_388
10
3.913608
20
37.1956163
40
1.2018103
50
359.8092569
51
4.9408001
0
ARC
8
DEFAULT_255_1_388
10
4.3872661
20
37.23789
40
0.7262727
50
4.8364937
51
12.2906017
0
ARC
8
DEFAULT_255_1_388
10
4.6972126
20
37.3069485
40
0.4087324
50
12.0806994
51
23.8171225
0
ARC
8
DEFAULT_255_1_388
10
4.8292522
20
37.3628508
40
0.2653719
50
24.2874621
51
31.3934353
0
ARC
8
DEFAULT_255_1_388
10
4.8882958
20
37.4014822
40
0.1948607
50
30.7407708
51
82.4658033
0
ARC
8
DEFAULT_255_1_388
10
4.8680619
20
37.3021017
40
0.2961198
50
81.1057101
51
90.2187368
0
ARC
8
DEFAULT_255_1_388
10
4.8640431
20
37.3311421
40
0.2670929
50
89.380395
51
105.6763916
0
ARC
8
DEFAULT_255_1_388
10
4.8434153
20
37.406132
40
0.1893189
50
105.7980655
51
149.7387869
0
ARC
8
DEFAULT_255_1_388
10
4.9631293
20
37.3341719
40
0.3289892
50
149.4208441
51
163.628295
0
ARC
8
DEFAULT_255_1_388
10
5.1983522
20
37.2624345
40
0.5749004
50
163.3764549
51
172.141138
0
ARC
8
DEFAULT_255_1_388
10
5.5696244
20
37.2092582
40
0.9499585
50
172.0258462
51
178.0705453
0
ARC
8
DEFAULT_255_1_388
10
5.9117797
20
37.1930682
40
1.2924734
50
177.8639301
51
179.5036263
0
ARC
8
DEFAULT_255_1_388
10
5.7898815
20
36.9327151
40
1.170534
50
179.7995545
51
185.246089
0
ARC
8
DEFAULT_255_1_388
10
5.3350408
20
36.8896404
40
0.7136613
50
185.1411911
51
193.0082205
0
ARC
8
DEFAULT_255_1_388
10
5.0376669
20
36.8193441
40
0.4080987
50
192.7897338
51
205.2507384
0
ARC
8
DEFAULT_255_1_388
10
4.9198879
20
36.7667538
40
0.2791522
50
205.8001921
51
211.2545876
0
ARC
8
DEFAULT_255_1_388
10
4.8610418
20
36.7273132
40
0.2084074
50
210.3789935
51
238.4007996
0
ARC
8
DEFAULT_255_1_388
10
4.8588504
20
36.7325786
40
0.2117943
50
239.6521916
51
265.9793852
0
ARC
8
DEFAULT_255_1_388
10
4.8684353
20
36.8082358
40
0.2879689
50
265.1324455
51
270.0603288
0
ARC
8
DEFAULT_255_1_388
10
4.871673
20
36.7717418
40
0.2514919
50
269.3314378
51
287.2180039
0
ARC
8
DEFAULT_255_1_388
10
4.8871812
20
36.7151291
40
0.1928357
50
287.7957942
51
329.0808983
0
ARC
8
DEFAULT_255_1_388
10
4.7794569
20
36.7823651
40
0.319808
50
328.6635261
51
343.3325043
0
ARC
8
DEFAULT_255_1_388
10
4.5350028
20
36.8585195
40
0.5758408
50
343.0498092
51
351.9392499
0
ARC
8
DEFAULT_255_1_388
10
4.144935
20
36.9160205
40
0.9701202
50
351.8071632
51
357.7957897
0
ARC
8
DEFAULT_255_1_388
10
3.7814827
20
36.9348724
40
1.3340376
50
357.5870923
51
359.2682493
0
LINE
8
DEFAULT_255_1_388
10
6.305406
20
37.1916153
11
6.305406
21
37.1428229
0
LINE
8
DEFAULT_255_1_388
10
5.6955
20
36.4009964
11
5.6629717
21
36.4009964
0
LINE
8
DEFAULT_255_1_388
10
5.6629717
20
36.4009964
11
5.6629717
21
36.5419525
0
LINE
8
DEFAULT_255_1_388
10
5.6629717
20
36.5419525
11
5.6982107
21
36.5419525
0
LINE
8
DEFAULT_255_1_388
10
6.1382466
20
37.159087
11
6.1382466
21
37.2259508
0
ARC
8
DEFAULT_255_1_388
10
5.8239558
20
37.2429877
40
0.4089973
50
297.4036461
51
320.0168133
0
ARC
8
DEFAULT_255_1_388
10
5.8565738
20
37.1803072
40
0.3383378
50
270.2631886
51
297.3852322
0
ARC
8
DEFAULT_255_1_388
10
5.8527414
20
37.2340343
40
0.3920983
50
269.9969069
51
270.7871389
0
ARC
8
DEFAULT_255_1_388
10
5.8498737
20
37.2322737
40
0.3903482
50
254.5997295
51
270.4178147
0
ARC
8
DEFAULT_255_1_388
10
5.8338269
20
37.1687693
40
0.3248657
50
236.4717231
51
254.3539376
0
ARC
8
DEFAULT_255_1_388
10
5.8514001
20
37.1923999
40
0.3542746
50
208.4727261
51
236.2134628
0
ARC
8
DEFAULT_255_1_388
10
5.9232764
20
37.2363676
40
0.4384402
50
204.3450776
51
209.0455365
0
ARC
8
DEFAULT_255_1_388
10
5.999714
20
37.26878
40
0.5214459
50
183.9375459
51
204.1275509
0
ARC
8
DEFAULT_255_1_388
10
6.1019446
20
37.2797863
40
0.6242037
50
179.9652726
51
184.3010611
0
ARC
8
DEFAULT_255_1_388
10
6.0748991
20
37.2835004
40
0.5971675
50
166.7585952
51
180.3200491
0
ARC
8
DEFAULT_255_1_388
10
5.9796799
20
37.3041979
40
0.4997418
50
154.6954866
51
166.5679151
0
ARC
8
DEFAULT_255_1_388
10
5.883704
20
37.3525411
40
0.3923208
50
136.3325251
51
155.0871367
0
ARC
8
DEFAULT_255_1_388
10
5.8520959
20
37.3796271
40
0.3507618
50
121.2365985
51
135.9680081
0
ARC
8
DEFAULT_255_1_388
10
5.8679024
20
37.3503541
40
0.3839917
50
96.8454764
51
120.9881329
0
ARC
8
DEFAULT_255_1_388
10
5.884283
20
37.2450942
40
0.4904679
50
89.887204
51
97.2797758
0
ARC
8
DEFAULT_255_1_388
10
5.8901802
20
37.3168652
40
0.418725
50
70.6505767
51
90.6748382
0
ARC
8
DEFAULT_255_1_388
10
5.9049499
20
37.3746091
40
0.3593866
50
36.7493297
51
69.8220487
0
ARC
8
DEFAULT_255_1_388
10
5.7925847
20
37.2870446
40
0.5018201
50
15.3958155
51
37.0841102
0
ARC
8
DEFAULT_255_1_388
10
5.5530131
20
37.2172111
40
0.7513436
50
3.9487796
51
15.6798517
0
ARC
8
DEFAULT_255_1_388
10
5.2828773
20
37.192881
40
1.0225293
50
359.9290791
51
4.266464
0
ARC
8
DEFAULT_255_1_388
10
4.7647691
20
37.1353372
40
1.5406551
50
352.8365702
51
0.2783851
0
ARC
8
DEFAULT_255_1_388
10
5.3595921
20
37.0580664
40
0.9408425
50
341.8359339
51
352.9884057
0
ARC
8
DEFAULT_255_1_388
10
5.7216909
20
36.9360144
40
0.5587481
50
322.8579243
51
342.1527461
0
ARC
8
DEFAULT_255_1_388
10
5.8188601
20
36.869735
40
0.4413099
50
319.3348471
51
322.100194
0
ARC
8
DEFAULT_255_1_388
10
5.7840532
20
36.9046814
40
0.4904992
50
285.954114
51
318.8878716
0
ARC
8
DEFAULT_255_1_388
10
5.7022969
20
37.1645865
40
0.7628991
50
272.9280841
51
286.4924389
0
ARC
8
DEFAULT_255_1_388
10
5.6809273
20
37.418024
40
1.017132
50
270.8209173
51
273.4010121
0
ARC
8
DEFAULT_255_1_388
10
5.6909297
20
37.2132073
40
0.6712943
50
270.6214576
51
281.4062333
0
ARC
8
DEFAULT_255_1_388
10
5.7393021
20
36.981925
40
0.4350167
50
281.1852583
51
299.0622058
0
ARC
8
DEFAULT_255_1_388
10
5.7813266
20
36.9008138
40
0.3437146
50
299.5068171
51
313.1200142
0
ARC
8
DEFAULT_255_1_388
10
5.7838003
20
36.8918959
40
0.3355418
50
313.8525725
51
338.5989631
0
ARC
8
DEFAULT_255_1_388
10
5.6011132
20
36.9669576
40
0.5330317
50
338.2523315
51
351.2431701
0
ARC
8
DEFAULT_255_1_388
10
5.3298882
20
37.0130494
40
0.8081235
50
350.940933
51
357.6690137
0
ARC
8
DEFAULT_255_1_388
10
5.8800762
20
37.2383048
40
0.2581236
50
269.9447107
51
306.8249644
0
ARC
8
DEFAULT_255_1_388
10
5.8534064
20
37.285906
40
0.3122948
50
305.5071046
51
327.0773808
0
ARC
8
DEFAULT_255_1_388
10
5.8667116
20
37.2752445
40
0.2953369
50
327.4106457
51
336.8396801
0
ARC
8
DEFAULT_255_1_388
10
5.518683
20
37.2295932
40
0.6195743
50
359.663158
51
10.1176387
0
ARC
8
DEFAULT_255_1_388
10
5.7159592
20
37.2660922
40
0.4189561
50
9.9431549
51
26.7699242
0
ARC
8
DEFAULT_255_1_388
10
5.7831579
20
37.2970796
40
0.3450125
50
27.2018067
51
34.6833639
0
ARC
8
DEFAULT_255_1_388
10
5.8382192
20
37.338456
40
0.2762035
50
34.124913
51
50.30709
0
ARC
8
DEFAULT_255_1_388
10
5.8884674
20
37.3985741
40
0.1978518
50
50.3850304
51
90.6705051
0
ARC
8
DEFAULT_255_1_388
10
5.8832068
20
37.3643074
40
0.2321235
50
89.2729817
51
111.9140267
0
ARC
8
DEFAULT_255_1_388
10
5.8810155
20
37.3801308
40
0.2166604
50
112.9381864
51
142.5320936
0
ARC
8
DEFAULT_255_1_388
10
5.9424644
20
37.3302392
40
0.2957902
50
142.1024021
51
166.3835244
0
ARC
8
DEFAULT_255_1_388
10
6.0753614
20
37.2959213
40
0.4330361
50
166.1100968
51
178.6653563
0
ARC
8
DEFAULT_255_1_388
10
6.193554
20
37.2893061
40
0.5513642
50
178.2641888
51
180.010994
0
ARC
8
DEFAULT_255_1_388
10
6.1030041
20
37.2861136
40
0.4608248
50
179.6162225
51
191.8786013
0
ARC
8
DEFAULT_255_1_388
10
5.9657351
20
37.255759
40
0.3202502
50
191.6192934
51
215.2970746
0
ARC
8
DEFAULT_255_1_388
10
5.9418007
20
37.2414963
40
0.2924827
50
215.7258926
51
216.5355437
0
ARC
8
DEFAULT_255_1_388
10
5.8829627
20
37.1941919
40
0.2170661
50
215.7486606
51
239.9728403
0
ARC
8
DEFAULT_255_1_388
10
5.8750792
20
37.1884838
40
0.208217
50
241.065081
51
269.280972
0
ARC
8
DEFAULT_255_1_388
10
5.8797951
20
37.2440327
40
0.2638514
50
268.4083352
51
270.0069622
0
LINE
8
DEFAULT_255_1_388
10
4.1838367
20
45.6549898
11
4.1838367
21
44.3394
0
LINE
8
DEFAULT_255_1_388
10
4.1838367
20
44.3394
11
4.0103523
21
44.3394
0
LINE
8
DEFAULT_255_1_388
10
4.0103523
20
44.3394
11
4.0103523
21
45.6549898
0
LINE
8
DEFAULT_255_1_388
10
4.0103523
20
45.6549898
11
4.1838367
21
45.6549898
0
LINE
8
DEFAULT_255_1_388
10
5.282571
20
45.117369
11
5.282571
21
44.9005135
0
LINE
8
DEFAULT_255_1_388
10
4.4521953
20
44.8779244
11
4.4521953
21
45.1011048
0
LINE
8
DEFAULT_255_1_388
10
5.1154116
20
44.8553353
11
5.1154116
21
45.1291153
0
LINE
8
DEFAULT_255_1_388
10
4.6193547
20
45.1417652
11
4.6193547
21
44.8743102
0
ARC
8
DEFAULT_255_1_388
10
3.9048044
20
44.8950118
40
1.3777776
50
353.8440855
51
0.2287917
0
ARC
8
DEFAULT_255_1_388
10
4.4267062
20
44.8367414
40
0.852639
50
344.4934746
51
353.9763743
0
ARC
8
DEFAULT_255_1_388
10
4.7633869
20
44.7410191
40
0.5026273
50
329.2803599
51
344.7473406
0
ARC
8
DEFAULT_255_1_388
10
4.8749365
20
44.6798038
40
0.3754848
50
324.9361395
51
328.6153007
0
ARC
8
DEFAULT_255_1_388
10
4.9175015
20
44.6500586
40
0.3235566
50
280.5801797
51
324.9173226
0
ARC
8
DEFAULT_255_1_388
10
4.8723643
20
44.8380236
40
0.5167077
50
269.5979457
51
281.6732777
0
ARC
8
DEFAULT_255_1_388
10
4.8642547
20
44.8245113
40
0.5032026
50
256.6228565
51
270.5105488
0
ARC
8
DEFAULT_255_1_388
10
4.8190289
20
44.6503345
40
0.3233092
50
215.8618351
51
257.2787793
0
ARC
8
DEFAULT_255_1_388
10
4.9338996
20
44.7274106
40
0.4615831
50
197.9695203
51
215.2622745
0
ARC
8
DEFAULT_255_1_388
10
5.2134672
20
44.8217641
40
0.7566307
50
187.8816486
51
198.2346584
0
ARC
8
DEFAULT_255_1_388
10
5.658791
20
44.8860453
40
1.2065653
50
180.8977266
51
188.0054894
0
ARC
8
DEFAULT_255_1_388
10
5.9638124
20
44.89754
40
1.5117443
50
180.7434591
51
181.152202
0
ARC
8
DEFAULT_255_1_388
10
5.796312
20
45.1065371
40
1.3441277
50
173.7674302
51
180.2315596
0
ARC
8
DEFAULT_255_1_388
10
5.2880989
20
45.1639779
40
0.8326847
50
164.3058537
51
173.9000553
0
ARC
8
DEFAULT_255_1_388
10
4.9604989
20
45.2583652
40
0.4917711
50
148.7922028
51
164.5682288
0
ARC
8
DEFAULT_255_1_388
10
4.8535726
20
45.3180457
40
0.3694204
50
144.5883979
51
148.1161588
0
ARC
8
DEFAULT_255_1_388
10
4.8148472
20
45.3450667
40
0.322202
50
101.6440149
51
144.5142619
0
ARC
8
DEFAULT_255_1_388
10
4.8626664
20
45.1550337
40
0.5180451
50
89.528284
51
102.5820197
0
ARC
8
DEFAULT_255_1_388
10
4.8715656
20
45.1506376
40
0.5224441
50
77.0437914
51
90.508231
0
ARC
8
DEFAULT_255_1_388
10
4.9167909
20
45.3354272
40
0.3322297
50
48.2777708
51
77.4996087
0
ARC
8
DEFAULT_255_1_388
10
4.9249649
20
45.3499557
40
0.315966
50
36.3141586
51
47.6307332
0
ARC
8
DEFAULT_255_1_388
10
4.8272372
20
45.2841159
40
0.4337313
50
18.2931065
51
35.6770203
0
ARC
8
DEFAULT_255_1_388
10
4.5411212
20
45.1859107
40
0.7362203
50
8.0246996
51
18.5605636
0
ARC
8
DEFAULT_255_1_388
10
4.0727568
20
45.1167432
40
1.2096583
50
1.127539
51
8.1718423
0
ARC
8
DEFAULT_255_1_388
10
3.7078701
20
45.1024374
40
1.5747719
50
0.5432713
51
1.38669
0
ARC
8
DEFAULT_255_1_388
10
3.913608
20
45.1331163
40
1.2018103
50
359.8092569
51
4.9408001
0
ARC
8
DEFAULT_255_1_388
10
4.3872661
20
45.17539
40
0.7262727
50
4.8364937
51
12.2906017
0
ARC
8
DEFAULT_255_1_388
10
4.6972126
20
45.2444485
40
0.4087324
50
12.0806994
51
23.8171225
0
ARC
8
DEFAULT_255_1_388
10
4.8292522
20
45.3003508
40
0.2653719
50
24.2874621
51
31.3934353
0
ARC
8
DEFAULT_255_1_388
10
4.8882958
20
45.3389822
40
0.1948607
50
30.7407708
51
82.4658033
0
ARC
8
DEFAULT_255_1_388
10
4.8680619
20
45.2396017
40
0.2961198
50
81.1057101
51
90.2187368
0
ARC
8
DEFAULT_255_1_388
10
4.8640431
20
45.2686421
40
0.2670929
50
89.380395
51
105.6763916
0
ARC
8
DEFAULT_255_1_388
10
4.8434153
20
45.343632
40
0.1893189
50
105.7980655
51
149.7387869
0
ARC
8
DEFAULT_255_1_388
10
4.9631293
20
45.2716719
40
0.3289892
50
149.4208441
51
163.628295
0
ARC
8
DEFAULT_255_1_388
10
5.1983522
20
45.1999345
40
0.5749004
50
163.3764549
51
172.141138
0
ARC
8
DEFAULT_255_1_388
10
5.5696244
20
45.1467582
40
0.9499585
50
172.0258462
51
178.0705453
0
ARC
8
DEFAULT_255_1_388
10
5.9117797
20
45.1305682
40
1.2924734
50
177.8639301
51
179.5036263
0
ARC
8
DEFAULT_255_1_388
10
5.7898815
20
44.8702151
40
1.170534
50
179.7995545
51
185.246089
0
ARC
8
DEFAULT_255_1_388
10
5.3350408
20
44.8271404
40
0.7136613
50
185.1411911
51
193.0082205
0
ARC
8
DEFAULT_255_1_388
10
5.0376669
20
44.7568441
40
0.4080987
50
192.7897338
51
205.2507384
0
ARC
8
DEFAULT_255_1_388
10
4.9198879
20
44.7042538
40
0.2791522
50
205.8001921
51
211.2545876
0
ARC
8
DEFAULT_255_1_388
10
4.8610418
20
44.6648132
40
0.2084074
50
210.3789935
51
238.4007996
0
ARC
8
DEFAULT_255_1_388
10
4.8588504
20
44.6700786
40
0.2117943
50
239.6521916
51
265.9793852
0
ARC
8
DEFAULT_255_1_388
10
4.8684353
20
44.7457358
40
0.2879689
50
265.1324455
51
270.0603288
0
ARC
8
DEFAULT_255_1_388
10
4.871673
20
44.7092418
40
0.2514919
50
269.3314378
51
287.2180039
0
ARC
8
DEFAULT_255_1_388
10
4.8871812
20
44.6526291
40
0.1928357
50
287.7957942
51
329.0808983
0
ARC
8
DEFAULT_255_1_388
10
4.7794569
20
44.7198651
40
0.319808
50
328.6635261
51
343.3325043
0
ARC
8
DEFAULT_255_1_388
10
4.5350028
20
44.7960195
40
0.5758408
50
343.0498092
51
351.9392499
0
ARC
8
DEFAULT_255_1_388
10
4.144935
20
44.8535205
40
0.9701202
50
351.8071632
51
357.7957897
0
ARC
8
DEFAULT_255_1_388
10
3.7814827
20
44.8723724
40
1.3340376
50
357.5870923
51
359.2682493
0
ARC
8
DEFAULT_255_1_388
10
5.9770663
20
45.308772
40
0.3175098
50
338.8762533
51
0.5167111
0
ARC
8
DEFAULT_255_1_388
10
5.9960257
20
45.30366
40
0.2979894
50
325.8415285
51
338.4793574
0
ARC
8
DEFAULT_255_1_388
10
5.9520891
20
45.3341242
40
0.351452
50
296.7587686
51
325.7536481
0
ARC
8
DEFAULT_255_1_388
10
5.9192519
20
45.3895363
40
0.4157374
50
296.0927901
51
297.3613472
0
ARC
8
DEFAULT_255_1_388
10
5.9486714
20
44.6512593
40
0.395855
50
47.9007294
51
67.1948823
0
ARC
8
DEFAULT_255_1_388
10
5.9707356
20
44.6789599
40
0.360516
50
35.2363914
51
47.551141
0
ARC
8
DEFAULT_255_1_388
10
6.000176
20
44.6986093
40
0.3251343
50
359.2759765
51
35.4014143
0
ARC
8
DEFAULT_255_1_388
10
5.9163687
20
44.6903787
40
0.4089365
50
343.1293083
51
0.5775513
0
ARC
8
DEFAULT_255_1_388
10
5.99788
20
44.6679336
40
0.3244269
50
310.8496669
51
342.7449331
0
ARC
8
DEFAULT_255_1_388
10
5.9508675
20
44.7215913
40
0.3957651
50
281.5472888
51
310.9170406
0
ARC
8
DEFAULT_255_1_388
10
5.9107549
20
44.8962814
40
0.5749654
50
269.619248
51
281.9789564
0
ARC
8
DEFAULT_255_1_388
10
5.9026327
20
44.8963776
40
0.5750649
50
257.4585678
51
270.4285689
0
ARC
8
DEFAULT_255_1_388
10
5.8597847
20
44.7159741
40
0.389671
50
228.7554326
51
257.8484789
0
ARC
8
DEFAULT_255_1_388
10
5.8249332
20
44.6740228
40
0.335154
50
184.0104975
51
228.5071184
0
ARC
8
DEFAULT_255_1_388
10
5.9557725
20
44.693943
40
0.4671891
50
179.9315832
51
185.3253753
0
ARC
8
DEFAULT_255_1_388
10
5.8234238
20
44.6981592
40
0.33486
50
145.6796023
51
180.6259786
0
ARC
8
DEFAULT_255_1_388
10
5.8418003
20
44.6853271
40
0.3572723
50
115.5537685
51
145.6415986
0
ARC
8
DEFAULT_255_1_388
10
5.8801047
20
44.6167087
40
0.4357296
50
113.243307
51
116.2057839
0
ARC
8
DEFAULT_255_1_388
10
5.8629699
20
45.3364379
40
0.3549126
50
222.9549744
51
244.1370481
0
ARC
8
DEFAULT_255_1_388
10
5.8492342
20
45.3210378
40
0.3343711
50
213.3436887
51
222.6274467
0
ARC
8
DEFAULT_255_1_388
10
5.8276412
20
45.3063653
40
0.3082678
50
180.431584
51
213.271499
0
ARC
8
DEFAULT_255_1_388
10
5.891141
20
45.3116296
40
0.3718363
50
179.9991191
51
181.1690594
0
ARC
8
DEFAULT_255_1_388
10
5.9383867
20
45.3155072
40
0.4190996
50
164.6186169
51
180.529336
0
ARC
8
DEFAULT_255_1_388
10
5.8373515
20
45.342678
40
0.3144772
50
132.2455553
51
164.5090724
0
ARC
8
DEFAULT_255_1_388
10
5.8696494
20
45.306107
40
0.3632644
50
100.7053914
51
132.1386381
0
ARC
8
DEFAULT_255_1_388
10
5.9039555
20
45.1511118
40
0.5219578
50
89.6730358
51
101.2451698
0
ARC
8
DEFAULT_255_1_388
10
5.9109546
20
45.1707648
40
0.5023124
50
76.287748
51
90.4586006
0
ARC
8
DEFAULT_255_1_388
10
5.9454048
20
45.3082671
40
0.3605639
50
47.8240511
51
76.4266241
0
ARC
8
DEFAULT_255_1_388
10
5.9704432
20
45.3375599
40
0.3220463
50
6.9168387
51
47.6262497
0
ARC
8
DEFAULT_255_1_388
10
5.8369885
20
45.3129004
40
0.4575765
50
359.8415968
51
7.9697453
0
ARC
8
DEFAULT_255_1_388
10
5.8754155
20
44.7008519
40
0.2827228
50
359.445363
51
16.9256873
0
ARC
8
DEFAULT_255_1_388
10
5.9281589
20
44.7153781
40
0.2280396
50
17.2920767
51
45.4630727
0
ARC
8
DEFAULT_255_1_388
10
5.9220724
20
44.7101324
40
0.2360485
50
45.30305
51
83.1920945
0
ARC
8
DEFAULT_255_1_388
10
5.9059469
20
44.6199473
40
0.3275527
50
82.2612665
51
90.1434275
0
ARC
8
DEFAULT_255_1_388
10
5.9024745
20
44.6461869
40
0.3013237
50
89.4956434
51
104.8580688
0
ARC
8
DEFAULT_255_1_388
10
5.8825935
20
44.7215455
40
0.2233867
50
104.8856641
51
135.244616
0
ARC
8
DEFAULT_255_1_388
10
5.8881924
20
44.7165352
40
0.2308906
50
135.3399546
51
172.1044062
0
ARC
8
DEFAULT_255_1_388
10
5.9789449
20
44.6991667
40
0.3232034
50
171.2645637
51
180.186429
0
ARC
8
DEFAULT_255_1_388
10
5.9599453
20
44.6955426
40
0.304213
50
179.5154935
51
193.6464289
0
ARC
8
DEFAULT_255_1_388
10
5.8681129
20
44.6721473
40
0.209456
50
193.3540274
51
225.8258581
0
ARC
8
DEFAULT_255_1_388
10
5.8727001
20
44.6801076
40
0.2183738
50
226.4180634
51
255.8552336
0
ARC
8
DEFAULT_255_1_388
10
5.9015468
20
44.7854521
40
0.3275812
50
255.4654104
51
268.7987425
0
ARC
8
DEFAULT_255_1_388
10
5.9068644
20
44.8796545
40
0.4218877
50
268.3449238
51
270.0094605
0
ARC
8
DEFAULT_255_1_388
10
5.9094878
20
44.8028094
40
0.3450519
50
269.5759586
51
282.0820163
0
ARC
8
DEFAULT_255_1_388
10
5.9347914
20
44.6909363
40
0.2303642
50
281.752014
51
306.6056188
0
ARC
8
DEFAULT_255_1_388
10
5.9458722
20
44.6727802
40
0.2091906
50
307.1346085
51
314.027845
0
ARC
8
DEFAULT_255_1_388
10
5.9418234
20
44.6757459
40
0.2141385
50
314.2552483
51
350.1694025
0
ARC
8
DEFAULT_255_1_388
10
5.8460471
20
44.6965175
40
0.312082
50
349.4140529
51
0.2933014
0
ARC
8
DEFAULT_255_1_388
10
5.9045748
20
45.2768924
40
0.2588377
50
89.477747
51
105.729729
0
ARC
8
DEFAULT_255_1_388
10
5.8892668
20
45.3337367
40
0.1999733
50
105.9233417
51
135.1660906
0
ARC
8
DEFAULT_255_1_388
10
5.8915699
20
45.3321412
40
0.2027322
50
135.3052302
51
168.9883645
0
ARC
8
DEFAULT_255_1_388
10
5.9846715
20
45.3107996
40
0.2982129
50
168.3801673
51
180.3602268
0
ARC
8
DEFAULT_255_1_388
10
5.9589832
20
45.3065622
40
0.2725291
50
179.5033122
51
194.9125571
0
ARC
8
DEFAULT_255_1_388
10
5.8931239
20
45.2892427
40
0.204431
50
194.9720816
51
224.194444
0
ARC
8
DEFAULT_255_1_388
10
5.8899604
20
45.2866635
40
0.2003651
50
224.2962453
51
262.015664
0
ARC
8
DEFAULT_255_1_388
10
5.9059608
20
45.3689315
40
0.2840925
50
261.1245923
51
270.1962896
0
ARC
8
DEFAULT_255_1_388
10
5.9093089
20
45.3478859
40
0.2630559
50
269.4827276
51
285.0987215
0
ARC
8
DEFAULT_255_1_388
10
5.9266526
20
45.2828175
40
0.1957162
50
285.1585357
51
315.9484501
0
ARC
8
DEFAULT_255_1_388
10
5.9166399
20
45.2920315
40
0.2093195
50
316.0413965
51
351.916092
0
ARC
8
DEFAULT_255_1_388
10
5.8341774
20
45.3079323
40
0.2932279
50
351.105835
51
0.1939062
0
ARC
8
DEFAULT_255_1_388
10
5.8637408
20
45.3113224
40
0.2636739
50
359.4789618
51
16.0678224
0
ARC
8
DEFAULT_255_1_388
10
5.9172879
20
45.3257721
40
0.2082215
50
16.3252067
51
44.7913869
0
ARC
8
DEFAULT_255_1_388
10
5.9152942
20
45.325832
40
0.2095992
50
44.3957814
51
88.2499162
0
ARC
8
DEFAULT_255_1_388
10
5.9070276
20
45.2570006
40
0.2787189
50
86.9833854
51
90.0192215
0
LINE
8
DEFAULT_255_1_388
10
4.1838367
20
53.5924898
11
4.1838367
21
52.2769
0
LINE
8
DEFAULT_255_1_388
10
4.1838367
20
52.2769
11
4.0103523
21
52.2769
0
LINE
8
DEFAULT_255_1_388
10
4.0103523
20
52.2769
11
4.0103523
21
53.5924898
0
LINE
8
DEFAULT_255_1_388
10
4.0103523
20
53.5924898
11
4.1838367
21
53.5924898
0
LINE
8
DEFAULT_255_1_388
10
5.282571
20
53.054869
11
5.282571
21
52.8380135
0
LINE
8
DEFAULT_255_1_388
10
4.4521953
20
52.8154244
11
4.4521953
21
53.0386048
0
LINE
8
DEFAULT_255_1_388
10
5.1154116
20
52.7928353
11
5.1154116
21
53.0666153
0
LINE
8
DEFAULT_255_1_388
10
4.6193547
20
53.0792652
11
4.6193547
21
52.8118102
0
ARC
8
DEFAULT_255_1_388
10
3.9048044
20
52.8325118
40
1.3777776
50
353.8440855
51
0.2287917
0
ARC
8
DEFAULT_255_1_388
10
4.4267062
20
52.7742414
40
0.852639
50
344.4934746
51
353.9763743
0
ARC
8
DEFAULT_255_1_388
10
4.7633869
20
52.6785191
40
0.5026273
50
329.2803599
51
344.7473406
0
ARC
8
DEFAULT_255_1_388
10
4.8749365
20
52.6173038
40
0.3754848
50
324.9361395
51
328.6153007
0
ARC
8
DEFAULT_255_1_388
10
4.9175015
20
52.5875586
40
0.3235566
50
280.5801797
51
324.9173226
0
ARC
8
DEFAULT_255_1_388
10
4.8723643
20
52.7755236
40
0.5167077
50
269.5979457
51
281.6732777
0
ARC
8
DEFAULT_255_1_388
10
4.8642547
20
52.7620113
40
0.5032026
50
256.6228565
51
270.5105488
0
ARC
8
DEFAULT_255_1_388
10
4.8190289
20
52.5878345
40
0.3233092
50
215.8618351
51
257.2787793
0
ARC
8
DEFAULT_255_1_388
10
4.9338996
20
52.6649106
40
0.4615831
50
197.9695203
51
215.2622745
0
ARC
8
DEFAULT_255_1_388
10
5.2134672
20
52.7592641
40
0.7566307
50
187.8816486
51
198.2346584
0
ARC
8
DEFAULT_255_1_388
10
5.658791
20
52.8235453
40
1.2065653
50
180.8977266
51
188.0054894
0
ARC
8
DEFAULT_255_1_388
10
5.9638124
20
52.83504
40
1.5117443
50
180.7434591
51
181.152202
0
ARC
8
DEFAULT_255_1_388
10
5.796312
20
53.0440371
40
1.3441277
50
173.7674302
51
180.2315596
0
ARC
8
DEFAULT_255_1_388
10
5.2880989
20
53.1014779
40
0.8326847
50
164.3058537
51
173.9000553
0
ARC
8
DEFAULT_255_1_388
10
4.9604989
20
53.1958652
40
0.4917711
50
148.7922028
51
164.5682288
0
ARC
8
DEFAULT_255_1_388
10
4.8535726
20
53.2555457
40
0.3694204
50
144.5883979
51
148.1161588
0
ARC
8
DEFAULT_255_1_388
10
4.8148472
20
53.2825667
40
0.322202
50
101.6440149
51
144.5142619
0
ARC
8
DEFAULT_255_1_388
10
4.8626664
20
53.0925337
40
0.5180451
50
89.528284
51
102.5820197
0
ARC
8
DEFAULT_255_1_388
10
4.8715656
20
53.0881376
40
0.5224441
50
77.0437914
51
90.508231
0
ARC
8
DEFAULT_255_1_388
10
4.9167909
20
53.2729272
40
0.3322297
50
48.2777708
51
77.4996087
0
ARC
8
DEFAULT_255_1_388
10
4.9249649
20
53.2874557
40
0.315966
50
36.3141586
51
47.6307332
0
ARC
8
DEFAULT_255_1_388
10
4.8272372
20
53.2216159
40
0.4337313
50
18.2931065
51
35.6770203
0
ARC
8
DEFAULT_255_1_388
10
4.5411212
20
53.1234107
40
0.7362203
50
8.0246996
51
18.5605636
0
ARC
8
DEFAULT_255_1_388
10
4.0727568
20
53.0542432
40
1.2096583
50
1.127539
51
8.1718423
0
ARC
8
DEFAULT_255_1_388
10
3.7078701
20
53.0399374
40
1.5747719
50
0.5432713
51
1.38669
0
ARC
8
DEFAULT_255_1_388
10
3.913608
20
53.0706163
40
1.2018103
50
359.8092569
51
4.9408001
0
ARC
8
DEFAULT_255_1_388
10
4.3872661
20
53.11289
40
0.7262727
50
4.8364937
51
12.2906017
0
ARC
8
DEFAULT_255_1_388
10
4.6972126
20
53.1819485
40
0.4087324
50
12.0806994
51
23.8171225
0
ARC
8
DEFAULT_255_1_388
10
4.8292522
20
53.2378508
40
0.2653719
50
24.2874621
51
31.3934353
0
ARC
8
DEFAULT_255_1_388
10
4.8882958
20
53.2764822
40
0.1948607
50
30.7407708
51
82.4658033
0
ARC
8
DEFAULT_255_1_388
10
4.8680619
20
53.1771017
40
0.2961198
50
81.1057101
51
90.2187368
0
ARC
8
DEFAULT_255_1_388
10
4.8640431
20
53.2061421
40
0.2670929
50
89.380395
51
105.6763916
0
ARC
8
DEFAULT_255_1_388
10
4.8434153
20
53.281132
40
0.1893189
50
105.7980655
51
149.7387869
0
ARC
8
DEFAULT_255_1_388
10
4.9631293
20
53.2091719
40
0.3289892
50
149.4208441
51
163.628295
0
ARC
8
DEFAULT_255_1_388
10
5.1983522
20
53.1374345
40
0.5749004
50
163.3764549
51
172.141138
0
ARC
8
DEFAULT_255_1_388
10
5.5696244
20
53.0842582
40
0.9499585
50
172.0258462
51
178.0705453
0
ARC
8
DEFAULT_255_1_388
10
5.9117797
20
53.0680682
40
1.2924734
50
177.8639301
51
179.5036263
0
ARC
8
DEFAULT_255_1_388
10
5.7898815
20
52.8077151
40
1.170534
50
179.7995545
51
185.246089
0
ARC
8
DEFAULT_255_1_388
10
5.3350408
20
52.7646404
40
0.7136613
50
185.1411911
51
193.0082205
0
ARC
8
DEFAULT_255_1_388
10
5.0376669
20
52.6943441
40
0.4080987
50
192.7897338
51
205.2507384
0
ARC
8
DEFAULT_255_1_388
10
4.9198879
20
52.6417538
40
0.2791522
50
205.8001921
51
211.2545876
0
ARC
8
DEFAULT_255_1_388
10
4.8610418
20
52.6023132
40
0.2084074
50
210.3789935
51
238.4007996
0
ARC
8
DEFAULT_255_1_388
10
4.8588504
20
52.6075786
40
0.2117943
50
239.6521916
51
265.9793852
0
ARC
8
DEFAULT_255_1_388
10
4.8684353
20
52.6832358
40
0.2879689
50
265.1324455
51
270.0603288
0
ARC
8
DEFAULT_255_1_388
10
4.871673
20
52.6467418
40
0.2514919
50
269.3314378
51
287.2180039
0
ARC
8
DEFAULT_255_1_388
10
4.8871812
20
52.5901291
40
0.1928357
50
287.7957942
51
329.0808983
0
ARC
8
DEFAULT_255_1_388
10
4.7794569
20
52.6573651
40
0.319808
50
328.6635261
51
343.3325043
0
ARC
8
DEFAULT_255_1_388
10
4.5350028
20
52.7335195
40
0.5758408
50
343.0498092
51
351.9392499
0
ARC
8
DEFAULT_255_1_388
10
4.144935
20
52.7910205
40
0.9701202
50
351.8071632
51
357.7957897
0
ARC
8
DEFAULT_255_1_388
10
3.7814827
20
52.8098724
40
1.3340376
50
357.5870923
51
359.2682493
0
LINE
8
DEFAULT_255_1_388
10
6.3460664
20
53.5924898
11
6.3460664
21
53.4985191
0
LINE
8
DEFAULT_255_1_388
10
6.3460664
20
53.4985191
11
5.801217
21
52.2769
0
LINE
8
DEFAULT_255_1_388
10
5.801217
20
52.2769
11
5.6259255
21
52.2769
0
LINE
8
DEFAULT_255_1_388
10
5.6259255
20
52.2769
11
6.1689678
21
53.455148
0
LINE
8
DEFAULT_255_1_388
10
6.1689678
20
53.455148
11
5.456959
21
53.455148
0
LINE
8
DEFAULT_255_1_388
10
5.456959
20
53.455148
11
5.456959
21
53.5924898
0
LINE
8
DEFAULT_255_1_388
10
5.456959
20
53.5924898
11
6.3460664
21
53.5924898
0
LINE
8
DEFAULT_255_1_388
10
4.1838367
20
61.5299898
11
4.1838367
21
60.2144
0
LINE
8
DEFAULT_255_1_388
10
4.1838367
20
60.2144
11
4.0103523
21
60.2144
0
LINE
8
DEFAULT_255_1_388
10
4.0103523
20
60.2144
11
4.0103523
21
61.5299898
0
LINE
8
DEFAULT_255_1_388
10
4.0103523
20
61.5299898
11
4.1838367
21
61.5299898
0
LINE
8
DEFAULT_255_1_388
10
5.282571
20
60.992369
11
5.282571
21
60.7755135
0
LINE
8
DEFAULT_255_1_388
10
4.4521953
20
60.7529244
11
4.4521953
21
60.9761048
0
LINE
8
DEFAULT_255_1_388
10
5.1154116
20
60.7303353
11
5.1154116
21
61.0041153
0
LINE
8
DEFAULT_255_1_388
10
4.6193547
20
61.0167652
11
4.6193547
21
60.7493102
0
ARC
8
DEFAULT_255_1_388
10
3.9048044
20
60.7700118
40
1.3777776
50
353.8440855
51
0.2287917
0
ARC
8
DEFAULT_255_1_388
10
4.4267062
20
60.7117414
40
0.852639
50
344.4934746
51
353.9763743
0
ARC
8
DEFAULT_255_1_388
10
4.7633869
20
60.6160191
40
0.5026273
50
329.2803599
51
344.7473406
0
ARC
8
DEFAULT_255_1_388
10
4.8749365
20
60.5548038
40
0.3754848
50
324.9361395
51
328.6153007
0
ARC
8
DEFAULT_255_1_388
10
4.9175015
20
60.5250586
40
0.3235566
50
280.5801797
51
324.9173226
0
ARC
8
DEFAULT_255_1_388
10
4.8723643
20
60.7130236
40
0.5167077
50
269.5979457
51
281.6732777
0
ARC
8
DEFAULT_255_1_388
10
4.8642547
20
60.6995113
40
0.5032026
50
256.6228565
51
270.5105488
0
ARC
8
DEFAULT_255_1_388
10
4.8190289
20
60.5253345
40
0.3233092
50
215.8618351
51
257.2787793
0
ARC
8
DEFAULT_255_1_388
10
4.9338996
20
60.6024106
40
0.4615831
50
197.9695203
51
215.2622745
0
ARC
8
DEFAULT_255_1_388
10
5.2134672
20
60.6967641
40
0.7566307
50
187.8816486
51
198.2346584
0
ARC
8
DEFAULT_255_1_388
10
5.658791
20
60.7610453
40
1.2065653
50
180.8977266
51
188.0054894
0
ARC
8
DEFAULT_255_1_388
10
5.9638124
20
60.77254
40
1.5117443
50
180.7434591
51
181.152202
0
ARC
8
DEFAULT_255_1_388
10
5.796312
20
60.9815371
40
1.3441277
50
173.7674302
51
180.2315596
0
ARC
8
DEFAULT_255_1_388
10
5.2880989
20
61.0389779
40
0.8326847
50
164.3058537
51
173.9000553
0
ARC
8
DEFAULT_255_1_388
10
4.9604989
20
61.1333652
40
0.4917711
50
148.7922028
51
164.5682288
0
ARC
8
DEFAULT_255_1_388
10
4.8535726
20
61.1930457
40
0.3694204
50
144.5883979
51
148.1161588
0
ARC
8
DEFAULT_255_1_388
10
4.8148472
20
61.2200667
40
0.322202
50
101.6440149
51
144.5142619
0
ARC
8
DEFAULT_255_1_388
10
4.8626664
20
61.0300337
40
0.5180451
50
89.528284
51
102.5820197
0
ARC
8
DEFAULT_255_1_388
10
4.8715656
20
61.0256376
40
0.5224441
50
77.0437914
51
90.508231
0
ARC
8
DEFAULT_255_1_388
10
4.9167909
20
61.2104272
40
0.3322297
50
48.2777708
51
77.4996087
0
ARC
8
DEFAULT_255_1_388
10
4.9249649
20
61.2249557
40
0.315966
50
36.3141586
51
47.6307332
0
ARC
8
DEFAULT_255_1_388
10
4.8272372
20
61.1591159
40
0.4337313
50
18.2931065
51
35.6770203
0
ARC
8
DEFAULT_255_1_388
10
4.5411212
20
61.0609107
40
0.7362203
50
8.0246996
51
18.5605636
0
ARC
8
DEFAULT_255_1_388
10
4.0727568
20
60.9917432
40
1.2096583
50
1.127539
51
8.1718423
0
ARC
8
DEFAULT_255_1_388
10
3.7078701
20
60.9774374
40
1.5747719
50
0.5432713
51
1.38669
0
ARC
8
DEFAULT_255_1_388
10
3.913608
20
61.0081163
40
1.2018103
50
359.8092569
51
4.9408001
0
ARC
8
DEFAULT_255_1_388
10
4.3872661
20
61.05039
40
0.7262727
50
4.8364937
51
12.2906017
0
ARC
8
DEFAULT_255_1_388
10
4.6972126
20
61.1194485
40
0.4087324
50
12.0806994
51
23.8171225
0
ARC
8
DEFAULT_255_1_388
10
4.8292522
20
61.1753508
40
0.2653719
50
24.2874621
51
31.3934353
0
ARC
8
DEFAULT_255_1_388
10
4.8882958
20
61.2139822
40
0.1948607
50
30.7407708
51
82.4658033
0
ARC
8
DEFAULT_255_1_388
10
4.8680619
20
61.1146017
40
0.2961198
50
81.1057101
51
90.2187368
0
ARC
8
DEFAULT_255_1_388
10
4.8640431
20
61.1436421
40
0.2670929
50
89.380395
51
105.6763916
0
ARC
8
DEFAULT_255_1_388
10
4.8434153
20
61.218632
40
0.1893189
50
105.7980655
51
149.7387869
0
ARC
8
DEFAULT_255_1_388
10
4.9631293
20
61.1466719
40
0.3289892
50
149.4208441
51
163.628295
0
ARC
8
DEFAULT_255_1_388
10
5.1983522
20
61.0749345
40
0.5749004
50
163.3764549
51
172.141138
0
ARC
8
DEFAULT_255_1_388
10
5.5696244
20
61.0217582
40
0.9499585
50
172.0258462
51
178.0705453
0
ARC
8
DEFAULT_255_1_388
10
5.9117797
20
61.0055682
40
1.2924734
50
177.8639301
51
179.5036263
0
ARC
8
DEFAULT_255_1_388
10
5.7898815
20
60.7452151
40
1.170534
50
179.7995545
51
185.246089
0
ARC
8
DEFAULT_255_1_388
10
5.3350408
20
60.7021404
40
0.7136613
50
185.1411911
51
193.0082205
0
ARC
8
DEFAULT_255_1_388
10
5.0376669
20
60.6318441
40
0.4080987
50
192.7897338
51
205.2507384
0
ARC
8
DEFAULT_255_1_388
10
4.9198879
20
60.5792538
40
0.2791522
50
205.8001921
51
211.2545876
0
ARC
8
DEFAULT_255_1_388
10
4.8610418
20
60.5398132
40
0.2084074
50
210.3789935
51
238.4007996
0
ARC
8
DEFAULT_255_1_388
10
4.8588504
20
60.5450786
40
0.2117943
50
239.6521916
51
265.9793852
0
ARC
8
DEFAULT_255_1_388
10
4.8684353
20
60.6207358
40
0.2879689
50
265.1324455
51
270.0603288
0
ARC
8
DEFAULT_255_1_388
10
4.871673
20
60.5842418
40
0.2514919
50
269.3314378
51
287.2180039
0
ARC
8
DEFAULT_255_1_388
10
4.8871812
20
60.5276291
40
0.1928357
50
287.7957942
51
329.0808983
0
ARC
8
DEFAULT_255_1_388
10
4.7794569
20
60.5948651
40
0.319808
50
328.6635261
51
343.3325043
0
ARC
8
DEFAULT_255_1_388
10
4.5350028
20
60.6710195
40
0.5758408
50
343.0498092
51
351.9392499
0
ARC
8
DEFAULT_255_1_388
10
4.144935
20
60.7285205
40
0.9701202
50
351.8071632
51
357.7957897
0
ARC
8
DEFAULT_255_1_388
10
3.7814827
20
60.7473724
40
1.3340376
50
357.5870923
51
359.2682493
0
LINE
8
DEFAULT_255_1_388
10
6.122886
20
61.5308934
11
6.1527036
21
61.5308934
0
LINE
8
DEFAULT_255_1_388
10
6.1527036
20
61.5308934
11
6.1527036
21
61.3890338
0
LINE
8
DEFAULT_255_1_388
10
6.1527036
20
61.3890338
11
6.1219824
21
61.3890338
0
LINE
8
DEFAULT_255_1_388
10
5.506655
20
60.7149747
11
5.506655
21
60.7791278
0
LINE
8
DEFAULT_255_1_388
10
5.674718
20
60.7574422
11
5.674718
21
60.6959999
0
ARC
8
DEFAULT_255_1_388
10
6.1278716
20
60.8267826
40
0.562282
50
90.6001079
51
104.5146616
0
ARC
8
DEFAULT_255_1_388
10
6.0841675
20
60.98931
40
0.3939917
50
104.2855758
51
133.8630124
0
ARC
8
DEFAULT_255_1_388
10
6.1025928
20
60.9771243
40
0.4155734
50
134.5304124
51
161.6210222
0
ARC
8
DEFAULT_255_1_388
10
6.288586
20
60.9115421
40
0.6127682
50
161.2850533
51
174.2074364
0
ARC
8
DEFAULT_255_1_388
10
6.4475427
20
60.8896437
40
0.7731446
50
173.7817938
51
174.9251711
0
ARC
8
DEFAULT_255_1_388
10
5.9349621
20
60.734127
40
0.3412588
50
95.8332067
51
138.995412
0
ARC
8
DEFAULT_255_1_388
10
5.9600901
20
60.5902695
40
0.4870358
50
89.8755506
51
97.0540979
0
ARC
8
DEFAULT_255_1_388
10
5.965429
20
60.6842841
40
0.3930432
50
71.6407016
51
90.6240821
0
ARC
8
DEFAULT_255_1_388
10
5.9823683
20
60.7466433
40
0.3285421
50
39.6368051
51
71.0190743
0
ARC
8
DEFAULT_255_1_388
10
5.9107591
20
60.6847586
40
0.4231706
50
10.6588054
51
39.9044509
0
ARC
8
DEFAULT_255_1_388
10
5.7366137
20
60.6469223
40
0.60133
50
359.6827842
51
11.1326896
0
ARC
8
DEFAULT_255_1_388
10
5.7321472
20
60.6389715
40
0.6058047
50
347.2485908
51
0.4371098
0
ARC
8
DEFAULT_255_1_388
10
5.9197258
20
60.5938379
40
0.4128987
50
318.1408565
51
347.6118497
0
ARC
8
DEFAULT_255_1_388
10
5.9562855
20
60.5637903
40
0.3656244
50
275.6342406
51
317.824739
0
ARC
8
DEFAULT_255_1_388
10
5.9314375
20
60.7099827
40
0.513655
50
269.8872513
51
276.7916069
0
ARC
8
DEFAULT_255_1_388
10
5.9252568
20
60.5946181
40
0.398323
50
246.9139443
51
270.7436787
0
ARC
8
DEFAULT_255_1_388
10
5.9259764
20
60.5786044
40
0.3839368
50
218.1665534
51
245.8780431
0
ARC
8
DEFAULT_255_1_388
10
6.0249136
20
60.6613903
40
0.5128958
50
191.4115343
51
218.6077624
0
ARC
8
DEFAULT_255_1_388
10
6.2429452
20
60.7102777
40
0.7363054
50
179.6344971
51
191.7836758
0
ARC
8
DEFAULT_255_1_388
10
6.8709327
20
60.7866495
40
1.3642984
50
171.4523743
51
180.3158856
0
ARC
8
DEFAULT_255_1_388
10
6.3765054
20
60.8635895
40
0.8639311
50
157.9802296
51
171.6246761
0
ARC
8
DEFAULT_255_1_388
10
6.1274404
20
60.9629038
40
0.5958004
50
141.4299236
51
157.8541251
0
ARC
8
DEFAULT_255_1_388
10
6.0552488
20
61.0139746
40
0.5075416
50
102.871586
51
140.8564533
0
ARC
8
DEFAULT_255_1_388
10
6.1281041
20
60.7394943
40
0.7914163
50
90.377773
51
103.5868422
0
ARC
8
DEFAULT_255_1_388
10
5.9325562
20
60.6714543
40
0.2667015
50
89.8751238
51
126.2072139
0
ARC
8
DEFAULT_255_1_388
10
5.9377033
20
60.6540847
40
0.2838229
50
124.9742447
51
144.8960197
0
ARC
8
DEFAULT_255_1_388
10
5.9179278
20
60.6701981
40
0.2583845
50
145.2974778
51
160.2660922
0
ARC
8
DEFAULT_255_1_388
10
6.2635766
20
60.6924151
40
0.5888695
50
179.6512124
51
190.285571
0
ARC
8
DEFAULT_255_1_388
10
6.0730246
20
60.6564968
40
0.3949683
50
190.0944895
51
207.5099647
0
ARC
8
DEFAULT_255_1_388
10
6.0093827
20
60.6262177
40
0.3245464
50
207.9585471
51
216.325377
0
ARC
8
DEFAULT_255_1_388
10
5.9711465
20
60.5947712
40
0.2751259
50
215.7661336
51
232.5457193
0
ARC
8
DEFAULT_255_1_388
10
5.928058
20
60.5400273
40
0.2054668
50
232.8005815
51
270.6605497
0
ARC
8
DEFAULT_255_1_388
10
5.9332005
20
60.5809853
40
0.2464268
50
269.3550767
51
288.474612
0
ARC
8
DEFAULT_255_1_388
10
5.9436512
20
60.5416721
40
0.2058436
50
289.1831976
51
322.9685307
0
ARC
8
DEFAULT_255_1_388
10
5.8748613
20
60.5959279
40
0.2934408
50
322.6007085
51
346.5183319
0
ARC
8
DEFAULT_255_1_388
10
5.744637
20
60.6291434
40
0.4278249
50
346.2584622
51
358.7739592
0
ARC
8
DEFAULT_255_1_388
10
5.6294945
20
60.6353829
40
0.5430876
50
358.3757628
51
0.0082477
0
ARC
8
DEFAULT_255_1_388
10
5.7151763
20
60.6384856
40
0.4574157
50
359.6211417
51
11.28403
0
ARC
8
DEFAULT_255_1_388
10
5.858837
20
60.6684535
40
0.3106708
50
11.0483152
51
31.8145585
0
ARC
8
DEFAULT_255_1_388
10
5.8936075
20
60.6873045
40
0.2711963
50
32.3028554
51
38.0820598
0
ARC
8
DEFAULT_255_1_388
10
5.9409308
20
60.7301717
40
0.2075566
50
36.8249851
51
85.741667
0
ARC
8
DEFAULT_255_1_388
10
5.933372
20
60.6738065
40
0.2643487
50
85.0150021
51
90.050843
0
LINE
8
DEFAULT_255_1_388
10
4.1838367
20
69.4674898
11
4.1838367
21
68.1519
0
LINE
8
DEFAULT_255_1_388
10
4.1838367
20
68.1519
11
4.0103523
21
68.1519
0
LINE
8
DEFAULT_255_1_388
10
4.0103523
20
68.1519
11
4.0103523
21
69.4674898
0
LINE
8
DEFAULT_255_1_388
10
4.0103523
20
69.4674898
11
4.1838367
21
69.4674898
0
LINE
8
DEFAULT_255_1_388
10
5.282571
20
68.929869
11
5.282571
21
68.7130135
0
LINE
8
DEFAULT_255_1_388
10
4.4521953
20
68.6904244
11
4.4521953
21
68.9136048
0
LINE
8
DEFAULT_255_1_388
10
5.1154116
20
68.6678353
11
5.1154116
21
68.9416153
0
LINE
8
DEFAULT_255_1_388
10
4.6193547
20
68.9542652
11
4.6193547
21
68.6868102
0
ARC
8
DEFAULT_255_1_388
10
3.9048044
20
68.7075118
40
1.3777776
50
353.8440855
51
0.2287917
0
ARC
8
DEFAULT_255_1_388
10
4.4267062
20
68.6492414
40
0.852639
50
344.4934746
51
353.9763743
0
ARC
8
DEFAULT_255_1_388
10
4.7633869
20
68.5535191
40
0.5026273
50
329.2803599
51
344.7473406
0
ARC
8
DEFAULT_255_1_388
10
4.8749365
20
68.4923038
40
0.3754848
50
324.9361395
51
328.6153007
0
ARC
8
DEFAULT_255_1_388
10
4.9175015
20
68.4625586
40
0.3235566
50
280.5801797
51
324.9173226
0
ARC
8
DEFAULT_255_1_388
10
4.8723643
20
68.6505236
40
0.5167077
50
269.5979457
51
281.6732777
0
ARC
8
DEFAULT_255_1_388
10
4.8642547
20
68.6370113
40
0.5032026
50
256.6228565
51
270.5105488
0
ARC
8
DEFAULT_255_1_388
10
4.8190289
20
68.4628345
40
0.3233092
50
215.8618351
51
257.2787793
0
ARC
8
DEFAULT_255_1_388
10
4.9338996
20
68.5399106
40
0.4615831
50
197.9695203
51
215.2622745
0
ARC
8
DEFAULT_255_1_388
10
5.2134672
20
68.6342641
40
0.7566307
50
187.8816486
51
198.2346584
0
ARC
8
DEFAULT_255_1_388
10
5.658791
20
68.6985453
40
1.2065653
50
180.8977266
51
188.0054894
0
ARC
8
DEFAULT_255_1_388
10
5.9638124
20
68.71004
40
1.5117443
50
180.7434591
51
181.152202
0
ARC
8
DEFAULT_255_1_388
10
5.796312
20
68.9190371
40
1.3441277
50
173.7674302
51
180.2315596
0
ARC
8
DEFAULT_255_1_388
10
5.2880989
20
68.9764779
40
0.8326847
50
164.3058537
51
173.9000553
0
ARC
8
DEFAULT_255_1_388
10
4.9604989
20
69.0708652
40
0.4917711
50
148.7922028
51
164.5682288
0
ARC
8
DEFAULT_255_1_388
10
4.8535726
20
69.1305457
40
0.3694204
50
144.5883979
51
148.1161588
0
ARC
8
DEFAULT_255_1_388
10
4.8148472
20
69.1575667
40
0.322202
50
101.6440149
51
144.5142619
0
ARC
8
DEFAULT_255_1_388
10
4.8626664
20
68.9675337
40
0.5180451
50
89.528284
51
102.5820197
0
ARC
8
DEFAULT_255_1_388
10
4.8715656
20
68.9631376
40
0.5224441
50
77.0437914
51
90.508231
0
ARC
8
DEFAULT_255_1_388
10
4.9167909
20
69.1479272
40
0.3322297
50
48.2777708
51
77.4996087
0
ARC
8
DEFAULT_255_1_388
10
4.9249649
20
69.1624557
40
0.315966
50
36.3141586
51
47.6307332
0
ARC
8
DEFAULT_255_1_388
10
4.8272372
20
69.0966159
40
0.4337313
50
18.2931065
51
35.6770203
0
ARC
8
DEFAULT_255_1_388
10
4.5411212
20
68.9984107
40
0.7362203
50
8.0246996
51
18.5605636
0
ARC
8
DEFAULT_255_1_388
10
4.0727568
20
68.9292432
40
1.2096583
50
1.127539
51
8.1718423
0
ARC
8
DEFAULT_255_1_388
10
3.7078701
20
68.9149374
40
1.5747719
50
0.5432713
51
1.38669
0
ARC
8
DEFAULT_255_1_388
10
3.913608
20
68.9456163
40
1.2018103
50
359.8092569
51
4.9408001
0
ARC
8
DEFAULT_255_1_388
10
4.3872661
20
68.98789
40
0.7262727
50
4.8364937
51
12.2906017
0
ARC
8
DEFAULT_255_1_388
10
4.6972126
20
69.0569485
40
0.4087324
50
12.0806994
51
23.8171225
0
ARC
8
DEFAULT_255_1_388
10
4.8292522
20
69.1128508
40
0.2653719
50
24.2874621
51
31.3934353
0
ARC
8
DEFAULT_255_1_388
10
4.8882958
20
69.1514822
40
0.1948607
50
30.7407708
51
82.4658033
0
ARC
8
DEFAULT_255_1_388
10
4.8680619
20
69.0521017
40
0.2961198
50
81.1057101
51
90.2187368
0
ARC
8
DEFAULT_255_1_388
10
4.8640431
20
69.0811421
40
0.2670929
50
89.380395
51
105.6763916
0
ARC
8
DEFAULT_255_1_388
10
4.8434153
20
69.156132
40
0.1893189
50
105.7980655
51
149.7387869
0
ARC
8
DEFAULT_255_1_388
10
4.9631293
20
69.0841719
40
0.3289892
50
149.4208441
51
163.628295
0
ARC
8
DEFAULT_255_1_388
10
5.1983522
20
69.0124345
40
0.5749004
50
163.3764549
51
172.141138
0
ARC
8
DEFAULT_255_1_388
10
5.5696244
20
68.9592582
40
0.9499585
50
172.0258462
51
178.0705453
0
ARC
8
DEFAULT_255_1_388
10
5.9117797
20
68.9430682
40
1.2924734
50
177.8639301
51
179.5036263
0
ARC
8
DEFAULT_255_1_388
10
5.7898815
20
68.6827151
40
1.170534
50
179.7995545
51
185.246089
0
ARC
8
DEFAULT_255_1_388
10
5.3350408
20
68.6396404
40
0.7136613
50
185.1411911
51
193.0082205
0
ARC
8
DEFAULT_255_1_388
10
5.0376669
20
68.5693441
40
0.4080987
50
192.7897338
51
205.2507384
0
ARC
8
DEFAULT_255_1_388
10
4.9198879
20
68.5167538
40
0.2791522
50
205.8001921
51
211.2545876
0
ARC
8
DEFAULT_255_1_388
10
4.8610418
20
68.4773132
40
0.2084074
50
210.3789935
51
238.4007996
0
ARC
8
DEFAULT_255_1_388
10
4.8588504
20
68.4825786
40
0.2117943
50
239.6521916
51
265.9793852
0
ARC
8
DEFAULT_255_1_388
10
4.8684353
20
68.5582358
40
0.2879689
50
265.1324455
51
270.0603288
0
ARC
8
DEFAULT_255_1_388
10
4.871673
20
68.5217418
40
0.2514919
50
269.3314378
51
287.2180039
0
ARC
8
DEFAULT_255_1_388
10
4.8871812
20
68.4651291
40
0.1928357
50
287.7957942
51
329.0808983
0
ARC
8
DEFAULT_255_1_388
10
4.7794569
20
68.5323651
40
0.319808
50
328.6635261
51
343.3325043
0
ARC
8
DEFAULT_255_1_388
10
4.5350028
20
68.6085195
40
0.5758408
50
343.0498092
51
351.9392499
0
ARC
8
DEFAULT_255_1_388
10
4.144935
20
68.6660205
40
0.9701202
50
351.8071632
51
357.7957897
0
ARC
8
DEFAULT_255_1_388
10
3.7814827
20
68.6848724
40
1.3340376
50
357.5870923
51
359.2682493
0
LINE
8
DEFAULT_255_1_388
10
5.7072463
20
68.7771666
11
5.5735188
21
68.8115021
0
LINE
8
DEFAULT_255_1_388
10
5.5735188
20
68.8115021
11
5.6403826
21
69.4674898
0
LINE
8
DEFAULT_255_1_388
10
5.6403826
20
69.4674898
11
6.3144417
21
69.4674898
0
LINE
8
DEFAULT_255_1_388
10
6.3144417
20
69.4674898
11
6.3144417
21
69.3129803
0
LINE
8
DEFAULT_255_1_388
10
6.3144417
20
69.3129803
11
5.7822422
21
69.3129803
0
LINE
8
DEFAULT_255_1_388
10
5.7822422
20
69.3129803
11
5.7424854
21
68.9542652
0
LINE
8
DEFAULT_255_1_388
10
5.5265334
20
68.4979652
11
5.6846572
21
68.4979652
0
LINE
8
DEFAULT_255_1_388
10
5.751521
20
68.8133092
11
5.7072463
21
68.7771666
0
ARC
8
DEFAULT_255_1_388
10
5.9511467
20
68.5965241
40
0.4141476
50
93.7181681
51
120.253934
0
ARC
8
DEFAULT_255_1_388
10
5.9617519
20
68.5056284
40
0.5055616
50
89.9660471
51
94.2495185
0
ARC
8
DEFAULT_255_1_388
10
5.9663341
20
68.5719154
40
0.4392953
50
73.8045384
51
90.5585736
0
ARC
8
DEFAULT_255_1_388
10
5.9927599
20
68.668452
40
0.3392225
50
41.3071072
51
73.543002
0
ARC
8
DEFAULT_255_1_388
10
5.9459419
20
68.6281461
40
0.4009977
50
13.5075837
51
41.2174839
0
ARC
8
DEFAULT_255_1_388
10
5.7612516
20
68.5797907
40
0.5918864
50
1.1330171
51
13.8830737
0
ARC
8
DEFAULT_255_1_388
10
5.6016162
20
68.5712522
40
0.7516787
50
359.9925091
51
1.5431298
0
ARC
8
DEFAULT_255_1_388
10
5.7460777
20
68.5666027
40
0.6072343
50
347.8572712
51
0.4294349
0
ARC
8
DEFAULT_255_1_388
10
5.9429912
20
68.5219898
40
0.4053482
50
323.6727442
51
348.1674594
0
ARC
8
DEFAULT_255_1_388
10
5.9760876
20
68.5018175
40
0.3667495
50
316.8171818
51
323.1486802
0
ARC
8
DEFAULT_255_1_388
10
5.983
20
68.4976612
40
0.358869
50
281.839603
51
316.5458142
0
ARC
8
DEFAULT_255_1_388
10
5.9407288
20
68.6726363
40
0.5388223
50
269.5770964
51
282.4214641
0
ARC
8
DEFAULT_255_1_388
10
5.9327208
20
68.648593
40
0.5147801
50
256.2425863
51
270.4486481
0
ARC
8
DEFAULT_255_1_388
10
5.8990736
20
68.5136124
40
0.3756708
50
228.9024379
51
256.33135
0
ARC
8
DEFAULT_255_1_388
10
5.8907716
20
68.5005054
40
0.360344
50
193.7536029
51
228.5272638
0
ARC
8
DEFAULT_255_1_388
10
6.0300281
20
68.5413463
40
0.5053599
50
184.9244437
51
194.4976052
0
ARC
8
DEFAULT_255_1_388
10
6.0516922
20
68.5453722
40
0.3700839
50
187.3596909
51
198.6733728
0
ARC
8
DEFAULT_255_1_388
10
5.9336166
20
68.5044373
40
0.2451195
50
198.4453795
51
217.7945479
0
ARC
8
DEFAULT_255_1_388
10
5.9003338
20
68.4808563
40
0.2043754
50
218.2887146
51
228.5613203
0
ARC
8
DEFAULT_255_1_388
10
5.9113345
20
68.4956902
40
0.2227819
50
228.9652423
51
258.1237049
0
ARC
8
DEFAULT_255_1_388
10
5.9344783
20
68.5947964
40
0.3245374
50
257.7260585
51
270.4013717
0
ARC
8
DEFAULT_255_1_388
10
5.9395281
20
68.5447255
40
0.2744726
50
269.4204315
51
286.420998
0
ARC
8
DEFAULT_255_1_388
10
5.9562336
20
68.4840705
40
0.2115721
50
286.7250065
51
320.6004665
0
ARC
8
DEFAULT_255_1_388
10
5.9131252
20
68.5190527
40
0.2670878
50
320.6712228
51
344.5440474
0
ARC
8
DEFAULT_255_1_388
10
5.7829966
20
68.5572394
40
0.4026927
50
344.241448
51
356.735803
0
ARC
8
DEFAULT_255_1_388
10
5.6426273
20
68.5688656
40
0.5435085
50
356.3547471
51
0.0507222
0
ARC
8
DEFAULT_255_1_388
10
5.7928538
20
68.5723812
40
0.3932934
50
359.5579289
51
12.9534322
0
ARC
8
DEFAULT_255_1_388
10
5.9115378
20
68.6011586
40
0.2711827
50
12.6489751
51
41.608121
0
ARC
8
DEFAULT_255_1_388
10
5.9374538
20
68.6231946
40
0.2371737
50
41.7851122
51
85.9892156
0
ARC
8
DEFAULT_255_1_388
10
5.9235848
20
68.5316738
40
0.3295244
50
84.6965848
51
90.0672125
0
ARC
8
DEFAULT_255_1_388
10
5.9209415
20
68.4565118
40
0.4046926
50
89.6804991
51
99.161352
0
ARC
8
DEFAULT_255_1_388
10
5.8978425
20
68.5945848
40
0.2647044
50
98.9836248
51
113.8905702
0
ARC
8
DEFAULT_255_1_388
10
5.87201
20
68.6555118
40
0.1985386
50
114.195234
51
127.3641866
0
LINE
8
DEFAULT_255_1_388
10
4.3161367
20
77.4049898
11
4.3161367
21
76.0894
0
LINE
8
DEFAULT_255_1_388
10
4.3161367
20
76.0894
11
4.1426523
21
76.0894
0
LINE
8
DEFAULT_255_1_388
10
4.1426523
20
76.0894
11
4.1426523
21
77.4049898
0
LINE
8
DEFAULT_255_1_388
10
4.1426523
20
77.4049898
11
4.3161367
21
77.4049898
0
LINE
8
DEFAULT_255_1_388
10
5.414871
20
76.867369
11
5.414871
21
76.6505135
0
LINE
8
DEFAULT_255_1_388
10
4.5844953
20
76.6279244
11
4.5844953
21
76.8511048
0
LINE
8
DEFAULT_255_1_388
10
5.2477116
20
76.6053353
11
5.2477116
21
76.8791153
0
LINE
8
DEFAULT_255_1_388
10
4.7516547
20
76.8917652
11
4.7516547
21
76.6243102
0
ARC
8
DEFAULT_255_1_388
10
4.0371044
20
76.6450118
40
1.3777776
50
353.8440855
51
0.2287917
0
ARC
8
DEFAULT_255_1_388
10
4.5590062
20
76.5867414
40
0.852639
50
344.4934746
51
353.9763743
0
ARC
8
DEFAULT_255_1_388
10
4.8956869
20
76.4910191
40
0.5026273
50
329.2803599
51
344.7473406
0
ARC
8
DEFAULT_255_1_388
10
5.0072365
20
76.4298038
40
0.3754848
50
324.9361395
51
328.6153007
0
ARC
8
DEFAULT_255_1_388
10
5.0498015
20
76.4000586
40
0.3235566
50
280.5801797
51
324.9173226
0
ARC
8
DEFAULT_255_1_388
10
5.0046643
20
76.5880236
40
0.5167077
50
269.5979457
51
281.6732777
0
ARC
8
DEFAULT_255_1_388
10
4.9965547
20
76.5745113
40
0.5032026
50
256.6228565
51
270.5105488
0
ARC
8
DEFAULT_255_1_388
10
4.9513289
20
76.4003345
40
0.3233092
50
215.8618351
51
257.2787793
0
ARC
8
DEFAULT_255_1_388
10
5.0661996
20
76.4774106
40
0.4615831
50
197.9695203
51
215.2622745
0
ARC
8
DEFAULT_255_1_388
10
5.3457672
20
76.5717641
40
0.7566307
50
187.8816486
51
198.2346584
0
ARC
8
DEFAULT_255_1_388
10
5.791091
20
76.6360453
40
1.2065653
50
180.8977266
51
188.0054894
0
ARC
8
DEFAULT_255_1_388
10
6.0961124
20
76.64754
40
1.5117443
50
180.7434591
51
181.152202
0
ARC
8
DEFAULT_255_1_388
10
5.928612
20
76.8565371
40
1.3441277
50
173.7674302
51
180.2315596
0
ARC
8
DEFAULT_255_1_388
10
5.4203989
20
76.9139779
40
0.8326847
50
164.3058537
51
173.9000553
0
ARC
8
DEFAULT_255_1_388
10
5.0927989
20
77.0083652
40
0.4917711
50
148.7922028
51
164.5682288
0
ARC
8
DEFAULT_255_1_388
10
4.9858726
20
77.0680457
40
0.3694204
50
144.5883979
51
148.1161588
0
ARC
8
DEFAULT_255_1_388
10
4.9471472
20
77.0950667
40
0.322202
50
101.6440149
51
144.5142619
0
ARC
8
DEFAULT_255_1_388
10
4.9949664
20
76.9050337
40
0.5180451
50
89.528284
51
102.5820197
0
ARC
8
DEFAULT_255_1_388
10
5.0038656
20
76.9006376
40
0.5224441
50
77.0437914
51
90.508231
0
ARC
8
DEFAULT_255_1_388
10
5.0490909
20
77.0854272
40
0.3322297
50
48.2777708
51
77.4996087
0
ARC
8
DEFAULT_255_1_388
10
5.0572649
20
77.0999557
40
0.315966
50
36.3141586
51
47.6307332
0
ARC
8
DEFAULT_255_1_388
10
4.9595372
20
77.0341159
40
0.4337313
50
18.2931065
51
35.6770203
0
ARC
8
DEFAULT_255_1_388
10
4.6734212
20
76.9359107
40
0.7362203
50
8.0246996
51
18.5605636
0
ARC
8
DEFAULT_255_1_388
10
4.2050568
20
76.8667432
40
1.2096583
50
1.127539
51
8.1718423
0
ARC
8
DEFAULT_255_1_388
10
3.8401701
20
76.8524374
40
1.5747719
50
0.5432713
51
1.38669
0
ARC
8
DEFAULT_255_1_388
10
4.045908
20
76.8831163
40
1.2018103
50
359.8092569
51
4.9408001
0
ARC
8
DEFAULT_255_1_388
10
4.5195661
20
76.92539
40
0.7262727
50
4.8364937
51
12.2906017
0
ARC
8
DEFAULT_255_1_388
10
4.8295126
20
76.9944485
40
0.4087324
50
12.0806994
51
23.8171225
0
ARC
8
DEFAULT_255_1_388
10
4.9615522
20
77.0503508
40
0.2653719
50
24.2874621
51
31.3934353
0
ARC
8
DEFAULT_255_1_388
10
5.0205958
20
77.0889822
40
0.1948607
50
30.7407708
51
82.4658033
0
ARC
8
DEFAULT_255_1_388
10
5.0003619
20
76.9896017
40
0.2961198
50
81.1057101
51
90.2187368
0
ARC
8
DEFAULT_255_1_388
10
4.9963431
20
77.0186421
40
0.2670929
50
89.380395
51
105.6763916
0
ARC
8
DEFAULT_255_1_388
10
4.9757153
20
77.093632
40
0.1893189
50
105.7980655
51
149.7387869
0
ARC
8
DEFAULT_255_1_388
10
5.0954293
20
77.0216719
40
0.3289892
50
149.4208441
51
163.628295
0
ARC
8
DEFAULT_255_1_388
10
5.3306522
20
76.9499345
40
0.5749004
50
163.3764549
51
172.141138
0
ARC
8
DEFAULT_255_1_388
10
5.7019244
20
76.8967582
40
0.9499585
50
172.0258462
51
178.0705453
0
ARC
8
DEFAULT_255_1_388
10
6.0440797
20
76.8805682
40
1.2924734
50
177.8639301
51
179.5036263
0
ARC
8
DEFAULT_255_1_388
10
5.9221815
20
76.6202151
40
1.170534
50
179.7995545
51
185.246089
0
ARC
8
DEFAULT_255_1_388
10
5.4673408
20
76.5771404
40
0.7136613
50
185.1411911
51
193.0082205
0
ARC
8
DEFAULT_255_1_388
10
5.1699669
20
76.5068441
40
0.4080987
50
192.7897338
51
205.2507384
0
ARC
8
DEFAULT_255_1_388
10
5.0521879
20
76.4542538
40
0.2791522
50
205.8001921
51
211.2545876
0
ARC
8
DEFAULT_255_1_388
10
4.9933418
20
76.4148132
40
0.2084074
50
210.3789935
51
238.4007996
0
ARC
8
DEFAULT_255_1_388
10
4.9911504
20
76.4200786
40
0.2117943
50
239.6521916
51
265.9793852
0
ARC
8
DEFAULT_255_1_388
10
5.0007353
20
76.4957358
40
0.2879689
50
265.1324455
51
270.0603288
0
ARC
8
DEFAULT_255_1_388
10
5.003973
20
76.4592418
40
0.2514919
50
269.3314378
51
287.2180039
0
ARC
8
DEFAULT_255_1_388
10
5.0194812
20
76.4026291
40
0.1928357
50
287.7957942
51
329.0808983
0
ARC
8
DEFAULT_255_1_388
10
4.9117569
20
76.4698651
40
0.319808
50
328.6635261
51
343.3325043
0
ARC
8
DEFAULT_255_1_388
10
4.6673028
20
76.5460195
40
0.5758408
50
343.0498092
51
351.9392499
0
ARC
8
DEFAULT_255_1_388
10
4.277235
20
76.6035205
40
0.9701202
50
351.8071632
51
357.7957897
0
ARC
8
DEFAULT_255_1_388
10
3.9137827
20
76.6223724
40
1.3340376
50
357.5870923
51
359.2682493
0
LINE
8
DEFAULT_255_1_388
10
6.3346997
20
77.4049898
11
6.3346997
21
76.531243
0
LINE
8
DEFAULT_255_1_388
10
6.3346997
20
76.531243
11
6.5172197
21
76.531243
0
LINE
8
DEFAULT_255_1_388
10
6.5172197
20
76.531243
11
6.5172197
21
76.3948048
0
LINE
8
DEFAULT_255_1_388
10
6.5172197
20
76.3948048
11
6.3346997
21
76.3948048
0
LINE
8
DEFAULT_255_1_388
10
6.3346997
20
76.3948048
11
6.3346997
21
76.0894
0
LINE
8
DEFAULT_255_1_388
10
6.3346997
20
76.0894
11
6.1666367
21
76.0894
0
LINE
8
DEFAULT_255_1_388
10
6.1666367
20
76.0894
11
6.1666367
21
76.3948048
0
LINE
8
DEFAULT_255_1_388
10
6.1666367
20
76.3948048
11
5.5675734
21
76.3948048
0
LINE
8
DEFAULT_255_1_388
10
5.5675734
20
76.3948048
11
5.5675734
21
76.4932933
0
LINE
8
DEFAULT_255_1_388
10
5.5675734
20
76.4932933
11
6.1566975
21
77.4049898
0
LINE
8
DEFAULT_255_1_388
10
6.1566975
20
77.4049898
11
6.3346997
21
77.4049898
0
LINE
8
DEFAULT_255_1_388
10
6.1467583
20
77.1402455
11
5.757322
21
76.531243
0
LINE
8
DEFAULT_255_1_388
10
5.757322
20
76.531243
11
6.1666367
21
76.531243
0
LINE
8
DEFAULT_255_1_388
10
6.1666367
20
76.531243
11
6.1666367
21
77.176388
0
LINE
8
DEFAULT_255_1_388
10
6.1666367
20
77.176388
11
6.1467583
21
77.1402455
0
LINE
8
DEFAULT_255_1_388
10
4.1838367
20
85.3424898
11
4.1838367
21
84.0269
0
LINE
8
DEFAULT_255_1_388
10
4.1838367
20
84.0269
11
4.0103523
21
84.0269
0
LINE
8
DEFAULT_255_1_388
10
4.0103523
20
84.0269
11
4.0103523
21
85.3424898
0
LINE
8
DEFAULT_255_1_388
10
4.0103523
20
85.3424898
11
4.1838367
21
85.3424898
0
LINE
8
DEFAULT_255_1_388
10
5.282571
20
84.804869
11
5.282571
21
84.5880135
0
LINE
8
DEFAULT_255_1_388
10
4.4521953
20
84.5654244
11
4.4521953
21
84.7886048
0
LINE
8
DEFAULT_255_1_388
10
5.1154116
20
84.5428353
11
5.1154116
21
84.8166153
0
LINE
8
DEFAULT_255_1_388
10
4.6193547
20
84.8292652
11
4.6193547
21
84.5618102
0
ARC
8
DEFAULT_255_1_388
10
3.9048044
20
84.5825118
40
1.3777776
50
353.8440855
51
0.2287917
0
ARC
8
DEFAULT_255_1_388
10
4.4267062
20
84.5242414
40
0.852639
50
344.4934746
51
353.9763743
0
ARC
8
DEFAULT_255_1_388
10
4.7633869
20
84.4285191
40
0.5026273
50
329.2803599
51
344.7473406
0
ARC
8
DEFAULT_255_1_388
10
4.8749365
20
84.3673038
40
0.3754848
50
324.9361395
51
328.6153007
0
ARC
8
DEFAULT_255_1_388
10
4.9175015
20
84.3375586
40
0.3235566
50
280.5801797
51
324.9173226
0
ARC
8
DEFAULT_255_1_388
10
4.8723643
20
84.5255236
40
0.5167077
50
269.5979457
51
281.6732777
0
ARC
8
DEFAULT_255_1_388
10
4.8642547
20
84.5120113
40
0.5032026
50
256.6228565
51
270.5105488
0
ARC
8
DEFAULT_255_1_388
10
4.8190289
20
84.3378345
40
0.3233092
50
215.8618351
51
257.2787793
0
ARC
8
DEFAULT_255_1_388
10
4.9338996
20
84.4149106
40
0.4615831
50
197.9695203
51
215.2622745
0
ARC
8
DEFAULT_255_1_388
10
5.2134672
20
84.5092641
40
0.7566307
50
187.8816486
51
198.2346584
0
ARC
8
DEFAULT_255_1_388
10
5.658791
20
84.5735453
40
1.2065653
50
180.8977266
51
188.0054894
0
ARC
8
DEFAULT_255_1_388
10
5.9638124
20
84.58504
40
1.5117443
50
180.7434591
51
181.152202
0
ARC
8
DEFAULT_255_1_388
10
5.796312
20
84.7940371
40
1.3441277
50
173.7674302
51
180.2315596
0
ARC
8
DEFAULT_255_1_388
10
5.2880989
20
84.8514779
40
0.8326847
50
164.3058537
51
173.9000553
0
ARC
8
DEFAULT_255_1_388
10
4.9604989
20
84.9458652
40
0.4917711
50
148.7922028
51
164.5682288
0
ARC
8
DEFAULT_255_1_388
10
4.8535726
20
85.0055457
40
0.3694204
50
144.5883979
51
148.1161588
0
ARC
8
DEFAULT_255_1_388
10
4.8148472
20
85.0325667
40
0.322202
50
101.6440149
51
144.5142619
0
ARC
8
DEFAULT_255_1_388
10
4.8626664
20
84.8425337
40
0.5180451
50
89.528284
51
102.5820197
0
ARC
8
DEFAULT_255_1_388
10
4.8715656
20
84.8381376
40
0.5224441
50
77.0437914
51
90.508231
0
ARC
8
DEFAULT_255_1_388
10
4.9167909
20
85.0229272
40
0.3322297
50
48.2777708
51
77.4996087
0
ARC
8
DEFAULT_255_1_388
10
4.9249649
20
85.0374557
40
0.315966
50
36.3141586
51
47.6307332
0
ARC
8
DEFAULT_255_1_388
10
4.8272372
20
84.9716159
40
0.4337313
50
18.2931065
51
35.6770203
0
ARC
8
DEFAULT_255_1_388
10
4.5411212
20
84.8734107
40
0.7362203
50
8.0246996
51
18.5605636
0
ARC
8
DEFAULT_255_1_388
10
4.0727568
20
84.8042432
40
1.2096583
50
1.127539
51
8.1718423
0
ARC
8
DEFAULT_255_1_388
10
3.7078701
20
84.7899374
40
1.5747719
50
0.5432713
51
1.38669
0
ARC
8
DEFAULT_255_1_388
10
3.913608
20
84.8206163
40
1.2018103
50
359.8092569
51
4.9408001
0
ARC
8
DEFAULT_255_1_388
10
4.3872661
20
84.86289
40
0.7262727
50
4.8364937
51
12.2906017
0
ARC
8
DEFAULT_255_1_388
10
4.6972126
20
84.9319485
40
0.4087324
50
12.0806994
51
23.8171225
0
ARC
8
DEFAULT_255_1_388
10
4.8292522
20
84.9878508
40
0.2653719
50
24.2874621
51
31.3934353
0
ARC
8
DEFAULT_255_1_388
10
4.8882958
20
85.0264822
40
0.1948607
50
30.7407708
51
82.4658033
0
ARC
8
DEFAULT_255_1_388
10
4.8680619
20
84.9271017
40
0.2961198
50
81.1057101
51
90.2187368
0
ARC
8
DEFAULT_255_1_388
10
4.8640431
20
84.9561421
40
0.2670929
50
89.380395
51
105.6763916
0
ARC
8
DEFAULT_255_1_388
10
4.8434153
20
85.031132
40
0.1893189
50
105.7980655
51
149.7387869
0
ARC
8
DEFAULT_255_1_388
10
4.9631293
20
84.9591719
40
0.3289892
50
149.4208441
51
163.628295
0
ARC
8
DEFAULT_255_1_388
10
5.1983522
20
84.8874345
40
0.5749004
50
163.3764549
51
172.141138
0
ARC
8
DEFAULT_255_1_388
10
5.5696244
20
84.8342582
40
0.9499585
50
172.0258462
51
178.0705453
0
ARC
8
DEFAULT_255_1_388
10
5.9117797
20
84.8180682
40
1.2924734
50
177.8639301
51
179.5036263
0
ARC
8
DEFAULT_255_1_388
10
5.7898815
20
84.5577151
40
1.170534
50
179.7995545
51
185.246089
0
ARC
8
DEFAULT_255_1_388
10
5.3350408
20
84.5146404
40
0.7136613
50
185.1411911
51
193.0082205
0
ARC
8
DEFAULT_255_1_388
10
5.0376669
20
84.4443441
40
0.4080987
50
192.7897338
51
205.2507384
0
ARC
8
DEFAULT_255_1_388
10
4.9198879
20
84.3917538
40
0.2791522
50
205.8001921
51
211.2545876
0
ARC
8
DEFAULT_255_1_388
10
4.8610418
20
84.3523132
40
0.2084074
50
210.3789935
51
238.4007996
0
ARC
8
DEFAULT_255_1_388
10
4.8588504
20
84.3575786
40
0.2117943
50
239.6521916
51
265.9793852
0
ARC
8
DEFAULT_255_1_388
10
4.8684353
20
84.4332358
40
0.2879689
50
265.1324455
51
270.0603288
0
ARC
8
DEFAULT_255_1_388
10
4.871673
20
84.3967418
40
0.2514919
50
269.3314378
51
287.2180039
0
ARC
8
DEFAULT_255_1_388
10
4.8871812
20
84.3401291
40
0.1928357
50
287.7957942
51
329.0808983
0
ARC
8
DEFAULT_255_1_388
10
4.7794569
20
84.4073651
40
0.319808
50
328.6635261
51
343.3325043
0
ARC
8
DEFAULT_255_1_388
10
4.5350028
20
84.4835195
40
0.5758408
50
343.0498092
51
351.9392499
0
ARC
8
DEFAULT_255_1_388
10
4.144935
20
84.5410205
40
0.9701202
50
351.8071632
51
357.7957897
0
ARC
8
DEFAULT_255_1_388
10
3.7814827
20
84.5598724
40
1.3340376
50
357.5870923
51
359.2682493
0
LINE
8
DEFAULT_255_1_388
10
5.7397747
20
84.6295775
11
5.7397747
21
84.7660157
0
LINE
8
DEFAULT_255_1_388
10
5.7397747
20
84.7660157
11
5.8653701
21
84.7660157
0
LINE
8
DEFAULT_255_1_388
10
5.6512253
20
84.9973282
11
5.4840659
21
84.9973282
0
LINE
8
DEFAULT_255_1_388
10
5.4723196
20
84.3738688
11
5.6403826
21
84.3738688
0
LINE
8
DEFAULT_255_1_388
10
5.8653701
20
84.6295775
11
5.7397747
21
84.6295775
0
ARC
8
DEFAULT_255_1_388
10
5.8620928
20
85.1476922
40
0.3816905
50
270.491971
51
281.8953028
0
ARC
8
DEFAULT_255_1_388
10
5.8892355
20
85.0237199
40
0.2547877
50
281.6690378
51
301.2943765
0
ARC
8
DEFAULT_255_1_388
10
5.9083806
20
84.9886926
40
0.2149197
50
301.7834992
51
311.754567
0
ARC
8
DEFAULT_255_1_388
10
5.9186847
20
84.977265
40
0.1995326
50
311.7325027
51
354.2803031
0
ARC
8
DEFAULT_255_1_388
10
5.8369263
20
84.991328
40
0.2823461
50
353.0941646
51
0.1174696
0
ARC
8
DEFAULT_255_1_388
10
5.7850821
20
84.9966874
40
0.3342238
50
359.1804452
51
15.0452323
0
ARC
8
DEFAULT_255_1_388
10
5.936488
20
85.0408546
40
0.1765747
50
13.957816
51
77.6713812
0
ARC
8
DEFAULT_255_1_388
10
5.8930115
20
84.8850464
40
0.3381982
50
76.111571
51
90.7028736
0
ARC
8
DEFAULT_255_1_388
10
5.8863527
20
84.915825
40
0.3074046
50
89.5321574
51
103.5319393
0
ARC
8
DEFAULT_255_1_388
10
5.8637911
20
85.0057443
40
0.2147041
50
103.2930114
51
133.5619756
0
ARC
8
DEFAULT_255_1_388
10
5.8587853
20
85.0124351
40
0.2064084
50
133.8349761
51
173.5343225
0
ARC
8
DEFAULT_255_1_388
10
5.940151
20
84.9980144
40
0.2889266
50
172.5097183
51
180.1360699
0
ARC
8
DEFAULT_255_1_388
10
5.8331274
20
85.001888
40
0.3490913
50
155.3483706
51
180.7484035
0
ARC
8
DEFAULT_255_1_388
10
5.827625
20
84.9986519
40
0.3454798
50
131.5745177
51
154.4799474
0
ARC
8
DEFAULT_255_1_388
10
5.8628532
20
84.9630422
40
0.3955058
50
96.9874487
51
131.9690874
0
ARC
8
DEFAULT_255_1_388
10
5.8875425
20
84.8229407
40
0.537622
50
89.8592909
51
97.7827481
0
ARC
8
DEFAULT_255_1_388
10
5.8929534
20
84.793436
40
0.5671399
50
78.3654493
51
90.4132586
0
ARC
8
DEFAULT_255_1_388
10
5.9332175
20
84.9800918
40
0.3762034
50
56.6229818
51
78.6387103
0
ARC
8
DEFAULT_255_1_388
10
5.9574004
20
85.0223846
40
0.3275964
50
47.0254604
51
56.085558
0
ARC
8
DEFAULT_255_1_388
10
5.9596255
20
85.0268189
40
0.3228382
50
10.9207523
51
46.777927
0
ARC
8
DEFAULT_255_1_388
10
5.8061849
20
84.9913401
40
0.4802559
50
359.6364235
51
11.6087615
0
ARC
8
DEFAULT_255_1_388
10
6.0126015
20
84.9896404
40
0.273833
50
332.3549969
51
359.7179765
0
ARC
8
DEFAULT_255_1_388
10
5.9394416
20
85.0243285
40
0.3547505
50
325.2332381
51
332.8746682
0
ARC
8
DEFAULT_255_1_388
10
5.9565998
20
85.0123763
40
0.3338396
50
292.9803892
51
325.2391113
0
ARC
8
DEFAULT_255_1_388
10
5.9255194
20
85.0728679
40
0.4016959
50
292.542178
51
293.6931461
0
ARC
8
DEFAULT_255_1_388
10
5.9698766
20
84.3463036
40
0.372079
50
57.643292
51
72.8626085
0
ARC
8
DEFAULT_255_1_388
10
6.0097601
20
84.4109273
40
0.2961455
50
36.7246661
51
57.4701329
0
ARC
8
DEFAULT_255_1_388
10
6.0084757
20
84.412347
40
0.2963321
50
8.054535
51
36.3561529
0
ARC
8
DEFAULT_255_1_388
10
5.911443
20
84.3949073
40
0.3948682
50
359.8316595
51
8.5873361
0
ARC
8
DEFAULT_255_1_388
10
5.8691904
20
84.389497
40
0.4371398
50
343.9831631
51
0.557075
0
ARC
8
DEFAULT_255_1_388
10
5.9688954
20
84.3621963
40
0.3337749
50
311.6358204
51
343.7652116
0
ARC
8
DEFAULT_255_1_388
10
5.9263207
20
84.4101955
40
0.3979351
50
279.7829743
51
311.625622
0
ARC
8
DEFAULT_255_1_388
10
5.8924343
20
84.5718642
40
0.5630417
50
269.7285092
51
280.3857694
0
ARC
8
DEFAULT_255_1_388
10
5.8854656
20
84.5672241
40
0.5584119
50
256.6827433
51
270.4412869
0
ARC
8
DEFAULT_255_1_388
10
5.8473642
20
84.4114698
40
0.3980715
50
229.4223821
51
256.8554507
0
ARC
8
DEFAULT_255_1_388
10
5.8007196
20
84.3589683
40
0.3278564
50
181.8183354
51
229.6455015
0
ARC
8
DEFAULT_255_1_388
10
5.9176805
20
84.3736825
40
0.4453611
50
179.9760419
51
183.2330638
0
ARC
8
DEFAULT_255_1_388
10
5.8983357
20
84.3713781
40
0.2579652
50
179.4467996
51
196.2871626
0
ARC
8
DEFAULT_255_1_388
10
5.8434811
20
84.3563709
40
0.2011057
50
196.5661293
51
227.7059371
0
ARC
8
DEFAULT_255_1_388
10
5.8619418
20
84.3770155
40
0.2287994
50
227.7653015
51
257.8763321
0
ARC
8
DEFAULT_255_1_388
10
5.8872501
20
84.4830961
40
0.3378385
50
257.4583525
51
270.4267406
0
ARC
8
DEFAULT_255_1_388
10
5.8923751
20
84.515723
40
0.3704652
50
269.5965319
51
280.8788143
0
ARC
8
DEFAULT_255_1_388
10
5.9181979
20
84.3867529
40
0.2389415
50
280.6347277
51
299.8594068
0
ARC
8
DEFAULT_255_1_388
10
5.9396749
20
84.3459736
40
0.19289
50
300.3575552
51
314.5515667
0
ARC
8
DEFAULT_255_1_388
10
5.9303424
20
84.3528025
40
0.204312
50
315.0730962
51
345.0429362
0
ARC
8
DEFAULT_255_1_388
10
5.8264932
20
84.3830539
40
0.31246
50
344.598526
51
357.9270698
0
ARC
8
DEFAULT_255_1_388
10
5.7255237
20
84.3899705
40
0.4136265
50
357.4755098
51
0.0224936
0
ARC
8
DEFAULT_255_1_388
10
5.8408114
20
84.3927099
40
0.2983498
50
359.5051035
51
13.4236939
0
ARC
8
DEFAULT_255_1_388
10
5.9383204
20
84.4176637
40
0.1977186
50
12.9497905
51
48.7550905
0
ARC
8
DEFAULT_255_1_388
10
5.9178126
20
84.3896373
40
0.2323321
50
49.509109
51
72.1832965
0
ARC
8
DEFAULT_255_1_388
10
5.8775594
20
84.2701632
40
0.358397
50
71.9008458
51
84.3555134
0
ARC
8
DEFAULT_255_1_388
10
5.8593989
20
84.1169712
40
0.512641
50
84.019632
51
89.3326067
0
LINE
8
DEFAULT_255_1_388
10
4.1838367
20
93.2799898
11
4.1838367
21
91.9644
0
LINE
8
DEFAULT_255_1_388
10
4.1838367
20
91.9644
11
4.0103523
21
91.9644
0
LINE
8
DEFAULT_255_1_388
10
4.0103523
20
91.9644
11
4.0103523
21
93.2799898
0
LINE
8
DEFAULT_255_1_388
10
4.0103523
20
93.2799898
11
4.1838367
21
93.2799898
0
LINE
8
DEFAULT_255_1_388
10
5.282571
20
92.742369
11
5.282571
21
92.5255135
0
LINE
8
DEFAULT_255_1_388
10
4.4521953
20
92.5029244
11
4.4521953
21
92.7261048
0
LINE
8
DEFAULT_255_1_388
10
5.1154116
20
92.4803353
11
5.1154116
21
92.7541153
0
LINE
8
DEFAULT_255_1_388
10
4.6193547
20
92.7667652
11
4.6193547
21
92.4993102
0
ARC
8
DEFAULT_255_1_388
10
3.9048044
20
92.5200118
40
1.3777776
50
353.8440855
51
0.2287917
0
ARC
8
DEFAULT_255_1_388
10
4.4267062
20
92.4617414
40
0.852639
50
344.4934746
51
353.9763743
0
ARC
8
DEFAULT_255_1_388
10
4.7633869
20
92.3660191
40
0.5026273
50
329.2803599
51
344.7473406
0
ARC
8
DEFAULT_255_1_388
10
4.8749365
20
92.3048038
40
0.3754848
50
324.9361395
51
328.6153007
0
ARC
8
DEFAULT_255_1_388
10
4.9175015
20
92.2750586
40
0.3235566
50
280.5801797
51
324.9173226
0
ARC
8
DEFAULT_255_1_388
10
4.8723643
20
92.4630236
40
0.5167077
50
269.5979457
51
281.6732777
0
ARC
8
DEFAULT_255_1_388
10
4.8642547
20
92.4495113
40
0.5032026
50
256.6228565
51
270.5105488
0
ARC
8
DEFAULT_255_1_388
10
4.8190289
20
92.2753345
40
0.3233092
50
215.8618351
51
257.2787793
0
ARC
8
DEFAULT_255_1_388
10
4.9338996
20
92.3524106
40
0.4615831
50
197.9695203
51
215.2622745
0
ARC
8
DEFAULT_255_1_388
10
5.2134672
20
92.4467641
40
0.7566307
50
187.8816486
51
198.2346584
0
ARC
8
DEFAULT_255_1_388
10
5.658791
20
92.5110453
40
1.2065653
50
180.8977266
51
188.0054894
0
ARC
8
DEFAULT_255_1_388
10
5.9638124
20
92.52254
40
1.5117443
50
180.7434591
51
181.152202
0
ARC
8
DEFAULT_255_1_388
10
5.796312
20
92.7315371
40
1.3441277
50
173.7674302
51
180.2315596
0
ARC
8
DEFAULT_255_1_388
10
5.2880989
20
92.7889779
40
0.8326847
50
164.3058537
51
173.9000553
0
ARC
8
DEFAULT_255_1_388
10
4.9604989
20
92.8833652
40
0.4917711
50
148.7922028
51
164.5682288
0
ARC
8
DEFAULT_255_1_388
10
4.8535726
20
92.9430457
40
0.3694204
50
144.5883979
51
148.1161588
0
ARC
8
DEFAULT_255_1_388
10
4.8148472
20
92.9700667
40
0.322202
50
101.6440149
51
144.5142619
0
ARC
8
DEFAULT_255_1_388
10
4.8626664
20
92.7800337
40
0.5180451
50
89.528284
51
102.5820197
0
ARC
8
DEFAULT_255_1_388
10
4.8715656
20
92.7756376
40
0.5224441
50
77.0437914
51
90.508231
0
ARC
8
DEFAULT_255_1_388
10
4.9167909
20
92.9604272
40
0.3322297
50
48.2777708
51
77.4996087
0
ARC
8
DEFAULT_255_1_388
10
4.9249649
20
92.9749557
40
0.315966
50
36.3141586
51
47.6307332
0
ARC
8
DEFAULT_255_1_388
10
4.8272372
20
92.9091159
40
0.4337313
50
18.2931065
51
35.6770203
0
ARC
8
DEFAULT_255_1_388
10
4.5411212
20
92.8109107
40
0.7362203
50
8.0246996
51
18.5605636
0
ARC
8
DEFAULT_255_1_388
10
4.0727568
20
92.7417432
40
1.2096583
50
1.127539
51
8.1718423
0
ARC
8
DEFAULT_255_1_388
10
3.7078701
20
92.7274374
40
1.5747719
50
0.5432713
51
1.38669
0
ARC
8
DEFAULT_255_1_388
10
3.913608
20
92.7581163
40
1.2018103
50
359.8092569
51
4.9408001
0
ARC
8
DEFAULT_255_1_388
10
4.3872661
20
92.80039
40
0.7262727
50
4.8364937
51
12.2906017
0
ARC
8
DEFAULT_255_1_388
10
4.6972126
20
92.8694485
40
0.4087324
50
12.0806994
51
23.8171225
0
ARC
8
DEFAULT_255_1_388
10
4.8292522
20
92.9253508
40
0.2653719
50
24.2874621
51
31.3934353
0
ARC
8
DEFAULT_255_1_388
10
4.8882958
20
92.9639822
40
0.1948607
50
30.7407708
51
82.4658033
0
ARC
8
DEFAULT_255_1_388
10
4.8680619
20
92.8646017
40
0.2961198
50
81.1057101
51
90.2187368
0
ARC
8
DEFAULT_255_1_388
10
4.8640431
20
92.8936421
40
0.2670929
50
89.380395
51
105.6763916
0
ARC
8
DEFAULT_255_1_388
10
4.8434153
20
92.968632
40
0.1893189
50
105.7980655
51
149.7387869
0
ARC
8
DEFAULT_255_1_388
10
4.9631293
20
92.8966719
40
0.3289892
50
149.4208441
51
163.628295
0
ARC
8
DEFAULT_255_1_388
10
5.1983522
20
92.8249345
40
0.5749004
50
163.3764549
51
172.141138
0
ARC
8
DEFAULT_255_1_388
10
5.5696244
20
92.7717582
40
0.9499585
50
172.0258462
51
178.0705453
0
ARC
8
DEFAULT_255_1_388
10
5.9117797
20
92.7555682
40
1.2924734
50
177.8639301
51
179.5036263
0
ARC
8
DEFAULT_255_1_388
10
5.7898815
20
92.4952151
40
1.170534
50
179.7995545
51
185.246089
0
ARC
8
DEFAULT_255_1_388
10
5.3350408
20
92.4521404
40
0.7136613
50
185.1411911
51
193.0082205
0
ARC
8
DEFAULT_255_1_388
10
5.0376669
20
92.3818441
40
0.4080987
50
192.7897338
51
205.2507384
0
ARC
8
DEFAULT_255_1_388
10
4.9198879
20
92.3292538
40
0.2791522
50
205.8001921
51
211.2545876
0
ARC
8
DEFAULT_255_1_388
10
4.8610418
20
92.2898132
40
0.2084074
50
210.3789935
51
238.4007996
0
ARC
8
DEFAULT_255_1_388
10
4.8588504
20
92.2950786
40
0.2117943
50
239.6521916
51
265.9793852
0
ARC
8
DEFAULT_255_1_388
10
4.8684353
20
92.3707358
40
0.2879689
50
265.1324455
51
270.0603288
0
ARC
8
DEFAULT_255_1_388
10
4.871673
20
92.3342418
40
0.2514919
50
269.3314378
51
287.2180039
0
ARC
8
DEFAULT_255_1_388
10
4.8871812
20
92.2776291
40
0.1928357
50
287.7957942
51
329.0808983
0
ARC
8
DEFAULT_255_1_388
10
4.7794569
20
92.3448651
40
0.319808
50
328.6635261
51
343.3325043
0
ARC
8
DEFAULT_255_1_388
10
4.5350028
20
92.4210195
40
0.5758408
50
343.0498092
51
351.9392499
0
ARC
8
DEFAULT_255_1_388
10
4.144935
20
92.4785205
40
0.9701202
50
351.8071632
51
357.7957897
0
ARC
8
DEFAULT_255_1_388
10
3.7814827
20
92.4973724
40
1.3340376
50
357.5870923
51
359.2682493
0
LINE
8
DEFAULT_255_1_388
10
6.3587163
20
92.1008382
11
6.3587163
21
91.9644
0
LINE
8
DEFAULT_255_1_388
10
6.3587163
20
91.9644
11
5.4967158
21
91.9644
0
LINE
8
DEFAULT_255_1_388
10
5.4967158
20
91.9644
11
5.4967158
21
92.0845741
0
LINE
8
DEFAULT_255_1_388
10
5.4967158
20
92.0845741
11
5.9521123
21
92.5905702
0
LINE
8
DEFAULT_255_1_388
10
5.6385754
20
92.8923607
11
5.471416
21
92.8923607
0
LINE
8
DEFAULT_255_1_388
10
6.0506008
20
92.483046
11
5.6982107
21
92.1008382
0
LINE
8
DEFAULT_255_1_388
10
5.6982107
20
92.1008382
11
6.3587163
21
92.1008382
0
ARC
8
DEFAULT_255_1_388
10
4.4345183
20
93.9325983
40
2.0258655
50
318.5132526
51
320.7829045
0
ARC
8
DEFAULT_255_1_388
10
5.029314
20
93.4484929
40
1.2589638
50
320.7372878
51
323.9739031
0
ARC
8
DEFAULT_255_1_388
10
5.4702071
20
93.1290554
40
0.7145141
50
323.8962701
51
328.64194
0
ARC
8
DEFAULT_255_1_388
10
5.7004329
20
92.9870545
40
0.4440242
50
328.8294576
51
331.7891185
0
ARC
8
DEFAULT_255_1_388
10
5.8126649
20
92.9291374
40
0.3177517
50
331.4254512
51
352.9365785
0
ARC
8
DEFAULT_255_1_388
10
5.8279649
20
92.925705
40
0.3021496
50
353.2257659
51
0.0166158
0
ARC
8
DEFAULT_255_1_388
10
5.8516409
20
92.9282894
40
0.2784847
50
359.486299
51
15.9343185
0
ARC
8
DEFAULT_255_1_388
10
5.9086676
20
92.9436269
40
0.2194403
50
16.1712913
51
43.5286088
0
ARC
8
DEFAULT_255_1_388
10
5.9173621
20
92.9523191
40
0.2071504
50
43.4417391
51
83.1661095
0
ARC
8
DEFAULT_255_1_388
10
5.9022782
20
92.8694316
40
0.2912888
50
82.160179
51
90.1505708
0
ARC
8
DEFAULT_255_1_388
10
5.8987264
20
92.8090279
40
0.3517025
50
89.5460741
51
102.5418361
0
ARC
8
DEFAULT_255_1_388
10
5.8713984
20
92.9249933
40
0.2325748
50
102.1738499
51
129.206123
0
ARC
8
DEFAULT_255_1_388
10
5.8625437
20
92.9389664
40
0.2161591
50
129.72865
51
135.753947
0
ARC
8
DEFAULT_255_1_388
10
5.8761919
20
92.9280728
40
0.2335433
50
136.1757367
51
166.3673339
0
ARC
8
DEFAULT_255_1_388
10
5.9894608
20
92.8977148
40
0.3507873
50
165.9090694
51
178.8684636
0
ARC
8
DEFAULT_255_1_388
10
6.0870379
20
92.8924263
40
0.4484624
50
178.4391136
51
180.0083808
0
ARC
8
DEFAULT_255_1_388
10
5.9291081
20
92.8968197
40
0.4577138
50
163.2878482
51
180.5581842
0
ARC
8
DEFAULT_255_1_388
10
5.8389122
20
92.9216393
40
0.3641968
50
133.4540601
51
162.947111
0
ARC
8
DEFAULT_255_1_388
10
5.8590003
20
92.9002789
40
0.3935189
50
100.7869829
51
133.4382499
0
ARC
8
DEFAULT_255_1_388
10
5.8981248
20
92.7260399
40
0.5720313
50
89.660664
51
101.3702276
0
ARC
8
DEFAULT_255_1_388
10
5.9055857
20
92.7329263
40
0.5651495
50
78.2172678
51
90.412935
0
ARC
8
DEFAULT_255_1_388
10
5.9455323
20
92.9156511
40
0.378122
50
55.9269121
51
78.4888449
0
ARC
8
DEFAULT_255_1_388
10
5.9676038
20
92.9537187
40
0.3342379
50
47.929771
51
55.4049217
0
ARC
8
DEFAULT_255_1_388
10
5.9790569
20
92.9653618
40
0.3179217
50
4.334829
51
48.0560205
0
ARC
8
DEFAULT_255_1_388
10
5.855837
20
92.9462487
40
0.442341
50
359.9251713
51
5.5971671
0
ARC
8
DEFAULT_255_1_388
10
5.9040525
20
92.9525728
40
0.3941854
50
337.8914027
51
358.9967534
0
ARC
8
DEFAULT_255_1_388
10
5.5988095
20
93.0703295
40
0.7213271
50
326.9132501
51
338.3508308
0
ARC
8
DEFAULT_255_1_388
10
5.1504207
20
93.3577105
40
1.2538973
50
319.6471833
51
327.0959558
0
ARC
8
DEFAULT_255_1_388
10
4.7190865
20
93.713505
40
1.8129975
50
317.2588228
51
319.9045804
0
LINE
8
DEFAULT_255_1_388
10
4.1747367
20
101.2174898
11
4.1747367
21
99.9019
0
LINE
8
DEFAULT_255_1_388
10
4.1747367
20
99.9019
11
4.0012523
21
99.9019
0
LINE
8
DEFAULT_255_1_388
10
4.0012523
20
99.9019
11
4.0012523
21
101.2174898
0
LINE
8
DEFAULT_255_1_388
10
4.0012523
20
101.2174898
11
4.1747367
21
101.2174898
0
LINE
8
DEFAULT_255_1_388
10
5.273471
20
100.679869
11
5.273471
21
100.4630135
0
LINE
8
DEFAULT_255_1_388
10
4.4430953
20
100.4404244
11
4.4430953
21
100.6636048
0
LINE
8
DEFAULT_255_1_388
10
5.1063116
20
100.4178353
11
5.1063116
21
100.6916153
0
LINE
8
DEFAULT_255_1_388
10
4.6102547
20
100.7042652
11
4.6102547
21
100.4368102
0
ARC
8
DEFAULT_255_1_388
10
3.8957044
20
100.4575118
40
1.3777776
50
353.8440855
51
0.2287917
0
ARC
8
DEFAULT_255_1_388
10
4.4176062
20
100.3992414
40
0.852639
50
344.4934746
51
353.9763743
0
ARC
8
DEFAULT_255_1_388
10
4.7542869
20
100.3035191
40
0.5026273
50
329.2803599
51
344.7473406
0
ARC
8
DEFAULT_255_1_388
10
4.8658365
20
100.2423038
40
0.3754848
50
324.9361395
51
328.6153007
0
ARC
8
DEFAULT_255_1_388
10
4.9084015
20
100.2125586
40
0.3235566
50
280.5801797
51
324.9173226
0
ARC
8
DEFAULT_255_1_388
10
4.8632643
20
100.4005236
40
0.5167077
50
269.5979457
51
281.6732777
0
ARC
8
DEFAULT_255_1_388
10
4.8551547
20
100.3870113
40
0.5032026
50
256.6228565
51
270.5105488
0
ARC
8
DEFAULT_255_1_388
10
4.8099289
20
100.2128345
40
0.3233092
50
215.8618351
51
257.2787793
0
ARC
8
DEFAULT_255_1_388
10
4.9247996
20
100.2899106
40
0.4615831
50
197.9695203
51
215.2622745
0
ARC
8
DEFAULT_255_1_388
10
5.2043672
20
100.3842641
40
0.7566307
50
187.8816486
51
198.2346584
0
ARC
8
DEFAULT_255_1_388
10
5.649691
20
100.4485453
40
1.2065653
50
180.8977266
51
188.0054894
0
ARC
8
DEFAULT_255_1_388
10
5.9547124
20
100.46004
40
1.5117443
50
180.7434591
51
181.152202
0
ARC
8
DEFAULT_255_1_388
10
5.787212
20
100.6690371
40
1.3441277
50
173.7674302
51
180.2315596
0
ARC
8
DEFAULT_255_1_388
10
5.2789989
20
100.7264779
40
0.8326847
50
164.3058537
51
173.9000553
0
ARC
8
DEFAULT_255_1_388
10
4.9513989
20
100.8208652
40
0.4917711
50
148.7922028
51
164.5682288
0
ARC
8
DEFAULT_255_1_388
10
4.8444726
20
100.8805457
40
0.3694204
50
144.5883979
51
148.1161588
0
ARC
8
DEFAULT_255_1_388
10
4.8057472
20
100.9075667
40
0.322202
50
101.6440149
51
144.5142619
0
ARC
8
DEFAULT_255_1_388
10
4.8535664
20
100.7175337
40
0.5180451
50
89.528284
51
102.5820197
0
ARC
8
DEFAULT_255_1_388
10
4.8624656
20
100.7131376
40
0.5224441
50
77.0437914
51
90.508231
0
ARC
8
DEFAULT_255_1_388
10
4.9076909
20
100.8979272
40
0.3322297
50
48.2777708
51
77.4996087
0
ARC
8
DEFAULT_255_1_388
10
4.9158649
20
100.9124557
40
0.315966
50
36.3141586
51
47.6307332
0
ARC
8
DEFAULT_255_1_388
10
4.8181372
20
100.8466159
40
0.4337313
50
18.2931065
51
35.6770203
0
ARC
8
DEFAULT_255_1_388
10
4.5320212
20
100.7484107
40
0.7362203
50
8.0246996
51
18.5605636
0
ARC
8
DEFAULT_255_1_388
10
4.0636568
20
100.6792432
40
1.2096583
50
1.127539
51
8.1718423
0
ARC
8
DEFAULT_255_1_388
10
3.6987701
20
100.6649374
40
1.5747719
50
0.5432713
51
1.38669
0
ARC
8
DEFAULT_255_1_388
10
3.904508
20
100.6956163
40
1.2018103
50
359.8092569
51
4.9408001
0
ARC
8
DEFAULT_255_1_388
10
4.3781661
20
100.73789
40
0.7262727
50
4.8364937
51
12.2906017
0
ARC
8
DEFAULT_255_1_388
10
4.6881126
20
100.8069485
40
0.4087324
50
12.0806994
51
23.8171225
0
ARC
8
DEFAULT_255_1_388
10
4.8201522
20
100.8628508
40
0.2653719
50
24.2874621
51
31.3934353
0
ARC
8
DEFAULT_255_1_388
10
4.8791958
20
100.9014822
40
0.1948607
50
30.7407708
51
82.4658033
0
ARC
8
DEFAULT_255_1_388
10
4.8589619
20
100.8021017
40
0.2961198
50
81.1057101
51
90.2187368
0
ARC
8
DEFAULT_255_1_388
10
4.8549431
20
100.8311421
40
0.2670929
50
89.380395
51
105.6763916
0
ARC
8
DEFAULT_255_1_388
10
4.8343153
20
100.906132
40
0.1893189
50
105.7980655
51
149.7387869
0
ARC
8
DEFAULT_255_1_388
10
4.9540293
20
100.8341719
40
0.3289892
50
149.4208441
51
163.628295
0
ARC
8
DEFAULT_255_1_388
10
5.1892522
20
100.7624345
40
0.5749004
50
163.3764549
51
172.141138
0
ARC
8
DEFAULT_255_1_388
10
5.5605244
20
100.7092582
40
0.9499585
50
172.0258462
51
178.0705453
0
ARC
8
DEFAULT_255_1_388
10
5.9026797
20
100.6930682
40
1.2924734
50
177.8639301
51
179.5036263
0
ARC
8
DEFAULT_255_1_388
10
5.7807815
20
100.4327151
40
1.170534
50
179.7995545
51
185.246089
0
ARC
8
DEFAULT_255_1_388
10
5.3259408
20
100.3896404
40
0.7136613
50
185.1411911
51
193.0082205
0
ARC
8
DEFAULT_255_1_388
10
5.0285669
20
100.3193441
40
0.4080987
50
192.7897338
51
205.2507384
0
ARC
8
DEFAULT_255_1_388
10
4.9107879
20
100.2667538
40
0.2791522
50
205.8001921
51
211.2545876
0
ARC
8
DEFAULT_255_1_388
10
4.8519418
20
100.2273132
40
0.2084074
50
210.3789935
51
238.4007996
0
ARC
8
DEFAULT_255_1_388
10
4.8497504
20
100.2325786
40
0.2117943
50
239.6521916
51
265.9793852
0
ARC
8
DEFAULT_255_1_388
10
4.8593353
20
100.3082358
40
0.2879689
50
265.1324455
51
270.0603288
0
ARC
8
DEFAULT_255_1_388
10
4.862573
20
100.2717418
40
0.2514919
50
269.3314378
51
287.2180039
0
ARC
8
DEFAULT_255_1_388
10
4.8780812
20
100.2151291
40
0.1928357
50
287.7957942
51
329.0808983
0
ARC
8
DEFAULT_255_1_388
10
4.7703569
20
100.2823651
40
0.319808
50
328.6635261
51
343.3325043
0
ARC
8
DEFAULT_255_1_388
10
4.5259028
20
100.3585195
40
0.5758408
50
343.0498092
51
351.9392499
0
ARC
8
DEFAULT_255_1_388
10
4.135835
20
100.4160205
40
0.9701202
50
351.8071632
51
357.7957897
0
ARC
8
DEFAULT_255_1_388
10
3.7723827
20
100.4348724
40
1.3340376
50
357.5870923
51
359.2682493
0
LINE
8
DEFAULT_255_1_388
10
6.036983
20
101.2238148
11
6.036983
21
99.9019
0
LINE
8
DEFAULT_255_1_388
10
6.036983
20
99.9019
11
5.86892
21
99.9019
0
LINE
8
DEFAULT_255_1_388
10
5.86892
20
99.9019
11
5.86892
21
101.015995
0
LINE
8
DEFAULT_255_1_388
10
5.86892
20
101.015995
11
5.5318905
21
100.8922066
0
LINE
8
DEFAULT_255_1_388
10
5.5318905
20
100.8922066
11
5.5318905
21
101.0440055
0
LINE
8
DEFAULT_255_1_388
10
5.5318905
20
101.0440055
11
6.0107796
21
101.2238148
0
LINE
8
DEFAULT_255_1_388
10
6.0107796
20
101.2238148
11
6.036983
21
101.2238148
0
LINE
8
DEFAULT_255_1_388
10
4.1838367
20
109.1549898
11
4.1838367
21
107.8394
0
LINE
8
DEFAULT_255_1_388
10
4.1838367
20
107.8394
11
4.0103523
21
107.8394
0
LINE
8
DEFAULT_255_1_388
10
4.0103523
20
107.8394
11
4.0103523
21
109.1549898
0
LINE
8
DEFAULT_255_1_388
10
4.0103523
20
109.1549898
11
4.1838367
21
109.1549898
0
LINE
8
DEFAULT_255_1_388
10
5.282571
20
108.617369
11
5.282571
21
108.4005135
0
LINE
8
DEFAULT_255_1_388
10
4.4521953
20
108.3779244
11
4.4521953
21
108.6011048
0
LINE
8
DEFAULT_255_1_388
10
5.1154116
20
108.3553353
11
5.1154116
21
108.6291153
0
LINE
8
DEFAULT_255_1_388
10
4.6193547
20
108.6417652
11
4.6193547
21
108.3743102
0
ARC
8
DEFAULT_255_1_388
10
3.9048044
20
108.3950118
40
1.3777776
50
353.8440855
51
0.2287917
0
ARC
8
DEFAULT_255_1_388
10
4.4267062
20
108.3367414
40
0.852639
50
344.4934746
51
353.9763743
0
ARC
8
DEFAULT_255_1_388
10
4.7633869
20
108.2410191
40
0.5026273
50
329.2803599
51
344.7473406
0
ARC
8
DEFAULT_255_1_388
10
4.8749365
20
108.1798038
40
0.3754848
50
324.9361395
51
328.6153007
0
ARC
8
DEFAULT_255_1_388
10
4.9175015
20
108.1500586
40
0.3235566
50
280.5801797
51
324.9173226
0
ARC
8
DEFAULT_255_1_388
10
4.8723643
20
108.3380236
40
0.5167077
50
269.5979457
51
281.6732777
0
ARC
8
DEFAULT_255_1_388
10
4.8642547
20
108.3245113
40
0.5032026
50
256.6228565
51
270.5105488
0
ARC
8
DEFAULT_255_1_388
10
4.8190289
20
108.1503345
40
0.3233092
50
215.8618351
51
257.2787793
0
ARC
8
DEFAULT_255_1_388
10
4.9338996
20
108.2274106
40
0.4615831
50
197.9695203
51
215.2622745
0
ARC
8
DEFAULT_255_1_388
10
5.2134672
20
108.3217641
40
0.7566307
50
187.8816486
51
198.2346584
0
ARC
8
DEFAULT_255_1_388
10
5.658791
20
108.3860453
40
1.2065653
50
180.8977266
51
188.0054894
0
ARC
8
DEFAULT_255_1_388
10
5.9638124
20
108.39754
40
1.5117443
50
180.7434591
51
181.152202
0
ARC
8
DEFAULT_255_1_388
10
5.796312
20
108.6065371
40
1.3441277
50
173.7674302
51
180.2315596
0
ARC
8
DEFAULT_255_1_388
10
5.2880989
20
108.6639779
40
0.8326847
50
164.3058537
51
173.9000553
0
ARC
8
DEFAULT_255_1_388
10
4.9604989
20
108.7583652
40
0.4917711
50
148.7922028
51
164.5682288
0
ARC
8
DEFAULT_255_1_388
10
4.8535726
20
108.8180457
40
0.3694204
50
144.5883979
51
148.1161588
0
ARC
8
DEFAULT_255_1_388
10
4.8148472
20
108.8450667
40
0.322202
50
101.6440149
51
144.5142619
0
ARC
8
DEFAULT_255_1_388
10
4.8626664
20
108.6550337
40
0.5180451
50
89.528284
51
102.5820197
0
ARC
8
DEFAULT_255_1_388
10
4.8715656
20
108.6506376
40
0.5224441
50
77.0437914
51
90.508231
0
ARC
8
DEFAULT_255_1_388
10
4.9167909
20
108.8354272
40
0.3322297
50
48.2777708
51
77.4996087
0
ARC
8
DEFAULT_255_1_388
10
4.9249649
20
108.8499557
40
0.315966
50
36.3141586
51
47.6307332
0
ARC
8
DEFAULT_255_1_388
10
4.8272372
20
108.7841159
40
0.4337313
50
18.2931065
51
35.6770203
0
ARC
8
DEFAULT_255_1_388
10
4.5411212
20
108.6859107
40
0.7362203
50
8.0246996
51
18.5605636
0
ARC
8
DEFAULT_255_1_388
10
4.0727568
20
108.6167432
40
1.2096583
50
1.127539
51
8.1718423
0
ARC
8
DEFAULT_255_1_388
10
3.7078701
20
108.6024374
40
1.5747719
50
0.5432713
51
1.38669
0
ARC
8
DEFAULT_255_1_388
10
3.913608
20
108.6331163
40
1.2018103
50
359.8092569
51
4.9408001
0
ARC
8
DEFAULT_255_1_388
10
4.3872661
20
108.67539
40
0.7262727
50
4.8364937
51
12.2906017
0
ARC
8
DEFAULT_255_1_388
10
4.6972126
20
108.7444485
40
0.4087324
50
12.0806994
51
23.8171225
0
ARC
8
DEFAULT_255_1_388
10
4.8292522
20
108.8003508
40
0.2653719
50
24.2874621
51
31.3934353
0
ARC
8
DEFAULT_255_1_388
10
4.8882958
20
108.8389822
40
0.1948607
50
30.7407708
51
82.4658033
0
ARC
8
DEFAULT_255_1_388
10
4.8680619
20
108.7396017
40
0.2961198
50
81.1057101
51
90.2187368
0
ARC
8
DEFAULT_255_1_388
10
4.8640431
20
108.7686421
40
0.2670929
50
89.380395
51
105.6763916
0
ARC
8
DEFAULT_255_1_388
10
4.8434153
20
108.843632
40
0.1893189
50
105.7980655
51
149.7387869
0
ARC
8
DEFAULT_255_1_388
10
4.9631293
20
108.7716719
40
0.3289892
50
149.4208441
51
163.628295
0
ARC
8
DEFAULT_255_1_388
10
5.1983522
20
108.6999345
40
0.5749004
50
163.3764549
51
172.141138
0
ARC
8
DEFAULT_255_1_388
10
5.5696244
20
108.6467582
40
0.9499585
50
172.0258462
51
178.0705453
0
ARC
8
DEFAULT_255_1_388
10
5.9117797
20
108.6305682
40
1.2924734
50
177.8639301
51
179.5036263
0
ARC
8
DEFAULT_255_1_388
10
5.7898815
20
108.3702151
40
1.170534
50
179.7995545
51
185.246089
0
ARC
8
DEFAULT_255_1_388
10
5.3350408
20
108.3271404
40
0.7136613
50
185.1411911
51
193.0082205
0
ARC
8
DEFAULT_255_1_388
10
5.0376669
20
108.2568441
40
0.4080987
50
192.7897338
51
205.2507384
0
ARC
8
DEFAULT_255_1_388
10
4.9198879
20
108.2042538
40
0.2791522
50
205.8001921
51
211.2545876
0
ARC
8
DEFAULT_255_1_388
10
4.8610418
20
108.1648132
40
0.2084074
50
210.3789935
51
238.4007996
0
ARC
8
DEFAULT_255_1_388
10
4.8588504
20
108.1700786
40
0.2117943
50
239.6521916
51
265.9793852
0
ARC
8
DEFAULT_255_1_388
10
4.8684353
20
108.2457358
40
0.2879689
50
265.1324455
51
270.0603288
0
ARC
8
DEFAULT_255_1_388
10
4.871673
20
108.2092418
40
0.2514919
50
269.3314378
51
287.2180039
0
ARC
8
DEFAULT_255_1_388
10
4.8871812
20
108.1526291
40
0.1928357
50
287.7957942
51
329.0808983
0
ARC
8
DEFAULT_255_1_388
10
4.7794569
20
108.2198651
40
0.319808
50
328.6635261
51
343.3325043
0
ARC
8
DEFAULT_255_1_388
10
4.5350028
20
108.2960195
40
0.5758408
50
343.0498092
51
351.9392499
0
ARC
8
DEFAULT_255_1_388
10
4.144935
20
108.3535205
40
0.9701202
50
351.8071632
51
357.7957897
0
ARC
8
DEFAULT_255_1_388
10
3.7814827
20
108.3723724
40
1.3340376
50
357.5870923
51
359.2682493
0
LINE
8
DEFAULT_255_1_388
10
6.3216702
20
108.617369
11
6.3216702
21
108.4005135
0
LINE
8
DEFAULT_255_1_388
10
5.4912944
20
108.3779244
11
5.4912944
21
108.6011048
0
LINE
8
DEFAULT_255_1_388
10
6.1545107
20
108.3553353
11
6.1545107
21
108.6291153
0
LINE
8
DEFAULT_255_1_388
10
5.6584539
20
108.6417652
11
5.6584539
21
108.3743102
0
ARC
8
DEFAULT_255_1_388
10
4.9439036
20
108.3950118
40
1.3777776
50
353.8440855
51
0.2287917
0
ARC
8
DEFAULT_255_1_388
10
5.4658053
20
108.3367414
40
0.852639
50
344.4934746
51
353.9763743
0
ARC
8
DEFAULT_255_1_388
10
5.802486
20
108.2410191
40
0.5026273
50
329.2803599
51
344.7473406
0
ARC
8
DEFAULT_255_1_388
10
5.9140356
20
108.1798038
40
0.3754848
50
324.9361395
51
328.6153007
0
ARC
8
DEFAULT_255_1_388
10
5.9566006
20
108.1500586
40
0.3235566
50
280.5801797
51
324.9173226
0
ARC
8
DEFAULT_255_1_388
10
5.9114634
20
108.3380236
40
0.5167077
50
269.5979457
51
281.6732777
0
ARC
8
DEFAULT_255_1_388
10
5.9033538
20
108.3245113
40
0.5032026
50
256.6228565
51
270.5105488
0
ARC
8
DEFAULT_255_1_388
10
5.8581281
20
108.1503345
40
0.3233092
50
215.8618351
51
257.2787793
0
ARC
8
DEFAULT_255_1_388
10
5.9729988
20
108.2274106
40
0.4615831
50
197.9695203
51
215.2622745
0
ARC
8
DEFAULT_255_1_388
10
6.2525663
20
108.3217641
40
0.7566307
50
187.8816486
51
198.2346584
0
ARC
8
DEFAULT_255_1_388
10
6.6978902
20
108.3860453
40
1.2065653
50
180.8977266
51
188.0054894
0
ARC
8
DEFAULT_255_1_388
10
7.0029115
20
108.39754
40
1.5117443
50
180.7434591
51
181.152202
0
ARC
8
DEFAULT_255_1_388
10
6.8354111
20
108.6065371
40
1.3441277
50
173.7674302
51
180.2315596
0
ARC
8
DEFAULT_255_1_388
10
6.327198
20
108.6639779
40
0.8326847
50
164.3058537
51
173.9000553
0
ARC
8
DEFAULT_255_1_388
10
5.999598
20
108.7583652
40
0.4917711
50
148.7922028
51
164.5682288
0
ARC
8
DEFAULT_255_1_388
10
5.8926718
20
108.8180457
40
0.3694204
50
144.5883979
51
148.1161588
0
ARC
8
DEFAULT_255_1_388
10
5.8539463
20
108.8450667
40
0.322202
50
101.6440149
51
144.5142619
0
ARC
8
DEFAULT_255_1_388
10
5.9017655
20
108.6550337
40
0.5180451
50
89.528284
51
102.5820197
0
ARC
8
DEFAULT_255_1_388
10
5.9106647
20
108.6506376
40
0.5224441
50
77.0437914
51
90.508231
0
ARC
8
DEFAULT_255_1_388
10
5.9558901
20
108.8354272
40
0.3322297
50
48.2777708
51
77.4996087
0
ARC
8
DEFAULT_255_1_388
10
5.9640641
20
108.8499557
40
0.315966
50
36.3141586
51
47.6307332
0
ARC
8
DEFAULT_255_1_388
10
5.8663363
20
108.7841159
40
0.4337313
50
18.2931065
51
35.6770203
0
ARC
8
DEFAULT_255_1_388
10
5.5802204
20
108.6859107
40
0.7362203
50
8.0246996
51
18.5605636
0
ARC
8
DEFAULT_255_1_388
10
5.1118559
20
108.6167432
40
1.2096583
50
1.127539
51
8.1718423
0
ARC
8
DEFAULT_255_1_388
10
4.7469693
20
108.6024374
40
1.5747719
50
0.5432713
51
1.38669
0
ARC
8
DEFAULT_255_1_388
10
4.9527071
20
108.6331163
40
1.2018103
50
359.8092569
51
4.9408001
0
ARC
8
DEFAULT_255_1_388
10
5.4263653
20
108.67539
40
0.7262727
50
4.8364937
51
12.2906017
0
ARC
8
DEFAULT_255_1_388
10
5.7363117
20
108.7444485
40
0.4087324
50
12.0806994
51
23.8171225
0
ARC
8
DEFAULT_255_1_388
10
5.8683513
20
108.8003508
40
0.2653719
50
24.2874621
51
31.3934353
0
ARC
8
DEFAULT_255_1_388
10
5.9273949
20
108.8389822
40
0.1948607
50
30.7407708
51
82.4658033
0
ARC
8
DEFAULT_255_1_388
10
5.907161
20
108.7396017
40
0.2961198
50
81.1057101
51
90.2187368
0
ARC
8
DEFAULT_255_1_388
10
5.9031422
20
108.7686421
40
0.2670929
50
89.380395
51
105.6763916
0
ARC
8
DEFAULT_255_1_388
10
5.8825144
20
108.843632
40
0.1893189
50
105.7980655
51
149.7387869
0
ARC
8
DEFAULT_255_1_388
10
6.0022284
20
108.7716719
40
0.3289892
50
149.4208441
51
163.628295
0
ARC
8
DEFAULT_255_1_388
10
6.2374514
20
108.6999345
40
0.5749004
50
163.3764549
51
172.141138
0
ARC
8
DEFAULT_255_1_388
10
6.6087235
20
108.6467582
40
0.9499585
50
172.0258462
51
178.0705453
0
ARC
8
DEFAULT_255_1_388
10
6.9508788
20
108.6305682
40
1.2924734
50
177.8639301
51
179.5036263
0
ARC
8
DEFAULT_255_1_388
10
6.8289807
20
108.3702151
40
1.170534
50
179.7995545
51
185.246089
0
ARC
8
DEFAULT_255_1_388
10
6.37414
20
108.3271404
40
0.7136613
50
185.1411911
51
193.0082205
0
ARC
8
DEFAULT_255_1_388
10
6.076766
20
108.2568441
40
0.4080987
50
192.7897338
51
205.2507384
0
ARC
8
DEFAULT_255_1_388
10
5.958987
20
108.2042538
40
0.2791522
50
205.8001921
51
211.2545876
0
ARC
8
DEFAULT_255_1_388
10
5.9001409
20
108.1648132
40
0.2084074
50
210.3789935
51
238.4007996
0
ARC
8
DEFAULT_255_1_388
10
5.8979495
20
108.1700786
40
0.2117943
50
239.6521916
51
265.9793852
0
ARC
8
DEFAULT_255_1_388
10
5.9075344
20
108.2457358
40
0.2879689
50
265.1324455
51
270.0603288
0
ARC
8
DEFAULT_255_1_388
10
5.9107721
20
108.2092418
40
0.2514919
50
269.3314378
51
287.2180039
0
ARC
8
DEFAULT_255_1_388
10
5.9262804
20
108.1526291
40
0.1928357
50
287.7957942
51
329.0808983
0
ARC
8
DEFAULT_255_1_388
10
5.8185561
20
108.2198651
40
0.319808
50
328.6635261
51
343.3325043
0
ARC
8
DEFAULT_255_1_388
10
5.5741019
20
108.2960195
40
0.5758408
50
343.0498092
51
351.9392499
0
ARC
8
DEFAULT_255_1_388
10
5.1840341
20
108.3535205
40
0.9701202
50
351.8071632
51
357.7957897
0
ARC
8
DEFAULT_255_1_388
10
4.8205818
20
108.3723724
40
1.3340376
50
357.5870923
51
359.2682493
0
LINE
8
DEFAULT_255_1_388
10
22.7155318
20
115.9133382
11
22.7155318
21
115.7769
0
LINE
8
DEFAULT_255_1_388
10
22.7155318
20
115.7769
11
21.8535313
21
115.7769
0
LINE
8
DEFAULT_255_1_388
10
21.8535313
20
115.7769
11
21.8535313
21
115.8970741
0
LINE
8
DEFAULT_255_1_388
10
21.8535313
20
115.8970741
11
22.3089278
21
116.4030702
0
LINE
8
DEFAULT_255_1_388
10
21.9953909
20
116.7048607
11
21.8282315
21
116.7048607
0
LINE
8
DEFAULT_255_1_388
10
22.4074163
20
116.295546
11
22.0550262
21
115.9133382
0
LINE
8
DEFAULT_255_1_388
10
22.0550262
20
115.9133382
11
22.7155318
21
115.9133382
0
ARC
8
DEFAULT_255_1_388
10
20.7913337
20
117.7450983
40
2.0258655
50
318.5132526
51
320.7829045
0
ARC
8
DEFAULT_255_1_388
10
21.3861294
20
117.2609929
40
1.2589638
50
320.7372878
51
323.9739031
0
ARC
8
DEFAULT_255_1_388
10
21.8270226
20
116.9415554
40
0.7145141
50
323.8962701
51
328.64194
0
ARC
8
DEFAULT_255_1_388
10
22.0572484
20
116.7995545
40
0.4440242
50
328.8294576
51
331.7891185
0
ARC
8
DEFAULT_255_1_388
10
22.1694804
20
116.7416374
40
0.3177517
50
331.4254512
51
352.9365785
0
ARC
8
DEFAULT_255_1_388
10
22.1847804
20
116.738205
40
0.3021496
50
353.2257659
51
0.0166158
0
ARC
8
DEFAULT_255_1_388
10
22.2084564
20
116.7407894
40
0.2784847
50
359.486299
51
15.9343185
0
ARC
8
DEFAULT_255_1_388
10
22.2654831
20
116.7561269
40
0.2194403
50
16.1712913
51
43.5286088
0
ARC
8
DEFAULT_255_1_388
10
22.2741776
20
116.7648191
40
0.2071504
50
43.4417391
51
83.1661095
0
ARC
8
DEFAULT_255_1_388
10
22.2590937
20
116.6819316
40
0.2912888
50
82.160179
51
90.1505708
0
ARC
8
DEFAULT_255_1_388
10
22.2555418
20
116.6215279
40
0.3517025
50
89.5460741
51
102.5418361
0
ARC
8
DEFAULT_255_1_388
10
22.2282138
20
116.7374933
40
0.2325748
50
102.1738499
51
129.206123
0
ARC
8
DEFAULT_255_1_388
10
22.2193592
20
116.7514664
40
0.2161591
50
129.72865
51
135.753947
0
ARC
8
DEFAULT_255_1_388
10
22.2330074
20
116.7405728
40
0.2335433
50
136.1757367
51
166.3673339
0
ARC
8
DEFAULT_255_1_388
10
22.3462762
20
116.7102148
40
0.3507873
50
165.9090694
51
178.8684636
0
ARC
8
DEFAULT_255_1_388
10
22.4438534
20
116.7049263
40
0.4484624
50
178.4391136
51
180.0083808
0
ARC
8
DEFAULT_255_1_388
10
22.2859235
20
116.7093197
40
0.4577138
50
163.2878482
51
180.5581842
0
ARC
8
DEFAULT_255_1_388
10
22.1957276
20
116.7341393
40
0.3641968
50
133.4540601
51
162.947111
0
ARC
8
DEFAULT_255_1_388
10
22.2158158
20
116.7127789
40
0.3935189
50
100.7869829
51
133.4382499
0
ARC
8
DEFAULT_255_1_388
10
22.2549403
20
116.5385399
40
0.5720313
50
89.660664
51
101.3702276
0
ARC
8
DEFAULT_255_1_388
10
22.2624012
20
116.5454263
40
0.5651495
50
78.2172678
51
90.412935
0
ARC
8
DEFAULT_255_1_388
10
22.3023478
20
116.7281511
40
0.378122
50
55.9269121
51
78.4888449
0
ARC
8
DEFAULT_255_1_388
10
22.3244193
20
116.7662187
40
0.3342379
50
47.929771
51
55.4049217
0
ARC
8
DEFAULT_255_1_388
10
22.3358723
20
116.7778618
40
0.3179217
50
4.334829
51
48.0560205
0
ARC
8
DEFAULT_255_1_388
10
22.2126525
20
116.7587487
40
0.442341
50
359.9251713
51
5.5971671
0
ARC
8
DEFAULT_255_1_388
10
22.260868
20
116.7650728
40
0.3941854
50
337.8914027
51
358.9967534
0
ARC
8
DEFAULT_255_1_388
10
21.955625
20
116.8828295
40
0.7213271
50
326.9132501
51
338.3508308
0
ARC
8
DEFAULT_255_1_388
10
21.5072362
20
117.1702105
40
1.2538973
50
319.6471833
51
327.0959558
0
ARC
8
DEFAULT_255_1_388
10
21.075902
20
117.526005
40
1.8129975
50
317.2588228
51
319.9045804
0
LINE
8
DEFAULT_255_1_388
10
23.5983143
20
117.0924898
11
23.5983143
21
116.218743
0
LINE
8
DEFAULT_255_1_388
10
23.5983143
20
116.218743
11
23.7808343
21
116.218743
0
LINE
8
DEFAULT_255_1_388
10
23.7808343
20
116.218743
11
23.7808343
21
116.0823048
0
LINE
8
DEFAULT_255_1_388
10
23.7808343
20
116.0823048
11
23.5983143
21
116.0823048
0
LINE
8
DEFAULT_255_1_388
10
23.5983143
20
116.0823048
11
23.5983143
21
115.7769
0
LINE
8
DEFAULT_255_1_388
10
23.5983143
20
115.7769
11
23.4302513
21
115.7769
0
LINE
8
DEFAULT_255_1_388
10
23.4302513
20
115.7769
11
23.4302513
21
116.0823048
0
LINE
8
DEFAULT_255_1_388
10
23.4302513
20
116.0823048
11
22.831188
21
116.0823048
0
LINE
8
DEFAULT_255_1_388
10
22.831188
20
116.0823048
11
22.831188
21
116.1807933
0
LINE
8
DEFAULT_255_1_388
10
22.831188
20
116.1807933
11
23.4203121
21
117.0924898
0
LINE
8
DEFAULT_255_1_388
10
23.4203121
20
117.0924898
11
23.5983143
21
117.0924898
0
LINE
8
DEFAULT_255_1_388
10
23.4103729
20
116.8277455
11
23.0209366
21
116.218743
0
LINE
8
DEFAULT_255_1_388
10
23.0209366
20
116.218743
11
23.4302513
21
116.218743
0
LINE
8
DEFAULT_255_1_388
10
23.4302513
20
116.218743
11
23.4302513
21
116.863888
0
LINE
8
DEFAULT_255_1_388
10
23.4302513
20
116.863888
11
23.4103729
21
116.8277455
0
LINE
8
DEFAULT_255_1_388
10
24.2967696
20
116.4039737
11
24.2967696
21
116.2675355
0
LINE
8
DEFAULT_255_1_388
10
24.2967696
20
116.2675355
11
23.8558301
21
116.2675355
0
LINE
8
DEFAULT_255_1_388
10
23.8558301
20
116.2675355
11
23.8558301
21
116.4039737
0
LINE
8
DEFAULT_255_1_388
10
23.8558301
20
116.4039737
11
24.2967696
21
116.4039737
0
LINE
8
DEFAULT_255_1_388
10
22.2728661
20
37.1012589
11
22.2728661
21
37.0172274
0
LINE
8
DEFAULT_255_1_388
10
22.0424571
20
36.4732816
11
22.2773839
21
36.2889544
0
LINE
8
DEFAULT_255_1_388
10
22.2773839
20
36.2889544
11
22.1590169
21
36.1796231
0
LINE
8
DEFAULT_255_1_388
10
22.1590169
20
36.1796231
11
21.8816227
21
36.4000929
0
LINE
8
DEFAULT_255_1_388
10
21.2138885
20
37.0054811
11
21.2138885
21
37.1003553
0
LINE
8
DEFAULT_255_1_388
10
22.0993817
20
37.0045775
11
22.0993817
21
37.1021625
0
LINE
8
DEFAULT_255_1_388
10
21.3873729
20
37.1139088
11
21.3873729
21
37.0172274
0
ARC
8
DEFAULT_255_1_388
10
21.265554
20
37.0128529
40
1.0073215
50
351.4530536
51
0.2488167
0
ARC
8
DEFAULT_255_1_388
10
21.5563709
20
36.9678749
40
0.7130509
50
338.6860608
51
351.554089
0
ARC
8
DEFAULT_255_1_388
10
21.6616166
20
36.9306573
40
0.6014866
50
336.2886209
51
338.3448103
0
ARC
8
DEFAULT_255_1_388
10
21.699641
20
36.9097952
40
0.5582958
50
321.1168943
51
336.6796496
0
ARC
8
DEFAULT_255_1_388
10
21.7707183
20
36.8550644
40
0.4686152
50
305.4418419
51
320.8706891
0
ARC
8
DEFAULT_255_1_388
10
21.7486048
20
36.9391492
40
0.5552257
50
271.6372169
51
283.8614231
0
ARC
8
DEFAULT_255_1_388
10
21.7443501
20
37.0132271
40
0.6293984
50
269.993693
51
271.8317035
0
ARC
8
DEFAULT_255_1_388
10
21.7401326
20
36.922068
40
0.5382553
50
252.5221437
51
270.441579
0
ARC
8
DEFAULT_255_1_388
10
21.7239576
20
36.8614046
40
0.4755426
50
237.5349961
51
252.1858334
0
ARC
8
DEFAULT_255_1_388
10
21.7339952
20
36.874212
40
0.4917393
50
209.0632754
51
237.3492577
0
ARC
8
DEFAULT_255_1_388
10
21.8319278
20
36.9357104
40
0.6072464
50
205.118533
51
209.6465345
0
ARC
8
DEFAULT_255_1_388
10
21.921528
20
36.9737174
40
0.7045164
50
188.7216633
51
204.8239753
0
ARC
8
DEFAULT_255_1_388
10
22.1462056
20
37.0115387
40
0.9323368
50
180.3722704
51
188.9253909
0
ARC
8
DEFAULT_255_1_388
10
22.1431617
20
37.1048416
40
0.929284
50
169.5253055
51
180.2766048
0
ARC
8
DEFAULT_255_1_388
10
21.9291416
20
37.1442024
40
0.7116745
50
155.8314601
51
169.5088611
0
ARC
8
DEFAULT_255_1_388
10
21.7850879
20
37.2110312
40
0.5528904
50
139.6259579
51
156.0379072
0
ARC
8
DEFAULT_255_1_388
10
21.7187413
20
37.2644143
40
0.4677708
50
122.6414784
51
139.3431662
0
ARC
8
DEFAULT_255_1_388
10
21.7300668
20
37.2437787
40
0.4912586
50
93.0224537
51
122.4556091
0
ARC
8
DEFAULT_255_1_388
10
21.7422189
20
37.1351776
40
0.6003837
50
89.9756766
51
93.6340839
0
ARC
8
DEFAULT_255_1_388
10
21.7465886
20
37.1779547
40
0.5576216
50
73.9666049
51
90.4228101
0
ARC
8
DEFAULT_255_1_388
10
21.7672535
20
37.2584139
40
0.4745905
50
57.5177173
51
73.6814962
0
ARC
8
DEFAULT_255_1_388
10
21.7622759
20
37.2543592
40
0.4806881
50
28.7260666
51
57.2767723
0
ARC
8
DEFAULT_255_1_388
10
21.6598166
20
37.1910397
40
0.6010032
50
24.2451459
51
29.3250018
0
ARC
8
DEFAULT_255_1_388
10
21.5556631
20
37.1479744
40
0.713663
50
9.0643887
51
23.9639114
0
ARC
8
DEFAULT_255_1_388
10
21.3019068
20
37.1053505
40
0.9709678
50
359.7585581
51
9.1891216
0
ARC
8
DEFAULT_255_1_388
10
21.1607656
20
37.1068562
40
0.9386278
50
359.7134836
51
7.9655743
0
ARC
8
DEFAULT_255_1_388
10
21.4940355
20
37.1549391
40
0.6019121
50
7.8289718
51
20.0423308
0
ARC
8
DEFAULT_255_1_388
10
21.6767823
20
37.2214145
40
0.4074504
50
20.0676743
51
35.9162425
0
ARC
8
DEFAULT_255_1_388
10
21.7639702
20
37.2862196
40
0.2988273
50
35.659429
51
85.1578517
0
ARC
8
DEFAULT_255_1_388
10
21.7431864
20
37.1607214
40
0.4257521
50
83.7963246
51
90.0959039
0
ARC
8
DEFAULT_255_1_388
10
21.7383408
20
37.2432384
40
0.3432594
50
89.3101324
51
109.9889786
0
ARC
8
DEFAULT_255_1_388
10
21.7290598
20
37.2832665
40
0.3025108
50
110.9286914
51
143.9411475
0
ARC
8
DEFAULT_255_1_388
10
21.83379
20
37.2031455
40
0.434348
50
143.5289166
51
163.2980252
0
ARC
8
DEFAULT_255_1_388
10
22.0484187
20
37.1356685
40
0.659321
50
163.0418884
51
174.3139873
0
ARC
8
DEFAULT_255_1_388
10
22.3189152
20
37.1044378
40
0.9315905
50
174.050934
51
179.4174954
0
ARC
8
DEFAULT_255_1_388
10
22.2610866
20
37.0123922
40
0.8737271
50
179.6829249
51
188.9631837
0
ARC
8
DEFAULT_255_1_388
10
21.9606597
20
36.9634648
40
0.569348
50
188.8098723
51
202.9300437
0
ARC
8
DEFAULT_255_1_388
10
21.8238329
20
36.9077968
40
0.4216493
50
203.2071737
51
215.7877161
0
ARC
8
DEFAULT_255_1_388
10
21.7283612
20
36.832285
40
0.3000949
50
214.7520738
51
264.283405
0
ARC
8
DEFAULT_255_1_388
10
21.7436203
20
36.9284645
40
0.3973553
50
263.4754673
51
270.0952411
0
ARC
8
DEFAULT_255_1_388
10
21.7483596
20
36.8990808
40
0.3679937
50
269.3649295
51
287.5149684
0
ARC
8
DEFAULT_255_1_388
10
21.7684037
20
36.8262714
40
0.2925408
50
288.0629019
51
323.8115617
0
ARC
8
DEFAULT_255_1_388
10
21.6704013
20
36.8993754
40
0.4148018
50
323.6546541
51
342.6591359
0
ARC
8
DEFAULT_255_1_388
10
21.4418671
20
36.973728
40
0.6551163
50
342.4092446
51
353.6451501
0
ARC
8
DEFAULT_255_1_388
10
21.1233465
20
37.0133565
40
0.9760748
50
353.4027553
51
359.4846611
0
LINE
8
DEFAULT_255_1_388
10
23.3219044
20
37.179869
11
23.3219044
21
36.9630135
0
LINE
8
DEFAULT_255_1_388
10
22.4915287
20
36.9404244
11
22.4915287
21
37.1636048
0
LINE
8
DEFAULT_255_1_388
10
23.154745
20
36.9178353
11
23.154745
21
37.1916153
0
LINE
8
DEFAULT_255_1_388
10
22.6586881
20
37.2042652
11
22.6586881
21
36.9368102
0
ARC
8
DEFAULT_255_1_388
10
21.9441378
20
36.9575118
40
1.3777776
50
353.8440855
51
0.2287917
0
ARC
8
DEFAULT_255_1_388
10
22.4660395
20
36.8992414
40
0.852639
50
344.4934746
51
353.9763743
0
ARC
8
DEFAULT_255_1_388
10
22.8027202
20
36.8035191
40
0.5026273
50
329.2803599
51
344.7473406
0
ARC
8
DEFAULT_255_1_388
10
22.9142698
20
36.7423038
40
0.3754848
50
324.9361395
51
328.6153007
0
ARC
8
DEFAULT_255_1_388
10
22.9568348
20
36.7125586
40
0.3235566
50
280.5801797
51
324.9173226
0
ARC
8
DEFAULT_255_1_388
10
22.9116977
20
36.9005236
40
0.5167077
50
269.5979457
51
281.6732777
0
ARC
8
DEFAULT_255_1_388
10
22.903588
20
36.8870113
40
0.5032026
50
256.6228565
51
270.5105488
0
ARC
8
DEFAULT_255_1_388
10
22.8583623
20
36.7128345
40
0.3233092
50
215.8618351
51
257.2787793
0
ARC
8
DEFAULT_255_1_388
10
22.973233
20
36.7899106
40
0.4615831
50
197.9695203
51
215.2622745
0
ARC
8
DEFAULT_255_1_388
10
23.2528006
20
36.8842641
40
0.7566307
50
187.8816486
51
198.2346584
0
ARC
8
DEFAULT_255_1_388
10
23.6981244
20
36.9485453
40
1.2065653
50
180.8977266
51
188.0054894
0
ARC
8
DEFAULT_255_1_388
10
24.0031458
20
36.96004
40
1.5117443
50
180.7434591
51
181.152202
0
ARC
8
DEFAULT_255_1_388
10
23.8356453
20
37.1690371
40
1.3441277
50
173.7674302
51
180.2315596
0
ARC
8
DEFAULT_255_1_388
10
23.3274322
20
37.2264779
40
0.8326847
50
164.3058537
51
173.9000553
0
ARC
8
DEFAULT_255_1_388
10
22.9998322
20
37.3208652
40
0.4917711
50
148.7922028
51
164.5682288
0
ARC
8
DEFAULT_255_1_388
10
22.892906
20
37.3805457
40
0.3694204
50
144.5883979
51
148.1161588
0
ARC
8
DEFAULT_255_1_388
10
22.8541805
20
37.4075667
40
0.322202
50
101.6440149
51
144.5142619
0
ARC
8
DEFAULT_255_1_388
10
22.9019997
20
37.2175337
40
0.5180451
50
89.528284
51
102.5820197
0
ARC
8
DEFAULT_255_1_388
10
22.9108989
20
37.2131376
40
0.5224441
50
77.0437914
51
90.508231
0
ARC
8
DEFAULT_255_1_388
10
22.9561243
20
37.3979272
40
0.3322297
50
48.2777708
51
77.4996087
0
ARC
8
DEFAULT_255_1_388
10
22.9642983
20
37.4124557
40
0.315966
50
36.3141586
51
47.6307332
0
ARC
8
DEFAULT_255_1_388
10
22.8665705
20
37.3466159
40
0.4337313
50
18.2931065
51
35.6770203
0
ARC
8
DEFAULT_255_1_388
10
22.5804546
20
37.2484107
40
0.7362203
50
8.0246996
51
18.5605636
0
ARC
8
DEFAULT_255_1_388
10
22.1120901
20
37.1792432
40
1.2096583
50
1.127539
51
8.1718423
0
ARC
8
DEFAULT_255_1_388
10
21.7472035
20
37.1649374
40
1.5747719
50
0.5432713
51
1.38669
0
ARC
8
DEFAULT_255_1_388
10
21.9529414
20
37.1956163
40
1.2018103
50
359.8092569
51
4.9408001
0
ARC
8
DEFAULT_255_1_388
10
22.4265995
20
37.23789
40
0.7262727
50
4.8364937
51
12.2906017
0
ARC
8
DEFAULT_255_1_388
10
22.736546
20
37.3069485
40
0.4087324
50
12.0806994
51
23.8171225
0
ARC
8
DEFAULT_255_1_388
10
22.8685856
20
37.3628508
40
0.2653719
50
24.2874621
51
31.3934353
0
ARC
8
DEFAULT_255_1_388
10
22.9276291
20
37.4014822
40
0.1948607
50
30.7407708
51
82.4658033
0
ARC
8
DEFAULT_255_1_388
10
22.9073952
20
37.3021017
40
0.2961198
50
81.1057101
51
90.2187368
0
ARC
8
DEFAULT_255_1_388
10
22.9033764
20
37.3311421
40
0.2670929
50
89.380395
51
105.6763916
0
ARC
8
DEFAULT_255_1_388
10
22.8827486
20
37.406132
40
0.1893189
50
105.7980655
51
149.7387869
0
ARC
8
DEFAULT_255_1_388
10
23.0024626
20
37.3341719
40
0.3289892
50
149.4208441
51
163.628295
0
ARC
8
DEFAULT_255_1_388
10
23.2376856
20
37.2624345
40
0.5749004
50
163.3764549
51
172.141138
0
ARC
8
DEFAULT_255_1_388
10
23.6089577
20
37.2092582
40
0.9499585
50
172.0258462
51
178.0705453
0
ARC
8
DEFAULT_255_1_388
10
23.951113
20
37.1930682
40
1.2924734
50
177.8639301
51
179.5036263
0
ARC
8
DEFAULT_255_1_388
10
23.8292149
20
36.9327151
40
1.170534
50
179.7995545
51
185.246089
0
ARC
8
DEFAULT_255_1_388
10
23.3743742
20
36.8896404
40
0.7136613
50
185.1411911
51
193.0082205
0
ARC
8
DEFAULT_255_1_388
10
23.0770003
20
36.8193441
40
0.4080987
50
192.7897338
51
205.2507384
0
ARC
8
DEFAULT_255_1_388
10
22.9592213
20
36.7667538
40
0.2791522
50
205.8001921
51
211.2545876
0
ARC
8
DEFAULT_255_1_388
10
22.9003752
20
36.7273132
40
0.2084074
50
210.3789935
51
238.4007996
0
ARC
8
DEFAULT_255_1_388
10
22.8981838
20
36.7325786
40
0.2117943
50
239.6521916
51
265.9793852
0
ARC
8
DEFAULT_255_1_388
10
22.9077687
20
36.8082358
40
0.2879689
50
265.1324455
51
270.0603288
0
ARC
8
DEFAULT_255_1_388
10
22.9110064
20
36.7717418
40
0.2514919
50
269.3314378
51
287.2180039
0
ARC
8
DEFAULT_255_1_388
10
22.9265146
20
36.7151291
40
0.1928357
50
287.7957942
51
329.0808983
0
ARC
8
DEFAULT_255_1_388
10
22.8187903
20
36.7823651
40
0.319808
50
328.6635261
51
343.3325043
0
ARC
8
DEFAULT_255_1_388
10
22.5743362
20
36.8585195
40
0.5758408
50
343.0498092
51
351.9392499
0
ARC
8
DEFAULT_255_1_388
10
22.1842683
20
36.9160205
40
0.9701202
50
351.8071632
51
357.7957897
0
ARC
8
DEFAULT_255_1_388
10
21.820816
20
36.9348724
40
1.3340376
50
357.5870923
51
359.2682493
0
LINE
8
DEFAULT_255_1_388
10
24.3447394
20
37.1916153
11
24.3447394
21
37.1428229
0
LINE
8
DEFAULT_255_1_388
10
23.7348333
20
36.4009964
11
23.702305
21
36.4009964
0
LINE
8
DEFAULT_255_1_388
10
23.702305
20
36.4009964
11
23.702305
21
36.5419525
0
LINE
8
DEFAULT_255_1_388
10
23.702305
20
36.5419525
11
23.737544
21
36.5419525
0
LINE
8
DEFAULT_255_1_388
10
24.1775799
20
37.159087
11
24.1775799
21
37.2259508
0
ARC
8
DEFAULT_255_1_388
10
23.8632891
20
37.2429877
40
0.4089973
50
297.4036461
51
320.0168133
0
ARC
8
DEFAULT_255_1_388
10
23.8959071
20
37.1803072
40
0.3383378
50
270.2631886
51
297.3852322
0
ARC
8
DEFAULT_255_1_388
10
23.8920747
20
37.2340343
40
0.3920983
50
269.9969069
51
270.7871389
0
ARC
8
DEFAULT_255_1_388
10
23.8892071
20
37.2322737
40
0.3903482
50
254.5997295
51
270.4178147
0
ARC
8
DEFAULT_255_1_388
10
23.8731603
20
37.1687693
40
0.3248657
50
236.4717231
51
254.3539376
0
ARC
8
DEFAULT_255_1_388
10
23.8907334
20
37.1923999
40
0.3542746
50
208.4727261
51
236.2134628
0
ARC
8
DEFAULT_255_1_388
10
23.9626097
20
37.2363676
40
0.4384402
50
204.3450776
51
209.0455365
0
ARC
8
DEFAULT_255_1_388
10
24.0390473
20
37.26878
40
0.5214459
50
183.9375459
51
204.1275509
0
ARC
8
DEFAULT_255_1_388
10
24.1412779
20
37.2797863
40
0.6242037
50
179.9652726
51
184.3010611
0
ARC
8
DEFAULT_255_1_388
10
24.1142325
20
37.2835004
40
0.5971675
50
166.7585952
51
180.3200491
0
ARC
8
DEFAULT_255_1_388
10
24.0190133
20
37.3041979
40
0.4997418
50
154.6954866
51
166.5679151
0
ARC
8
DEFAULT_255_1_388
10
23.9230373
20
37.3525411
40
0.3923208
50
136.3325251
51
155.0871367
0
ARC
8
DEFAULT_255_1_388
10
23.8914293
20
37.3796271
40
0.3507618
50
121.2365985
51
135.9680081
0
ARC
8
DEFAULT_255_1_388
10
23.9072357
20
37.3503541
40
0.3839917
50
96.8454764
51
120.9881329
0
ARC
8
DEFAULT_255_1_388
10
23.9236163
20
37.2450942
40
0.4904679
50
89.887204
51
97.2797758
0
ARC
8
DEFAULT_255_1_388
10
23.9295136
20
37.3168652
40
0.418725
50
70.6505767
51
90.6748382
0
ARC
8
DEFAULT_255_1_388
10
23.9442833
20
37.3746091
40
0.3593866
50
36.7493297
51
69.8220487
0
ARC
8
DEFAULT_255_1_388
10
23.831918
20
37.2870446
40
0.5018201
50
15.3958155
51
37.0841102
0
ARC
8
DEFAULT_255_1_388
10
23.5923465
20
37.2172111
40
0.7513436
50
3.9487796
51
15.6798517
0
ARC
8
DEFAULT_255_1_388
10
23.3222107
20
37.192881
40
1.0225293
50
359.9290791
51
4.266464
0
ARC
8
DEFAULT_255_1_388
10
22.8041024
20
37.1353372
40
1.5406551
50
352.8365702
51
0.2783851
0
ARC
8
DEFAULT_255_1_388
10
23.3989255
20
37.0580664
40
0.9408425
50
341.8359339
51
352.9884057
0
ARC
8
DEFAULT_255_1_388
10
23.7610242
20
36.9360144
40
0.5587481
50
322.8579243
51
342.1527461
0
ARC
8
DEFAULT_255_1_388
10
23.8581934
20
36.869735
40
0.4413099
50
319.3348471
51
322.100194
0
ARC
8
DEFAULT_255_1_388
10
23.8233865
20
36.9046814
40
0.4904992
50
285.954114
51
318.8878716
0
ARC
8
DEFAULT_255_1_388
10
23.7416303
20
37.1645865
40
0.7628991
50
272.9280841
51
286.4924389
0
ARC
8
DEFAULT_255_1_388
10
23.7202607
20
37.418024
40
1.017132
50
270.8209173
51
273.4010121
0
ARC
8
DEFAULT_255_1_388
10
23.730263
20
37.2132073
40
0.6712943
50
270.6214576
51
281.4062333
0
ARC
8
DEFAULT_255_1_388
10
23.7786354
20
36.981925
40
0.4350167
50
281.1852583
51
299.0622058
0
ARC
8
DEFAULT_255_1_388
10
23.82066
20
36.9008138
40
0.3437146
50
299.5068171
51
313.1200142
0
ARC
8
DEFAULT_255_1_388
10
23.8231337
20
36.8918959
40
0.3355418
50
313.8525725
51
338.5989631
0
ARC
8
DEFAULT_255_1_388
10
23.6404465
20
36.9669576
40
0.5330317
50
338.2523315
51
351.2431701
0
ARC
8
DEFAULT_255_1_388
10
23.3692216
20
37.0130494
40
0.8081235
50
350.940933
51
357.6690137
0
ARC
8
DEFAULT_255_1_388
10
23.9194096
20
37.2383048
40
0.2581236
50
269.9447107
51
306.8249644
0
ARC
8
DEFAULT_255_1_388
10
23.8927398
20
37.285906
40
0.3122948
50
305.5071046
51
327.0773808
0
ARC
8
DEFAULT_255_1_388
10
23.9060449
20
37.2752445
40
0.2953369
50
327.4106457
51
336.8396801
0
ARC
8
DEFAULT_255_1_388
10
23.5580163
20
37.2295932
40
0.6195743
50
359.663158
51
10.1176387
0
ARC
8
DEFAULT_255_1_388
10
23.7552926
20
37.2660922
40
0.4189561
50
9.9431549
51
26.7699242
0
ARC
8
DEFAULT_255_1_388
10
23.8224912
20
37.2970796
40
0.3450125
50
27.2018067
51
34.6833639
0
ARC
8
DEFAULT_255_1_388
10
23.8775525
20
37.338456
40
0.2762035
50
34.124913
51
50.30709
0
ARC
8
DEFAULT_255_1_388
10
23.9278008
20
37.3985741
40
0.1978518
50
50.3850304
51
90.6705051
0
ARC
8
DEFAULT_255_1_388
10
23.9225401
20
37.3643074
40
0.2321235
50
89.2729817
51
111.9140267
0
ARC
8
DEFAULT_255_1_388
10
23.9203489
20
37.3801308
40
0.2166604
50
112.9381864
51
142.5320936
0
ARC
8
DEFAULT_255_1_388
10
23.9817978
20
37.3302392
40
0.2957902
50
142.1024021
51
166.3835244
0
ARC
8
DEFAULT_255_1_388
10
24.1146948
20
37.2959213
40
0.4330361
50
166.1100968
51
178.6653563
0
ARC
8
DEFAULT_255_1_388
10
24.2328874
20
37.2893061
40
0.5513642
50
178.2641888
51
180.010994
0
ARC
8
DEFAULT_255_1_388
10
24.1423375
20
37.2861136
40
0.4608248
50
179.6162225
51
191.8786013
0
ARC
8
DEFAULT_255_1_388
10
24.0050685
20
37.255759
40
0.3202502
50
191.6192934
51
215.2970746
0
ARC
8
DEFAULT_255_1_388
10
23.981134
20
37.2414963
40
0.2924827
50
215.7258926
51
216.5355437
0
ARC
8
DEFAULT_255_1_388
10
23.922296
20
37.1941919
40
0.2170661
50
215.7486606
51
239.9728403
0
ARC
8
DEFAULT_255_1_388
10
23.9144126
20
37.1884838
40
0.208217
50
241.065081
51
269.280972
0
ARC
8
DEFAULT_255_1_388
10
23.9191284
20
37.2440327
40
0.2638514
50
268.4083352
51
270.0069622
0
LINE
8
DEFAULT_255_1_388
10
22.2728661
20
45.0387589
11
22.2728661
21
44.9547274
0
LINE
8
DEFAULT_255_1_388
10
22.0424571
20
44.4107816
11
22.2773839
21
44.2264544
0
LINE
8
DEFAULT_255_1_388
10
22.2773839
20
44.2264544
11
22.1590169
21
44.1171231
0
LINE
8
DEFAULT_255_1_388
10
22.1590169
20
44.1171231
11
21.8816227
21
44.3375929
0
LINE
8
DEFAULT_255_1_388
10
21.2138885
20
44.9429811
11
21.2138885
21
45.0378553
0
LINE
8
DEFAULT_255_1_388
10
22.0993817
20
44.9420775
11
22.0993817
21
45.0396625
0
LINE
8
DEFAULT_255_1_388
10
21.3873729
20
45.0514088
11
21.3873729
21
44.9547274
0
ARC
8
DEFAULT_255_1_388
10
21.265554
20
44.9503529
40
1.0073215
50
351.4530536
51
0.2488167
0
ARC
8
DEFAULT_255_1_388
10
21.5563709
20
44.9053749
40
0.7130509
50
338.6860608
51
351.554089
0
ARC
8
DEFAULT_255_1_388
10
21.6616166
20
44.8681573
40
0.6014866
50
336.2886209
51
338.3448103
0
ARC
8
DEFAULT_255_1_388
10
21.699641
20
44.8472952
40
0.5582958
50
321.1168943
51
336.6796496
0
ARC
8
DEFAULT_255_1_388
10
21.7707183
20
44.7925644
40
0.4686152
50
305.4418419
51
320.8706891
0
ARC
8
DEFAULT_255_1_388
10
21.7486048
20
44.8766492
40
0.5552257
50
271.6372169
51
283.8614231
0
ARC
8
DEFAULT_255_1_388
10
21.7443501
20
44.9507271
40
0.6293984
50
269.993693
51
271.8317035
0
ARC
8
DEFAULT_255_1_388
10
21.7401326
20
44.859568
40
0.5382553
50
252.5221437
51
270.441579
0
ARC
8
DEFAULT_255_1_388
10
21.7239576
20
44.7989046
40
0.4755426
50
237.5349961
51
252.1858334
0
ARC
8
DEFAULT_255_1_388
10
21.7339952
20
44.811712
40
0.4917393
50
209.0632754
51
237.3492577
0
ARC
8
DEFAULT_255_1_388
10
21.8319278
20
44.8732104
40
0.6072464
50
205.118533
51
209.6465345
0
ARC
8
DEFAULT_255_1_388
10
21.921528
20
44.9112174
40
0.7045164
50
188.7216633
51
204.8239753
0
ARC
8
DEFAULT_255_1_388
10
22.1462056
20
44.9490387
40
0.9323368
50
180.3722704
51
188.9253909
0
ARC
8
DEFAULT_255_1_388
10
22.1431617
20
45.0423416
40
0.929284
50
169.5253055
51
180.2766048
0
ARC
8
DEFAULT_255_1_388
10
21.9291416
20
45.0817024
40
0.7116745
50
155.8314601
51
169.5088611
0
ARC
8
DEFAULT_255_1_388
10
21.7850879
20
45.1485312
40
0.5528904
50
139.6259579
51
156.0379072
0
ARC
8
DEFAULT_255_1_388
10
21.7187413
20
45.2019143
40
0.4677708
50
122.6414784
51
139.3431662
0
ARC
8
DEFAULT_255_1_388
10
21.7300668
20
45.1812787
40
0.4912586
50
93.0224537
51
122.4556091
0
ARC
8
DEFAULT_255_1_388
10
21.7422189
20
45.0726776
40
0.6003837
50
89.9756766
51
93.6340839
0
ARC
8
DEFAULT_255_1_388
10
21.7465886
20
45.1154547
40
0.5576216
50
73.9666049
51
90.4228101
0
ARC
8
DEFAULT_255_1_388
10
21.7672535
20
45.1959139
40
0.4745905
50
57.5177173
51
73.6814962
0
ARC
8
DEFAULT_255_1_388
10
21.7622759
20
45.1918592
40
0.4806881
50
28.7260666
51
57.2767723
0
ARC
8
DEFAULT_255_1_388
10
21.6598166
20
45.1285397
40
0.6010032
50
24.2451459
51
29.3250018
0
ARC
8
DEFAULT_255_1_388
10
21.5556631
20
45.0854744
40
0.713663
50
9.0643887
51
23.9639114
0
ARC
8
DEFAULT_255_1_388
10
21.3019068
20
45.0428505
40
0.9709678
50
359.7585581
51
9.1891216
0
ARC
8
DEFAULT_255_1_388
10
21.1607656
20
45.0443562
40
0.9386278
50
359.7134836
51
7.9655743
0
ARC
8
DEFAULT_255_1_388
10
21.4940355
20
45.0924391
40
0.6019121
50
7.8289718
51
20.0423308
0
ARC
8
DEFAULT_255_1_388
10
21.6767823
20
45.1589145
40
0.4074504
50
20.0676743
51
35.9162425
0
ARC
8
DEFAULT_255_1_388
10
21.7639702
20
45.2237196
40
0.2988273
50
35.659429
51
85.1578517
0
ARC
8
DEFAULT_255_1_388
10
21.7431864
20
45.0982214
40
0.4257521
50
83.7963246
51
90.0959039
0
ARC
8
DEFAULT_255_1_388
10
21.7383408
20
45.1807384
40
0.3432594
50
89.3101324
51
109.9889786
0
ARC
8
DEFAULT_255_1_388
10
21.7290598
20
45.2207665
40
0.3025108
50
110.9286914
51
143.9411475
0
ARC
8
DEFAULT_255_1_388
10
21.83379
20
45.1406455
40
0.434348
50
143.5289166
51
163.2980252
0
ARC
8
DEFAULT_255_1_388
10
22.0484187
20
45.0731685
40
0.659321
50
163.0418884
51
174.3139873
0
ARC
8
DEFAULT_255_1_388
10
22.3189152
20
45.0419378
40
0.9315905
50
174.050934
51
179.4174954
0
ARC
8
DEFAULT_255_1_388
10
22.2610866
20
44.9498922
40
0.8737271
50
179.6829249
51
188.9631837
0
ARC
8
DEFAULT_255_1_388
10
21.9606597
20
44.9009648
40
0.569348
50
188.8098723
51
202.9300437
0
ARC
8
DEFAULT_255_1_388
10
21.8238329
20
44.8452968
40
0.4216493
50
203.2071737
51
215.7877161
0
ARC
8
DEFAULT_255_1_388
10
21.7283612
20
44.769785
40
0.3000949
50
214.7520738
51
264.283405
0
ARC
8
DEFAULT_255_1_388
10
21.7436203
20
44.8659645
40
0.3973553
50
263.4754673
51
270.0952411
0
ARC
8
DEFAULT_255_1_388
10
21.7483596
20
44.8365808
40
0.3679937
50
269.3649295
51
287.5149684
0
ARC
8
DEFAULT_255_1_388
10
21.7684037
20
44.7637714
40
0.2925408
50
288.0629019
51
323.8115617
0
ARC
8
DEFAULT_255_1_388
10
21.6704013
20
44.8368754
40
0.4148018
50
323.6546541
51
342.6591359
0
ARC
8
DEFAULT_255_1_388
10
21.4418671
20
44.911228
40
0.6551163
50
342.4092446
51
353.6451501
0
ARC
8
DEFAULT_255_1_388
10
21.1233465
20
44.9508565
40
0.9760748
50
353.4027553
51
359.4846611
0
LINE
8
DEFAULT_255_1_388
10
23.3219044
20
45.117369
11
23.3219044
21
44.9005135
0
LINE
8
DEFAULT_255_1_388
10
22.4915287
20
44.8779244
11
22.4915287
21
45.1011048
0
LINE
8
DEFAULT_255_1_388
10
23.154745
20
44.8553353
11
23.154745
21
45.1291153
0
LINE
8
DEFAULT_255_1_388
10
22.6586881
20
45.1417652
11
22.6586881
21
44.8743102
0
ARC
8
DEFAULT_255_1_388
10
21.9441378
20
44.8950118
40
1.3777776
50
353.8440855
51
0.2287917
0
ARC
8
DEFAULT_255_1_388
10
22.4660395
20
44.8367414
40
0.852639
50
344.4934746
51
353.9763743
0
ARC
8
DEFAULT_255_1_388
10
22.8027202
20
44.7410191
40
0.5026273
50
329.2803599
51
344.7473406
0
ARC
8
DEFAULT_255_1_388
10
22.9142698
20
44.6798038
40
0.3754848
50
324.9361395
51
328.6153007
0
ARC
8
DEFAULT_255_1_388
10
22.9568348
20
44.6500586
40
0.3235566
50
280.5801797
51
324.9173226
0
ARC
8
DEFAULT_255_1_388
10
22.9116977
20
44.8380236
40
0.5167077
50
269.5979457
51
281.6732777
0
ARC
8
DEFAULT_255_1_388
10
22.903588
20
44.8245113
40
0.5032026
50
256.6228565
51
270.5105488
0
ARC
8
DEFAULT_255_1_388
10
22.8583623
20
44.6503345
40
0.3233092
50
215.8618351
51
257.2787793
0
ARC
8
DEFAULT_255_1_388
10
22.973233
20
44.7274106
40
0.4615831
50
197.9695203
51
215.2622745
0
ARC
8
DEFAULT_255_1_388
10
23.2528006
20
44.8217641
40
0.7566307
50
187.8816486
51
198.2346584
0
ARC
8
DEFAULT_255_1_388
10
23.6981244
20
44.8860453
40
1.2065653
50
180.8977266
51
188.0054894
0
ARC
8
DEFAULT_255_1_388
10
24.0031458
20
44.89754
40
1.5117443
50
180.7434591
51
181.152202
0
ARC
8
DEFAULT_255_1_388
10
23.8356453
20
45.1065371
40
1.3441277
50
173.7674302
51
180.2315596
0
ARC
8
DEFAULT_255_1_388
10
23.3274322
20
45.1639779
40
0.8326847
50
164.3058537
51
173.9000553
0
ARC
8
DEFAULT_255_1_388
10
22.9998322
20
45.2583652
40
0.4917711
50
148.7922028
51
164.5682288
0
ARC
8
DEFAULT_255_1_388
10
22.892906
20
45.3180457
40
0.3694204
50
144.5883979
51
148.1161588
0
ARC
8
DEFAULT_255_1_388
10
22.8541805
20
45.3450667
40
0.322202
50
101.6440149
51
144.5142619
0
ARC
8
DEFAULT_255_1_388
10
22.9019997
20
45.1550337
40
0.5180451
50
89.528284
51
102.5820197
0
ARC
8
DEFAULT_255_1_388
10
22.9108989
20
45.1506376
40
0.5224441
50
77.0437914
51
90.508231
0
ARC
8
DEFAULT_255_1_388
10
22.9561243
20
45.3354272
40
0.3322297
50
48.2777708
51
77.4996087
0
ARC
8
DEFAULT_255_1_388
10
22.9642983
20
45.3499557
40
0.315966
50
36.3141586
51
47.6307332
0
ARC
8
DEFAULT_255_1_388
10
22.8665705
20
45.2841159
40
0.4337313
50
18.2931065
51
35.6770203
0
ARC
8
DEFAULT_255_1_388
10
22.5804546
20
45.1859107
40
0.7362203
50
8.0246996
51
18.5605636
0
ARC
8
DEFAULT_255_1_388
10
22.1120901
20
45.1167432
40
1.2096583
50
1.127539
51
8.1718423
0
ARC
8
DEFAULT_255_1_388
10
21.7472035
20
45.1024374
40
1.5747719
50
0.5432713
51
1.38669
0
ARC
8
DEFAULT_255_1_388
10
21.9529414
20
45.1331163
40
1.2018103
50
359.8092569
51
4.9408001
0
ARC
8
DEFAULT_255_1_388
10
22.4265995
20
45.17539
40
0.7262727
50
4.8364937
51
12.2906017
0
ARC
8
DEFAULT_255_1_388
10
22.736546
20
45.2444485
40
0.4087324
50
12.0806994
51
23.8171225
0
ARC
8
DEFAULT_255_1_388
10
22.8685856
20
45.3003508
40
0.2653719
50
24.2874621
51
31.3934353
0
ARC
8
DEFAULT_255_1_388
10
22.9276291
20
45.3389822
40
0.1948607
50
30.7407708
51
82.4658033
0
ARC
8
DEFAULT_255_1_388
10
22.9073952
20
45.2396017
40
0.2961198
50
81.1057101
51
90.2187368
0
ARC
8
DEFAULT_255_1_388
10
22.9033764
20
45.2686421
40
0.2670929
50
89.380395
51
105.6763916
0
ARC
8
DEFAULT_255_1_388
10
22.8827486
20
45.343632
40
0.1893189
50
105.7980655
51
149.7387869
0
ARC
8
DEFAULT_255_1_388
10
23.0024626
20
45.2716719
40
0.3289892
50
149.4208441
51
163.628295
0
ARC
8
DEFAULT_255_1_388
10
23.2376856
20
45.1999345
40
0.5749004
50
163.3764549
51
172.141138
0
ARC
8
DEFAULT_255_1_388
10
23.6089577
20
45.1467582
40
0.9499585
50
172.0258462
51
178.0705453
0
ARC
8
DEFAULT_255_1_388
10
23.951113
20
45.1305682
40
1.2924734
50
177.8639301
51
179.5036263
0
ARC
8
DEFAULT_255_1_388
10
23.8292149
20
44.8702151
40
1.170534
50
179.7995545
51
185.246089
0
ARC
8
DEFAULT_255_1_388
10
23.3743742
20
44.8271404
40
0.7136613
50
185.1411911
51
193.0082205
0
ARC
8
DEFAULT_255_1_388
10
23.0770003
20
44.7568441
40
0.4080987
50
192.7897338
51
205.2507384
0
ARC
8
DEFAULT_255_1_388
10
22.9592213
20
44.7042538
40
0.2791522
50
205.8001921
51
211.2545876
0
ARC
8
DEFAULT_255_1_388
10
22.9003752
20
44.6648132
40
0.2084074
50
210.3789935
51
238.4007996
0
ARC
8
DEFAULT_255_1_388
10
22.8981838
20
44.6700786
40
0.2117943
50
239.6521916
51
265.9793852
0
ARC
8
DEFAULT_255_1_388
10
22.9077687
20
44.7457358
40
0.2879689
50
265.1324455
51
270.0603288
0
ARC
8
DEFAULT_255_1_388
10
22.9110064
20
44.7092418
40
0.2514919
50
269.3314378
51
287.2180039
0
ARC
8
DEFAULT_255_1_388
10
22.9265146
20
44.6526291
40
0.1928357
50
287.7957942
51
329.0808983
0
ARC
8
DEFAULT_255_1_388
10
22.8187903
20
44.7198651
40
0.319808
50
328.6635261
51
343.3325043
0
ARC
8
DEFAULT_255_1_388
10
22.5743362
20
44.7960195
40
0.5758408
50
343.0498092
51
351.9392499
0
ARC
8
DEFAULT_255_1_388
10
22.1842683
20
44.8535205
40
0.9701202
50
351.8071632
51
357.7957897
0
ARC
8
DEFAULT_255_1_388
10
21.820816
20
44.8723724
40
1.3340376
50
357.5870923
51
359.2682493
0
ARC
8
DEFAULT_255_1_388
10
24.0163997
20
45.308772
40
0.3175098
50
338.8762533
51
0.5167111
0
ARC
8
DEFAULT_255_1_388
10
24.0353591
20
45.30366
40
0.2979894
50
325.8415285
51
338.4793574
0
ARC
8
DEFAULT_255_1_388
10
23.9914224
20
45.3341242
40
0.351452
50
296.7587686
51
325.7536481
0
ARC
8
DEFAULT_255_1_388
10
23.9585852
20
45.3895363
40
0.4157374
50
296.0927901
51
297.3613472
0
ARC
8
DEFAULT_255_1_388
10
23.9880048
20
44.6512593
40
0.395855
50
47.9007294
51
67.1948823
0
ARC
8
DEFAULT_255_1_388
10
24.010069
20
44.6789599
40
0.360516
50
35.2363914
51
47.551141
0
ARC
8
DEFAULT_255_1_388
10
24.0395093
20
44.6986093
40
0.3251343
50
359.2759765
51
35.4014143
0
ARC
8
DEFAULT_255_1_388
10
23.955702
20
44.6903787
40
0.4089365
50
343.1293083
51
0.5775513
0
ARC
8
DEFAULT_255_1_388
10
24.0372133
20
44.6679336
40
0.3244269
50
310.8496669
51
342.7449331
0
ARC
8
DEFAULT_255_1_388
10
23.9902008
20
44.7215913
40
0.3957651
50
281.5472888
51
310.9170406
0
ARC
8
DEFAULT_255_1_388
10
23.9500883
20
44.8962814
40
0.5749654
50
269.619248
51
281.9789564
0
ARC
8
DEFAULT_255_1_388
10
23.941966
20
44.8963776
40
0.5750649
50
257.4585678
51
270.4285689
0
ARC
8
DEFAULT_255_1_388
10
23.8991181
20
44.7159741
40
0.389671
50
228.7554326
51
257.8484789
0
ARC
8
DEFAULT_255_1_388
10
23.8642666
20
44.6740228
40
0.335154
50
184.0104975
51
228.5071184
0
ARC
8
DEFAULT_255_1_388
10
23.9951058
20
44.693943
40
0.4671891
50
179.9315832
51
185.3253753
0
ARC
8
DEFAULT_255_1_388
10
23.8627571
20
44.6981592
40
0.33486
50
145.6796023
51
180.6259786
0
ARC
8
DEFAULT_255_1_388
10
23.8811337
20
44.6853271
40
0.3572723
50
115.5537685
51
145.6415986
0
ARC
8
DEFAULT_255_1_388
10
23.9194381
20
44.6167087
40
0.4357296
50
113.243307
51
116.2057839
0
ARC
8
DEFAULT_255_1_388
10
23.9023032
20
45.3364379
40
0.3549126
50
222.9549744
51
244.1370481
0
ARC
8
DEFAULT_255_1_388
10
23.8885676
20
45.3210378
40
0.3343711
50
213.3436887
51
222.6274467
0
ARC
8
DEFAULT_255_1_388
10
23.8669745
20
45.3063653
40
0.3082678
50
180.431584
51
213.271499
0
ARC
8
DEFAULT_255_1_388
10
23.9304744
20
45.3116296
40
0.3718363
50
179.9991191
51
181.1690594
0
ARC
8
DEFAULT_255_1_388
10
23.97772
20
45.3155072
40
0.4190996
50
164.6186169
51
180.529336
0
ARC
8
DEFAULT_255_1_388
10
23.8766849
20
45.342678
40
0.3144772
50
132.2455553
51
164.5090724
0
ARC
8
DEFAULT_255_1_388
10
23.9089827
20
45.306107
40
0.3632644
50
100.7053914
51
132.1386381
0
ARC
8
DEFAULT_255_1_388
10
23.9432888
20
45.1511118
40
0.5219578
50
89.6730358
51
101.2451698
0
ARC
8
DEFAULT_255_1_388
10
23.9502879
20
45.1707648
40
0.5023124
50
76.287748
51
90.4586006
0
ARC
8
DEFAULT_255_1_388
10
23.9847381
20
45.3082671
40
0.3605639
50
47.8240511
51
76.4266241
0
ARC
8
DEFAULT_255_1_388
10
24.0097766
20
45.3375599
40
0.3220463
50
6.9168387
51
47.6262497
0
ARC
8
DEFAULT_255_1_388
10
23.8763219
20
45.3129004
40
0.4575765
50
359.8415968
51
7.9697453
0
ARC
8
DEFAULT_255_1_388
10
23.9147488
20
44.7008519
40
0.2827228
50
359.445363
51
16.9256873
0
ARC
8
DEFAULT_255_1_388
10
23.9674922
20
44.7153781
40
0.2280396
50
17.2920767
51
45.4630727
0
ARC
8
DEFAULT_255_1_388
10
23.9614058
20
44.7101324
40
0.2360485
50
45.30305
51
83.1920945
0
ARC
8
DEFAULT_255_1_388
10
23.9452803
20
44.6199473
40
0.3275527
50
82.2612665
51
90.1434275
0
ARC
8
DEFAULT_255_1_388
10
23.9418079
20
44.6461869
40
0.3013237
50
89.4956434
51
104.8580688
0
ARC
8
DEFAULT_255_1_388
10
23.9219269
20
44.7215455
40
0.2233867
50
104.8856641
51
135.244616
0
ARC
8
DEFAULT_255_1_388
10
23.9275257
20
44.7165352
40
0.2308906
50
135.3399546
51
172.1044062
0
ARC
8
DEFAULT_255_1_388
10
24.0182782
20
44.6991667
40
0.3232034
50
171.2645637
51
180.186429
0
ARC
8
DEFAULT_255_1_388
10
23.9992787
20
44.6955426
40
0.304213
50
179.5154935
51
193.6464289
0
ARC
8
DEFAULT_255_1_388
10
23.9074463
20
44.6721473
40
0.209456
50
193.3540274
51
225.8258581
0
ARC
8
DEFAULT_255_1_388
10
23.9120335
20
44.6801076
40
0.2183738
50
226.4180634
51
255.8552336
0
ARC
8
DEFAULT_255_1_388
10
23.9408801
20
44.7854521
40
0.3275812
50
255.4654104
51
268.7987425
0
ARC
8
DEFAULT_255_1_388
10
23.9461978
20
44.8796545
40
0.4218877
50
268.3449238
51
270.0094605
0
ARC
8
DEFAULT_255_1_388
10
23.9488211
20
44.8028094
40
0.3450519
50
269.5759586
51
282.0820163
0
ARC
8
DEFAULT_255_1_388
10
23.9741247
20
44.6909363
40
0.2303642
50
281.752014
51
306.6056188
0
ARC
8
DEFAULT_255_1_388
10
23.9852055
20
44.6727802
40
0.2091906
50
307.1346085
51
314.027845
0
ARC
8
DEFAULT_255_1_388
10
23.9811567
20
44.6757459
40
0.2141385
50
314.2552483
51
350.1694025
0
ARC
8
DEFAULT_255_1_388
10
23.8853804
20
44.6965175
40
0.312082
50
349.4140529
51
0.2933014
0
ARC
8
DEFAULT_255_1_388
10
23.9439081
20
45.2768924
40
0.2588377
50
89.477747
51
105.729729
0
ARC
8
DEFAULT_255_1_388
10
23.9286001
20
45.3337367
40
0.1999733
50
105.9233417
51
135.1660906
0
ARC
8
DEFAULT_255_1_388
10
23.9309032
20
45.3321412
40
0.2027322
50
135.3052302
51
168.9883645
0
ARC
8
DEFAULT_255_1_388
10
24.0240049
20
45.3107996
40
0.2982129
50
168.3801673
51
180.3602268
0
ARC
8
DEFAULT_255_1_388
10
23.9983165
20
45.3065622
40
0.2725291
50
179.5033122
51
194.9125571
0
ARC
8
DEFAULT_255_1_388
10
23.9324572
20
45.2892427
40
0.204431
50
194.9720816
51
224.194444
0
ARC
8
DEFAULT_255_1_388
10
23.9292938
20
45.2866635
40
0.2003651
50
224.2962453
51
262.015664
0
ARC
8
DEFAULT_255_1_388
10
23.9452942
20
45.3689315
40
0.2840925
50
261.1245923
51
270.1962896
0
ARC
8
DEFAULT_255_1_388
10
23.9486423
20
45.3478859
40
0.2630559
50
269.4827276
51
285.0987215
0
ARC
8
DEFAULT_255_1_388
10
23.9659859
20
45.2828175
40
0.1957162
50
285.1585357
51
315.9484501
0
ARC
8
DEFAULT_255_1_388
10
23.9559733
20
45.2920315
40
0.2093195
50
316.0413965
51
351.916092
0
ARC
8
DEFAULT_255_1_388
10
23.8735107
20
45.3079323
40
0.2932279
50
351.105835
51
0.1939062
0
ARC
8
DEFAULT_255_1_388
10
23.9030741
20
45.3113224
40
0.2636739
50
359.4789618
51
16.0678224
0
ARC
8
DEFAULT_255_1_388
10
23.9566213
20
45.3257721
40
0.2082215
50
16.3252067
51
44.7913869
0
ARC
8
DEFAULT_255_1_388
10
23.9546275
20
45.325832
40
0.2095992
50
44.3957814
51
88.2499162
0
ARC
8
DEFAULT_255_1_388
10
23.9463609
20
45.2570006
40
0.2787189
50
86.9833854
51
90.0192215
0
LINE
8
DEFAULT_255_1_388
10
22.2728661
20
52.9762589
11
22.2728661
21
52.8922274
0
LINE
8
DEFAULT_255_1_388
10
22.0424571
20
52.3482816
11
22.2773839
21
52.1639544
0
LINE
8
DEFAULT_255_1_388
10
22.2773839
20
52.1639544
11
22.1590169
21
52.0546231
0
LINE
8
DEFAULT_255_1_388
10
22.1590169
20
52.0546231
11
21.8816227
21
52.2750929
0
LINE
8
DEFAULT_255_1_388
10
21.2138885
20
52.8804811
11
21.2138885
21
52.9753553
0
LINE
8
DEFAULT_255_1_388
10
22.0993817
20
52.8795775
11
22.0993817
21
52.9771625
0
LINE
8
DEFAULT_255_1_388
10
21.3873729
20
52.9889088
11
21.3873729
21
52.8922274
0
ARC
8
DEFAULT_255_1_388
10
21.265554
20
52.8878529
40
1.0073215
50
351.4530536
51
0.2488167
0
ARC
8
DEFAULT_255_1_388
10
21.5563709
20
52.8428749
40
0.7130509
50
338.6860608
51
351.554089
0
ARC
8
DEFAULT_255_1_388
10
21.6616166
20
52.8056573
40
0.6014866
50
336.2886209
51
338.3448103
0
ARC
8
DEFAULT_255_1_388
10
21.699641
20
52.7847952
40
0.5582958
50
321.1168943
51
336.6796496
0
ARC
8
DEFAULT_255_1_388
10
21.7707183
20
52.7300644
40
0.4686152
50
305.4418419
51
320.8706891
0
ARC
8
DEFAULT_255_1_388
10
21.7486048
20
52.8141492
40
0.5552257
50
271.6372169
51
283.8614231
0
ARC
8
DEFAULT_255_1_388
10
21.7443501
20
52.8882271
40
0.6293984
50
269.993693
51
271.8317035
0
ARC
8
DEFAULT_255_1_388
10
21.7401326
20
52.797068
40
0.5382553
50
252.5221437
51
270.441579
0
ARC
8
DEFAULT_255_1_388
10
21.7239576
20
52.7364046
40
0.4755426
50
237.5349961
51
252.1858334
0
ARC
8
DEFAULT_255_1_388
10
21.7339952
20
52.749212
40
0.4917393
50
209.0632754
51
237.3492577
0
ARC
8
DEFAULT_255_1_388
10
21.8319278
20
52.8107104
40
0.6072464
50
205.118533
51
209.6465345
0
ARC
8
DEFAULT_255_1_388
10
21.921528
20
52.8487174
40
0.7045164
50
188.7216633
51
204.8239753
0
ARC
8
DEFAULT_255_1_388
10
22.1462056
20
52.8865387
40
0.9323368
50
180.3722704
51
188.9253909
0
ARC
8
DEFAULT_255_1_388
10
22.1431617
20
52.9798416
40
0.929284
50
169.5253055
51
180.2766048
0
ARC
8
DEFAULT_255_1_388
10
21.9291416
20
53.0192024
40
0.7116745
50
155.8314601
51
169.5088611
0
ARC
8
DEFAULT_255_1_388
10
21.7850879
20
53.0860312
40
0.5528904
50
139.6259579
51
156.0379072
0
ARC
8
DEFAULT_255_1_388
10
21.7187413
20
53.1394143
40
0.4677708
50
122.6414784
51
139.3431662
0
ARC
8
DEFAULT_255_1_388
10
21.7300668
20
53.1187787
40
0.4912586
50
93.0224537
51
122.4556091
0
ARC
8
DEFAULT_255_1_388
10
21.7422189
20
53.0101776
40
0.6003837
50
89.9756766
51
93.6340839
0
ARC
8
DEFAULT_255_1_388
10
21.7465886
20
53.0529547
40
0.5576216
50
73.9666049
51
90.4228101
0
ARC
8
DEFAULT_255_1_388
10
21.7672535
20
53.1334139
40
0.4745905
50
57.5177173
51
73.6814962
0
ARC
8
DEFAULT_255_1_388
10
21.7622759
20
53.1293592
40
0.4806881
50
28.7260666
51
57.2767723
0
ARC
8
DEFAULT_255_1_388
10
21.6598166
20
53.0660397
40
0.6010032
50
24.2451459
51
29.3250018
0
ARC
8
DEFAULT_255_1_388
10
21.5556631
20
53.0229744
40
0.713663
50
9.0643887
51
23.9639114
0
ARC
8
DEFAULT_255_1_388
10
21.3019068
20
52.9803505
40
0.9709678
50
359.7585581
51
9.1891216
0
ARC
8
DEFAULT_255_1_388
10
21.1607656
20
52.9818562
40
0.9386278
50
359.7134836
51
7.9655743
0
ARC
8
DEFAULT_255_1_388
10
21.4940355
20
53.0299391
40
0.6019121
50
7.8289718
51
20.0423308
0
ARC
8
DEFAULT_255_1_388
10
21.6767823
20
53.0964145
40
0.4074504
50
20.0676743
51
35.9162425
0
ARC
8
DEFAULT_255_1_388
10
21.7639702
20
53.1612196
40
0.2988273
50
35.659429
51
85.1578517
0
ARC
8
DEFAULT_255_1_388
10
21.7431864
20
53.0357214
40
0.4257521
50
83.7963246
51
90.0959039
0
ARC
8
DEFAULT_255_1_388
10
21.7383408
20
53.1182384
40
0.3432594
50
89.3101324
51
109.9889786
0
ARC
8
DEFAULT_255_1_388
10
21.7290598
20
53.1582665
40
0.3025108
50
110.9286914
51
143.9411475
0
ARC
8
DEFAULT_255_1_388
10
21.83379
20
53.0781455
40
0.434348
50
143.5289166
51
163.2980252
0
ARC
8
DEFAULT_255_1_388
10
22.0484187
20
53.0106685
40
0.659321
50
163.0418884
51
174.3139873
0
ARC
8
DEFAULT_255_1_388
10
22.3189152
20
52.9794378
40
0.9315905
50
174.050934
51
179.4174954
0
ARC
8
DEFAULT_255_1_388
10
22.2610866
20
52.8873922
40
0.8737271
50
179.6829249
51
188.9631837
0
ARC
8
DEFAULT_255_1_388
10
21.9606597
20
52.8384648
40
0.569348
50
188.8098723
51
202.9300437
0
ARC
8
DEFAULT_255_1_388
10
21.8238329
20
52.7827968
40
0.4216493
50
203.2071737
51
215.7877161
0
ARC
8
DEFAULT_255_1_388
10
21.7283612
20
52.707285
40
0.3000949
50
214.7520738
51
264.283405
0
ARC
8
DEFAULT_255_1_388
10
21.7436203
20
52.8034645
40
0.3973553
50
263.4754673
51
270.0952411
0
ARC
8
DEFAULT_255_1_388
10
21.7483596
20
52.7740808
40
0.3679937
50
269.3649295
51
287.5149684
0
ARC
8
DEFAULT_255_1_388
10
21.7684037
20
52.7012714
40
0.2925408
50
288.0629019
51
323.8115617
0
ARC
8
DEFAULT_255_1_388
10
21.6704013
20
52.7743754
40
0.4148018
50
323.6546541
51
342.6591359
0
ARC
8
DEFAULT_255_1_388
10
21.4418671
20
52.848728
40
0.6551163
50
342.4092446
51
353.6451501
0
ARC
8
DEFAULT_255_1_388
10
21.1233465
20
52.8883565
40
0.9760748
50
353.4027553
51
359.4846611
0
LINE
8
DEFAULT_255_1_388
10
23.3219044
20
53.054869
11
23.3219044
21
52.8380135
0
LINE
8
DEFAULT_255_1_388
10
22.4915287
20
52.8154244
11
22.4915287
21
53.0386048
0
LINE
8
DEFAULT_255_1_388
10
23.154745
20
52.7928353
11
23.154745
21
53.0666153
0
LINE
8
DEFAULT_255_1_388
10
22.6586881
20
53.0792652
11
22.6586881
21
52.8118102
0
ARC
8
DEFAULT_255_1_388
10
21.9441378
20
52.8325118
40
1.3777776
50
353.8440855
51
0.2287917
0
ARC
8
DEFAULT_255_1_388
10
22.4660395
20
52.7742414
40
0.852639
50
344.4934746
51
353.9763743
0
ARC
8
DEFAULT_255_1_388
10
22.8027202
20
52.6785191
40
0.5026273
50
329.2803599
51
344.7473406
0
ARC
8
DEFAULT_255_1_388
10
22.9142698
20
52.6173038
40
0.3754848
50
324.9361395
51
328.6153007
0
ARC
8
DEFAULT_255_1_388
10
22.9568348
20
52.5875586
40
0.3235566
50
280.5801797
51
324.9173226
0
ARC
8
DEFAULT_255_1_388
10
22.9116977
20
52.7755236
40
0.5167077
50
269.5979457
51
281.6732777
0
ARC
8
DEFAULT_255_1_388
10
22.903588
20
52.7620113
40
0.5032026
50
256.6228565
51
270.5105488
0
ARC
8
DEFAULT_255_1_388
10
22.8583623
20
52.5878345
40
0.3233092
50
215.8618351
51
257.2787793
0
ARC
8
DEFAULT_255_1_388
10
22.973233
20
52.6649106
40
0.4615831
50
197.9695203
51
215.2622745
0
ARC
8
DEFAULT_255_1_388
10
23.2528006
20
52.7592641
40
0.7566307
50
187.8816486
51
198.2346584
0
ARC
8
DEFAULT_255_1_388
10
23.6981244
20
52.8235453
40
1.2065653
50
180.8977266
51
188.0054894
0
ARC
8
DEFAULT_255_1_388
10
24.0031458
20
52.83504
40
1.5117443
50
180.7434591
51
181.152202
0
ARC
8
DEFAULT_255_1_388
10
23.8356453
20
53.0440371
40
1.3441277
50
173.7674302
51
180.2315596
0
ARC
8
DEFAULT_255_1_388
10
23.3274322
20
53.1014779
40
0.8326847
50
164.3058537
51
173.9000553
0
ARC
8
DEFAULT_255_1_388
10
22.9998322
20
53.1958652
40
0.4917711
50
148.7922028
51
164.5682288
0
ARC
8
DEFAULT_255_1_388
10
22.892906
20
53.2555457
40
0.3694204
50
144.5883979
51
148.1161588
0
ARC
8
DEFAULT_255_1_388
10
22.8541805
20
53.2825667
40
0.322202
50
101.6440149
51
144.5142619
0
ARC
8
DEFAULT_255_1_388
10
22.9019997
20
53.0925337
40
0.5180451
50
89.528284
51
102.5820197
0
ARC
8
DEFAULT_255_1_388
10
22.9108989
20
53.0881376
40
0.5224441
50
77.0437914
51
90.508231
0
ARC
8
DEFAULT_255_1_388
10
22.9561243
20
53.2729272
40
0.3322297
50
48.2777708
51
77.4996087
0
ARC
8
DEFAULT_255_1_388
10
22.9642983
20
53.2874557
40
0.315966
50
36.3141586
51
47.6307332
0
ARC
8
DEFAULT_255_1_388
10
22.8665705
20
53.2216159
40
0.4337313
50
18.2931065
51
35.6770203
0
ARC
8
DEFAULT_255_1_388
10
22.5804546
20
53.1234107
40
0.7362203
50
8.0246996
51
18.5605636
0
ARC
8
DEFAULT_255_1_388
10
22.1120901
20
53.0542432
40
1.2096583
50
1.127539
51
8.1718423
0
ARC
8
DEFAULT_255_1_388
10
21.7472035
20
53.0399374
40
1.5747719
50
0.5432713
51
1.38669
0
ARC
8
DEFAULT_255_1_388
10
21.9529414
20
53.0706163
40
1.2018103
50
359.8092569
51
4.9408001
0
ARC
8
DEFAULT_255_1_388
10
22.4265995
20
53.11289
40
0.7262727
50
4.8364937
51
12.2906017
0
ARC
8
DEFAULT_255_1_388
10
22.736546
20
53.1819485
40
0.4087324
50
12.0806994
51
23.8171225
0
ARC
8
DEFAULT_255_1_388
10
22.8685856
20
53.2378508
40
0.2653719
50
24.2874621
51
31.3934353
0
ARC
8
DEFAULT_255_1_388
10
22.9276291
20
53.2764822
40
0.1948607
50
30.7407708
51
82.4658033
0
ARC
8
DEFAULT_255_1_388
10
22.9073952
20
53.1771017
40
0.2961198
50
81.1057101
51
90.2187368
0
ARC
8
DEFAULT_255_1_388
10
22.9033764
20
53.2061421
40
0.2670929
50
89.380395
51
105.6763916
0
ARC
8
DEFAULT_255_1_388
10
22.8827486
20
53.281132
40
0.1893189
50
105.7980655
51
149.7387869
0
ARC
8
DEFAULT_255_1_388
10
23.0024626
20
53.2091719
40
0.3289892
50
149.4208441
51
163.628295
0
ARC
8
DEFAULT_255_1_388
10
23.2376856
20
53.1374345
40
0.5749004
50
163.3764549
51
172.141138
0
ARC
8
DEFAULT_255_1_388
10
23.6089577
20
53.0842582
40
0.9499585
50
172.0258462
51
178.0705453
0
ARC
8
DEFAULT_255_1_388
10
23.951113
20
53.0680682
40
1.2924734
50
177.8639301
51
179.5036263
0
ARC
8
DEFAULT_255_1_388
10
23.8292149
20
52.8077151
40
1.170534
50
179.7995545
51
185.246089
0
ARC
8
DEFAULT_255_1_388
10
23.3743742
20
52.7646404
40
0.7136613
50
185.1411911
51
193.0082205
0
ARC
8
DEFAULT_255_1_388
10
23.0770003
20
52.6943441
40
0.4080987
50
192.7897338
51
205.2507384
0
ARC
8
DEFAULT_255_1_388
10
22.9592213
20
52.6417538
40
0.2791522
50
205.8001921
51
211.2545876
0
ARC
8
DEFAULT_255_1_388
10
22.9003752
20
52.6023132
40
0.2084074
50
210.3789935
51
238.4007996
0
ARC
8
DEFAULT_255_1_388
10
22.8981838
20
52.6075786
40
0.2117943
50
239.6521916
51
265.9793852
0
ARC
8
DEFAULT_255_1_388
10
22.9077687
20
52.6832358
40
0.2879689
50
265.1324455
51
270.0603288
0
ARC
8
DEFAULT_255_1_388
10
22.9110064
20
52.6467418
40
0.2514919
50
269.3314378
51
287.2180039
0
ARC
8
DEFAULT_255_1_388
10
22.9265146
20
52.5901291
40
0.1928357
50
287.7957942
51
329.0808983
0
ARC
8
DEFAULT_255_1_388
10
22.8187903
20
52.6573651
40
0.319808
50
328.6635261
51
343.3325043
0
ARC
8
DEFAULT_255_1_388
10
22.5743362
20
52.7335195
40
0.5758408
50
343.0498092
51
351.9392499
0
ARC
8
DEFAULT_255_1_388
10
22.1842683
20
52.7910205
40
0.9701202
50
351.8071632
51
357.7957897
0
ARC
8
DEFAULT_255_1_388
10
21.820816
20
52.8098724
40
1.3340376
50
357.5870923
51
359.2682493
0
LINE
8
DEFAULT_255_1_388
10
24.3853998
20
53.5924898
11
24.3853998
21
53.4985191
0
LINE
8
DEFAULT_255_1_388
10
24.3853998
20
53.4985191
11
23.8405504
21
52.2769
0
LINE
8
DEFAULT_255_1_388
10
23.8405504
20
52.2769
11
23.6652589
21
52.2769
0
LINE
8
DEFAULT_255_1_388
10
23.6652589
20
52.2769
11
24.2083011
21
53.455148
0
LINE
8
DEFAULT_255_1_388
10
24.2083011
20
53.455148
11
23.4962923
21
53.455148
0
LINE
8
DEFAULT_255_1_388
10
23.4962923
20
53.455148
11
23.4962923
21
53.5924898
0
LINE
8
DEFAULT_255_1_388
10
23.4962923
20
53.5924898
11
24.3853998
21
53.5924898
0
LINE
8
DEFAULT_255_1_388
10
22.2728661
20
60.9137589
11
22.2728661
21
60.8297274
0
LINE
8
DEFAULT_255_1_388
10
22.0424571
20
60.2857816
11
22.2773839
21
60.1014544
0
LINE
8
DEFAULT_255_1_388
10
22.2773839
20
60.1014544
11
22.1590169
21
59.9921231
0
LINE
8
DEFAULT_255_1_388
10
22.1590169
20
59.9921231
11
21.8816227
21
60.2125929
0
LINE
8
DEFAULT_255_1_388
10
21.2138885
20
60.8179811
11
21.2138885
21
60.9128553
0
LINE
8
DEFAULT_255_1_388
10
22.0993817
20
60.8170775
11
22.0993817
21
60.9146625
0
LINE
8
DEFAULT_255_1_388
10
21.3873729
20
60.9264088
11
21.3873729
21
60.8297274
0
ARC
8
DEFAULT_255_1_388
10
21.265554
20
60.8253529
40
1.0073215
50
351.4530536
51
0.2488167
0
ARC
8
DEFAULT_255_1_388
10
21.5563709
20
60.7803749
40
0.7130509
50
338.6860608
51
351.554089
0
ARC
8
DEFAULT_255_1_388
10
21.6616166
20
60.7431573
40
0.6014866
50
336.2886209
51
338.3448103
0
ARC
8
DEFAULT_255_1_388
10
21.699641
20
60.7222952
40
0.5582958
50
321.1168943
51
336.6796496
0
ARC
8
DEFAULT_255_1_388
10
21.7707183
20
60.6675644
40
0.4686152
50
305.4418419
51
320.8706891
0
ARC
8
DEFAULT_255_1_388
10
21.7486048
20
60.7516492
40
0.5552257
50
271.6372169
51
283.8614231
0
ARC
8
DEFAULT_255_1_388
10
21.7443501
20
60.8257271
40
0.6293984
50
269.993693
51
271.8317035
0
ARC
8
DEFAULT_255_1_388
10
21.7401326
20
60.734568
40
0.5382553
50
252.5221437
51
270.441579
0
ARC
8
DEFAULT_255_1_388
10
21.7239576
20
60.6739046
40
0.4755426
50
237.5349961
51
252.1858334
0
ARC
8
DEFAULT_255_1_388
10
21.7339952
20
60.686712
40
0.4917393
50
209.0632754
51
237.3492577
0
ARC
8
DEFAULT_255_1_388
10
21.8319278
20
60.7482104
40
0.6072464
50
205.118533
51
209.6465345
0
ARC
8
DEFAULT_255_1_388
10
21.921528
20
60.7862174
40
0.7045164
50
188.7216633
51
204.8239753
0
ARC
8
DEFAULT_255_1_388
10
22.1462056
20
60.8240387
40
0.9323368
50
180.3722704
51
188.9253909
0
ARC
8
DEFAULT_255_1_388
10
22.1431617
20
60.9173416
40
0.929284
50
169.5253055
51
180.2766048
0
ARC
8
DEFAULT_255_1_388
10
21.9291416
20
60.9567024
40
0.7116745
50
155.8314601
51
169.5088611
0
ARC
8
DEFAULT_255_1_388
10
21.7850879
20
61.0235312
40
0.5528904
50
139.6259579
51
156.0379072
0
ARC
8
DEFAULT_255_1_388
10
21.7187413
20
61.0769143
40
0.4677708
50
122.6414784
51
139.3431662
0
ARC
8
DEFAULT_255_1_388
10
21.7300668
20
61.0562787
40
0.4912586
50
93.0224537
51
122.4556091
0
ARC
8
DEFAULT_255_1_388
10
21.7422189
20
60.9476776
40
0.6003837
50
89.9756766
51
93.6340839
0
ARC
8
DEFAULT_255_1_388
10
21.7465886
20
60.9904547
40
0.5576216
50
73.9666049
51
90.4228101
0
ARC
8
DEFAULT_255_1_388
10
21.7672535
20
61.0709139
40
0.4745905
50
57.5177173
51
73.6814962
0
ARC
8
DEFAULT_255_1_388
10
21.7622759
20
61.0668592
40
0.4806881
50
28.7260666
51
57.2767723
0
ARC
8
DEFAULT_255_1_388
10
21.6598166
20
61.0035397
40
0.6010032
50
24.2451459
51
29.3250018
0
ARC
8
DEFAULT_255_1_388
10
21.5556631
20
60.9604744
40
0.713663
50
9.0643887
51
23.9639114
0
ARC
8
DEFAULT_255_1_388
10
21.3019068
20
60.9178505
40
0.9709678
50
359.7585581
51
9.1891216
0
ARC
8
DEFAULT_255_1_388
10
21.1607656
20
60.9193562
40
0.9386278
50
359.7134836
51
7.9655743
0
ARC
8
DEFAULT_255_1_388
10
21.4940355
20
60.9674391
40
0.6019121
50
7.8289718
51
20.0423308
0
ARC
8
DEFAULT_255_1_388
10
21.6767823
20
61.0339145
40
0.4074504
50
20.0676743
51
35.9162425
0
ARC
8
DEFAULT_255_1_388
10
21.7639702
20
61.0987196
40
0.2988273
50
35.659429
51
85.1578517
0
ARC
8
DEFAULT_255_1_388
10
21.7431864
20
60.9732214
40
0.4257521
50
83.7963246
51
90.0959039
0
ARC
8
DEFAULT_255_1_388
10
21.7383408
20
61.0557384
40
0.3432594
50
89.3101324
51
109.9889786
0
ARC
8
DEFAULT_255_1_388
10
21.7290598
20
61.0957665
40
0.3025108
50
110.9286914
51
143.9411475
0
ARC
8
DEFAULT_255_1_388
10
21.83379
20
61.0156455
40
0.434348
50
143.5289166
51
163.2980252
0
ARC
8
DEFAULT_255_1_388
10
22.0484187
20
60.9481685
40
0.659321
50
163.0418884
51
174.3139873
0
ARC
8
DEFAULT_255_1_388
10
22.3189152
20
60.9169378
40
0.9315905
50
174.050934
51
179.4174954
0
ARC
8
DEFAULT_255_1_388
10
22.2610866
20
60.8248922
40
0.8737271
50
179.6829249
51
188.9631837
0
ARC
8
DEFAULT_255_1_388
10
21.9606597
20
60.7759648
40
0.569348
50
188.8098723
51
202.9300437
0
ARC
8
DEFAULT_255_1_388
10
21.8238329
20
60.7202968
40
0.4216493
50
203.2071737
51
215.7877161
0
ARC
8
DEFAULT_255_1_388
10
21.7283612
20
60.644785
40
0.3000949
50
214.7520738
51
264.283405
0
ARC
8
DEFAULT_255_1_388
10
21.7436203
20
60.7409645
40
0.3973553
50
263.4754673
51
270.0952411
0
ARC
8
DEFAULT_255_1_388
10
21.7483596
20
60.7115808
40
0.3679937
50
269.3649295
51
287.5149684
0
ARC
8
DEFAULT_255_1_388
10
21.7684037
20
60.6387714
40
0.2925408
50
288.0629019
51
323.8115617
0
ARC
8
DEFAULT_255_1_388
10
21.6704013
20
60.7118754
40
0.4148018
50
323.6546541
51
342.6591359
0
ARC
8
DEFAULT_255_1_388
10
21.4418671
20
60.786228
40
0.6551163
50
342.4092446
51
353.6451501
0
ARC
8
DEFAULT_255_1_388
10
21.1233465
20
60.8258565
40
0.9760748
50
353.4027553
51
359.4846611
0
LINE
8
DEFAULT_255_1_388
10
23.3219044
20
60.992369
11
23.3219044
21
60.7755135
0
LINE
8
DEFAULT_255_1_388
10
22.4915287
20
60.7529244
11
22.4915287
21
60.9761048
0
LINE
8
DEFAULT_255_1_388
10
23.154745
20
60.7303353
11
23.154745
21
61.0041153
0
LINE
8
DEFAULT_255_1_388
10
22.6586881
20
61.0167652
11
22.6586881
21
60.7493102
0
ARC
8
DEFAULT_255_1_388
10
21.9441378
20
60.7700118
40
1.3777776
50
353.8440855
51
0.2287917
0
ARC
8
DEFAULT_255_1_388
10
22.4660395
20
60.7117414
40
0.852639
50
344.4934746
51
353.9763743
0
ARC
8
DEFAULT_255_1_388
10
22.8027202
20
60.6160191
40
0.5026273
50
329.2803599
51
344.7473406
0
ARC
8
DEFAULT_255_1_388
10
22.9142698
20
60.5548038
40
0.3754848
50
324.9361395
51
328.6153007
0
ARC
8
DEFAULT_255_1_388
10
22.9568348
20
60.5250586
40
0.3235566
50
280.5801797
51
324.9173226
0
ARC
8
DEFAULT_255_1_388
10
22.9116977
20
60.7130236
40
0.5167077
50
269.5979457
51
281.6732777
0
ARC
8
DEFAULT_255_1_388
10
22.903588
20
60.6995113
40
0.5032026
50
256.6228565
51
270.5105488
0
ARC
8
DEFAULT_255_1_388
10
22.8583623
20
60.5253345
40
0.3233092
50
215.8618351
51
257.2787793
0
ARC
8
DEFAULT_255_1_388
10
22.973233
20
60.6024106
40
0.4615831
50
197.9695203
51
215.2622745
0
ARC
8
DEFAULT_255_1_388
10
23.2528006
20
60.6967641
40
0.7566307
50
187.8816486
51
198.2346584
0
ARC
8
DEFAULT_255_1_388
10
23.6981244
20
60.7610453
40
1.2065653
50
180.8977266
51
188.0054894
0
ARC
8
DEFAULT_255_1_388
10
24.0031458
20
60.77254
40
1.5117443
50
180.7434591
51
181.152202
0
ARC
8
DEFAULT_255_1_388
10
23.8356453
20
60.9815371
40
1.3441277
50
173.7674302
51
180.2315596
0
ARC
8
DEFAULT_255_1_388
10
23.3274322
20
61.0389779
40
0.8326847
50
164.3058537
51
173.9000553
0
ARC
8
DEFAULT_255_1_388
10
22.9998322
20
61.1333652
40
0.4917711
50
148.7922028
51
164.5682288
0
ARC
8
DEFAULT_255_1_388
10
22.892906
20
61.1930457
40
0.3694204
50
144.5883979
51
148.1161588
0
ARC
8
DEFAULT_255_1_388
10
22.8541805
20
61.2200667
40
0.322202
50
101.6440149
51
144.5142619
0
ARC
8
DEFAULT_255_1_388
10
22.9019997
20
61.0300337
40
0.5180451
50
89.528284
51
102.5820197
0
ARC
8
DEFAULT_255_1_388
10
22.9108989
20
61.0256376
40
0.5224441
50
77.0437914
51
90.508231
0
ARC
8
DEFAULT_255_1_388
10
22.9561243
20
61.2104272
40
0.3322297
50
48.2777708
51
77.4996087
0
ARC
8
DEFAULT_255_1_388
10
22.9642983
20
61.2249557
40
0.315966
50
36.3141586
51
47.6307332
0
ARC
8
DEFAULT_255_1_388
10
22.8665705
20
61.1591159
40
0.4337313
50
18.2931065
51
35.6770203
0
ARC
8
DEFAULT_255_1_388
10
22.5804546
20
61.0609107
40
0.7362203
50
8.0246996
51
18.5605636
0
ARC
8
DEFAULT_255_1_388
10
22.1120901
20
60.9917432
40
1.2096583
50
1.127539
51
8.1718423
0
ARC
8
DEFAULT_255_1_388
10
21.7472035
20
60.9774374
40
1.5747719
50
0.5432713
51
1.38669
0
ARC
8
DEFAULT_255_1_388
10
21.9529414
20
61.0081163
40
1.2018103
50
359.8092569
51
4.9408001
0
ARC
8
DEFAULT_255_1_388
10
22.4265995
20
61.05039
40
0.7262727
50
4.8364937
51
12.2906017
0
ARC
8
DEFAULT_255_1_388
10
22.736546
20
61.1194485
40
0.4087324
50
12.0806994
51
23.8171225
0
ARC
8
DEFAULT_255_1_388
10
22.8685856
20
61.1753508
40
0.2653719
50
24.2874621
51
31.3934353
0
ARC
8
DEFAULT_255_1_388
10
22.9276291
20
61.2139822
40
0.1948607
50
30.7407708
51
82.4658033
0
ARC
8
DEFAULT_255_1_388
10
22.9073952
20
61.1146017
40
0.2961198
50
81.1057101
51
90.2187368
0
ARC
8
DEFAULT_255_1_388
10
22.9033764
20
61.1436421
40
0.2670929
50
89.380395
51
105.6763916
0
ARC
8
DEFAULT_255_1_388
10
22.8827486
20
61.218632
40
0.1893189
50
105.7980655
51
149.7387869
0
ARC
8
DEFAULT_255_1_388
10
23.0024626
20
61.1466719
40
0.3289892
50
149.4208441
51
163.628295
0
ARC
8
DEFAULT_255_1_388
10
23.2376856
20
61.0749345
40
0.5749004
50
163.3764549
51
172.141138
0
ARC
8
DEFAULT_255_1_388
10
23.6089577
20
61.0217582
40
0.9499585
50
172.0258462
51
178.0705453
0
ARC
8
DEFAULT_255_1_388
10
23.951113
20
61.0055682
40
1.2924734
50
177.8639301
51
179.5036263
0
ARC
8
DEFAULT_255_1_388
10
23.8292149
20
60.7452151
40
1.170534
50
179.7995545
51
185.246089
0
ARC
8
DEFAULT_255_1_388
10
23.3743742
20
60.7021404
40
0.7136613
50
185.1411911
51
193.0082205
0
ARC
8
DEFAULT_255_1_388
10
23.0770003
20
60.6318441
40
0.4080987
50
192.7897338
51
205.2507384
0
ARC
8
DEFAULT_255_1_388
10
22.9592213
20
60.5792538
40
0.2791522
50
205.8001921
51
211.2545876
0
ARC
8
DEFAULT_255_1_388
10
22.9003752
20
60.5398132
40
0.2084074
50
210.3789935
51
238.4007996
0
ARC
8
DEFAULT_255_1_388
10
22.8981838
20
60.5450786
40
0.2117943
50
239.6521916
51
265.9793852
0
ARC
8
DEFAULT_255_1_388
10
22.9077687
20
60.6207358
40
0.2879689
50
265.1324455
51
270.0603288
0
ARC
8
DEFAULT_255_1_388
10
22.9110064
20
60.5842418
40
0.2514919
50
269.3314378
51
287.2180039
0
ARC
8
DEFAULT_255_1_388
10
22.9265146
20
60.5276291
40
0.1928357
50
287.7957942
51
329.0808983
0
ARC
8
DEFAULT_255_1_388
10
22.8187903
20
60.5948651
40
0.319808
50
328.6635261
51
343.3325043
0
ARC
8
DEFAULT_255_1_388
10
22.5743362
20
60.6710195
40
0.5758408
50
343.0498092
51
351.9392499
0
ARC
8
DEFAULT_255_1_388
10
22.1842683
20
60.7285205
40
0.9701202
50
351.8071632
51
357.7957897
0
ARC
8
DEFAULT_255_1_388
10
21.820816
20
60.7473724
40
1.3340376
50
357.5870923
51
359.2682493
0
LINE
8
DEFAULT_255_1_388
10
24.1622193
20
61.5308934
11
24.192037
21
61.5308934
0
LINE
8
DEFAULT_255_1_388
10
24.192037
20
61.5308934
11
24.192037
21
61.3890338
0
LINE
8
DEFAULT_255_1_388
10
24.192037
20
61.3890338
11
24.1613158
21
61.3890338
0
LINE
8
DEFAULT_255_1_388
10
23.5459884
20
60.7149747
11
23.5459884
21
60.7791278
0
LINE
8
DEFAULT_255_1_388
10
23.7140514
20
60.7574422
11
23.7140514
21
60.6959999
0
ARC
8
DEFAULT_255_1_388
10
24.1672049
20
60.8267826
40
0.562282
50
90.6001079
51
104.5146616
0
ARC
8
DEFAULT_255_1_388
10
24.1235009
20
60.98931
40
0.3939917
50
104.2855758
51
133.8630124
0
ARC
8
DEFAULT_255_1_388
10
24.1419261
20
60.9771243
40
0.4155734
50
134.5304124
51
161.6210222
0
ARC
8
DEFAULT_255_1_388
10
24.3279194
20
60.9115421
40
0.6127682
50
161.2850533
51
174.2074364
0
ARC
8
DEFAULT_255_1_388
10
24.486876
20
60.8896437
40
0.7731446
50
173.7817938
51
174.9251711
0
ARC
8
DEFAULT_255_1_388
10
23.9742954
20
60.734127
40
0.3412588
50
95.8332067
51
138.995412
0
ARC
8
DEFAULT_255_1_388
10
23.9994234
20
60.5902695
40
0.4870358
50
89.8755506
51
97.0540979
0
ARC
8
DEFAULT_255_1_388
10
24.0047624
20
60.6842841
40
0.3930432
50
71.6407016
51
90.6240821
0
ARC
8
DEFAULT_255_1_388
10
24.0217017
20
60.7466433
40
0.3285421
50
39.6368051
51
71.0190743
0
ARC
8
DEFAULT_255_1_388
10
23.9500925
20
60.6847586
40
0.4231706
50
10.6588054
51
39.9044509
0
ARC
8
DEFAULT_255_1_388
10
23.775947
20
60.6469223
40
0.60133
50
359.6827842
51
11.1326896
0
ARC
8
DEFAULT_255_1_388
10
23.7714806
20
60.6389715
40
0.6058047
50
347.2485908
51
0.4371098
0
ARC
8
DEFAULT_255_1_388
10
23.9590591
20
60.5938379
40
0.4128987
50
318.1408565
51
347.6118497
0
ARC
8
DEFAULT_255_1_388
10
23.9956188
20
60.5637903
40
0.3656244
50
275.6342406
51
317.824739
0
ARC
8
DEFAULT_255_1_388
10
23.9707709
20
60.7099827
40
0.513655
50
269.8872513
51
276.7916069
0
ARC
8
DEFAULT_255_1_388
10
23.9645902
20
60.5946181
40
0.398323
50
246.9139443
51
270.7436787
0
ARC
8
DEFAULT_255_1_388
10
23.9653098
20
60.5786044
40
0.3839368
50
218.1665534
51
245.8780431
0
ARC
8
DEFAULT_255_1_388
10
24.064247
20
60.6613903
40
0.5128958
50
191.4115343
51
218.6077624
0
ARC
8
DEFAULT_255_1_388
10
24.2822786
20
60.7102777
40
0.7363054
50
179.6344971
51
191.7836758
0
ARC
8
DEFAULT_255_1_388
10
24.910266
20
60.7866495
40
1.3642984
50
171.4523743
51
180.3158856
0
ARC
8
DEFAULT_255_1_388
10
24.4158387
20
60.8635895
40
0.8639311
50
157.9802296
51
171.6246761
0
ARC
8
DEFAULT_255_1_388
10
24.1667738
20
60.9629038
40
0.5958004
50
141.4299236
51
157.8541251
0
ARC
8
DEFAULT_255_1_388
10
24.0945822
20
61.0139746
40
0.5075416
50
102.871586
51
140.8564533
0
ARC
8
DEFAULT_255_1_388
10
24.1674374
20
60.7394943
40
0.7914163
50
90.377773
51
103.5868422
0
ARC
8
DEFAULT_255_1_388
10
23.9718895
20
60.6714543
40
0.2667015
50
89.8751238
51
126.2072139
0
ARC
8
DEFAULT_255_1_388
10
23.9770366
20
60.6540847
40
0.2838229
50
124.9742447
51
144.8960197
0
ARC
8
DEFAULT_255_1_388
10
23.9572611
20
60.6701981
40
0.2583845
50
145.2974778
51
160.2660922
0
ARC
8
DEFAULT_255_1_388
10
24.30291
20
60.6924151
40
0.5888695
50
179.6512124
51
190.285571
0
ARC
8
DEFAULT_255_1_388
10
24.1123579
20
60.6564968
40
0.3949683
50
190.0944895
51
207.5099647
0
ARC
8
DEFAULT_255_1_388
10
24.0487161
20
60.6262177
40
0.3245464
50
207.9585471
51
216.325377
0
ARC
8
DEFAULT_255_1_388
10
24.0104798
20
60.5947712
40
0.2751259
50
215.7661336
51
232.5457193
0
ARC
8
DEFAULT_255_1_388
10
23.9673914
20
60.5400273
40
0.2054668
50
232.8005815
51
270.6605497
0
ARC
8
DEFAULT_255_1_388
10
23.9725338
20
60.5809853
40
0.2464268
50
269.3550767
51
288.474612
0
ARC
8
DEFAULT_255_1_388
10
23.9829845
20
60.5416721
40
0.2058436
50
289.1831976
51
322.9685307
0
ARC
8
DEFAULT_255_1_388
10
23.9141947
20
60.5959279
40
0.2934408
50
322.6007085
51
346.5183319
0
ARC
8
DEFAULT_255_1_388
10
23.7839703
20
60.6291434
40
0.4278249
50
346.2584622
51
358.7739592
0
ARC
8
DEFAULT_255_1_388
10
23.6688278
20
60.6353829
40
0.5430876
50
358.3757628
51
0.0082477
0
ARC
8
DEFAULT_255_1_388
10
23.7545097
20
60.6384856
40
0.4574157
50
359.6211417
51
11.28403
0
ARC
8
DEFAULT_255_1_388
10
23.8981703
20
60.6684535
40
0.3106708
50
11.0483152
51
31.8145585
0
ARC
8
DEFAULT_255_1_388
10
23.9329408
20
60.6873045
40
0.2711963
50
32.3028554
51
38.0820598
0
ARC
8
DEFAULT_255_1_388
10
23.9802641
20
60.7301717
40
0.2075566
50
36.8249851
51
85.741667
0
ARC
8
DEFAULT_255_1_388
10
23.9727054
20
60.6738065
40
0.2643487
50
85.0150021
51
90.050843
0
LINE
8
DEFAULT_255_1_388
10
22.2728661
20
68.8512589
11
22.2728661
21
68.7672274
0
LINE
8
DEFAULT_255_1_388
10
22.0424571
20
68.2232816
11
22.2773839
21
68.0389544
0
LINE
8
DEFAULT_255_1_388
10
22.2773839
20
68.0389544
11
22.1590169
21
67.9296231
0
LINE
8
DEFAULT_255_1_388
10
22.1590169
20
67.9296231
11
21.8816227
21
68.1500929
0
LINE
8
DEFAULT_255_1_388
10
21.2138885
20
68.7554811
11
21.2138885
21
68.8503553
0
LINE
8
DEFAULT_255_1_388
10
22.0993817
20
68.7545775
11
22.0993817
21
68.8521625
0
LINE
8
DEFAULT_255_1_388
10
21.3873729
20
68.8639088
11
21.3873729
21
68.7672274
0
ARC
8
DEFAULT_255_1_388
10
21.265554
20
68.7628529
40
1.0073215
50
351.4530536
51
0.2488167
0
ARC
8
DEFAULT_255_1_388
10
21.5563709
20
68.7178749
40
0.7130509
50
338.6860608
51
351.554089
0
ARC
8
DEFAULT_255_1_388
10
21.6616166
20
68.6806573
40
0.6014866
50
336.2886209
51
338.3448103
0
ARC
8
DEFAULT_255_1_388
10
21.699641
20
68.6597952
40
0.5582958
50
321.1168943
51
336.6796496
0
ARC
8
DEFAULT_255_1_388
10
21.7707183
20
68.6050644
40
0.4686152
50
305.4418419
51
320.8706891
0
ARC
8
DEFAULT_255_1_388
10
21.7486048
20
68.6891492
40
0.5552257
50
271.6372169
51
283.8614231
0
ARC
8
DEFAULT_255_1_388
10
21.7443501
20
68.7632271
40
0.6293984
50
269.993693
51
271.8317035
0
ARC
8
DEFAULT_255_1_388
10
21.7401326
20
68.672068
40
0.5382553
50
252.5221437
51
270.441579
0
ARC
8
DEFAULT_255_1_388
10
21.7239576
20
68.6114046
40
0.4755426
50
237.5349961
51
252.1858334
0
ARC
8
DEFAULT_255_1_388
10
21.7339952
20
68.624212
40
0.4917393
50
209.0632754
51
237.3492577
0
ARC
8
DEFAULT_255_1_388
10
21.8319278
20
68.6857104
40
0.6072464
50
205.118533
51
209.6465345
0
ARC
8
DEFAULT_255_1_388
10
21.921528
20
68.7237174
40
0.7045164
50
188.7216633
51
204.8239753
0
ARC
8
DEFAULT_255_1_388
10
22.1462056
20
68.7615387
40
0.9323368
50
180.3722704
51
188.9253909
0
ARC
8
DEFAULT_255_1_388
10
22.1431617
20
68.8548416
40
0.929284
50
169.5253055
51
180.2766048
0
ARC
8
DEFAULT_255_1_388
10
21.9291416
20
68.8942024
40
0.7116745
50
155.8314601
51
169.5088611
0
ARC
8
DEFAULT_255_1_388
10
21.7850879
20
68.9610312
40
0.5528904
50
139.6259579
51
156.0379072
0
ARC
8
DEFAULT_255_1_388
10
21.7187413
20
69.0144143
40
0.4677708
50
122.6414784
51
139.3431662
0
ARC
8
DEFAULT_255_1_388
10
21.7300668
20
68.9937787
40
0.4912586
50
93.0224537
51
122.4556091
0
ARC
8
DEFAULT_255_1_388
10
21.7422189
20
68.8851776
40
0.6003837
50
89.9756766
51
93.6340839
0
ARC
8
DEFAULT_255_1_388
10
21.7465886
20
68.9279547
40
0.5576216
50
73.9666049
51
90.4228101
0
ARC
8
DEFAULT_255_1_388
10
21.7672535
20
69.0084139
40
0.4745905
50
57.5177173
51
73.6814962
0
ARC
8
DEFAULT_255_1_388
10
21.7622759
20
69.0043592
40
0.4806881
50
28.7260666
51
57.2767723
0
ARC
8
DEFAULT_255_1_388
10
21.6598166
20
68.9410397
40
0.6010032
50
24.2451459
51
29.3250018
0
ARC
8
DEFAULT_255_1_388
10
21.5556631
20
68.8979744
40
0.713663
50
9.0643887
51
23.9639114
0
ARC
8
DEFAULT_255_1_388
10
21.3019068
20
68.8553505
40
0.9709678
50
359.7585581
51
9.1891216
0
ARC
8
DEFAULT_255_1_388
10
21.1607656
20
68.8568562
40
0.9386278
50
359.7134836
51
7.9655743
0
ARC
8
DEFAULT_255_1_388
10
21.4940355
20
68.9049391
40
0.6019121
50
7.8289718
51
20.0423308
0
ARC
8
DEFAULT_255_1_388
10
21.6767823
20
68.9714145
40
0.4074504
50
20.0676743
51
35.9162425
0
ARC
8
DEFAULT_255_1_388
10
21.7639702
20
69.0362196
40
0.2988273
50
35.659429
51
85.1578517
0
ARC
8
DEFAULT_255_1_388
10
21.7431864
20
68.9107214
40
0.4257521
50
83.7963246
51
90.0959039
0
ARC
8
DEFAULT_255_1_388
10
21.7383408
20
68.9932384
40
0.3432594
50
89.3101324
51
109.9889786
0
ARC
8
DEFAULT_255_1_388
10
21.7290598
20
69.0332665
40
0.3025108
50
110.9286914
51
143.9411475
0
ARC
8
DEFAULT_255_1_388
10
21.83379
20
68.9531455
40
0.434348
50
143.5289166
51
163.2980252
0
ARC
8
DEFAULT_255_1_388
10
22.0484187
20
68.8856685
40
0.659321
50
163.0418884
51
174.3139873
0
ARC
8
DEFAULT_255_1_388
10
22.3189152
20
68.8544378
40
0.9315905
50
174.050934
51
179.4174954
0
ARC
8
DEFAULT_255_1_388
10
22.2610866
20
68.7623922
40
0.8737271
50
179.6829249
51
188.9631837
0
ARC
8
DEFAULT_255_1_388
10
21.9606597
20
68.7134648
40
0.569348
50
188.8098723
51
202.9300437
0
ARC
8
DEFAULT_255_1_388
10
21.8238329
20
68.6577968
40
0.4216493
50
203.2071737
51
215.7877161
0
ARC
8
DEFAULT_255_1_388
10
21.7283612
20
68.582285
40
0.3000949
50
214.7520738
51
264.283405
0
ARC
8
DEFAULT_255_1_388
10
21.7436203
20
68.6784645
40
0.3973553
50
263.4754673
51
270.0952411
0
ARC
8
DEFAULT_255_1_388
10
21.7483596
20
68.6490808
40
0.3679937
50
269.3649295
51
287.5149684
0
ARC
8
DEFAULT_255_1_388
10
21.7684037
20
68.5762714
40
0.2925408
50
288.0629019
51
323.8115617
0
ARC
8
DEFAULT_255_1_388
10
21.6704013
20
68.6493754
40
0.4148018
50
323.6546541
51
342.6591359
0
ARC
8
DEFAULT_255_1_388
10
21.4418671
20
68.723728
40
0.6551163
50
342.4092446
51
353.6451501
0
ARC
8
DEFAULT_255_1_388
10
21.1233465
20
68.7633565
40
0.9760748
50
353.4027553
51
359.4846611
0
LINE
8
DEFAULT_255_1_388
10
23.3219044
20
68.929869
11
23.3219044
21
68.7130135
0
LINE
8
DEFAULT_255_1_388
10
22.4915287
20
68.6904244
11
22.4915287
21
68.9136048
0
LINE
8
DEFAULT_255_1_388
10
23.154745
20
68.6678353
11
23.154745
21
68.9416153
0
LINE
8
DEFAULT_255_1_388
10
22.6586881
20
68.9542652
11
22.6586881
21
68.6868102
0
ARC
8
DEFAULT_255_1_388
10
21.9441378
20
68.7075118
40
1.3777776
50
353.8440855
51
0.2287917
0
ARC
8
DEFAULT_255_1_388
10
22.4660395
20
68.6492414
40
0.852639
50
344.4934746
51
353.9763743
0
ARC
8
DEFAULT_255_1_388
10
22.8027202
20
68.5535191
40
0.5026273
50
329.2803599
51
344.7473406
0
ARC
8
DEFAULT_255_1_388
10
22.9142698
20
68.4923038
40
0.3754848
50
324.9361395
51
328.6153007
0
ARC
8
DEFAULT_255_1_388
10
22.9568348
20
68.4625586
40
0.3235566
50
280.5801797
51
324.9173226
0
ARC
8
DEFAULT_255_1_388
10
22.9116977
20
68.6505236
40
0.5167077
50
269.5979457
51
281.6732777
0
ARC
8
DEFAULT_255_1_388
10
22.903588
20
68.6370113
40
0.5032026
50
256.6228565
51
270.5105488
0
ARC
8
DEFAULT_255_1_388
10
22.8583623
20
68.4628345
40
0.3233092
50
215.8618351
51
257.2787793
0
ARC
8
DEFAULT_255_1_388
10
22.973233
20
68.5399106
40
0.4615831
50
197.9695203
51
215.2622745
0
ARC
8
DEFAULT_255_1_388
10
23.2528006
20
68.6342641
40
0.7566307
50
187.8816486
51
198.2346584
0
ARC
8
DEFAULT_255_1_388
10
23.6981244
20
68.6985453
40
1.2065653
50
180.8977266
51
188.0054894
0
ARC
8
DEFAULT_255_1_388
10
24.0031458
20
68.71004
40
1.5117443
50
180.7434591
51
181.152202
0
ARC
8
DEFAULT_255_1_388
10
23.8356453
20
68.9190371
40
1.3441277
50
173.7674302
51
180.2315596
0
ARC
8
DEFAULT_255_1_388
10
23.3274322
20
68.9764779
40
0.8326847
50
164.3058537
51
173.9000553
0
ARC
8
DEFAULT_255_1_388
10
22.9998322
20
69.0708652
40
0.4917711
50
148.7922028
51
164.5682288
0
ARC
8
DEFAULT_255_1_388
10
22.892906
20
69.1305457
40
0.3694204
50
144.5883979
51
148.1161588
0
ARC
8
DEFAULT_255_1_388
10
22.8541805
20
69.1575667
40
0.322202
50
101.6440149
51
144.5142619
0
ARC
8
DEFAULT_255_1_388
10
22.9019997
20
68.9675337
40
0.5180451
50
89.528284
51
102.5820197
0
ARC
8
DEFAULT_255_1_388
10
22.9108989
20
68.9631376
40
0.5224441
50
77.0437914
51
90.508231
0
ARC
8
DEFAULT_255_1_388
10
22.9561243
20
69.1479272
40
0.3322297
50
48.2777708
51
77.4996087
0
ARC
8
DEFAULT_255_1_388
10
22.9642983
20
69.1624557
40
0.315966
50
36.3141586
51
47.6307332
0
ARC
8
DEFAULT_255_1_388
10
22.8665705
20
69.0966159
40
0.4337313
50
18.2931065
51
35.6770203
0
ARC
8
DEFAULT_255_1_388
10
22.5804546
20
68.9984107
40
0.7362203
50
8.0246996
51
18.5605636
0
ARC
8
DEFAULT_255_1_388
10
22.1120901
20
68.9292432
40
1.2096583
50
1.127539
51
8.1718423
0
ARC
8
DEFAULT_255_1_388
10
21.7472035
20
68.9149374
40
1.5747719
50
0.5432713
51
1.38669
0
ARC
8
DEFAULT_255_1_388
10
21.9529414
20
68.9456163
40
1.2018103
50
359.8092569
51
4.9408001
0
ARC
8
DEFAULT_255_1_388
10
22.4265995
20
68.98789
40
0.7262727
50
4.8364937
51
12.2906017
0
ARC
8
DEFAULT_255_1_388
10
22.736546
20
69.0569485
40
0.4087324
50
12.0806994
51
23.8171225
0
ARC
8
DEFAULT_255_1_388
10
22.8685856
20
69.1128508
40
0.2653719
50
24.2874621
51
31.3934353
0
ARC
8
DEFAULT_255_1_388
10
22.9276291
20
69.1514822
40
0.1948607
50
30.7407708
51
82.4658033
0
ARC
8
DEFAULT_255_1_388
10
22.9073952
20
69.0521017
40
0.2961198
50
81.1057101
51
90.2187368
0
ARC
8
DEFAULT_255_1_388
10
22.9033764
20
69.0811421
40
0.2670929
50
89.380395
51
105.6763916
0
ARC
8
DEFAULT_255_1_388
10
22.8827486
20
69.156132
40
0.1893189
50
105.7980655
51
149.7387869
0
ARC
8
DEFAULT_255_1_388
10
23.0024626
20
69.0841719
40
0.3289892
50
149.4208441
51
163.628295
0
ARC
8
DEFAULT_255_1_388
10
23.2376856
20
69.0124345
40
0.5749004
50
163.3764549
51
172.141138
0
ARC
8
DEFAULT_255_1_388
10
23.6089577
20
68.9592582
40
0.9499585
50
172.0258462
51
178.0705453
0
ARC
8
DEFAULT_255_1_388
10
23.951113
20
68.9430682
40
1.2924734
50
177.8639301
51
179.5036263
0
ARC
8
DEFAULT_255_1_388
10
23.8292149
20
68.6827151
40
1.170534
50
179.7995545
51
185.246089
0
ARC
8
DEFAULT_255_1_388
10
23.3743742
20
68.6396404
40
0.7136613
50
185.1411911
51
193.0082205
0
ARC
8
DEFAULT_255_1_388
10
23.0770003
20
68.5693441
40
0.4080987
50
192.7897338
51
205.2507384
0
ARC
8
DEFAULT_255_1_388
10
22.9592213
20
68.5167538
40
0.2791522
50
205.8001921
51
211.2545876
0
ARC
8
DEFAULT_255_1_388
10
22.9003752
20
68.4773132
40
0.2084074
50
210.3789935
51
238.4007996
0
ARC
8
DEFAULT_255_1_388
10
22.8981838
20
68.4825786
40
0.2117943
50
239.6521916
51
265.9793852
0
ARC
8
DEFAULT_255_1_388
10
22.9077687
20
68.5582358
40
0.2879689
50
265.1324455
51
270.0603288
0
ARC
8
DEFAULT_255_1_388
10
22.9110064
20
68.5217418
40
0.2514919
50
269.3314378
51
287.2180039
0
ARC
8
DEFAULT_255_1_388
10
22.9265146
20
68.4651291
40
0.1928357
50
287.7957942
51
329.0808983
0
ARC
8
DEFAULT_255_1_388
10
22.8187903
20
68.5323651
40
0.319808
50
328.6635261
51
343.3325043
0
ARC
8
DEFAULT_255_1_388
10
22.5743362
20
68.6085195
40
0.5758408
50
343.0498092
51
351.9392499
0
ARC
8
DEFAULT_255_1_388
10
22.1842683
20
68.6660205
40
0.9701202
50
351.8071632
51
357.7957897
0
ARC
8
DEFAULT_255_1_388
10
21.820816
20
68.6848724
40
1.3340376
50
357.5870923
51
359.2682493
0
LINE
8
DEFAULT_255_1_388
10
23.7465797
20
68.7771666
11
23.6128521
21
68.8115021
0
LINE
8
DEFAULT_255_1_388
10
23.6128521
20
68.8115021
11
23.6797159
21
69.4674898
0
LINE
8
DEFAULT_255_1_388
10
23.6797159
20
69.4674898
11
24.353775
21
69.4674898
0
LINE
8
DEFAULT_255_1_388
10
24.353775
20
69.4674898
11
24.353775
21
69.3129803
0
LINE
8
DEFAULT_255_1_388
10
24.353775
20
69.3129803
11
23.8215755
21
69.3129803
0
LINE
8
DEFAULT_255_1_388
10
23.8215755
20
69.3129803
11
23.7818187
21
68.9542652
0
LINE
8
DEFAULT_255_1_388
10
23.5658668
20
68.4979652
11
23.7239906
21
68.4979652
0
LINE
8
DEFAULT_255_1_388
10
23.7908543
20
68.8133092
11
23.7465797
21
68.7771666
0
ARC
8
DEFAULT_255_1_388
10
23.9904801
20
68.5965241
40
0.4141476
50
93.7181681
51
120.253934
0
ARC
8
DEFAULT_255_1_388
10
24.0010853
20
68.5056284
40
0.5055616
50
89.9660471
51
94.2495185
0
ARC
8
DEFAULT_255_1_388
10
24.0056675
20
68.5719154
40
0.4392953
50
73.8045384
51
90.5585736
0
ARC
8
DEFAULT_255_1_388
10
24.0320932
20
68.668452
40
0.3392225
50
41.3071072
51
73.543002
0
ARC
8
DEFAULT_255_1_388
10
23.9852752
20
68.6281461
40
0.4009977
50
13.5075837
51
41.2174839
0
ARC
8
DEFAULT_255_1_388
10
23.800585
20
68.5797907
40
0.5918864
50
1.1330171
51
13.8830737
0
ARC
8
DEFAULT_255_1_388
10
23.6409496
20
68.5712522
40
0.7516787
50
359.9925091
51
1.5431298
0
ARC
8
DEFAULT_255_1_388
10
23.785411
20
68.5666027
40
0.6072343
50
347.8572712
51
0.4294349
0
ARC
8
DEFAULT_255_1_388
10
23.9823245
20
68.5219898
40
0.4053482
50
323.6727442
51
348.1674594
0
ARC
8
DEFAULT_255_1_388
10
24.015421
20
68.5018175
40
0.3667495
50
316.8171818
51
323.1486802
0
ARC
8
DEFAULT_255_1_388
10
24.0223333
20
68.4976612
40
0.358869
50
281.839603
51
316.5458142
0
ARC
8
DEFAULT_255_1_388
10
23.9800621
20
68.6726363
40
0.5388223
50
269.5770964
51
282.4214641
0
ARC
8
DEFAULT_255_1_388
10
23.9720542
20
68.648593
40
0.5147801
50
256.2425863
51
270.4486481
0
ARC
8
DEFAULT_255_1_388
10
23.9384069
20
68.5136124
40
0.3756708
50
228.9024379
51
256.33135
0
ARC
8
DEFAULT_255_1_388
10
23.930105
20
68.5005054
40
0.360344
50
193.7536029
51
228.5272638
0
ARC
8
DEFAULT_255_1_388
10
24.0693615
20
68.5413463
40
0.5053599
50
184.9244437
51
194.4976052
0
ARC
8
DEFAULT_255_1_388
10
24.0910256
20
68.5453722
40
0.3700839
50
187.3596909
51
198.6733728
0
ARC
8
DEFAULT_255_1_388
10
23.9729499
20
68.5044373
40
0.2451195
50
198.4453795
51
217.7945479
0
ARC
8
DEFAULT_255_1_388
10
23.9396672
20
68.4808563
40
0.2043754
50
218.2887146
51
228.5613203
0
ARC
8
DEFAULT_255_1_388
10
23.9506679
20
68.4956902
40
0.2227819
50
228.9652423
51
258.1237049
0
ARC
8
DEFAULT_255_1_388
10
23.9738116
20
68.5947964
40
0.3245374
50
257.7260585
51
270.4013717
0
ARC
8
DEFAULT_255_1_388
10
23.9788614
20
68.5447255
40
0.2744726
50
269.4204315
51
286.420998
0
ARC
8
DEFAULT_255_1_388
10
23.995567
20
68.4840705
40
0.2115721
50
286.7250065
51
320.6004665
0
ARC
8
DEFAULT_255_1_388
10
23.9524585
20
68.5190527
40
0.2670878
50
320.6712228
51
344.5440474
0
ARC
8
DEFAULT_255_1_388
10
23.8223299
20
68.5572394
40
0.4026927
50
344.241448
51
356.735803
0
ARC
8
DEFAULT_255_1_388
10
23.6819606
20
68.5688656
40
0.5435085
50
356.3547471
51
0.0507222
0
ARC
8
DEFAULT_255_1_388
10
23.8321871
20
68.5723812
40
0.3932934
50
359.5579289
51
12.9534322
0
ARC
8
DEFAULT_255_1_388
10
23.9508711
20
68.6011586
40
0.2711827
50
12.6489751
51
41.608121
0
ARC
8
DEFAULT_255_1_388
10
23.9767871
20
68.6231946
40
0.2371737
50
41.7851122
51
85.9892156
0
ARC
8
DEFAULT_255_1_388
10
23.9629182
20
68.5316738
40
0.3295244
50
84.6965848
51
90.0672125
0
ARC
8
DEFAULT_255_1_388
10
23.9602749
20
68.4565118
40
0.4046926
50
89.6804991
51
99.161352
0
ARC
8
DEFAULT_255_1_388
10
23.9371758
20
68.5945848
40
0.2647044
50
98.9836248
51
113.8905702
0
ARC
8
DEFAULT_255_1_388
10
23.9113433
20
68.6555118
40
0.1985386
50
114.195234
51
127.3641866
0
LINE
8
DEFAULT_255_1_388
10
22.1405661
20
76.7887589
11
22.1405661
21
76.7047274
0
LINE
8
DEFAULT_255_1_388
10
21.9101571
20
76.1607816
11
22.1450839
21
75.9764544
0
LINE
8
DEFAULT_255_1_388
10
22.1450839
20
75.9764544
11
22.0267169
21
75.8671231
0
LINE
8
DEFAULT_255_1_388
10
22.0267169
20
75.8671231
11
21.7493227
21
76.0875929
0
LINE
8
DEFAULT_255_1_388
10
21.0815885
20
76.6929811
11
21.0815885
21
76.7878553
0
LINE
8
DEFAULT_255_1_388
10
21.9670817
20
76.6920775
11
21.9670817
21
76.7896625
0
LINE
8
DEFAULT_255_1_388
10
21.2550729
20
76.8014088
11
21.2550729
21
76.7047274
0
ARC
8
DEFAULT_255_1_388
10
21.133254
20
76.7003529
40
1.0073215
50
351.4530536
51
0.2488167
0
ARC
8
DEFAULT_255_1_388
10
21.4240709
20
76.6553749
40
0.7130509
50
338.6860608
51
351.554089
0
ARC
8
DEFAULT_255_1_388
10
21.5293166
20
76.6181573
40
0.6014866
50
336.2886209
51
338.3448103
0
ARC
8
DEFAULT_255_1_388
10
21.567341
20
76.5972952
40
0.5582958
50
321.1168943
51
336.6796496
0
ARC
8
DEFAULT_255_1_388
10
21.6384183
20
76.5425644
40
0.4686152
50
305.4418419
51
320.8706891
0
ARC
8
DEFAULT_255_1_388
10
21.6163048
20
76.6266492
40
0.5552257
50
271.6372169
51
283.8614231
0
ARC
8
DEFAULT_255_1_388
10
21.6120501
20
76.7007271
40
0.6293984
50
269.993693
51
271.8317035
0
ARC
8
DEFAULT_255_1_388
10
21.6078326
20
76.609568
40
0.5382553
50
252.5221437
51
270.441579
0
ARC
8
DEFAULT_255_1_388
10
21.5916576
20
76.5489046
40
0.4755426
50
237.5349961
51
252.1858334
0
ARC
8
DEFAULT_255_1_388
10
21.6016952
20
76.561712
40
0.4917393
50
209.0632754
51
237.3492577
0
ARC
8
DEFAULT_255_1_388
10
21.6996278
20
76.6232104
40
0.6072464
50
205.118533
51
209.6465345
0
ARC
8
DEFAULT_255_1_388
10
21.789228
20
76.6612174
40
0.7045164
50
188.7216633
51
204.8239753
0
ARC
8
DEFAULT_255_1_388
10
22.0139056
20
76.6990387
40
0.9323368
50
180.3722704
51
188.9253909
0
ARC
8
DEFAULT_255_1_388
10
22.0108617
20
76.7923416
40
0.929284
50
169.5253055
51
180.2766048
0
ARC
8
DEFAULT_255_1_388
10
21.7968416
20
76.8317024
40
0.7116745
50
155.8314601
51
169.5088611
0
ARC
8
DEFAULT_255_1_388
10
21.6527879
20
76.8985312
40
0.5528904
50
139.6259579
51
156.0379072
0
ARC
8
DEFAULT_255_1_388
10
21.5864413
20
76.9519143
40
0.4677708
50
122.6414784
51
139.3431662
0
ARC
8
DEFAULT_255_1_388
10
21.5977668
20
76.9312787
40
0.4912586
50
93.0224537
51
122.4556091
0
ARC
8
DEFAULT_255_1_388
10
21.6099189
20
76.8226776
40
0.6003837
50
89.9756766
51
93.6340839
0
ARC
8
DEFAULT_255_1_388
10
21.6142886
20
76.8654547
40
0.5576216
50
73.9666049
51
90.4228101
0
ARC
8
DEFAULT_255_1_388
10
21.6349535
20
76.9459139
40
0.4745905
50
57.5177173
51
73.6814962
0
ARC
8
DEFAULT_255_1_388
10
21.6299759
20
76.9418592
40
0.4806881
50
28.7260666
51
57.2767723
0
ARC
8
DEFAULT_255_1_388
10
21.5275166
20
76.8785397
40
0.6010032
50
24.2451459
51
29.3250018
0
ARC
8
DEFAULT_255_1_388
10
21.4233631
20
76.8354744
40
0.713663
50
9.0643887
51
23.9639114
0
ARC
8
DEFAULT_255_1_388
10
21.1696068
20
76.7928505
40
0.9709678
50
359.7585581
51
9.1891216
0
ARC
8
DEFAULT_255_1_388
10
21.0284656
20
76.7943562
40
0.9386278
50
359.7134836
51
7.9655743
0
ARC
8
DEFAULT_255_1_388
10
21.3617355
20
76.8424391
40
0.6019121
50
7.8289718
51
20.0423308
0
ARC
8
DEFAULT_255_1_388
10
21.5444823
20
76.9089145
40
0.4074504
50
20.0676743
51
35.9162425
0
ARC
8
DEFAULT_255_1_388
10
21.6316702
20
76.9737196
40
0.2988273
50
35.659429
51
85.1578517
0
ARC
8
DEFAULT_255_1_388
10
21.6108864
20
76.8482214
40
0.4257521
50
83.7963246
51
90.0959039
0
ARC
8
DEFAULT_255_1_388
10
21.6060408
20
76.9307384
40
0.3432594
50
89.3101324
51
109.9889786
0
ARC
8
DEFAULT_255_1_388
10
21.5967598
20
76.9707665
40
0.3025108
50
110.9286914
51
143.9411475
0
ARC
8
DEFAULT_255_1_388
10
21.70149
20
76.8906455
40
0.434348
50
143.5289166
51
163.2980252
0
ARC
8
DEFAULT_255_1_388
10
21.9161187
20
76.8231685
40
0.659321
50
163.0418884
51
174.3139873
0
ARC
8
DEFAULT_255_1_388
10
22.1866152
20
76.7919378
40
0.9315905
50
174.050934
51
179.4174954
0
ARC
8
DEFAULT_255_1_388
10
22.1287866
20
76.6998922
40
0.8737271
50
179.6829249
51
188.9631837
0
ARC
8
DEFAULT_255_1_388
10
21.8283597
20
76.6509648
40
0.569348
50
188.8098723
51
202.9300437
0
ARC
8
DEFAULT_255_1_388
10
21.6915329
20
76.5952968
40
0.4216493
50
203.2071737
51
215.7877161
0
ARC
8
DEFAULT_255_1_388
10
21.5960612
20
76.519785
40
0.3000949
50
214.7520738
51
264.283405
0
ARC
8
DEFAULT_255_1_388
10
21.6113203
20
76.6159645
40
0.3973553
50
263.4754673
51
270.0952411
0
ARC
8
DEFAULT_255_1_388
10
21.6160596
20
76.5865808
40
0.3679937
50
269.3649295
51
287.5149684
0
ARC
8
DEFAULT_255_1_388
10
21.6361037
20
76.5137714
40
0.2925408
50
288.0629019
51
323.8115617
0
ARC
8
DEFAULT_255_1_388
10
21.5381013
20
76.5868754
40
0.4148018
50
323.6546541
51
342.6591359
0
ARC
8
DEFAULT_255_1_388
10
21.3095671
20
76.661228
40
0.6551163
50
342.4092446
51
353.6451501
0
ARC
8
DEFAULT_255_1_388
10
20.9910465
20
76.7008565
40
0.9760748
50
353.4027553
51
359.4846611
0
LINE
8
DEFAULT_255_1_388
10
23.1896044
20
76.867369
11
23.1896044
21
76.6505135
0
LINE
8
DEFAULT_255_1_388
10
22.3592287
20
76.6279244
11
22.3592287
21
76.8511048
0
LINE
8
DEFAULT_255_1_388
10
23.022445
20
76.6053353
11
23.022445
21
76.8791153
0
LINE
8
DEFAULT_255_1_388
10
22.5263881
20
76.8917652
11
22.5263881
21
76.6243102
0
ARC
8
DEFAULT_255_1_388
10
21.8118378
20
76.6450118
40
1.3777776
50
353.8440855
51
0.2287917
0
ARC
8
DEFAULT_255_1_388
10
22.3337395
20
76.5867414
40
0.852639
50
344.4934746
51
353.9763743
0
ARC
8
DEFAULT_255_1_388
10
22.6704202
20
76.4910191
40
0.5026273
50
329.2803599
51
344.7473406
0
ARC
8
DEFAULT_255_1_388
10
22.7819698
20
76.4298038
40
0.3754848
50
324.9361395
51
328.6153007
0
ARC
8
DEFAULT_255_1_388
10
22.8245348
20
76.4000586
40
0.3235566
50
280.5801797
51
324.9173226
0
ARC
8
DEFAULT_255_1_388
10
22.7793977
20
76.5880236
40
0.5167077
50
269.5979457
51
281.6732777
0
ARC
8
DEFAULT_255_1_388
10
22.771288
20
76.5745113
40
0.5032026
50
256.6228565
51
270.5105488
0
ARC
8
DEFAULT_255_1_388
10
22.7260623
20
76.4003345
40
0.3233092
50
215.8618351
51
257.2787793
0
ARC
8
DEFAULT_255_1_388
10
22.840933
20
76.4774106
40
0.4615831
50
197.9695203
51
215.2622745
0
ARC
8
DEFAULT_255_1_388
10
23.1205006
20
76.5717641
40
0.7566307
50
187.8816486
51
198.2346584
0
ARC
8
DEFAULT_255_1_388
10
23.5658244
20
76.6360453
40
1.2065653
50
180.8977266
51
188.0054894
0
ARC
8
DEFAULT_255_1_388
10
23.8708458
20
76.64754
40
1.5117443
50
180.7434591
51
181.152202
0
ARC
8
DEFAULT_255_1_388
10
23.7033453
20
76.8565371
40
1.3441277
50
173.7674302
51
180.2315596
0
ARC
8
DEFAULT_255_1_388
10
23.1951322
20
76.9139779
40
0.8326847
50
164.3058537
51
173.9000553
0
ARC
8
DEFAULT_255_1_388
10
22.8675322
20
77.0083652
40
0.4917711
50
148.7922028
51
164.5682288
0
ARC
8
DEFAULT_255_1_388
10
22.760606
20
77.0680457
40
0.3694204
50
144.5883979
51
148.1161588
0
ARC
8
DEFAULT_255_1_388
10
22.7218805
20
77.0950667
40
0.322202
50
101.6440149
51
144.5142619
0
ARC
8
DEFAULT_255_1_388
10
22.7696997
20
76.9050337
40
0.5180451
50
89.528284
51
102.5820197
0
ARC
8
DEFAULT_255_1_388
10
22.7785989
20
76.9006376
40
0.5224441
50
77.0437914
51
90.508231
0
ARC
8
DEFAULT_255_1_388
10
22.8238243
20
77.0854272
40
0.3322297
50
48.2777708
51
77.4996087
0
ARC
8
DEFAULT_255_1_388
10
22.8319983
20
77.0999557
40
0.315966
50
36.3141586
51
47.6307332
0
ARC
8
DEFAULT_255_1_388
10
22.7342705
20
77.0341159
40
0.4337313
50
18.2931065
51
35.6770203
0
ARC
8
DEFAULT_255_1_388
10
22.4481546
20
76.9359107
40
0.7362203
50
8.0246996
51
18.5605636
0
ARC
8
DEFAULT_255_1_388
10
21.9797901
20
76.8667432
40
1.2096583
50
1.127539
51
8.1718423
0
ARC
8
DEFAULT_255_1_388
10
21.6149035
20
76.8524374
40
1.5747719
50
0.5432713
51
1.38669
0
ARC
8
DEFAULT_255_1_388
10
21.8206414
20
76.8831163
40
1.2018103
50
359.8092569
51
4.9408001
0
ARC
8
DEFAULT_255_1_388
10
22.2942995
20
76.92539
40
0.7262727
50
4.8364937
51
12.2906017
0
ARC
8
DEFAULT_255_1_388
10
22.604246
20
76.9944485
40
0.4087324
50
12.0806994
51
23.8171225
0
ARC
8
DEFAULT_255_1_388
10
22.7362856
20
77.0503508
40
0.2653719
50
24.2874621
51
31.3934353
0
ARC
8
DEFAULT_255_1_388
10
22.7953291
20
77.0889822
40
0.1948607
50
30.7407708
51
82.4658033
0
ARC
8
DEFAULT_255_1_388
10
22.7750952
20
76.9896017
40
0.2961198
50
81.1057101
51
90.2187368
0
ARC
8
DEFAULT_255_1_388
10
22.7710764
20
77.0186421
40
0.2670929
50
89.380395
51
105.6763916
0
ARC
8
DEFAULT_255_1_388
10
22.7504486
20
77.093632
40
0.1893189
50
105.7980655
51
149.7387869
0
ARC
8
DEFAULT_255_1_388
10
22.8701626
20
77.0216719
40
0.3289892
50
149.4208441
51
163.628295
0
ARC
8
DEFAULT_255_1_388
10
23.1053856
20
76.9499345
40
0.5749004
50
163.3764549
51
172.141138
0
ARC
8
DEFAULT_255_1_388
10
23.4766577
20
76.8967582
40
0.9499585
50
172.0258462
51
178.0705453
0
ARC
8
DEFAULT_255_1_388
10
23.818813
20
76.8805682
40
1.2924734
50
177.8639301
51
179.5036263
0
ARC
8
DEFAULT_255_1_388
10
23.6969149
20
76.6202151
40
1.170534
50
179.7995545
51
185.246089
0
ARC
8
DEFAULT_255_1_388
10
23.2420742
20
76.5771404
40
0.7136613
50
185.1411911
51
193.0082205
0
ARC
8
DEFAULT_255_1_388
10
22.9447003
20
76.5068441
40
0.4080987
50
192.7897338
51
205.2507384
0
ARC
8
DEFAULT_255_1_388
10
22.8269213
20
76.4542538
40
0.2791522
50
205.8001921
51
211.2545876
0
ARC
8
DEFAULT_255_1_388
10
22.7680752
20
76.4148132
40
0.2084074
50
210.3789935
51
238.4007996
0
ARC
8
DEFAULT_255_1_388
10
22.7658838
20
76.4200786
40
0.2117943
50
239.6521916
51
265.9793852
0
ARC
8
DEFAULT_255_1_388
10
22.7754687
20
76.4957358
40
0.2879689
50
265.1324455
51
270.0603288
0
ARC
8
DEFAULT_255_1_388
10
22.7787064
20
76.4592418
40
0.2514919
50
269.3314378
51
287.2180039
0
ARC
8
DEFAULT_255_1_388
10
22.7942146
20
76.4026291
40
0.1928357
50
287.7957942
51
329.0808983
0
ARC
8
DEFAULT_255_1_388
10
22.6864903
20
76.4698651
40
0.319808
50
328.6635261
51
343.3325043
0
ARC
8
DEFAULT_255_1_388
10
22.4420362
20
76.5460195
40
0.5758408
50
343.0498092
51
351.9392499
0
ARC
8
DEFAULT_255_1_388
10
22.0519683
20
76.6035205
40
0.9701202
50
351.8071632
51
357.7957897
0
ARC
8
DEFAULT_255_1_388
10
21.688516
20
76.6223724
40
1.3340376
50
357.5870923
51
359.2682493
0
LINE
8
DEFAULT_255_1_388
10
24.109433
20
77.4049898
11
24.109433
21
76.531243
0
LINE
8
DEFAULT_255_1_388
10
24.109433
20
76.531243
11
24.291953
21
76.531243
0
LINE
8
DEFAULT_255_1_388
10
24.291953
20
76.531243
11
24.291953
21
76.3948048
0
LINE
8
DEFAULT_255_1_388
10
24.291953
20
76.3948048
11
24.109433
21
76.3948048
0
LINE
8
DEFAULT_255_1_388
10
24.109433
20
76.3948048
11
24.109433
21
76.0894
0
LINE
8
DEFAULT_255_1_388
10
24.109433
20
76.0894
11
23.94137
21
76.0894
0
LINE
8
DEFAULT_255_1_388
10
23.94137
20
76.0894
11
23.94137
21
76.3948048
0
LINE
8
DEFAULT_255_1_388
10
23.94137
20
76.3948048
11
23.3423068
21
76.3948048
0
LINE
8
DEFAULT_255_1_388
10
23.3423068
20
76.3948048
11
23.3423068
21
76.4932933
0
LINE
8
DEFAULT_255_1_388
10
23.3423068
20
76.4932933
11
23.9314308
21
77.4049898
0
LINE
8
DEFAULT_255_1_388
10
23.9314308
20
77.4049898
11
24.109433
21
77.4049898
0
LINE
8
DEFAULT_255_1_388
10
23.9214916
20
77.1402455
11
23.5320553
21
76.531243
0
LINE
8
DEFAULT_255_1_388
10
23.5320553
20
76.531243
11
23.94137
21
76.531243
0
LINE
8
DEFAULT_255_1_388
10
23.94137
20
76.531243
11
23.94137
21
77.176388
0
LINE
8
DEFAULT_255_1_388
10
23.94137
20
77.176388
11
23.9214916
21
77.1402455
0
LINE
8
DEFAULT_255_1_388
10
22.2728661
20
84.7262589
11
22.2728661
21
84.6422274
0
LINE
8
DEFAULT_255_1_388
10
22.0424571
20
84.0982816
11
22.2773839
21
83.9139544
0
LINE
8
DEFAULT_255_1_388
10
22.2773839
20
83.9139544
11
22.1590169
21
83.8046231
0
LINE
8
DEFAULT_255_1_388
10
22.1590169
20
83.8046231
11
21.8816227
21
84.0250929
0
LINE
8
DEFAULT_255_1_388
10
21.2138885
20
84.6304811
11
21.2138885
21
84.7253553
0
LINE
8
DEFAULT_255_1_388
10
22.0993817
20
84.6295775
11
22.0993817
21
84.7271625
0
LINE
8
DEFAULT_255_1_388
10
21.3873729
20
84.7389088
11
21.3873729
21
84.6422274
0
ARC
8
DEFAULT_255_1_388
10
21.265554
20
84.6378529
40
1.0073215
50
351.4530536
51
0.2488167
0
ARC
8
DEFAULT_255_1_388
10
21.5563709
20
84.5928749
40
0.7130509
50
338.6860608
51
351.554089
0
ARC
8
DEFAULT_255_1_388
10
21.6616166
20
84.5556573
40
0.6014866
50
336.2886209
51
338.3448103
0
ARC
8
DEFAULT_255_1_388
10
21.699641
20
84.5347952
40
0.5582958
50
321.1168943
51
336.6796496
0
ARC
8
DEFAULT_255_1_388
10
21.7707183
20
84.4800644
40
0.4686152
50
305.4418419
51
320.8706891
0
ARC
8
DEFAULT_255_1_388
10
21.7486048
20
84.5641492
40
0.5552257
50
271.6372169
51
283.8614231
0
ARC
8
DEFAULT_255_1_388
10
21.7443501
20
84.6382271
40
0.6293984
50
269.993693
51
271.8317035
0
ARC
8
DEFAULT_255_1_388
10
21.7401326
20
84.547068
40
0.5382553
50
252.5221437
51
270.441579
0
ARC
8
DEFAULT_255_1_388
10
21.7239576
20
84.4864046
40
0.4755426
50
237.5349961
51
252.1858334
0
ARC
8
DEFAULT_255_1_388
10
21.7339952
20
84.499212
40
0.4917393
50
209.0632754
51
237.3492577
0
ARC
8
DEFAULT_255_1_388
10
21.8319278
20
84.5607104
40
0.6072464
50
205.118533
51
209.6465345
0
ARC
8
DEFAULT_255_1_388
10
21.921528
20
84.5987174
40
0.7045164
50
188.7216633
51
204.8239753
0
ARC
8
DEFAULT_255_1_388
10
22.1462056
20
84.6365387
40
0.9323368
50
180.3722704
51
188.9253909
0
ARC
8
DEFAULT_255_1_388
10
22.1431617
20
84.7298416
40
0.929284
50
169.5253055
51
180.2766048
0
ARC
8
DEFAULT_255_1_388
10
21.9291416
20
84.7692024
40
0.7116745
50
155.8314601
51
169.5088611
0
ARC
8
DEFAULT_255_1_388
10
21.7850879
20
84.8360312
40
0.5528904
50
139.6259579
51
156.0379072
0
ARC
8
DEFAULT_255_1_388
10
21.7187413
20
84.8894143
40
0.4677708
50
122.6414784
51
139.3431662
0
ARC
8
DEFAULT_255_1_388
10
21.7300668
20
84.8687787
40
0.4912586
50
93.0224537
51
122.4556091
0
ARC
8
DEFAULT_255_1_388
10
21.7422189
20
84.7601776
40
0.6003837
50
89.9756766
51
93.6340839
0
ARC
8
DEFAULT_255_1_388
10
21.7465886
20
84.8029547
40
0.5576216
50
73.9666049
51
90.4228101
0
ARC
8
DEFAULT_255_1_388
10
21.7672535
20
84.8834139
40
0.4745905
50
57.5177173
51
73.6814962
0
ARC
8
DEFAULT_255_1_388
10
21.7622759
20
84.8793592
40
0.4806881
50
28.7260666
51
57.2767723
0
ARC
8
DEFAULT_255_1_388
10
21.6598166
20
84.8160397
40
0.6010032
50
24.2451459
51
29.3250018
0
ARC
8
DEFAULT_255_1_388
10
21.5556631
20
84.7729744
40
0.713663
50
9.0643887
51
23.9639114
0
ARC
8
DEFAULT_255_1_388
10
21.3019068
20
84.7303505
40
0.9709678
50
359.7585581
51
9.1891216
0
ARC
8
DEFAULT_255_1_388
10
21.1607656
20
84.7318562
40
0.9386278
50
359.7134836
51
7.9655743
0
ARC
8
DEFAULT_255_1_388
10
21.4940355
20
84.7799391
40
0.6019121
50
7.8289718
51
20.0423308
0
ARC
8
DEFAULT_255_1_388
10
21.6767823
20
84.8464145
40
0.4074504
50
20.0676743
51
35.9162425
0
ARC
8
DEFAULT_255_1_388
10
21.7639702
20
84.9112196
40
0.2988273
50
35.659429
51
85.1578517
0
ARC
8
DEFAULT_255_1_388
10
21.7431864
20
84.7857214
40
0.4257521
50
83.7963246
51
90.0959039
0
ARC
8
DEFAULT_255_1_388
10
21.7383408
20
84.8682384
40
0.3432594
50
89.3101324
51
109.9889786
0
ARC
8
DEFAULT_255_1_388
10
21.7290598
20
84.9082665
40
0.3025108
50
110.9286914
51
143.9411475
0
ARC
8
DEFAULT_255_1_388
10
21.83379
20
84.8281455
40
0.434348
50
143.5289166
51
163.2980252
0
ARC
8
DEFAULT_255_1_388
10
22.0484187
20
84.7606685
40
0.659321
50
163.0418884
51
174.3139873
0
ARC
8
DEFAULT_255_1_388
10
22.3189152
20
84.7294378
40
0.9315905
50
174.050934
51
179.4174954
0
ARC
8
DEFAULT_255_1_388
10
22.2610866
20
84.6373922
40
0.8737271
50
179.6829249
51
188.9631837
0
ARC
8
DEFAULT_255_1_388
10
21.9606597
20
84.5884648
40
0.569348
50
188.8098723
51
202.9300437
0
ARC
8
DEFAULT_255_1_388
10
21.8238329
20
84.5327968
40
0.4216493
50
203.2071737
51
215.7877161
0
ARC
8
DEFAULT_255_1_388
10
21.7283612
20
84.457285
40
0.3000949
50
214.7520738
51
264.283405
0
ARC
8
DEFAULT_255_1_388
10
21.7436203
20
84.5534645
40
0.3973553
50
263.4754673
51
270.0952411
0
ARC
8
DEFAULT_255_1_388
10
21.7483596
20
84.5240808
40
0.3679937
50
269.3649295
51
287.5149684
0
ARC
8
DEFAULT_255_1_388
10
21.7684037
20
84.4512714
40
0.2925408
50
288.0629019
51
323.8115617
0
ARC
8
DEFAULT_255_1_388
10
21.6704013
20
84.5243754
40
0.4148018
50
323.6546541
51
342.6591359
0
ARC
8
DEFAULT_255_1_388
10
21.4418671
20
84.598728
40
0.6551163
50
342.4092446
51
353.6451501
0
ARC
8
DEFAULT_255_1_388
10
21.1233465
20
84.6383565
40
0.9760748
50
353.4027553
51
359.4846611
0
LINE
8
DEFAULT_255_1_388
10
23.3219044
20
84.804869
11
23.3219044
21
84.5880135
0
LINE
8
DEFAULT_255_1_388
10
22.4915287
20
84.5654244
11
22.4915287
21
84.7886048
0
LINE
8
DEFAULT_255_1_388
10
23.154745
20
84.5428353
11
23.154745
21
84.8166153
0
LINE
8
DEFAULT_255_1_388
10
22.6586881
20
84.8292652
11
22.6586881
21
84.5618102
0
ARC
8
DEFAULT_255_1_388
10
21.9441378
20
84.5825118
40
1.3777776
50
353.8440855
51
0.2287917
0
ARC
8
DEFAULT_255_1_388
10
22.4660395
20
84.5242414
40
0.852639
50
344.4934746
51
353.9763743
0
ARC
8
DEFAULT_255_1_388
10
22.8027202
20
84.4285191
40
0.5026273
50
329.2803599
51
344.7473406
0
ARC
8
DEFAULT_255_1_388
10
22.9142698
20
84.3673038
40
0.3754848
50
324.9361395
51
328.6153007
0
ARC
8
DEFAULT_255_1_388
10
22.9568348
20
84.3375586
40
0.3235566
50
280.5801797
51
324.9173226
0
ARC
8
DEFAULT_255_1_388
10
22.9116977
20
84.5255236
40
0.5167077
50
269.5979457
51
281.6732777
0
ARC
8
DEFAULT_255_1_388
10
22.903588
20
84.5120113
40
0.5032026
50
256.6228565
51
270.5105488
0
ARC
8
DEFAULT_255_1_388
10
22.8583623
20
84.3378345
40
0.3233092
50
215.8618351
51
257.2787793
0
ARC
8
DEFAULT_255_1_388
10
22.973233
20
84.4149106
40
0.4615831
50
197.9695203
51
215.2622745
0
ARC
8
DEFAULT_255_1_388
10
23.2528006
20
84.5092641
40
0.7566307
50
187.8816486
51
198.2346584
0
ARC
8
DEFAULT_255_1_388
10
23.6981244
20
84.5735453
40
1.2065653
50
180.8977266
51
188.0054894
0
ARC
8
DEFAULT_255_1_388
10
24.0031458
20
84.58504
40
1.5117443
50
180.7434591
51
181.152202
0
ARC
8
DEFAULT_255_1_388
10
23.8356453
20
84.7940371
40
1.3441277
50
173.7674302
51
180.2315596
0
ARC
8
DEFAULT_255_1_388
10
23.3274322
20
84.8514779
40
0.8326847
50
164.3058537
51
173.9000553
0
ARC
8
DEFAULT_255_1_388
10
22.9998322
20
84.9458652
40
0.4917711
50
148.7922028
51
164.5682288
0
ARC
8
DEFAULT_255_1_388
10
22.892906
20
85.0055457
40
0.3694204
50
144.5883979
51
148.1161588
0
ARC
8
DEFAULT_255_1_388
10
22.8541805
20
85.0325667
40
0.322202
50
101.6440149
51
144.5142619
0
ARC
8
DEFAULT_255_1_388
10
22.9019997
20
84.8425337
40
0.5180451
50
89.528284
51
102.5820197
0
ARC
8
DEFAULT_255_1_388
10
22.9108989
20
84.8381376
40
0.5224441
50
77.0437914
51
90.508231
0
ARC
8
DEFAULT_255_1_388
10
22.9561243
20
85.0229272
40
0.3322297
50
48.2777708
51
77.4996087
0
ARC
8
DEFAULT_255_1_388
10
22.9642983
20
85.0374557
40
0.315966
50
36.3141586
51
47.6307332
0
ARC
8
DEFAULT_255_1_388
10
22.8665705
20
84.9716159
40
0.4337313
50
18.2931065
51
35.6770203
0
ARC
8
DEFAULT_255_1_388
10
22.5804546
20
84.8734107
40
0.7362203
50
8.0246996
51
18.5605636
0
ARC
8
DEFAULT_255_1_388
10
22.1120901
20
84.8042432
40
1.2096583
50
1.127539
51
8.1718423
0
ARC
8
DEFAULT_255_1_388
10
21.7472035
20
84.7899374
40
1.5747719
50
0.5432713
51
1.38669
0
ARC
8
DEFAULT_255_1_388
10
21.9529414
20
84.8206163
40
1.2018103
50
359.8092569
51
4.9408001
0
ARC
8
DEFAULT_255_1_388
10
22.4265995
20
84.86289
40
0.7262727
50
4.8364937
51
12.2906017
0
ARC
8
DEFAULT_255_1_388
10
22.736546
20
84.9319485
40
0.4087324
50
12.0806994
51
23.8171225
0
ARC
8
DEFAULT_255_1_388
10
22.8685856
20
84.9878508
40
0.2653719
50
24.2874621
51
31.3934353
0
ARC
8
DEFAULT_255_1_388
10
22.9276291
20
85.0264822
40
0.1948607
50
30.7407708
51
82.4658033
0
ARC
8
DEFAULT_255_1_388
10
22.9073952
20
84.9271017
40
0.2961198
50
81.1057101
51
90.2187368
0
ARC
8
DEFAULT_255_1_388
10
22.9033764
20
84.9561421
40
0.2670929
50
89.380395
51
105.6763916
0
ARC
8
DEFAULT_255_1_388
10
22.8827486
20
85.031132
40
0.1893189
50
105.7980655
51
149.7387869
0
ARC
8
DEFAULT_255_1_388
10
23.0024626
20
84.9591719
40
0.3289892
50
149.4208441
51
163.628295
0
ARC
8
DEFAULT_255_1_388
10
23.2376856
20
84.8874345
40
0.5749004
50
163.3764549
51
172.141138
0
ARC
8
DEFAULT_255_1_388
10
23.6089577
20
84.8342582
40
0.9499585
50
172.0258462
51
178.0705453
0
ARC
8
DEFAULT_255_1_388
10
23.951113
20
84.8180682
40
1.2924734
50
177.8639301
51
179.5036263
0
ARC
8
DEFAULT_255_1_388
10
23.8292149
20
84.5577151
40
1.170534
50
179.7995545
51
185.246089
0
ARC
8
DEFAULT_255_1_388
10
23.3743742
20
84.5146404
40
0.7136613
50
185.1411911
51
193.0082205
0
ARC
8
DEFAULT_255_1_388
10
23.0770003
20
84.4443441
40
0.4080987
50
192.7897338
51
205.2507384
0
ARC
8
DEFAULT_255_1_388
10
22.9592213
20
84.3917538
40
0.2791522
50
205.8001921
51
211.2545876
0
ARC
8
DEFAULT_255_1_388
10
22.9003752
20
84.3523132
40
0.2084074
50
210.3789935
51
238.4007996
0
ARC
8
DEFAULT_255_1_388
10
22.8981838
20
84.3575786
40
0.2117943
50
239.6521916
51
265.9793852
0
ARC
8
DEFAULT_255_1_388
10
22.9077687
20
84.4332358
40
0.2879689
50
265.1324455
51
270.0603288
0
ARC
8
DEFAULT_255_1_388
10
22.9110064
20
84.3967418
40
0.2514919
50
269.3314378
51
287.2180039
0
ARC
8
DEFAULT_255_1_388
10
22.9265146
20
84.3401291
40
0.1928357
50
287.7957942
51
329.0808983
0
ARC
8
DEFAULT_255_1_388
10
22.8187903
20
84.4073651
40
0.319808
50
328.6635261
51
343.3325043
0
ARC
8
DEFAULT_255_1_388
10
22.5743362
20
84.4835195
40
0.5758408
50
343.0498092
51
351.9392499
0
ARC
8
DEFAULT_255_1_388
10
22.1842683
20
84.5410205
40
0.9701202
50
351.8071632
51
357.7957897
0
ARC
8
DEFAULT_255_1_388
10
21.820816
20
84.5598724
40
1.3340376
50
357.5870923
51
359.2682493
0
LINE
8
DEFAULT_255_1_388
10
23.779108
20
84.6295775
11
23.779108
21
84.7660157
0
LINE
8
DEFAULT_255_1_388
10
23.779108
20
84.7660157
11
23.9047035
21
84.7660157
0
LINE
8
DEFAULT_255_1_388
10
23.6905587
20
84.9973282
11
23.5233993
21
84.9973282
0
LINE
8
DEFAULT_255_1_388
10
23.5116529
20
84.3738688
11
23.6797159
21
84.3738688
0
LINE
8
DEFAULT_255_1_388
10
23.9047035
20
84.6295775
11
23.779108
21
84.6295775
0
ARC
8
DEFAULT_255_1_388
10
23.9014261
20
85.1476922
40
0.3816905
50
270.491971
51
281.8953028
0
ARC
8
DEFAULT_255_1_388
10
23.9285688
20
85.0237199
40
0.2547877
50
281.6690378
51
301.2943765
0
ARC
8
DEFAULT_255_1_388
10
23.9477139
20
84.9886926
40
0.2149197
50
301.7834992
51
311.754567
0
ARC
8
DEFAULT_255_1_388
10
23.9580181
20
84.977265
40
0.1995326
50
311.7325027
51
354.2803031
0
ARC
8
DEFAULT_255_1_388
10
23.8762597
20
84.991328
40
0.2823461
50
353.0941646
51
0.1174696
0
ARC
8
DEFAULT_255_1_388
10
23.8244155
20
84.9966874
40
0.3342238
50
359.1804452
51
15.0452323
0
ARC
8
DEFAULT_255_1_388
10
23.9758213
20
85.0408546
40
0.1765747
50
13.957816
51
77.6713812
0
ARC
8
DEFAULT_255_1_388
10
23.9323449
20
84.8850464
40
0.3381982
50
76.111571
51
90.7028736
0
ARC
8
DEFAULT_255_1_388
10
23.9256861
20
84.915825
40
0.3074046
50
89.5321574
51
103.5319393
0
ARC
8
DEFAULT_255_1_388
10
23.9031245
20
85.0057443
40
0.2147041
50
103.2930114
51
133.5619756
0
ARC
8
DEFAULT_255_1_388
10
23.8981186
20
85.0124351
40
0.2064084
50
133.8349761
51
173.5343225
0
ARC
8
DEFAULT_255_1_388
10
23.9794844
20
84.9980144
40
0.2889266
50
172.5097183
51
180.1360699
0
ARC
8
DEFAULT_255_1_388
10
23.8724607
20
85.001888
40
0.3490913
50
155.3483706
51
180.7484035
0
ARC
8
DEFAULT_255_1_388
10
23.8669583
20
84.9986519
40
0.3454798
50
131.5745177
51
154.4799474
0
ARC
8
DEFAULT_255_1_388
10
23.9021866
20
84.9630422
40
0.3955058
50
96.9874487
51
131.9690874
0
ARC
8
DEFAULT_255_1_388
10
23.9268758
20
84.8229407
40
0.537622
50
89.8592909
51
97.7827481
0
ARC
8
DEFAULT_255_1_388
10
23.9322867
20
84.793436
40
0.5671399
50
78.3654493
51
90.4132586
0
ARC
8
DEFAULT_255_1_388
10
23.9725508
20
84.9800918
40
0.3762034
50
56.6229818
51
78.6387103
0
ARC
8
DEFAULT_255_1_388
10
23.9967338
20
85.0223846
40
0.3275964
50
47.0254604
51
56.085558
0
ARC
8
DEFAULT_255_1_388
10
23.9989589
20
85.0268189
40
0.3228382
50
10.9207523
51
46.777927
0
ARC
8
DEFAULT_255_1_388
10
23.8455183
20
84.9913401
40
0.4802559
50
359.6364235
51
11.6087615
0
ARC
8
DEFAULT_255_1_388
10
24.0519348
20
84.9896404
40
0.273833
50
332.3549969
51
359.7179765
0
ARC
8
DEFAULT_255_1_388
10
23.9787749
20
85.0243285
40
0.3547505
50
325.2332381
51
332.8746682
0
ARC
8
DEFAULT_255_1_388
10
23.9959332
20
85.0123763
40
0.3338396
50
292.9803892
51
325.2391113
0
ARC
8
DEFAULT_255_1_388
10
23.9648528
20
85.0728679
40
0.4016959
50
292.542178
51
293.6931461
0
ARC
8
DEFAULT_255_1_388
10
24.00921
20
84.3463036
40
0.372079
50
57.643292
51
72.8626085
0
ARC
8
DEFAULT_255_1_388
10
24.0490934
20
84.4109273
40
0.2961455
50
36.7246661
51
57.4701329
0
ARC
8
DEFAULT_255_1_388
10
24.0478091
20
84.412347
40
0.2963321
50
8.054535
51
36.3561529
0
ARC
8
DEFAULT_255_1_388
10
23.9507763
20
84.3949073
40
0.3948682
50
359.8316595
51
8.5873361
0
ARC
8
DEFAULT_255_1_388
10
23.9085238
20
84.389497
40
0.4371398
50
343.9831631
51
0.557075
0
ARC
8
DEFAULT_255_1_388
10
24.0082287
20
84.3621963
40
0.3337749
50
311.6358204
51
343.7652116
0
ARC
8
DEFAULT_255_1_388
10
23.9656541
20
84.4101955
40
0.3979351
50
279.7829743
51
311.625622
0
ARC
8
DEFAULT_255_1_388
10
23.9317676
20
84.5718642
40
0.5630417
50
269.7285092
51
280.3857694
0
ARC
8
DEFAULT_255_1_388
10
23.9247989
20
84.5672241
40
0.5584119
50
256.6827433
51
270.4412869
0
ARC
8
DEFAULT_255_1_388
10
23.8866976
20
84.4114698
40
0.3980715
50
229.4223821
51
256.8554507
0
ARC
8
DEFAULT_255_1_388
10
23.8400529
20
84.3589683
40
0.3278564
50
181.8183354
51
229.6455015
0
ARC
8
DEFAULT_255_1_388
10
23.9570139
20
84.3736825
40
0.4453611
50
179.9760419
51
183.2330638
0
ARC
8
DEFAULT_255_1_388
10
23.9376691
20
84.3713781
40
0.2579652
50
179.4467996
51
196.2871626
0
ARC
8
DEFAULT_255_1_388
10
23.8828145
20
84.3563709
40
0.2011057
50
196.5661293
51
227.7059371
0
ARC
8
DEFAULT_255_1_388
10
23.9012752
20
84.3770155
40
0.2287994
50
227.7653015
51
257.8763321
0
ARC
8
DEFAULT_255_1_388
10
23.9265835
20
84.4830961
40
0.3378385
50
257.4583525
51
270.4267406
0
ARC
8
DEFAULT_255_1_388
10
23.9317084
20
84.515723
40
0.3704652
50
269.5965319
51
280.8788143
0
ARC
8
DEFAULT_255_1_388
10
23.9575312
20
84.3867529
40
0.2389415
50
280.6347277
51
299.8594068
0
ARC
8
DEFAULT_255_1_388
10
23.9790082
20
84.3459736
40
0.19289
50
300.3575552
51
314.5515667
0
ARC
8
DEFAULT_255_1_388
10
23.9696758
20
84.3528025
40
0.204312
50
315.0730962
51
345.0429362
0
ARC
8
DEFAULT_255_1_388
10
23.8658265
20
84.3830539
40
0.31246
50
344.598526
51
357.9270698
0
ARC
8
DEFAULT_255_1_388
10
23.764857
20
84.3899705
40
0.4136265
50
357.4755098
51
0.0224936
0
ARC
8
DEFAULT_255_1_388
10
23.8801448
20
84.3927099
40
0.2983498
50
359.5051035
51
13.4236939
0
ARC
8
DEFAULT_255_1_388
10
23.9776538
20
84.4176637
40
0.1977186
50
12.9497905
51
48.7550905
0
ARC
8
DEFAULT_255_1_388
10
23.957146
20
84.3896373
40
0.2323321
50
49.509109
51
72.1832965
0
ARC
8
DEFAULT_255_1_388
10
23.9168928
20
84.2701632
40
0.358397
50
71.9008458
51
84.3555134
0
ARC
8
DEFAULT_255_1_388
10
23.8987323
20
84.1169712
40
0.512641
50
84.019632
51
89.3326067
0
LINE
8
DEFAULT_255_1_388
10
22.2728661
20
92.6637589
11
22.2728661
21
92.5797274
0
LINE
8
DEFAULT_255_1_388
10
22.0424571
20
92.0357816
11
22.2773839
21
91.8514544
0
LINE
8
DEFAULT_255_1_388
10
22.2773839
20
91.8514544
11
22.1590169
21
91.7421231
0
LINE
8
DEFAULT_255_1_388
10
22.1590169
20
91.7421231
11
21.8816227
21
91.9625929
0
LINE
8
DEFAULT_255_1_388
10
21.2138885
20
92.5679811
11
21.2138885
21
92.6628553
0
LINE
8
DEFAULT_255_1_388
10
22.0993817
20
92.5670775
11
22.0993817
21
92.6646625
0
LINE
8
DEFAULT_255_1_388
10
21.3873729
20
92.6764088
11
21.3873729
21
92.5797274
0
ARC
8
DEFAULT_255_1_388
10
21.265554
20
92.5753529
40
1.0073215
50
351.4530536
51
0.2488167
0
ARC
8
DEFAULT_255_1_388
10
21.5563709
20
92.5303749
40
0.7130509
50
338.6860608
51
351.554089
0
ARC
8
DEFAULT_255_1_388
10
21.6616166
20
92.4931573
40
0.6014866
50
336.2886209
51
338.3448103
0
ARC
8
DEFAULT_255_1_388
10
21.699641
20
92.4722952
40
0.5582958
50
321.1168943
51
336.6796496
0
ARC
8
DEFAULT_255_1_388
10
21.7707183
20
92.4175644
40
0.4686152
50
305.4418419
51
320.8706891
0
ARC
8
DEFAULT_255_1_388
10
21.7486048
20
92.5016492
40
0.5552257
50
271.6372169
51
283.8614231
0
ARC
8
DEFAULT_255_1_388
10
21.7443501
20
92.5757271
40
0.6293984
50
269.993693
51
271.8317035
0
ARC
8
DEFAULT_255_1_388
10
21.7401326
20
92.484568
40
0.5382553
50
252.5221437
51
270.441579
0
ARC
8
DEFAULT_255_1_388
10
21.7239576
20
92.4239046
40
0.4755426
50
237.5349961
51
252.1858334
0
ARC
8
DEFAULT_255_1_388
10
21.7339952
20
92.436712
40
0.4917393
50
209.0632754
51
237.3492577
0
ARC
8
DEFAULT_255_1_388
10
21.8319278
20
92.4982104
40
0.6072464
50
205.118533
51
209.6465345
0
ARC
8
DEFAULT_255_1_388
10
21.921528
20
92.5362174
40
0.7045164
50
188.7216633
51
204.8239753
0
ARC
8
DEFAULT_255_1_388
10
22.1462056
20
92.5740387
40
0.9323368
50
180.3722704
51
188.9253909
0
ARC
8
DEFAULT_255_1_388
10
22.1431617
20
92.6673416
40
0.929284
50
169.5253055
51
180.2766048
0
ARC
8
DEFAULT_255_1_388
10
21.9291416
20
92.7067024
40
0.7116745
50
155.8314601
51
169.5088611
0
ARC
8
DEFAULT_255_1_388
10
21.7850879
20
92.7735312
40
0.5528904
50
139.6259579
51
156.0379072
0
ARC
8
DEFAULT_255_1_388
10
21.7187413
20
92.8269143
40
0.4677708
50
122.6414784
51
139.3431662
0
ARC
8
DEFAULT_255_1_388
10
21.7300668
20
92.8062787
40
0.4912586
50
93.0224537
51
122.4556091
0
ARC
8
DEFAULT_255_1_388
10
21.7422189
20
92.6976776
40
0.6003837
50
89.9756766
51
93.6340839
0
ARC
8
DEFAULT_255_1_388
10
21.7465886
20
92.7404547
40
0.5576216
50
73.9666049
51
90.4228101
0
ARC
8
DEFAULT_255_1_388
10
21.7672535
20
92.8209139
40
0.4745905
50
57.5177173
51
73.6814962
0
ARC
8
DEFAULT_255_1_388
10
21.7622759
20
92.8168592
40
0.4806881
50
28.7260666
51
57.2767723
0
ARC
8
DEFAULT_255_1_388
10
21.6598166
20
92.7535397
40
0.6010032
50
24.2451459
51
29.3250018
0
ARC
8
DEFAULT_255_1_388
10
21.5556631
20
92.7104744
40
0.713663
50
9.0643887
51
23.9639114
0
ARC
8
DEFAULT_255_1_388
10
21.3019068
20
92.6678505
40
0.9709678
50
359.7585581
51
9.1891216
0
ARC
8
DEFAULT_255_1_388
10
21.1607656
20
92.6693562
40
0.9386278
50
359.7134836
51
7.9655743
0
ARC
8
DEFAULT_255_1_388
10
21.4940355
20
92.7174391
40
0.6019121
50
7.8289718
51
20.0423308
0
ARC
8
DEFAULT_255_1_388
10
21.6767823
20
92.7839145
40
0.4074504
50
20.0676743
51
35.9162425
0
ARC
8
DEFAULT_255_1_388
10
21.7639702
20
92.8487196
40
0.2988273
50
35.659429
51
85.1578517
0
ARC
8
DEFAULT_255_1_388
10
21.7431864
20
92.7232214
40
0.4257521
50
83.7963246
51
90.0959039
0
ARC
8
DEFAULT_255_1_388
10
21.7383408
20
92.8057384
40
0.3432594
50
89.3101324
51
109.9889786
0
ARC
8
DEFAULT_255_1_388
10
21.7290598
20
92.8457665
40
0.3025108
50
110.9286914
51
143.9411475
0
ARC
8
DEFAULT_255_1_388
10
21.83379
20
92.7656455
40
0.434348
50
143.5289166
51
163.2980252
0
ARC
8
DEFAULT_255_1_388
10
22.0484187
20
92.6981685
40
0.659321
50
163.0418884
51
174.3139873
0
ARC
8
DEFAULT_255_1_388
10
22.3189152
20
92.6669378
40
0.9315905
50
174.050934
51
179.4174954
0
ARC
8
DEFAULT_255_1_388
10
22.2610866
20
92.5748922
40
0.8737271
50
179.6829249
51
188.9631837
0
ARC
8
DEFAULT_255_1_388
10
21.9606597
20
92.5259648
40
0.569348
50
188.8098723
51
202.9300437
0
ARC
8
DEFAULT_255_1_388
10
21.8238329
20
92.4702968
40
0.4216493
50
203.2071737
51
215.7877161
0
ARC
8
DEFAULT_255_1_388
10
21.7283612
20
92.394785
40
0.3000949
50
214.7520738
51
264.283405
0
ARC
8
DEFAULT_255_1_388
10
21.7436203
20
92.4909645
40
0.3973553
50
263.4754673
51
270.0952411
0
ARC
8
DEFAULT_255_1_388
10
21.7483596
20
92.4615808
40
0.3679937
50
269.3649295
51
287.5149684
0
ARC
8
DEFAULT_255_1_388
10
21.7684037
20
92.3887714
40
0.2925408
50
288.0629019
51
323.8115617
0
ARC
8
DEFAULT_255_1_388
10
21.6704013
20
92.4618754
40
0.4148018
50
323.6546541
51
342.6591359
0
ARC
8
DEFAULT_255_1_388
10
21.4418671
20
92.536228
40
0.6551163
50
342.4092446
51
353.6451501
0
ARC
8
DEFAULT_255_1_388
10
21.1233465
20
92.5758565
40
0.9760748
50
353.4027553
51
359.4846611
0
LINE
8
DEFAULT_255_1_388
10
23.3219044
20
92.742369
11
23.3219044
21
92.5255135
0
LINE
8
DEFAULT_255_1_388
10
22.4915287
20
92.5029244
11
22.4915287
21
92.7261048
0
LINE
8
DEFAULT_255_1_388
10
23.154745
20
92.4803353
11
23.154745
21
92.7541153
0
LINE
8
DEFAULT_255_1_388
10
22.6586881
20
92.7667652
11
22.6586881
21
92.4993102
0
ARC
8
DEFAULT_255_1_388
10
21.9441378
20
92.5200118
40
1.3777776
50
353.8440855
51
0.2287917
0
ARC
8
DEFAULT_255_1_388
10
22.4660395
20
92.4617414
40
0.852639
50
344.4934746
51
353.9763743
0
ARC
8
DEFAULT_255_1_388
10
22.8027202
20
92.3660191
40
0.5026273
50
329.2803599
51
344.7473406
0
ARC
8
DEFAULT_255_1_388
10
22.9142698
20
92.3048038
40
0.3754848
50
324.9361395
51
328.6153007
0
ARC
8
DEFAULT_255_1_388
10
22.9568348
20
92.2750586
40
0.3235566
50
280.5801797
51
324.9173226
0
ARC
8
DEFAULT_255_1_388
10
22.9116977
20
92.4630236
40
0.5167077
50
269.5979457
51
281.6732777
0
ARC
8
DEFAULT_255_1_388
10
22.903588
20
92.4495113
40
0.5032026
50
256.6228565
51
270.5105488
0
ARC
8
DEFAULT_255_1_388
10
22.8583623
20
92.2753345
40
0.3233092
50
215.8618351
51
257.2787793
0
ARC
8
DEFAULT_255_1_388
10
22.973233
20
92.3524106
40
0.4615831
50
197.9695203
51
215.2622745
0
ARC
8
DEFAULT_255_1_388
10
23.2528006
20
92.4467641
40
0.7566307
50
187.8816486
51
198.2346584
0
ARC
8
DEFAULT_255_1_388
10
23.6981244
20
92.5110453
40
1.2065653
50
180.8977266
51
188.0054894
0
ARC
8
DEFAULT_255_1_388
10
24.0031458
20
92.52254
40
1.5117443
50
180.7434591
51
181.152202
0
ARC
8
DEFAULT_255_1_388
10
23.8356453
20
92.7315371
40
1.3441277
50
173.7674302
51
180.2315596
0
ARC
8
DEFAULT_255_1_388
10
23.3274322
20
92.7889779
40
0.8326847
50
164.3058537
51
173.9000553
0
ARC
8
DEFAULT_255_1_388
10
22.9998322
20
92.8833652
40
0.4917711
50
148.7922028
51
164.5682288
0
ARC
8
DEFAULT_255_1_388
10
22.892906
20
92.9430457
40
0.3694204
50
144.5883979
51
148.1161588
0
ARC
8
DEFAULT_255_1_388
10
22.8541805
20
92.9700667
40
0.322202
50
101.6440149
51
144.5142619
0
ARC
8
DEFAULT_255_1_388
10
22.9019997
20
92.7800337
40
0.5180451
50
89.528284
51
102.5820197
0
ARC
8
DEFAULT_255_1_388
10
22.9108989
20
92.7756376
40
0.5224441
50
77.0437914
51
90.508231
0
ARC
8
DEFAULT_255_1_388
10
22.9561243
20
92.9604272
40
0.3322297
50
48.2777708
51
77.4996087
0
ARC
8
DEFAULT_255_1_388
10
22.9642983
20
92.9749557
40
0.315966
50
36.3141586
51
47.6307332
0
ARC
8
DEFAULT_255_1_388
10
22.8665705
20
92.9091159
40
0.4337313
50
18.2931065
51
35.6770203
0
ARC
8
DEFAULT_255_1_388
10
22.5804546
20
92.8109107
40
0.7362203
50
8.0246996
51
18.5605636
0
ARC
8
DEFAULT_255_1_388
10
22.1120901
20
92.7417432
40
1.2096583
50
1.127539
51
8.1718423
0
ARC
8
DEFAULT_255_1_388
10
21.7472035
20
92.7274374
40
1.5747719
50
0.5432713
51
1.38669
0
ARC
8
DEFAULT_255_1_388
10
21.9529414
20
92.7581163
40
1.2018103
50
359.8092569
51
4.9408001
0
ARC
8
DEFAULT_255_1_388
10
22.4265995
20
92.80039
40
0.7262727
50
4.8364937
51
12.2906017
0
ARC
8
DEFAULT_255_1_388
10
22.736546
20
92.8694485
40
0.4087324
50
12.0806994
51
23.8171225
0
ARC
8
DEFAULT_255_1_388
10
22.8685856
20
92.9253508
40
0.2653719
50
24.2874621
51
31.3934353
0
ARC
8
DEFAULT_255_1_388
10
22.9276291
20
92.9639822
40
0.1948607
50
30.7407708
51
82.4658033
0
ARC
8
DEFAULT_255_1_388
10
22.9073952
20
92.8646017
40
0.2961198
50
81.1057101
51
90.2187368
0
ARC
8
DEFAULT_255_1_388
10
22.9033764
20
92.8936421
40
0.2670929
50
89.380395
51
105.6763916
0
ARC
8
DEFAULT_255_1_388
10
22.8827486
20
92.968632
40
0.1893189
50
105.7980655
51
149.7387869
0
ARC
8
DEFAULT_255_1_388
10
23.0024626
20
92.8966719
40
0.3289892
50
149.4208441
51
163.628295
0
ARC
8
DEFAULT_255_1_388
10
23.2376856
20
92.8249345
40
0.5749004
50
163.3764549
51
172.141138
0
ARC
8
DEFAULT_255_1_388
10
23.6089577
20
92.7717582
40
0.9499585
50
172.0258462
51
178.0705453
0
ARC
8
DEFAULT_255_1_388
10
23.951113
20
92.7555682
40
1.2924734
50
177.8639301
51
179.5036263
0
ARC
8
DEFAULT_255_1_388
10
23.8292149
20
92.4952151
40
1.170534
50
179.7995545
51
185.246089
0
ARC
8
DEFAULT_255_1_388
10
23.3743742
20
92.4521404
40
0.7136613
50
185.1411911
51
193.0082205
0
ARC
8
DEFAULT_255_1_388
10
23.0770003
20
92.3818441
40
0.4080987
50
192.7897338
51
205.2507384
0
ARC
8
DEFAULT_255_1_388
10
22.9592213
20
92.3292538
40
0.2791522
50
205.8001921
51
211.2545876
0
ARC
8
DEFAULT_255_1_388
10
22.9003752
20
92.2898132
40
0.2084074
50
210.3789935
51
238.4007996
0
ARC
8
DEFAULT_255_1_388
10
22.8981838
20
92.2950786
40
0.2117943
50
239.6521916
51
265.9793852
0
ARC
8
DEFAULT_255_1_388
10
22.9077687
20
92.3707358
40
0.2879689
50
265.1324455
51
270.0603288
0
ARC
8
DEFAULT_255_1_388
10
22.9110064
20
92.3342418
40
0.2514919
50
269.3314378
51
287.2180039
0
ARC
8
DEFAULT_255_1_388
10
22.9265146
20
92.2776291
40
0.1928357
50
287.7957942
51
329.0808983
0
ARC
8
DEFAULT_255_1_388
10
22.8187903
20
92.3448651
40
0.319808
50
328.6635261
51
343.3325043
0
ARC
8
DEFAULT_255_1_388
10
22.5743362
20
92.4210195
40
0.5758408
50
343.0498092
51
351.9392499
0
ARC
8
DEFAULT_255_1_388
10
22.1842683
20
92.4785205
40
0.9701202
50
351.8071632
51
357.7957897
0
ARC
8
DEFAULT_255_1_388
10
21.820816
20
92.4973724
40
1.3340376
50
357.5870923
51
359.2682493
0
LINE
8
DEFAULT_255_1_388
10
24.3980497
20
92.1008382
11
24.3980497
21
91.9644
0
LINE
8
DEFAULT_255_1_388
10
24.3980497
20
91.9644
11
23.5360492
21
91.9644
0
LINE
8
DEFAULT_255_1_388
10
23.5360492
20
91.9644
11
23.5360492
21
92.0845741
0
LINE
8
DEFAULT_255_1_388
10
23.5360492
20
92.0845741
11
23.9914457
21
92.5905702
0
LINE
8
DEFAULT_255_1_388
10
23.6779088
20
92.8923607
11
23.5107494
21
92.8923607
0
LINE
8
DEFAULT_255_1_388
10
24.0899342
20
92.483046
11
23.737544
21
92.1008382
0
LINE
8
DEFAULT_255_1_388
10
23.737544
20
92.1008382
11
24.3980497
21
92.1008382
0
ARC
8
DEFAULT_255_1_388
10
22.4738516
20
93.9325983
40
2.0258655
50
318.5132526
51
320.7829045
0
ARC
8
DEFAULT_255_1_388
10
23.0686473
20
93.4484929
40
1.2589638
50
320.7372878
51
323.9739031
0
ARC
8
DEFAULT_255_1_388
10
23.5095405
20
93.1290554
40
0.7145141
50
323.8962701
51
328.64194
0
ARC
8
DEFAULT_255_1_388
10
23.7397662
20
92.9870545
40
0.4440242
50
328.8294576
51
331.7891185
0
ARC
8
DEFAULT_255_1_388
10
23.8519982
20
92.9291374
40
0.3177517
50
331.4254512
51
352.9365785
0
ARC
8
DEFAULT_255_1_388
10
23.8672982
20
92.925705
40
0.3021496
50
353.2257659
51
0.0166158
0
ARC
8
DEFAULT_255_1_388
10
23.8909743
20
92.9282894
40
0.2784847
50
359.486299
51
15.9343185
0
ARC
8
DEFAULT_255_1_388
10
23.948001
20
92.9436269
40
0.2194403
50
16.1712913
51
43.5286088
0
ARC
8
DEFAULT_255_1_388
10
23.9566954
20
92.9523191
40
0.2071504
50
43.4417391
51
83.1661095
0
ARC
8
DEFAULT_255_1_388
10
23.9416115
20
92.8694316
40
0.2912888
50
82.160179
51
90.1505708
0
ARC
8
DEFAULT_255_1_388
10
23.9380597
20
92.8090279
40
0.3517025
50
89.5460741
51
102.5418361
0
ARC
8
DEFAULT_255_1_388
10
23.9107317
20
92.9249933
40
0.2325748
50
102.1738499
51
129.206123
0
ARC
8
DEFAULT_255_1_388
10
23.901877
20
92.9389664
40
0.2161591
50
129.72865
51
135.753947
0
ARC
8
DEFAULT_255_1_388
10
23.9155253
20
92.9280728
40
0.2335433
50
136.1757367
51
166.3673339
0
ARC
8
DEFAULT_255_1_388
10
24.0287941
20
92.8977148
40
0.3507873
50
165.9090694
51
178.8684636
0
ARC
8
DEFAULT_255_1_388
10
24.1263712
20
92.8924263
40
0.4484624
50
178.4391136
51
180.0083808
0
ARC
8
DEFAULT_255_1_388
10
23.9684414
20
92.8968197
40
0.4577138
50
163.2878482
51
180.5581842
0
ARC
8
DEFAULT_255_1_388
10
23.8782455
20
92.9216393
40
0.3641968
50
133.4540601
51
162.947111
0
ARC
8
DEFAULT_255_1_388
10
23.8983337
20
92.9002789
40
0.3935189
50
100.7869829
51
133.4382499
0
ARC
8
DEFAULT_255_1_388
10
23.9374582
20
92.7260399
40
0.5720313
50
89.660664
51
101.3702276
0
ARC
8
DEFAULT_255_1_388
10
23.9449191
20
92.7329263
40
0.5651495
50
78.2172678
51
90.412935
0
ARC
8
DEFAULT_255_1_388
10
23.9848657
20
92.9156511
40
0.378122
50
55.9269121
51
78.4888449
0
ARC
8
DEFAULT_255_1_388
10
24.0069372
20
92.9537187
40
0.3342379
50
47.929771
51
55.4049217
0
ARC
8
DEFAULT_255_1_388
10
24.0183902
20
92.9653618
40
0.3179217
50
4.334829
51
48.0560205
0
ARC
8
DEFAULT_255_1_388
10
23.8951704
20
92.9462487
40
0.442341
50
359.9251713
51
5.5971671
0
ARC
8
DEFAULT_255_1_388
10
23.9433858
20
92.9525728
40
0.3941854
50
337.8914027
51
358.9967534
0
ARC
8
DEFAULT_255_1_388
10
23.6381429
20
93.0703295
40
0.7213271
50
326.9132501
51
338.3508308
0
ARC
8
DEFAULT_255_1_388
10
23.189754
20
93.3577105
40
1.2538973
50
319.6471833
51
327.0959558
0
ARC
8
DEFAULT_255_1_388
10
22.7584199
20
93.713505
40
1.8129975
50
317.2588228
51
319.9045804
0
LINE
8
DEFAULT_255_1_388
10
22.2802661
20
100.6012589
11
22.2802661
21
100.5172274
0
LINE
8
DEFAULT_255_1_388
10
22.0498571
20
99.9732816
11
22.2847839
21
99.7889544
0
LINE
8
DEFAULT_255_1_388
10
22.2847839
20
99.7889544
11
22.1664169
21
99.6796231
0
LINE
8
DEFAULT_255_1_388
10
22.1664169
20
99.6796231
11
21.8890227
21
99.9000929
0
LINE
8
DEFAULT_255_1_388
10
21.2212885
20
100.5054811
11
21.2212885
21
100.6003553
0
LINE
8
DEFAULT_255_1_388
10
22.1067817
20
100.5045775
11
22.1067817
21
100.6021625
0
LINE
8
DEFAULT_255_1_388
10
21.3947729
20
100.6139088
11
21.3947729
21
100.5172274
0
ARC
8
DEFAULT_255_1_388
10
21.272954
20
100.5128529
40
1.0073215
50
351.4530536
51
0.2488167
0
ARC
8
DEFAULT_255_1_388
10
21.5637709
20
100.4678749
40
0.7130509
50
338.6860608
51
351.554089
0
ARC
8
DEFAULT_255_1_388
10
21.6690166
20
100.4306573
40
0.6014866
50
336.2886209
51
338.3448103
0
ARC
8
DEFAULT_255_1_388
10
21.707041
20
100.4097952
40
0.5582958
50
321.1168943
51
336.6796496
0
ARC
8
DEFAULT_255_1_388
10
21.7781183
20
100.3550644
40
0.4686152
50
305.4418419
51
320.8706891
0
ARC
8
DEFAULT_255_1_388
10
21.7560048
20
100.4391492
40
0.5552257
50
271.6372169
51
283.8614231
0
ARC
8
DEFAULT_255_1_388
10
21.7517501
20
100.5132271
40
0.6293984
50
269.993693
51
271.8317035
0
ARC
8
DEFAULT_255_1_388
10
21.7475326
20
100.422068
40
0.5382553
50
252.5221437
51
270.441579
0
ARC
8
DEFAULT_255_1_388
10
21.7313576
20
100.3614046
40
0.4755426
50
237.5349961
51
252.1858334
0
ARC
8
DEFAULT_255_1_388
10
21.7413952
20
100.374212
40
0.4917393
50
209.0632754
51
237.3492577
0
ARC
8
DEFAULT_255_1_388
10
21.8393278
20
100.4357104
40
0.6072464
50
205.118533
51
209.6465345
0
ARC
8
DEFAULT_255_1_388
10
21.928928
20
100.4737174
40
0.7045164
50
188.7216633
51
204.8239753
0
ARC
8
DEFAULT_255_1_388
10
22.1536056
20
100.5115387
40
0.9323368
50
180.3722704
51
188.9253909
0
ARC
8
DEFAULT_255_1_388
10
22.1505617
20
100.6048416
40
0.929284
50
169.5253055
51
180.2766048
0
ARC
8
DEFAULT_255_1_388
10
21.9365416
20
100.6442024
40
0.7116745
50
155.8314601
51
169.5088611
0
ARC
8
DEFAULT_255_1_388
10
21.7924879
20
100.7110312
40
0.5528904
50
139.6259579
51
156.0379072
0
ARC
8
DEFAULT_255_1_388
10
21.7261413
20
100.7644143
40
0.4677708
50
122.6414784
51
139.3431662
0
ARC
8
DEFAULT_255_1_388
10
21.7374668
20
100.7437787
40
0.4912586
50
93.0224537
51
122.4556091
0
ARC
8
DEFAULT_255_1_388
10
21.7496189
20
100.6351776
40
0.6003837
50
89.9756766
51
93.6340839
0
ARC
8
DEFAULT_255_1_388
10
21.7539886
20
100.6779547
40
0.5576216
50
73.9666049
51
90.4228101
0
ARC
8
DEFAULT_255_1_388
10
21.7746535
20
100.7584139
40
0.4745905
50
57.5177173
51
73.6814962
0
ARC
8
DEFAULT_255_1_388
10
21.7696759
20
100.7543592
40
0.4806881
50
28.7260666
51
57.2767723
0
ARC
8
DEFAULT_255_1_388
10
21.6672166
20
100.6910397
40
0.6010032
50
24.2451459
51
29.3250018
0
ARC
8
DEFAULT_255_1_388
10
21.5630631
20
100.6479744
40
0.713663
50
9.0643887
51
23.9639114
0
ARC
8
DEFAULT_255_1_388
10
21.3093068
20
100.6053505
40
0.9709678
50
359.7585581
51
9.1891216
0
ARC
8
DEFAULT_255_1_388
10
21.1681656
20
100.6068562
40
0.9386278
50
359.7134836
51
7.9655743
0
ARC
8
DEFAULT_255_1_388
10
21.5014355
20
100.6549391
40
0.6019121
50
7.8289718
51
20.0423308
0
ARC
8
DEFAULT_255_1_388
10
21.6841823
20
100.7214145
40
0.4074504
50
20.0676743
51
35.9162425
0
ARC
8
DEFAULT_255_1_388
10
21.7713702
20
100.7862196
40
0.2988273
50
35.659429
51
85.1578517
0
ARC
8
DEFAULT_255_1_388
10
21.7505864
20
100.6607214
40
0.4257521
50
83.7963246
51
90.0959039
0
ARC
8
DEFAULT_255_1_388
10
21.7457408
20
100.7432384
40
0.3432594
50
89.3101324
51
109.9889786
0
ARC
8
DEFAULT_255_1_388
10
21.7364598
20
100.7832665
40
0.3025108
50
110.9286914
51
143.9411475
0
ARC
8
DEFAULT_255_1_388
10
21.84119
20
100.7031455
40
0.434348
50
143.5289166
51
163.2980252
0
ARC
8
DEFAULT_255_1_388
10
22.0558187
20
100.6356685
40
0.659321
50
163.0418884
51
174.3139873
0
ARC
8
DEFAULT_255_1_388
10
22.3263152
20
100.6044378
40
0.9315905
50
174.050934
51
179.4174954
0
ARC
8
DEFAULT_255_1_388
10
22.2684866
20
100.5123922
40
0.8737271
50
179.6829249
51
188.9631837
0
ARC
8
DEFAULT_255_1_388
10
21.9680597
20
100.4634648
40
0.569348
50
188.8098723
51
202.9300437
0
ARC
8
DEFAULT_255_1_388
10
21.8312329
20
100.4077968
40
0.4216493
50
203.2071737
51
215.7877161
0
ARC
8
DEFAULT_255_1_388
10
21.7357612
20
100.332285
40
0.3000949
50
214.7520738
51
264.283405
0
ARC
8
DEFAULT_255_1_388
10
21.7510203
20
100.4284645
40
0.3973553
50
263.4754673
51
270.0952411
0
ARC
8
DEFAULT_255_1_388
10
21.7557596
20
100.3990808
40
0.3679937
50
269.3649295
51
287.5149684
0
ARC
8
DEFAULT_255_1_388
10
21.7758037
20
100.3262714
40
0.2925408
50
288.0629019
51
323.8115617
0
ARC
8
DEFAULT_255_1_388
10
21.6778013
20
100.3993754
40
0.4148018
50
323.6546541
51
342.6591359
0
ARC
8
DEFAULT_255_1_388
10
21.4492671
20
100.473728
40
0.6551163
50
342.4092446
51
353.6451501
0
ARC
8
DEFAULT_255_1_388
10
21.1307465
20
100.5133565
40
0.9760748
50
353.4027553
51
359.4846611
0
LINE
8
DEFAULT_255_1_388
10
23.3293044
20
100.679869
11
23.3293044
21
100.4630135
0
LINE
8
DEFAULT_255_1_388
10
22.4989287
20
100.4404244
11
22.4989287
21
100.6636048
0
LINE
8
DEFAULT_255_1_388
10
23.162145
20
100.4178353
11
23.162145
21
100.6916153
0
LINE
8
DEFAULT_255_1_388
10
22.6660881
20
100.7042652
11
22.6660881
21
100.4368102
0
ARC
8
DEFAULT_255_1_388
10
21.9515378
20
100.4575118
40
1.3777776
50
353.8440855
51
0.2287917
0
ARC
8
DEFAULT_255_1_388
10
22.4734395
20
100.3992414
40
0.852639
50
344.4934746
51
353.9763743
0
ARC
8
DEFAULT_255_1_388
10
22.8101202
20
100.3035191
40
0.5026273
50
329.2803599
51
344.7473406
0
ARC
8
DEFAULT_255_1_388
10
22.9216698
20
100.2423038
40
0.3754848
50
324.9361395
51
328.6153007
0
ARC
8
DEFAULT_255_1_388
10
22.9642348
20
100.2125586
40
0.3235566
50
280.5801797
51
324.9173226
0
ARC
8
DEFAULT_255_1_388
10
22.9190977
20
100.4005236
40
0.5167077
50
269.5979457
51
281.6732777
0
ARC
8
DEFAULT_255_1_388
10
22.910988
20
100.3870113
40
0.5032026
50
256.6228565
51
270.5105488
0
ARC
8
DEFAULT_255_1_388
10
22.8657623
20
100.2128345
40
0.3233092
50
215.8618351
51
257.2787793
0
ARC
8
DEFAULT_255_1_388
10
22.980633
20
100.2899106
40
0.4615831
50
197.9695203
51
215.2622745
0
ARC
8
DEFAULT_255_1_388
10
23.2602006
20
100.3842641
40
0.7566307
50
187.8816486
51
198.2346584
0
ARC
8
DEFAULT_255_1_388
10
23.7055244
20
100.4485453
40
1.2065653
50
180.8977266
51
188.0054894
0
ARC
8
DEFAULT_255_1_388
10
24.0105458
20
100.46004
40
1.5117443
50
180.7434591
51
181.152202
0
ARC
8
DEFAULT_255_1_388
10
23.8430453
20
100.6690371
40
1.3441277
50
173.7674302
51
180.2315596
0
ARC
8
DEFAULT_255_1_388
10
23.3348322
20
100.7264779
40
0.8326847
50
164.3058537
51
173.9000553
0
ARC
8
DEFAULT_255_1_388
10
23.0072322
20
100.8208652
40
0.4917711
50
148.7922028
51
164.5682288
0
ARC
8
DEFAULT_255_1_388
10
22.900306
20
100.8805457
40
0.3694204
50
144.5883979
51
148.1161588
0
ARC
8
DEFAULT_255_1_388
10
22.8615805
20
100.9075667
40
0.322202
50
101.6440149
51
144.5142619
0
ARC
8
DEFAULT_255_1_388
10
22.9093997
20
100.7175337
40
0.5180451
50
89.528284
51
102.5820197
0
ARC
8
DEFAULT_255_1_388
10
22.9182989
20
100.7131376
40
0.5224441
50
77.0437914
51
90.508231
0
ARC
8
DEFAULT_255_1_388
10
22.9635243
20
100.8979272
40
0.3322297
50
48.2777708
51
77.4996087
0
ARC
8
DEFAULT_255_1_388
10
22.9716983
20
100.9124557
40
0.315966
50
36.3141586
51
47.6307332
0
ARC
8
DEFAULT_255_1_388
10
22.8739705
20
100.8466159
40
0.4337313
50
18.2931065
51
35.6770203
0
ARC
8
DEFAULT_255_1_388
10
22.5878546
20
100.7484107
40
0.7362203
50
8.0246996
51
18.5605636
0
ARC
8
DEFAULT_255_1_388
10
22.1194901
20
100.6792432
40
1.2096583
50
1.127539
51
8.1718423
0
ARC
8
DEFAULT_255_1_388
10
21.7546035
20
100.6649374
40
1.5747719
50
0.5432713
51
1.38669
0
ARC
8
DEFAULT_255_1_388
10
21.9603414
20
100.6956163
40
1.2018103
50
359.8092569
51
4.9408001
0
ARC
8
DEFAULT_255_1_388
10
22.4339995
20
100.73789
40
0.7262727
50
4.8364937
51
12.2906017
0
ARC
8
DEFAULT_255_1_388
10
22.743946
20
100.8069485
40
0.4087324
50
12.0806994
51
23.8171225
0
ARC
8
DEFAULT_255_1_388
10
22.8759856
20
100.8628508
40
0.2653719
50
24.2874621
51
31.3934353
0
ARC
8
DEFAULT_255_1_388
10
22.9350291
20
100.9014822
40
0.1948607
50
30.7407708
51
82.4658033
0
ARC
8
DEFAULT_255_1_388
10
22.9147952
20
100.8021017
40
0.2961198
50
81.1057101
51
90.2187368
0
ARC
8
DEFAULT_255_1_388
10
22.9107764
20
100.8311421
40
0.2670929
50
89.380395
51
105.6763916
0
ARC
8
DEFAULT_255_1_388
10
22.8901486
20
100.906132
40
0.1893189
50
105.7980655
51
149.7387869
0
ARC
8
DEFAULT_255_1_388
10
23.0098626
20
100.8341719
40
0.3289892
50
149.4208441
51
163.628295
0
ARC
8
DEFAULT_255_1_388
10
23.2450856
20
100.7624345
40
0.5749004
50
163.3764549
51
172.141138
0
ARC
8
DEFAULT_255_1_388
10
23.6163577
20
100.7092582
40
0.9499585
50
172.0258462
51
178.0705453
0
ARC
8
DEFAULT_255_1_388
10
23.958513
20
100.6930682
40
1.2924734
50
177.8639301
51
179.5036263
0
ARC
8
DEFAULT_255_1_388
10
23.8366149
20
100.4327151
40
1.170534
50
179.7995545
51
185.246089
0
ARC
8
DEFAULT_255_1_388
10
23.3817742
20
100.3896404
40
0.7136613
50
185.1411911
51
193.0082205
0
ARC
8
DEFAULT_255_1_388
10
23.0844003
20
100.3193441
40
0.4080987
50
192.7897338
51
205.2507384
0
ARC
8
DEFAULT_255_1_388
10
22.9666213
20
100.2667538
40
0.2791522
50
205.8001921
51
211.2545876
0
ARC
8
DEFAULT_255_1_388
10
22.9077752
20
100.2273132
40
0.2084074
50
210.3789935
51
238.4007996
0
ARC
8
DEFAULT_255_1_388
10
22.9055838
20
100.2325786
40
0.2117943
50
239.6521916
51
265.9793852
0
ARC
8
DEFAULT_255_1_388
10
22.9151687
20
100.3082358
40
0.2879689
50
265.1324455
51
270.0603288
0
ARC
8
DEFAULT_255_1_388
10
22.9184064
20
100.2717418
40
0.2514919
50
269.3314378
51
287.2180039
0
ARC
8
DEFAULT_255_1_388
10
22.9339146
20
100.2151291
40
0.1928357
50
287.7957942
51
329.0808983
0
ARC
8
DEFAULT_255_1_388
10
22.8261903
20
100.2823651
40
0.319808
50
328.6635261
51
343.3325043
0
ARC
8
DEFAULT_255_1_388
10
22.5817362
20
100.3585195
40
0.5758408
50
343.0498092
51
351.9392499
0
ARC
8
DEFAULT_255_1_388
10
22.1916683
20
100.4160205
40
0.9701202
50
351.8071632
51
357.7957897
0
ARC
8
DEFAULT_255_1_388
10
21.828216
20
100.4348724
40
1.3340376
50
357.5870923
51
359.2682493
0
LINE
8
DEFAULT_255_1_388
10
24.0928164
20
101.2238148
11
24.0928164
21
99.9019
0
LINE
8
DEFAULT_255_1_388
10
24.0928164
20
99.9019
11
23.9247534
21
99.9019
0
LINE
8
DEFAULT_255_1_388
10
23.9247534
20
99.9019
11
23.9247534
21
101.015995
0
LINE
8
DEFAULT_255_1_388
10
23.9247534
20
101.015995
11
23.5877238
21
100.8922066
0
LINE
8
DEFAULT_255_1_388
10
23.5877238
20
100.8922066
11
23.5877238
21
101.0440055
0
LINE
8
DEFAULT_255_1_388
10
23.5877238
20
101.0440055
11
24.066613
21
101.2238148
0
LINE
8
DEFAULT_255_1_388
10
24.066613
20
101.2238148
11
24.0928164
21
101.2238148
0
LINE
8
DEFAULT_255_1_388
10
22.2728661
20
108.5387589
11
22.2728661
21
108.4547274
0
LINE
8
DEFAULT_255_1_388
10
22.0424571
20
107.9107816
11
22.2773839
21
107.7264544
0
LINE
8
DEFAULT_255_1_388
10
22.2773839
20
107.7264544
11
22.1590169
21
107.6171231
0
LINE
8
DEFAULT_255_1_388
10
22.1590169
20
107.6171231
11
21.8816227
21
107.8375929
0
LINE
8
DEFAULT_255_1_388
10
21.2138885
20
108.4429811
11
21.2138885
21
108.5378553
0
LINE
8
DEFAULT_255_1_388
10
22.0993817
20
108.4420775
11
22.0993817
21
108.5396625
0
LINE
8
DEFAULT_255_1_388
10
21.3873729
20
108.5514088
11
21.3873729
21
108.4547274
0
ARC
8
DEFAULT_255_1_388
10
21.265554
20
108.4503529
40
1.0073215
50
351.4530536
51
0.2488167
0
ARC
8
DEFAULT_255_1_388
10
21.5563709
20
108.4053749
40
0.7130509
50
338.6860608
51
351.554089
0
ARC
8
DEFAULT_255_1_388
10
21.6616166
20
108.3681573
40
0.6014866
50
336.2886209
51
338.3448103
0
ARC
8
DEFAULT_255_1_388
10
21.699641
20
108.3472952
40
0.5582958
50
321.1168943
51
336.6796496
0
ARC
8
DEFAULT_255_1_388
10
21.7707183
20
108.2925644
40
0.4686152
50
305.4418419
51
320.8706891
0
ARC
8
DEFAULT_255_1_388
10
21.7486048
20
108.3766492
40
0.5552257
50
271.6372169
51
283.8614231
0
ARC
8
DEFAULT_255_1_388
10
21.7443501
20
108.4507271
40
0.6293984
50
269.993693
51
271.8317035
0
ARC
8
DEFAULT_255_1_388
10
21.7401326
20
108.359568
40
0.5382553
50
252.5221437
51
270.441579
0
ARC
8
DEFAULT_255_1_388
10
21.7239576
20
108.2989046
40
0.4755426
50
237.5349961
51
252.1858334
0
ARC
8
DEFAULT_255_1_388
10
21.7339952
20
108.311712
40
0.4917393
50
209.0632754
51
237.3492577
0
ARC
8
DEFAULT_255_1_388
10
21.8319278
20
108.3732104
40
0.6072464
50
205.118533
51
209.6465345
0
ARC
8
DEFAULT_255_1_388
10
21.921528
20
108.4112174
40
0.7045164
50
188.7216633
51
204.8239753
0
ARC
8
DEFAULT_255_1_388
10
22.1462056
20
108.4490387
40
0.9323368
50
180.3722704
51
188.9253909
0
ARC
8
DEFAULT_255_1_388
10
22.1431617
20
108.5423416
40
0.929284
50
169.5253055
51
180.2766048
0
ARC
8
DEFAULT_255_1_388
10
21.9291416
20
108.5817024
40
0.7116745
50
155.8314601
51
169.5088611
0
ARC
8
DEFAULT_255_1_388
10
21.7850879
20
108.6485312
40
0.5528904
50
139.6259579
51
156.0379072
0
ARC
8
DEFAULT_255_1_388
10
21.7187413
20
108.7019143
40
0.4677708
50
122.6414784
51
139.3431662
0
ARC
8
DEFAULT_255_1_388
10
21.7300668
20
108.6812787
40
0.4912586
50
93.0224537
51
122.4556091
0
ARC
8
DEFAULT_255_1_388
10
21.7422189
20
108.5726776
40
0.6003837
50
89.9756766
51
93.6340839
0
ARC
8
DEFAULT_255_1_388
10
21.7465886
20
108.6154547
40
0.5576216
50
73.9666049
51
90.4228101
0
ARC
8
DEFAULT_255_1_388
10
21.7672535
20
108.6959139
40
0.4745905
50
57.5177173
51
73.6814962
0
ARC
8
DEFAULT_255_1_388
10
21.7622759
20
108.6918592
40
0.4806881
50
28.7260666
51
57.2767723
0
ARC
8
DEFAULT_255_1_388
10
21.6598166
20
108.6285397
40
0.6010032
50
24.2451459
51
29.3250018
0
ARC
8
DEFAULT_255_1_388
10
21.5556631
20
108.5854744
40
0.713663
50
9.0643887
51
23.9639114
0
ARC
8
DEFAULT_255_1_388
10
21.3019068
20
108.5428505
40
0.9709678
50
359.7585581
51
9.1891216
0
ARC
8
DEFAULT_255_1_388
10
21.1607656
20
108.5443562
40
0.9386278
50
359.7134836
51
7.9655743
0
ARC
8
DEFAULT_255_1_388
10
21.4940355
20
108.5924391
40
0.6019121
50
7.8289718
51
20.0423308
0
ARC
8
DEFAULT_255_1_388
10
21.6767823
20
108.6589145
40
0.4074504
50
20.0676743
51
35.9162425
0
ARC
8
DEFAULT_255_1_388
10
21.7639702
20
108.7237196
40
0.2988273
50
35.659429
51
85.1578517
0
ARC
8
DEFAULT_255_1_388
10
21.7431864
20
108.5982214
40
0.4257521
50
83.7963246
51
90.0959039
0
ARC
8
DEFAULT_255_1_388
10
21.7383408
20
108.6807384
40
0.3432594
50
89.3101324
51
109.9889786
0
ARC
8
DEFAULT_255_1_388
10
21.7290598
20
108.7207665
40
0.3025108
50
110.9286914
51
143.9411475
0
ARC
8
DEFAULT_255_1_388
10
21.83379
20
108.6406455
40
0.434348
50
143.5289166
51
163.2980252
0
ARC
8
DEFAULT_255_1_388
10
22.0484187
20
108.5731685
40
0.659321
50
163.0418884
51
174.3139873
0
ARC
8
DEFAULT_255_1_388
10
22.3189152
20
108.5419378
40
0.9315905
50
174.050934
51
179.4174954
0
ARC
8
DEFAULT_255_1_388
10
22.2610866
20
108.4498922
40
0.8737271
50
179.6829249
51
188.9631837
0
ARC
8
DEFAULT_255_1_388
10
21.9606597
20
108.4009648
40
0.569348
50
188.8098723
51
202.9300437
0
ARC
8
DEFAULT_255_1_388
10
21.8238329
20
108.3452968
40
0.4216493
50
203.2071737
51
215.7877161
0
ARC
8
DEFAULT_255_1_388
10
21.7283612
20
108.269785
40
0.3000949
50
214.7520738
51
264.283405
0
ARC
8
DEFAULT_255_1_388
10
21.7436203
20
108.3659645
40
0.3973553
50
263.4754673
51
270.0952411
0
ARC
8
DEFAULT_255_1_388
10
21.7483596
20
108.3365808
40
0.3679937
50
269.3649295
51
287.5149684
0
ARC
8
DEFAULT_255_1_388
10
21.7684037
20
108.2637714
40
0.2925408
50
288.0629019
51
323.8115617
0
ARC
8
DEFAULT_255_1_388
10
21.6704013
20
108.3368754
40
0.4148018
50
323.6546541
51
342.6591359
0
ARC
8
DEFAULT_255_1_388
10
21.4418671
20
108.411228
40
0.6551163
50
342.4092446
51
353.6451501
0
ARC
8
DEFAULT_255_1_388
10
21.1233465
20
108.4508565
40
0.9760748
50
353.4027553
51
359.4846611
0
LINE
8
DEFAULT_255_1_388
10
23.3219044
20
108.617369
11
23.3219044
21
108.4005135
0
LINE
8
DEFAULT_255_1_388
10
22.4915287
20
108.3779244
11
22.4915287
21
108.6011048
0
LINE
8
DEFAULT_255_1_388
10
23.154745
20
108.3553353
11
23.154745
21
108.6291153
0
LINE
8
DEFAULT_255_1_388
10
22.6586881
20
108.6417652
11
22.6586881
21
108.3743102
0
ARC
8
DEFAULT_255_1_388
10
21.9441378
20
108.3950118
40
1.3777776
50
353.8440855
51
0.2287917
0
ARC
8
DEFAULT_255_1_388
10
22.4660395
20
108.3367414
40
0.852639
50
344.4934746
51
353.9763743
0
ARC
8
DEFAULT_255_1_388
10
22.8027202
20
108.2410191
40
0.5026273
50
329.2803599
51
344.7473406
0
ARC
8
DEFAULT_255_1_388
10
22.9142698
20
108.1798038
40
0.3754848
50
324.9361395
51
328.6153007
0
ARC
8
DEFAULT_255_1_388
10
22.9568348
20
108.1500586
40
0.3235566
50
280.5801797
51
324.9173226
0
ARC
8
DEFAULT_255_1_388
10
22.9116977
20
108.3380236
40
0.5167077
50
269.5979457
51
281.6732777
0
ARC
8
DEFAULT_255_1_388
10
22.903588
20
108.3245113
40
0.5032026
50
256.6228565
51
270.5105488
0
ARC
8
DEFAULT_255_1_388
10
22.8583623
20
108.1503345
40
0.3233092
50
215.8618351
51
257.2787793
0
ARC
8
DEFAULT_255_1_388
10
22.973233
20
108.2274106
40
0.4615831
50
197.9695203
51
215.2622745
0
ARC
8
DEFAULT_255_1_388
10
23.2528006
20
108.3217641
40
0.7566307
50
187.8816486
51
198.2346584
0
ARC
8
DEFAULT_255_1_388
10
23.6981244
20
108.3860453
40
1.2065653
50
180.8977266
51
188.0054894
0
ARC
8
DEFAULT_255_1_388
10
24.0031458
20
108.39754
40
1.5117443
50
180.7434591
51
181.152202
0
ARC
8
DEFAULT_255_1_388
10
23.8356453
20
108.6065371
40
1.3441277
50
173.7674302
51
180.2315596
0
ARC
8
DEFAULT_255_1_388
10
23.3274322
20
108.6639779
40
0.8326847
50
164.3058537
51
173.9000553
0
ARC
8
DEFAULT_255_1_388
10
22.9998322
20
108.7583652
40
0.4917711
50
148.7922028
51
164.5682288
0
ARC
8
DEFAULT_255_1_388
10
22.892906
20
108.8180457
40
0.3694204
50
144.5883979
51
148.1161588
0
ARC
8
DEFAULT_255_1_388
10
22.8541805
20
108.8450667
40
0.322202
50
101.6440149
51
144.5142619
0
ARC
8
DEFAULT_255_1_388
10
22.9019997
20
108.6550337
40
0.5180451
50
89.528284
51
102.5820197
0
ARC
8
DEFAULT_255_1_388
10
22.9108989
20
108.6506376
40
0.5224441
50
77.0437914
51
90.508231
0
ARC
8
DEFAULT_255_1_388
10
22.9561243
20
108.8354272
40
0.3322297
50
48.2777708
51
77.4996087
0
ARC
8
DEFAULT_255_1_388
10
22.9642983
20
108.8499557
40
0.315966
50
36.3141586
51
47.6307332
0
ARC
8
DEFAULT_255_1_388
10
22.8665705
20
108.7841159
40
0.4337313
50
18.2931065
51
35.6770203
0
ARC
8
DEFAULT_255_1_388
10
22.5804546
20
108.6859107
40
0.7362203
50
8.0246996
51
18.5605636
0
ARC
8
DEFAULT_255_1_388
10
22.1120901
20
108.6167432
40
1.2096583
50
1.127539
51
8.1718423
0
ARC
8
DEFAULT_255_1_388
10
21.7472035
20
108.6024374
40
1.5747719
50
0.5432713
51
1.38669
0
ARC
8
DEFAULT_255_1_388
10
21.9529414
20
108.6331163
40
1.2018103
50
359.8092569
51
4.9408001
0
ARC
8
DEFAULT_255_1_388
10
22.4265995
20
108.67539
40
0.7262727
50
4.8364937
51
12.2906017
0
ARC
8
DEFAULT_255_1_388
10
22.736546
20
108.7444485
40
0.4087324
50
12.0806994
51
23.8171225
0
ARC
8
DEFAULT_255_1_388
10
22.8685856
20
108.8003508
40
0.2653719
50
24.2874621
51
31.3934353
0
ARC
8
DEFAULT_255_1_388
10
22.9276291
20
108.8389822
40
0.1948607
50
30.7407708
51
82.4658033
0
ARC
8
DEFAULT_255_1_388
10
22.9073952
20
108.7396017
40
0.2961198
50
81.1057101
51
90.2187368
0
ARC
8
DEFAULT_255_1_388
10
22.9033764
20
108.7686421
40
0.2670929
50
89.380395
51
105.6763916
0
ARC
8
DEFAULT_255_1_388
10
22.8827486
20
108.843632
40
0.1893189
50
105.7980655
51
149.7387869
0
ARC
8
DEFAULT_255_1_388
10
23.0024626
20
108.7716719
40
0.3289892
50
149.4208441
51
163.628295
0
ARC
8
DEFAULT_255_1_388
10
23.2376856
20
108.6999345
40
0.5749004
50
163.3764549
51
172.141138
0
ARC
8
DEFAULT_255_1_388
10
23.6089577
20
108.6467582
40
0.9499585
50
172.0258462
51
178.0705453
0
ARC
8
DEFAULT_255_1_388
10
23.951113
20
108.6305682
40
1.2924734
50
177.8639301
51
179.5036263
0
ARC
8
DEFAULT_255_1_388
10
23.8292149
20
108.3702151
40
1.170534
50
179.7995545
51
185.246089
0
ARC
8
DEFAULT_255_1_388
10
23.3743742
20
108.3271404
40
0.7136613
50
185.1411911
51
193.0082205
0
ARC
8
DEFAULT_255_1_388
10
23.0770003
20
108.2568441
40
0.4080987
50
192.7897338
51
205.2507384
0
ARC
8
DEFAULT_255_1_388
10
22.9592213
20
108.2042538
40
0.2791522
50
205.8001921
51
211.2545876
0
ARC
8
DEFAULT_255_1_388
10
22.9003752
20
108.1648132
40
0.2084074
50
210.3789935
51
238.4007996
0
ARC
8
DEFAULT_255_1_388
10
22.8981838
20
108.1700786
40
0.2117943
50
239.6521916
51
265.9793852
0
ARC
8
DEFAULT_255_1_388
10
22.9077687
20
108.2457358
40
0.2879689
50
265.1324455
51
270.0603288
0
ARC
8
DEFAULT_255_1_388
10
22.9110064
20
108.2092418
40
0.2514919
50
269.3314378
51
287.2180039
0
ARC
8
DEFAULT_255_1_388
10
22.9265146
20
108.1526291
40
0.1928357
50
287.7957942
51
329.0808983
0
ARC
8
DEFAULT_255_1_388
10
22.8187903
20
108.2198651
40
0.319808
50
328.6635261
51
343.3325043
0
ARC
8
DEFAULT_255_1_388
10
22.5743362
20
108.2960195
40
0.5758408
50
343.0498092
51
351.9392499
0
ARC
8
DEFAULT_255_1_388
10
22.1842683
20
108.3535205
40
0.9701202
50
351.8071632
51
357.7957897
0
ARC
8
DEFAULT_255_1_388
10
21.820816
20
108.3723724
40
1.3340376
50
357.5870923
51
359.2682493
0
LINE
8
DEFAULT_255_1_388
10
24.3610035
20
108.617369
11
24.3610035
21
108.4005135
0
LINE
8
DEFAULT_255_1_388
10
23.5306278
20
108.3779244
11
23.5306278
21
108.6011048
0
LINE
8
DEFAULT_255_1_388
10
24.1938441
20
108.3553353
11
24.1938441
21
108.6291153
0
LINE
8
DEFAULT_255_1_388
10
23.6977872
20
108.6417652
11
23.6977872
21
108.3743102
0
ARC
8
DEFAULT_255_1_388
10
22.9832369
20
108.3950118
40
1.3777776
50
353.8440855
51
0.2287917
0
ARC
8
DEFAULT_255_1_388
10
23.5051387
20
108.3367414
40
0.852639
50
344.4934746
51
353.9763743
0
ARC
8
DEFAULT_255_1_388
10
23.8418194
20
108.2410191
40
0.5026273
50
329.2803599
51
344.7473406
0
ARC
8
DEFAULT_255_1_388
10
23.9533689
20
108.1798038
40
0.3754848
50
324.9361395
51
328.6153007
0
ARC
8
DEFAULT_255_1_388
10
23.9959339
20
108.1500586
40
0.3235566
50
280.5801797
51
324.9173226
0
ARC
8
DEFAULT_255_1_388
10
23.9507968
20
108.3380236
40
0.5167077
50
269.5979457
51
281.6732777
0
ARC
8
DEFAULT_255_1_388
10
23.9426871
20
108.3245113
40
0.5032026
50
256.6228565
51
270.5105488
0
ARC
8
DEFAULT_255_1_388
10
23.8974614
20
108.1503345
40
0.3233092
50
215.8618351
51
257.2787793
0
ARC
8
DEFAULT_255_1_388
10
24.0123321
20
108.2274106
40
0.4615831
50
197.9695203
51
215.2622745
0
ARC
8
DEFAULT_255_1_388
10
24.2918997
20
108.3217641
40
0.7566307
50
187.8816486
51
198.2346584
0
ARC
8
DEFAULT_255_1_388
10
24.7372235
20
108.3860453
40
1.2065653
50
180.8977266
51
188.0054894
0
ARC
8
DEFAULT_255_1_388
10
25.0422449
20
108.39754
40
1.5117443
50
180.7434591
51
181.152202
0
ARC
8
DEFAULT_255_1_388
10
24.8747445
20
108.6065371
40
1.3441277
50
173.7674302
51
180.2315596
0
ARC
8
DEFAULT_255_1_388
10
24.3665314
20
108.6639779
40
0.8326847
50
164.3058537
51
173.9000553
0
ARC
8
DEFAULT_255_1_388
10
24.0389314
20
108.7583652
40
0.4917711
50
148.7922028
51
164.5682288
0
ARC
8
DEFAULT_255_1_388
10
23.9320051
20
108.8180457
40
0.3694204
50
144.5883979
51
148.1161588
0
ARC
8
DEFAULT_255_1_388
10
23.8932796
20
108.8450667
40
0.322202
50
101.6440149
51
144.5142619
0
ARC
8
DEFAULT_255_1_388
10
23.9410989
20
108.6550337
40
0.5180451
50
89.528284
51
102.5820197
0
ARC
8
DEFAULT_255_1_388
10
23.949998
20
108.6506376
40
0.5224441
50
77.0437914
51
90.508231
0
ARC
8
DEFAULT_255_1_388
10
23.9952234
20
108.8354272
40
0.3322297
50
48.2777708
51
77.4996087
0
ARC
8
DEFAULT_255_1_388
10
24.0033974
20
108.8499557
40
0.315966
50
36.3141586
51
47.6307332
0
ARC
8
DEFAULT_255_1_388
10
23.9056696
20
108.7841159
40
0.4337313
50
18.2931065
51
35.6770203
0
ARC
8
DEFAULT_255_1_388
10
23.6195537
20
108.6859107
40
0.7362203
50
8.0246996
51
18.5605636
0
ARC
8
DEFAULT_255_1_388
10
23.1511893
20
108.6167432
40
1.2096583
50
1.127539
51
8.1718423
0
ARC
8
DEFAULT_255_1_388
10
22.7863026
20
108.6024374
40
1.5747719
50
0.5432713
51
1.38669
0
ARC
8
DEFAULT_255_1_388
10
22.9920405
20
108.6331163
40
1.2018103
50
359.8092569
51
4.9408001
0
ARC
8
DEFAULT_255_1_388
10
23.4656986
20
108.67539
40
0.7262727
50
4.8364937
51
12.2906017
0
ARC
8
DEFAULT_255_1_388
10
23.7756451
20
108.7444485
40
0.4087324
50
12.0806994
51
23.8171225
0
ARC
8
DEFAULT_255_1_388
10
23.9076847
20
108.8003508
40
0.2653719
50
24.2874621
51
31.3934353
0
ARC
8
DEFAULT_255_1_388
10
23.9667283
20
108.8389822
40
0.1948607
50
30.7407708
51
82.4658033
0
ARC
8
DEFAULT_255_1_388
10
23.9464944
20
108.7396017
40
0.2961198
50
81.1057101
51
90.2187368
0
ARC
8
DEFAULT_255_1_388
10
23.9424755
20
108.7686421
40
0.2670929
50
89.380395
51
105.6763916
0
ARC
8
DEFAULT_255_1_388
10
23.9218477
20
108.843632
40
0.1893189
50
105.7980655
51
149.7387869
0
ARC
8
DEFAULT_255_1_388
10
24.0415617
20
108.7716719
40
0.3289892
50
149.4208441
51
163.628295
0
ARC
8
DEFAULT_255_1_388
10
24.2767847
20
108.6999345
40
0.5749004
50
163.3764549
51
172.141138
0
ARC
8
DEFAULT_255_1_388
10
24.6480569
20
108.6467582
40
0.9499585
50
172.0258462
51
178.0705453
0
ARC
8
DEFAULT_255_1_388
10
24.9902121
20
108.6305682
40
1.2924734
50
177.8639301
51
179.5036263
0
ARC
8
DEFAULT_255_1_388
10
24.868314
20
108.3702151
40
1.170534
50
179.7995545
51
185.246089
0
ARC
8
DEFAULT_255_1_388
10
24.4134733
20
108.3271404
40
0.7136613
50
185.1411911
51
193.0082205
0
ARC
8
DEFAULT_255_1_388
10
24.1160994
20
108.2568441
40
0.4080987
50
192.7897338
51
205.2507384
0
ARC
8
DEFAULT_255_1_388
10
23.9983204
20
108.2042538
40
0.2791522
50
205.8001921
51
211.2545876
0
ARC
8
DEFAULT_255_1_388
10
23.9394743
20
108.1648132
40
0.2084074
50
210.3789935
51
238.4007996
0
ARC
8
DEFAULT_255_1_388
10
23.9372829
20
108.1700786
40
0.2117943
50
239.6521916
51
265.9793852
0
ARC
8
DEFAULT_255_1_388
10
23.9468678
20
108.2457358
40
0.2879689
50
265.1324455
51
270.0603288
0
ARC
8
DEFAULT_255_1_388
10
23.9501055
20
108.2092418
40
0.2514919
50
269.3314378
51
287.2180039
0
ARC
8
DEFAULT_255_1_388
10
23.9656137
20
108.1526291
40
0.1928357
50
287.7957942
51
329.0808983
0
ARC
8
DEFAULT_255_1_388
10
23.8578894
20
108.2198651
40
0.319808
50
328.6635261
51
343.3325043
0
ARC
8
DEFAULT_255_1_388
10
23.6134353
20
108.2960195
40
0.5758408
50
343.0498092
51
351.9392499
0
ARC
8
DEFAULT_255_1_388
10
23.2233674
20
108.3535205
40
0.9701202
50
351.8071632
51
357.7957897
0
ARC
8
DEFAULT_255_1_388
10
22.8599151
20
108.3723724
40
1.3340376
50
357.5870923
51
359.2682493
0
ENDSEC
0
EOF