0
SECTION
2
HEADER
9
$MEASUREMENT
70
1
0
ENDSEC
0
SECTION
2
TABLES
0
TABLE
2
LTYPE
0
LTYPE
72
65
70
64
2
CONTINUOUS
3
______
73
0
40
0
0
ENDTAB
0
TABLE
2
LAYER
0
LAYER
2
DEFAULT_255_2_778
70
0
62
255
6
CONTINUOUS
0
ENDTAB
0
ENDSEC
0
SECTION
2
ENTITIES
0
ARC
8
DEFAULT_255_2_778
10
0.4484086
20
15.1556013
40
0.2001001
50
116.56906
51
179.9516847
0
ARC
8
DEFAULT_255_2_778
10
0.4483264
20
11.6328589
40
0.2000178
50
180.0254596
51
254.9853368
0
ARC
8
DEFAULT_255_2_778
10
3.9070682
20
0.9219357
40
1.000105
50
190.1803486
51
269.4924291
0
LINE
8
DEFAULT_255_2_778
10
0.9315086
20
15.62117
11
0.3589086
21
15.33457
0
LINE
8
DEFAULT_255_2_778
10
0.2483086
20
15.15577
11
0.2483086
21
11.63277
0
LINE
8
DEFAULT_255_2_778
10
0.3965086
20
11.43967
11
1.3897086
21
11.17347
0
LINE
8
DEFAULT_255_2_778
10
20.2487086
20
60.77917
11
3.9239086
21
60.77917
0
LINE
8
DEFAULT_255_2_778
10
3.9239086
20
60.77917
11
3.5588086
21
58.67947
0
LINE
8
DEFAULT_255_2_778
10
3.5588086
20
58.67947
11
11.7487086
21
58.67917
0
ARC
8
DEFAULT_255_2_778
10
2.9365561
20
54.6019641
40
1.0001563
50
90.5075719
51
170.5695992
0
ARC
8
DEFAULT_255_2_778
10
2.9481466
20
54.6003898
40
1.0118482
50
170.5891983
51
171.8988157
0
LINE
8
DEFAULT_255_2_778
10
3.558796
20
58.6793812
11
3.429096
21
58.0867812
0
LINE
8
DEFAULT_255_2_778
10
3.429096
20
58.0867812
11
3.307696
21
57.5144812
0
LINE
8
DEFAULT_255_2_778
10
3.307696
20
57.5144812
11
3.198096
21
56.9839812
0
LINE
8
DEFAULT_255_2_778
10
3.198096
20
56.9839812
11
3.104196
21
56.5161812
0
LINE
8
DEFAULT_255_2_778
10
3.104196
20
56.5161812
11
3.063996
21
56.3116812
0
LINE
8
DEFAULT_255_2_778
10
3.063996
20
56.3116812
11
3.028496
21
56.1296812
0
LINE
8
DEFAULT_255_2_778
10
3.028496
20
56.1296812
11
2.998096
21
55.9721812
0
LINE
8
DEFAULT_255_2_778
10
2.998096
20
55.9721812
11
2.972996
21
55.8409812
0
LINE
8
DEFAULT_255_2_778
10
2.972996
20
55.8409812
11
2.953096
21
55.7372812
0
LINE
8
DEFAULT_255_2_778
10
2.953096
20
55.7372812
11
2.945496
21
55.6962812
0
LINE
8
DEFAULT_255_2_778
10
2.945496
20
55.6962812
11
2.939096
21
55.6623812
0
LINE
8
DEFAULT_255_2_778
10
2.939096
20
55.6623812
11
2.934096
21
55.6358812
0
LINE
8
DEFAULT_255_2_778
10
2.934096
20
55.6358812
11
2.930596
21
55.6171812
0
LINE
8
DEFAULT_255_2_778
10
2.930596
20
55.6171812
11
2.928496
21
55.6057812
0
LINE
8
DEFAULT_255_2_778
10
2.928496
20
55.6057812
11
2.927696
21
55.6020812
0
LINE
8
DEFAULT_255_2_778
10
11.748696
20
55.6792812
11
12.748796
21
54.6878812
0
LINE
8
DEFAULT_255_2_778
10
3.932596
20
61.7792812
11
3.932096
21
61.7779812
0
LINE
8
DEFAULT_255_2_778
10
3.932096
20
61.7779812
11
3.931596
21
61.7742812
0
LINE
8
DEFAULT_255_2_778
10
3.931596
20
61.7742812
11
3.930996
21
61.7681812
0
LINE
8
DEFAULT_255_2_778
10
3.930996
20
61.7681812
11
3.930496
21
61.7596812
0
LINE
8
DEFAULT_255_2_778
10
3.930496
20
61.7596812
11
3.929996
21
61.7488812
0
LINE
8
DEFAULT_255_2_778
10
3.929996
20
61.7488812
11
3.929496
21
61.7358812
0
LINE
8
DEFAULT_255_2_778
10
3.929496
20
61.7358812
11
3.928696
21
61.7027812
0
LINE
8
DEFAULT_255_2_778
10
3.928696
20
61.7027812
11
3.927896
21
61.6607812
0
LINE
8
DEFAULT_255_2_778
10
3.927896
20
61.6607812
11
3.927096
21
61.6101812
0
LINE
8
DEFAULT_255_2_778
10
3.927096
20
61.6101812
11
3.926296
21
61.5517812
0
LINE
8
DEFAULT_255_2_778
10
3.926296
20
61.5517812
11
3.925696
21
61.4858812
0
LINE
8
DEFAULT_255_2_778
10
3.925696
20
61.4858812
11
3.925196
21
61.4130812
0
LINE
8
DEFAULT_255_2_778
10
3.925196
20
61.4130812
11
3.924696
21
61.3342812
0
LINE
8
DEFAULT_255_2_778
10
3.924696
20
61.3342812
11
3.923896
21
61.1614812
0
LINE
8
DEFAULT_255_2_778
10
3.923896
20
61.1614812
11
3.923396
21
60.9738812
0
LINE
8
DEFAULT_255_2_778
10
3.923396
20
60.9738812
11
3.923096
21
60.7788812
0
LINE
8
DEFAULT_255_2_778
10
3.923096
20
60.7788812
11
2.947596
21
60.9563812
0
ARC
8
DEFAULT_255_2_778
10
3.348786
20
41.5792377
40
0.800141
50
134.9955306
51
179.9907439
0
ARC
8
DEFAULT_255_2_778
10
3.3488743
20
41.579326
40
0.800141
50
90.0092561
51
135.0044694
0
ARC
8
DEFAULT_255_2_778
10
17.4485157
20
41.579326
40
0.800141
50
44.9955306
51
89.9907439
0
ARC
8
DEFAULT_255_2_778
10
17.448604
20
41.5792377
40
0.800141
50
0.0092561
51
45.0044694
0
ARC
8
DEFAULT_255_2_778
10
17.448604
20
19.9794963
40
0.800141
50
314.9955306
51
359.9907439
0
ARC
8
DEFAULT_255_2_778
10
17.4485157
20
19.979408
40
0.800141
50
270.0092561
51
315.0044694
0
ARC
8
DEFAULT_255_2_778
10
3.3488743
20
19.979408
40
0.800141
50
224.9955306
51
269.9907439
0
ARC
8
DEFAULT_255_2_778
10
3.348786
20
19.9794963
40
0.800141
50
180.0092561
51
225.0044694
0
LINE
8
DEFAULT_255_2_778
10
2.581145
20
58.844267
11
3.558845
21
58.679167
0
LINE
8
DEFAULT_255_2_778
10
16.448545
20
10.380767
11
16.448545
21
11.877567
0
LINE
8
DEFAULT_255_2_778
10
18.048745
20
10.279167
11
18.048745
21
11.979167
0
LINE
8
DEFAULT_255_2_778
10
16.448545
20
7.183867
11
16.448545
21
7.974667
0
LINE
8
DEFAULT_255_2_778
10
18.048745
20
7.079367
11
18.048745
21
8.079467
0
LINE
8
DEFAULT_255_2_778
10
3.348745
20
42.379467
11
17.448645
21
42.379467
0
LINE
8
DEFAULT_255_2_778
10
18.248745
20
41.579367
11
18.248745
21
19.979367
0
LINE
8
DEFAULT_255_2_778
10
17.448645
20
19.179267
11
3.348745
21
19.179267
0
LINE
8
DEFAULT_255_2_778
10
2.548645
20
19.979367
11
2.548645
21
41.579367
0
ARC
8
DEFAULT_255_2_778
10
12.7451207
20
60.780661
40
0.996405
50
138.3644231
51
180.0818436
0
ARC
8
DEFAULT_255_2_778
10
12.7475866
20
60.781857
40
0.9974568
50
91.7436173
51
138.5098769
0
ARC
8
DEFAULT_255_2_778
10
12.7486885
20
60.7610052
40
1.0183326
50
90.0096674
51
91.7698896
0
ARC
8
DEFAULT_255_2_778
10
170.2493887
20
30.7788464
40
169.000744
50
171.8962406
51
175.537924
0
ARC
8
DEFAULT_255_2_778
10
170.2484337
20
30.7789677
40
168.9997827
50
175.5379398
51
179.6587129
0
ARC
8
DEFAULT_255_2_778
10
170.2439182
20
30.7789345
40
168.9952675
50
179.6586925
51
179.9999977
0
ARC
8
DEFAULT_255_2_778
10
170.2469764
20
30.7788629
40
168.9983256
50
179.9999735
51
186.9919799
0
ARC
8
DEFAULT_255_2_778
10
170.2437312
20
30.7785834
40
168.9950704
50
186.9920198
51
190.1760241
0
ARC
8
DEFAULT_255_2_778
10
16.7485136
20
7.5794346
40
0.5000969
50
179.9996485
51
270.0003515
0
ARC
8
DEFAULT_255_2_778
10
16.7485136
20
7.5794407
40
0.5000969
50
89.9996485
51
180.0003515
0
ARC
8
DEFAULT_255_2_778
10
16.7484922
20
10.7796133
40
0.5000756
50
180.0086621
51
270.0028016
0
ARC
8
DEFAULT_255_2_778
10
16.7485136
20
11.4796407
40
0.5000969
50
89.9996485
51
180.0003515
0
ARC
8
DEFAULT_255_2_778
10
3.9326075
20
60.7792755
40
1.0000622
50
89.9994723
51
169.7786695
0
ARC
8
DEFAULT_255_2_778
10
170.2511296
20
30.778606
40
170.0026982
50
169.7749159
51
173.5345353
0
ARC
8
DEFAULT_255_2_778
10
170.2499429
20
30.7788567
40
170.0014908
50
173.5345742
51
179.1922671
0
ARC
8
DEFAULT_255_2_778
10
170.2544438
20
30.7787372
40
170.0059931
50
179.1922482
51
179.9999956
0
ARC
8
DEFAULT_255_2_778
10
147.8136722
20
30.7775355
40
147.5652214
50
179.9995283
51
180.0089616
0
ARC
8
DEFAULT_255_2_778
10
170.2508706
20
30.7786942
40
170.0024197
50
180.0081694
51
186.0399097
0
ARC
8
DEFAULT_255_2_778
10
170.2500254
20
30.7787019
40
170.00158
50
186.0399423
51
189.6580332
0
ARC
8
DEFAULT_255_2_778
10
170.2648303
20
30.7811746
40
170.0165901
50
189.6580177
51
190.1755504
0
LINE
8
DEFAULT_255_2_778
10
1.9461167
20
54.7432377
11
2.9362167
21
54.6022377
0
LINE
8
DEFAULT_255_2_778
10
2.9362167
20
54.6022377
11
2.9275167
21
55.6021377
0
LINE
8
DEFAULT_255_2_778
10
2.9275167
20
55.6021377
11
11.7487167
21
55.6791377
0
LINE
8
DEFAULT_255_2_778
10
11.7487167
20
55.6791377
11
11.7487167
21
60.7792377
0
LINE
8
DEFAULT_255_2_778
10
12.7485167
20
61.7793377
11
12.7485167
21
54.6879377
0
LINE
8
DEFAULT_255_2_778
10
12.7485167
20
54.6879377
11
2.9362167
21
54.6022377
0
LINE
8
DEFAULT_255_2_778
10
3.9070167
20
0.9217377
11
3.8982167
21
-0.0781623
0
LINE
8
DEFAULT_255_2_778
10
3.8982167
20
-0.0781623
11
20.2487167
21
-0.2207623
0
LINE
8
DEFAULT_255_2_778
10
20.2487167
20
-0.2207623
11
20.2487167
21
7.0793377
0
LINE
8
DEFAULT_255_2_778
10
20.2487167
20
7.0793377
11
16.7485167
21
7.0793377
0
LINE
8
DEFAULT_255_2_778
10
16.7485167
20
8.0795377
11
20.3789167
21
8.0795377
0
LINE
8
DEFAULT_255_2_778
10
20.3789167
20
8.0795377
11
20.3892167
21
10.2795377
0
LINE
8
DEFAULT_255_2_778
10
20.3892167
20
10.2795377
11
16.7485167
21
10.2795377
0
LINE
8
DEFAULT_255_2_778
10
16.2484167
20
10.7795377
11
16.2484167
21
11.4796377
0
LINE
8
DEFAULT_255_2_778
10
16.7485167
20
11.9797377
11
20.2484167
21
11.9797377
0
LINE
8
DEFAULT_255_2_778
10
20.2484167
20
11.9797377
11
20.2484167
21
61.7793377
0
LINE
8
DEFAULT_255_2_778
10
20.2484167
20
61.7793377
11
3.9326167
21
61.7793377
0
LINE
8
DEFAULT_255_2_778
10
2.9224167
20
0.7452377
11
3.9067167
21
0.9220377
0
LINE
8
DEFAULT_255_2_778
10
3.9067167
20
0.9220377
11
20.2484167
21
0.7793377
0
LINE
8
DEFAULT_255_2_778
10
16.3487167
20
18.6292377
11
16.3487167
21
13.6291377
0
LINE
8
DEFAULT_255_2_778
10
16.3487167
20
13.6291377
11
18.0487167
21
13.6291377
0
LINE
8
DEFAULT_255_2_778
10
18.0487167
20
13.6291377
11
18.0487167
21
18.6292377
0
LINE
8
DEFAULT_255_2_778
10
18.0487167
20
18.6292377
11
16.3487167
21
18.6292377
0
LINE
8
DEFAULT_255_2_778
10
16.4487167
20
13.6291377
11
16.4487167
21
18.6292377
0
LINE
8
DEFAULT_255_2_778
10
16.4487167
20
13.8791377
11
18.0487167
21
13.8791377
0
LINE
8
DEFAULT_255_2_778
10
18.0487167
20
18.3792377
11
16.4487167
21
18.3792377
0
LINE
8
DEFAULT_255_2_778
10
16.4487167
20
18.1291377
11
16.3487167
21
18.1291377
0
LINE
8
DEFAULT_255_2_778
10
16.4485167
20
43.1794377
11
18.0484167
21
43.1794377
0
LINE
8
DEFAULT_255_2_778
10
18.0484167
20
47.6794377
11
16.4485167
21
47.6794377
0
LINE
8
DEFAULT_255_2_778
10
16.4485167
20
42.9293377
11
16.4485167
21
47.9294377
0
LINE
8
DEFAULT_255_2_778
10
18.0484167
20
47.9294377
11
16.3485167
21
47.9294377
0
LINE
8
DEFAULT_255_2_778
10
16.3485167
20
47.9294377
11
16.3485167
21
42.9293377
0
LINE
8
DEFAULT_255_2_778
10
16.3485167
20
42.9293377
11
18.0484167
21
42.9293377
0
LINE
8
DEFAULT_255_2_778
10
18.0484167
20
42.9293377
11
18.0484167
21
47.9294377
0
ENDSEC
0
EOF