0
SECTION
2
HEADER
9
$MEASUREMENT
70
1
0
ENDSEC
0
SECTION
2
TABLES
0
TABLE
2
LTYPE
0
LTYPE
72
65
70
64
2
CONTINUOUS
3
______
73
0
40
0
0
ENDTAB
0
TABLE
2
LAYER
0
LAYER
2
DEFAULT_255_2_778
70
0
62
255
6
CONTINUOUS
0
ENDTAB
0
ENDSEC
0
SECTION
2
ENTITIES
0
LINE
8
DEFAULT_255_2_778
10
20.2325793
20
59.44079
11
25.2325793
21
59.48439
0
LINE
8
DEFAULT_255_2_778
10
20.2325793
20
58.84069
11
25.2325793
21
58.88439
0
LINE
8
DEFAULT_255_2_778
10
20.2325793
20
58.85049
11
25.2325793
21
58.89229
0
LINE
8
DEFAULT_255_2_778
10
25.2325793
20
58.89229
11
25.2325793
21
60.37979
0
LINE
8
DEFAULT_255_2_778
10
25.2325793
20
60.37979
11
24.2324793
21
61.37989
0
LINE
8
DEFAULT_255_2_778
10
24.2324793
20
61.37989
11
23.2323793
21
60.37979
0
LINE
8
DEFAULT_255_2_778
10
23.2323793
20
60.37979
11
23.2323793
21
60.27979
0
LINE
8
DEFAULT_255_2_778
10
23.2323793
20
60.27979
11
20.2325793
21
60.27979
0
LINE
8
DEFAULT_255_2_778
10
20.2327793
20
47.67999
11
21.8819793
21
47.67999
0
LINE
8
DEFAULT_255_2_778
10
20.2327793
20
43.28029
11
21.8827793
21
43.28029
0
LINE
8
DEFAULT_255_2_778
10
22.5007793
20
47.47979
11
21.8821793
21
47.47979
0
LINE
8
DEFAULT_255_2_778
10
22.5007793
20
42.97969
11
22.5007793
21
43.47979
0
LINE
8
DEFAULT_255_2_778
10
22.5007793
20
43.47979
11
21.8821793
21
43.47979
0
LINE
8
DEFAULT_255_2_778
10
22.5007793
20
43.47979
11
22.7069793
21
43.36439
0
LINE
8
DEFAULT_255_2_778
10
22.7069793
20
43.36439
11
22.7069793
21
42.97999
0
LINE
8
DEFAULT_255_2_778
10
22.7069793
20
42.97999
11
20.2322793
21
42.97999
0
LINE
8
DEFAULT_255_2_778
10
21.8819793
20
42.97999
11
21.8819793
21
47.97979
0
LINE
8
DEFAULT_255_2_778
10
20.2322793
20
47.97979
11
22.7069793
21
47.97979
0
LINE
8
DEFAULT_255_2_778
10
22.7069793
20
47.97979
11
22.7069793
21
47.59539
0
LINE
8
DEFAULT_255_2_778
10
22.7069793
20
47.59539
11
22.5007793
21
47.47999
0
LINE
8
DEFAULT_255_2_778
10
22.5007793
20
47.47999
11
22.5007793
21
47.98009
0
LINE
8
DEFAULT_255_2_778
10
18.0324793
20
47.67949
11
16.4325793
21
47.67949
0
LINE
8
DEFAULT_255_2_778
10
18.0324793
20
43.17949
11
16.4325793
21
43.17949
0
LINE
8
DEFAULT_255_2_778
10
18.0324793
20
18.37959
11
16.4325793
21
18.37959
0
LINE
8
DEFAULT_255_2_778
10
18.0324793
20
13.87949
11
16.4325793
21
13.87949
0
LINE
8
DEFAULT_255_2_778
10
18.0319261
20
47.9300589
11
16.3320261
21
47.9300589
0
LINE
8
DEFAULT_255_2_778
10
16.3320261
20
47.9300589
11
16.3320261
21
42.9299589
0
LINE
8
DEFAULT_255_2_778
10
16.3320261
20
42.9299589
11
18.0319261
21
42.9299589
0
LINE
8
DEFAULT_255_2_778
10
18.0319261
20
42.9299589
11
18.0319261
21
47.9300589
0
LINE
8
DEFAULT_255_2_778
10
16.4320261
20
42.9299589
11
16.4320261
21
47.9300589
0
LINE
8
DEFAULT_255_2_778
10
16.4320261
20
18.6298589
11
18.0319261
21
18.6298589
0
LINE
8
DEFAULT_255_2_778
10
18.0319261
20
18.6298589
11
18.0319261
21
13.6297589
0
LINE
8
DEFAULT_255_2_778
10
18.0319261
20
13.6297589
11
16.4320261
21
13.6297589
0
LINE
8
DEFAULT_255_2_778
10
16.4320261
20
13.6297589
11
16.4320261
21
18.6298589
0
LINE
8
DEFAULT_255_2_778
10
16.4320261
20
18.6298589
11
16.3320261
21
18.6298589
0
LINE
8
DEFAULT_255_2_778
10
16.3320261
20
18.6298589
11
16.3320261
21
13.6297589
0
LINE
8
DEFAULT_255_2_778
10
16.3320261
20
13.6297589
11
16.4320261
21
13.6297589
0
LINE
8
DEFAULT_255_2_778
10
16.4323261
20
16.2520589
11
16.3323261
21
16.2520589
0
ARC
8
DEFAULT_255_2_778
10
2.8769242
20
54.5994733
40
1.0068026
50
90.8314197
51
170.4665577
0
ARC
8
DEFAULT_255_2_778
10
2.8833829
20
54.6009856
40
1.0129251
50
170.6114241
51
171.9193118
0
ARC
8
DEFAULT_255_2_778
10
12.68311
20
60.7796171
40
1.000095
50
135.0017048
51
180.0026977
0
ARC
8
DEFAULT_255_2_778
10
12.6830681
20
60.7795755
40
1.0000947
50
90.0431451
51
134.9983249
0
ARC
8
DEFAULT_255_2_778
10
170.1796392
20
30.7792081
40
168.9972276
50
171.8960809
51
175.5342582
0
ARC
8
DEFAULT_255_2_778
10
170.1804264
20
30.7791987
40
168.9980131
50
175.5342758
51
179.651013
0
ARC
8
DEFAULT_255_2_778
10
170.1790429
20
30.7791534
40
168.9966298
50
179.6509948
51
179.9999976
0
ARC
8
DEFAULT_255_2_778
10
170.1810215
20
30.7791099
40
168.9986083
50
179.9999828
51
187.025682
0
ARC
8
DEFAULT_255_2_778
10
170.1792317
20
30.778989
40
168.9968171
50
187.0257155
51
190.2250658
0
ARC
8
DEFAULT_255_2_778
10
16.6823119
20
7.5797669
40
0.5000969
50
179.9996485
51
270.0003515
0
ARC
8
DEFAULT_255_2_778
10
16.6823119
20
7.579773
40
0.5000969
50
89.9996485
51
180.0003515
0
ARC
8
DEFAULT_255_2_778
10
16.6820693
20
10.7799244
40
0.5000544
50
180.0062351
51
269.9937788
0
ARC
8
DEFAULT_255_2_778
10
16.6820906
20
11.4799942
40
0.5000756
50
90.0086662
51
180.0027804
0
ARC
8
DEFAULT_255_2_778
10
3.8666539
20
60.7795501
40
1.0001199
50
90.01369
51
169.7759037
0
ARC
8
DEFAULT_255_2_778
10
170.1838603
20
30.7792646
40
170.0013928
50
169.7749483
51
173.4546674
0
ARC
8
DEFAULT_255_2_778
10
170.1820676
20
30.7795779
40
169.9995762
50
173.4547034
51
179.0800851
0
ARC
8
DEFAULT_255_2_778
10
170.1862807
20
30.7794702
40
170.0037906
50
179.0800717
51
180.0000001
0
ARC
8
DEFAULT_255_2_778
10
170.1828456
20
30.7794136
40
170.0003556
50
179.999981
51
186.0658969
0
ARC
8
DEFAULT_255_2_778
10
170.1821451
20
30.7794409
40
169.9996619
50
186.065931
51
189.7045553
0
ARC
8
DEFAULT_255_2_778
10
170.1926439
20
30.7811692
40
170.0103019
50
189.704533
51
190.2250217
0
ARC
8
DEFAULT_255_2_778
10
3.2825257
20
19.9794588
40
0.8001107
50
179.9992029
51
266.8661358
0
ARC
8
DEFAULT_255_2_778
10
3.2824775
20
19.9924667
40
0.8130969
50
266.9196393
51
270.0026422
0
ARC
8
DEFAULT_255_2_778
10
17.3823594
20
19.9795508
40
0.8001809
50
270.0039758
51
356.8613821
0
ARC
8
DEFAULT_255_2_778
10
17.3696948
20
19.9794288
40
0.8128202
50
356.9188524
51
0.0029053
0
ARC
8
DEFAULT_255_2_778
10
17.3822684
20
41.5794499
40
0.8002466
50
0.008597
51
86.9950009
0
ARC
8
DEFAULT_255_2_778
10
17.3824519
20
41.5669568
40
0.8127132
50
87.0540917
51
90.002602
0
ARC
8
DEFAULT_255_2_778
10
3.2825693
20
41.5794906
40
0.8001793
50
90.0038926
51
176.8621524
0
ARC
8
DEFAULT_255_2_778
10
3.2951817
20
41.5796071
40
0.8127669
50
176.9190192
51
180.0026177
0
ARC
8
DEFAULT_255_2_778
10
3.934221
20
61.7653642
40
0.0694944
50
168.1204485
51
177.1083846
0
ARC
8
DEFAULT_255_2_778
10
3.8661817
20
0.7795444
40
1.0001746
50
190.2325253
51
270.0019073
0
ARC
8
DEFAULT_255_2_778
10
2.8755752
20
54.5844441
40
1.0194679
50
106.8059622
51
112.8122184
0
ARC
8
DEFAULT_255_2_778
10
2.8314681
20
54.6235466
40
0.9566044
50
148.7316054
51
155.7875794
0
LINE
8
DEFAULT_255_2_778
10
17.981915
20
8.07987
11
17.981915
21
7.07967
0
LINE
8
DEFAULT_255_2_778
10
16.382015
20
7.97507
11
16.382015
21
7.18427
0
LINE
8
DEFAULT_255_2_778
10
17.981915
20
11.97957
11
17.981915
21
10.27957
0
LINE
8
DEFAULT_255_2_778
10
16.382015
20
11.87797
11
16.382015
21
10.38117
0
LINE
8
DEFAULT_255_2_778
10
2.514915
20
58.84467
11
3.492515
21
58.67957
0
LINE
8
DEFAULT_255_2_778
10
3.492515
20
58.67957
11
3.362915
21
58.08717
0
LINE
8
DEFAULT_255_2_778
10
3.362915
20
58.08717
11
3.241515
21
57.51487
0
LINE
8
DEFAULT_255_2_778
10
3.241515
20
57.51487
11
3.131915
21
56.98437
0
LINE
8
DEFAULT_255_2_778
10
3.131915
20
56.98437
11
3.038015
21
56.51657
0
LINE
8
DEFAULT_255_2_778
10
3.038015
20
56.51657
11
2.997815
21
56.31207
0
LINE
8
DEFAULT_255_2_778
10
2.997815
20
56.31207
11
2.962315
21
56.13007
0
LINE
8
DEFAULT_255_2_778
10
2.962315
20
56.13007
11
2.931915
21
55.97257
0
LINE
8
DEFAULT_255_2_778
10
2.931915
20
55.97257
11
2.906815
21
55.84137
0
LINE
8
DEFAULT_255_2_778
10
2.906815
20
55.84137
11
2.886915
21
55.73767
0
LINE
8
DEFAULT_255_2_778
10
2.886915
20
55.73767
11
2.879315
21
55.69667
0
LINE
8
DEFAULT_255_2_778
10
2.879315
20
55.69667
11
2.872915
21
55.66277
0
LINE
8
DEFAULT_255_2_778
10
2.872915
20
55.66277
11
2.867915
21
55.63627
0
LINE
8
DEFAULT_255_2_778
10
2.867915
20
55.63627
11
2.864415
21
55.61757
0
LINE
8
DEFAULT_255_2_778
10
2.864415
20
55.61757
11
2.862315
21
55.60617
0
LINE
8
DEFAULT_255_2_778
10
1.880515
20
54.74337
11
2.870515
21
54.60227
0
LINE
8
DEFAULT_255_2_778
10
2.870515
20
54.60227
11
2.861815
21
55.60217
0
LINE
8
DEFAULT_255_2_778
10
2.861815
20
55.60217
11
11.683015
21
55.67917
0
LINE
8
DEFAULT_255_2_778
10
11.683015
20
55.67917
11
11.683015
21
60.77957
0
LINE
8
DEFAULT_255_2_778
10
12.682315
20
61.77967
11
12.682315
21
54.68827
0
LINE
8
DEFAULT_255_2_778
10
12.682315
20
54.68827
11
2.870015
21
54.60257
0
LINE
8
DEFAULT_255_2_778
10
3.866415
20
0.77947
11
3.866415
21
-0.22063
0
LINE
8
DEFAULT_255_2_778
10
3.866415
20
-0.22063
11
20.182215
21
-0.22063
0
LINE
8
DEFAULT_255_2_778
10
20.182215
20
-0.22063
11
20.182215
21
7.07967
0
LINE
8
DEFAULT_255_2_778
10
20.182215
20
7.07967
11
16.682315
21
7.07967
0
LINE
8
DEFAULT_255_2_778
10
16.682315
20
8.07987
11
22.482215
21
8.07987
0
LINE
8
DEFAULT_255_2_778
10
22.482215
20
8.07987
11
23.482115
21
6.87967
0
LINE
8
DEFAULT_255_2_778
10
23.482115
20
6.87967
11
25.482115
21
9.57977
0
LINE
8
DEFAULT_255_2_778
10
25.482115
20
9.57977
11
25.482115
21
10.27987
0
LINE
8
DEFAULT_255_2_778
10
25.482115
20
10.27987
11
16.682015
21
10.27987
0
LINE
8
DEFAULT_255_2_778
10
16.182015
20
10.77987
11
16.182015
21
11.47997
0
LINE
8
DEFAULT_255_2_778
10
16.682015
20
11.98007
11
20.182215
21
11.98007
0
LINE
8
DEFAULT_255_2_778
10
20.182215
20
11.98007
11
20.182215
21
61.77967
0
LINE
8
DEFAULT_255_2_778
10
20.182215
20
61.77967
11
3.866415
21
61.77967
0
LINE
8
DEFAULT_255_2_778
10
2.882415
20
0.60187
11
3.866715
21
0.77947
0
LINE
8
DEFAULT_255_2_778
10
3.866715
20
0.77947
11
20.182215
21
0.77947
0
LINE
8
DEFAULT_255_2_778
10
2.482415
20
41.57957
11
2.482415
21
19.97947
0
LINE
8
DEFAULT_255_2_778
10
3.282515
20
19.17937
11
17.382415
21
19.17937
0
LINE
8
DEFAULT_255_2_778
10
18.182515
20
19.97947
11
18.182515
21
41.57957
0
LINE
8
DEFAULT_255_2_778
10
17.382415
20
42.37967
11
3.282515
21
42.37967
0
LINE
8
DEFAULT_255_2_778
10
3.864815
20
61.76887
11
3.864315
21
61.76037
0
LINE
8
DEFAULT_255_2_778
10
3.864315
20
61.76037
11
3.863815
21
61.74947
0
LINE
8
DEFAULT_255_2_778
10
3.863815
20
61.74947
11
3.863215
21
61.73657
0
LINE
8
DEFAULT_255_2_778
10
3.863215
20
61.73657
11
3.862515
21
61.70347
0
LINE
8
DEFAULT_255_2_778
10
3.862515
20
61.70347
11
3.861715
21
61.66137
0
LINE
8
DEFAULT_255_2_778
10
3.861715
20
61.66137
11
3.860915
21
61.61087
0
LINE
8
DEFAULT_255_2_778
10
3.860915
20
61.61087
11
3.860115
21
61.55237
0
LINE
8
DEFAULT_255_2_778
10
3.860115
20
61.55237
11
3.859515
21
61.48647
0
LINE
8
DEFAULT_255_2_778
10
3.859515
20
61.48647
11
3.859015
21
61.41377
0
LINE
8
DEFAULT_255_2_778
10
3.859015
20
61.41377
11
3.858515
21
61.33487
0
LINE
8
DEFAULT_255_2_778
10
3.858515
20
61.33487
11
3.857715
21
61.16217
0
LINE
8
DEFAULT_255_2_778
10
3.857715
20
61.16217
11
3.857215
21
60.97457
0
LINE
8
DEFAULT_255_2_778
10
3.857215
20
60.97457
11
3.857215
21
60.77957
0
LINE
8
DEFAULT_255_2_778
10
3.857215
20
60.77957
11
2.881915
21
60.95707
0
LINE
8
DEFAULT_255_2_778
10
11.682515
20
55.67997
11
12.682315
21
54.68857
0
LINE
8
DEFAULT_255_2_778
10
20.181915
20
60.77977
11
3.857215
21
60.77977
0
LINE
8
DEFAULT_255_2_778
10
3.857215
20
60.77977
11
3.492015
21
58.68007
0
LINE
8
DEFAULT_255_2_778
10
3.492015
20
58.68007
11
11.682015
21
58.67977
0
ENDSEC
0
EOF