0
SECTION
2
HEADER
9
$MEASUREMENT
70
1
0
ENDSEC
0
SECTION
2
TABLES
0
TABLE
2
LTYPE
0
LTYPE
72
65
70
64
2
CONTINUOUS
3
______
73
0
40
0
0
ENDTAB
0
TABLE
2
LAYER
0
LAYER
2
DEFAULT_255_2_778
70
0
62
255
6
CONTINUOUS
0
LAYER
2
DEFAULT_255_1_388
70
0
62
255
6
CONTINUOUS
0
LAYER
2
DEFAULT_255_2_778_1
70
0
62
255
6
CONTINUOUS
0
ENDTAB
0
ENDSEC
0
SECTION
2
ENTITIES
0
ARC
8
DEFAULT_255_2_778
10
3.5700693
20
67.8676531
40
0.7914215
50
129.1312896
51
180.1450914
0
ARC
8
DEFAULT_255_2_778
10
3.5703345
20
67.8681402
40
0.7912112
50
89.854026
51
129.1684493
0
ARC
8
DEFAULT_255_2_778
10
25.7993937
20
67.8678268
40
0.7915249
50
39.4792447
51
90.147911
0
ARC
8
DEFAULT_255_2_778
10
25.7999935
20
67.8676734
40
0.7911595
50
359.8533901
51
39.5154338
0
ARC
8
DEFAULT_255_2_778
10
25.7996693
20
-1.9863991
40
0.7914836
50
309.4761667
51
0.1482649
0
ARC
8
DEFAULT_255_2_778
10
25.799398
20
-1.9868302
40
0.7913235
50
269.8517415
51
309.511178
0
ARC
8
DEFAULT_255_2_778
10
3.570342
20
-1.986772
40
0.7913815
50
219.1282118
51
270.1454017
0
ARC
8
DEFAULT_255_2_778
10
3.5700247
20
-1.9863896
40
0.7913769
50
179.8524075
51
219.1641908
0
LINE
8
DEFAULT_255_2_778
10
3.5723503
20
68.659349
11
25.7973503
21
68.659349
0
LINE
8
DEFAULT_255_2_778
10
26.5911503
20
67.865649
11
26.5911503
21
-1.984351
0
LINE
8
DEFAULT_255_2_778
10
25.7973503
20
-2.778151
11
3.5723503
21
-2.778151
0
LINE
8
DEFAULT_255_2_778
10
2.7786503
20
-1.984351
11
2.7786503
21
67.865649
0
LINE
8
DEFAULT_255_1_388
10
11.1324318
20
-0.5033618
11
11.1324318
21
-0.6398
0
LINE
8
DEFAULT_255_1_388
10
11.1324318
20
-0.6398
11
10.2704313
21
-0.6398
0
LINE
8
DEFAULT_255_1_388
10
10.2704313
20
-0.6398
11
10.2704313
21
-0.5196259
0
LINE
8
DEFAULT_255_1_388
10
10.2704313
20
-0.5196259
11
10.7258278
21
-0.0136298
0
LINE
8
DEFAULT_255_1_388
10
10.4122909
20
0.2881607
11
10.2451315
21
0.2881607
0
LINE
8
DEFAULT_255_1_388
10
10.8243163
20
-0.121154
11
10.4719262
21
-0.5033618
0
LINE
8
DEFAULT_255_1_388
10
10.4719262
20
-0.5033618
11
11.1324318
21
-0.5033618
0
ARC
8
DEFAULT_255_1_388
10
9.2082337
20
1.3283983
40
2.0258655
50
318.5132526
51
320.7829045
0
ARC
8
DEFAULT_255_1_388
10
9.8030294
20
0.8442929
40
1.2589638
50
320.7372878
51
323.9739031
0
ARC
8
DEFAULT_255_1_388
10
10.2439226
20
0.5248554
40
0.7145141
50
323.8962701
51
328.64194
0
ARC
8
DEFAULT_255_1_388
10
10.4741484
20
0.3828545
40
0.4440242
50
328.8294576
51
331.7891185
0
ARC
8
DEFAULT_255_1_388
10
10.5863804
20
0.3249374
40
0.3177517
50
331.4254512
51
352.9365785
0
ARC
8
DEFAULT_255_1_388
10
10.6016804
20
0.321505
40
0.3021496
50
353.2257659
51
0.0166158
0
ARC
8
DEFAULT_255_1_388
10
10.6253564
20
0.3240894
40
0.2784847
50
359.486299
51
15.9343185
0
ARC
8
DEFAULT_255_1_388
10
10.6823831
20
0.3394269
40
0.2194403
50
16.1712913
51
43.5286088
0
ARC
8
DEFAULT_255_1_388
10
10.6910776
20
0.3481191
40
0.2071504
50
43.4417391
51
83.1661095
0
ARC
8
DEFAULT_255_1_388
10
10.6759937
20
0.2652316
40
0.2912888
50
82.160179
51
90.1505708
0
ARC
8
DEFAULT_255_1_388
10
10.6724418
20
0.2048279
40
0.3517025
50
89.5460741
51
102.5418361
0
ARC
8
DEFAULT_255_1_388
10
10.6451138
20
0.3207933
40
0.2325748
50
102.1738499
51
129.206123
0
ARC
8
DEFAULT_255_1_388
10
10.6362592
20
0.3347664
40
0.2161591
50
129.72865
51
135.753947
0
ARC
8
DEFAULT_255_1_388
10
10.6499074
20
0.3238728
40
0.2335433
50
136.1757367
51
166.3673339
0
ARC
8
DEFAULT_255_1_388
10
10.7631762
20
0.2935148
40
0.3507873
50
165.9090694
51
178.8684636
0
ARC
8
DEFAULT_255_1_388
10
10.8607534
20
0.2882263
40
0.4484624
50
178.4391136
51
180.0083808
0
ARC
8
DEFAULT_255_1_388
10
10.7028235
20
0.2926197
40
0.4577138
50
163.2878482
51
180.5581842
0
ARC
8
DEFAULT_255_1_388
10
10.6126276
20
0.3174393
40
0.3641968
50
133.4540601
51
162.947111
0
ARC
8
DEFAULT_255_1_388
10
10.6327158
20
0.2960789
40
0.3935189
50
100.7869829
51
133.4382499
0
ARC
8
DEFAULT_255_1_388
10
10.6718403
20
0.1218399
40
0.5720313
50
89.660664
51
101.3702276
0
ARC
8
DEFAULT_255_1_388
10
10.6793012
20
0.1287263
40
0.5651495
50
78.2172678
51
90.412935
0
ARC
8
DEFAULT_255_1_388
10
10.7192478
20
0.3114511
40
0.378122
50
55.9269121
51
78.4888449
0
ARC
8
DEFAULT_255_1_388
10
10.7413193
20
0.3495187
40
0.3342379
50
47.929771
51
55.4049217
0
ARC
8
DEFAULT_255_1_388
10
10.7527723
20
0.3611618
40
0.3179217
50
4.334829
51
48.0560205
0
ARC
8
DEFAULT_255_1_388
10
10.6295525
20
0.3420487
40
0.442341
50
359.9251713
51
5.5971671
0
ARC
8
DEFAULT_255_1_388
10
10.677768
20
0.3483728
40
0.3941854
50
337.8914027
51
358.9967534
0
ARC
8
DEFAULT_255_1_388
10
10.372525
20
0.4661295
40
0.7213271
50
326.9132501
51
338.3508308
0
ARC
8
DEFAULT_255_1_388
10
9.9241362
20
0.7535105
40
1.2538973
50
319.6471833
51
327.0959558
0
ARC
8
DEFAULT_255_1_388
10
9.492802
20
1.109305
40
1.8129975
50
317.2588228
51
319.9045804
0
LINE
8
DEFAULT_255_1_388
10
12.1344848
20
0.138169
11
12.1344848
21
-0.0786865
0
LINE
8
DEFAULT_255_1_388
10
11.304109
20
-0.1012756
11
11.304109
21
0.1219048
0
LINE
8
DEFAULT_255_1_388
10
11.9673253
20
-0.1238647
11
11.9673253
21
0.1499153
0
LINE
8
DEFAULT_255_1_388
10
11.4712685
20
0.1625652
11
11.4712685
21
-0.1048898
0
ARC
8
DEFAULT_255_1_388
10
10.7567182
20
-0.0841882
40
1.3777776
50
353.8440855
51
0.2287917
0
ARC
8
DEFAULT_255_1_388
10
11.2786199
20
-0.1424586
40
0.852639
50
344.4934746
51
353.9763743
0
ARC
8
DEFAULT_255_1_388
10
11.6153006
20
-0.2381809
40
0.5026273
50
329.2803599
51
344.7473406
0
ARC
8
DEFAULT_255_1_388
10
11.7268502
20
-0.2993962
40
0.3754848
50
324.9361395
51
328.6153007
0
ARC
8
DEFAULT_255_1_388
10
11.7694152
20
-0.3291414
40
0.3235566
50
280.5801797
51
324.9173226
0
ARC
8
DEFAULT_255_1_388
10
11.724278
20
-0.1411764
40
0.5167077
50
269.5979457
51
281.6732777
0
ARC
8
DEFAULT_255_1_388
10
11.7161684
20
-0.1546887
40
0.5032026
50
256.6228565
51
270.5105488
0
ARC
8
DEFAULT_255_1_388
10
11.6709427
20
-0.3288655
40
0.3233092
50
215.8618351
51
257.2787793
0
ARC
8
DEFAULT_255_1_388
10
11.7858134
20
-0.2517894
40
0.4615831
50
197.9695203
51
215.2622745
0
ARC
8
DEFAULT_255_1_388
10
12.0653809
20
-0.1574359
40
0.7566307
50
187.8816486
51
198.2346584
0
ARC
8
DEFAULT_255_1_388
10
12.5107048
20
-0.0931547
40
1.2065653
50
180.8977266
51
188.0054894
0
ARC
8
DEFAULT_255_1_388
10
12.8157261
20
-0.08166
40
1.5117443
50
180.7434591
51
181.152202
0
ARC
8
DEFAULT_255_1_388
10
12.6482257
20
0.1273371
40
1.3441277
50
173.7674302
51
180.2315596
0
ARC
8
DEFAULT_255_1_388
10
12.1400126
20
0.1847779
40
0.8326847
50
164.3058537
51
173.9000553
0
ARC
8
DEFAULT_255_1_388
10
11.8124126
20
0.2791652
40
0.4917711
50
148.7922028
51
164.5682288
0
ARC
8
DEFAULT_255_1_388
10
11.7054864
20
0.3388457
40
0.3694204
50
144.5883979
51
148.1161588
0
ARC
8
DEFAULT_255_1_388
10
11.6667609
20
0.3658667
40
0.322202
50
101.6440149
51
144.5142619
0
ARC
8
DEFAULT_255_1_388
10
11.7145801
20
0.1758337
40
0.5180451
50
89.528284
51
102.5820197
0
ARC
8
DEFAULT_255_1_388
10
11.7234793
20
0.1714376
40
0.5224441
50
77.0437914
51
90.508231
0
ARC
8
DEFAULT_255_1_388
10
11.7687047
20
0.3562272
40
0.3322297
50
48.2777708
51
77.4996087
0
ARC
8
DEFAULT_255_1_388
10
11.7768787
20
0.3707557
40
0.315966
50
36.3141586
51
47.6307332
0
ARC
8
DEFAULT_255_1_388
10
11.6791509
20
0.3049159
40
0.4337313
50
18.2931065
51
35.6770203
0
ARC
8
DEFAULT_255_1_388
10
11.393035
20
0.2067107
40
0.7362203
50
8.0246996
51
18.5605636
0
ARC
8
DEFAULT_255_1_388
10
10.9246705
20
0.1375432
40
1.2096583
50
1.127539
51
8.1718423
0
ARC
8
DEFAULT_255_1_388
10
10.5597839
20
0.1232374
40
1.5747719
50
0.5432713
51
1.38669
0
ARC
8
DEFAULT_255_1_388
10
10.7655217
20
0.1539163
40
1.2018103
50
359.8092569
51
4.9408001
0
ARC
8
DEFAULT_255_1_388
10
11.2391799
20
0.19619
40
0.7262727
50
4.8364937
51
12.2906017
0
ARC
8
DEFAULT_255_1_388
10
11.5491263
20
0.2652485
40
0.4087324
50
12.0806994
51
23.8171225
0
ARC
8
DEFAULT_255_1_388
10
11.6811659
20
0.3211508
40
0.2653719
50
24.2874621
51
31.3934353
0
ARC
8
DEFAULT_255_1_388
10
11.7402095
20
0.3597822
40
0.1948607
50
30.7407708
51
82.4658033
0
ARC
8
DEFAULT_255_1_388
10
11.7199756
20
0.2604017
40
0.2961198
50
81.1057101
51
90.2187368
0
ARC
8
DEFAULT_255_1_388
10
11.7159568
20
0.2894421
40
0.2670929
50
89.380395
51
105.6763916
0
ARC
8
DEFAULT_255_1_388
10
11.695329
20
0.364432
40
0.1893189
50
105.7980655
51
149.7387869
0
ARC
8
DEFAULT_255_1_388
10
11.815043
20
0.2924719
40
0.3289892
50
149.4208441
51
163.628295
0
ARC
8
DEFAULT_255_1_388
10
12.050266
20
0.2207345
40
0.5749004
50
163.3764549
51
172.141138
0
ARC
8
DEFAULT_255_1_388
10
12.4215381
20
0.1675582
40
0.9499585
50
172.0258462
51
178.0705453
0
ARC
8
DEFAULT_255_1_388
10
12.7636934
20
0.1513682
40
1.2924734
50
177.8639301
51
179.5036263
0
ARC
8
DEFAULT_255_1_388
10
12.6417953
20
-0.1089849
40
1.170534
50
179.7995545
51
185.246089
0
ARC
8
DEFAULT_255_1_388
10
12.1869546
20
-0.1520596
40
0.7136613
50
185.1411911
51
193.0082205
0
ARC
8
DEFAULT_255_1_388
10
11.8895806
20
-0.2223559
40
0.4080987
50
192.7897338
51
205.2507384
0
ARC
8
DEFAULT_255_1_388
10
11.7718016
20
-0.2749462
40
0.2791522
50
205.8001921
51
211.2545876
0
ARC
8
DEFAULT_255_1_388
10
11.7129555
20
-0.3143868
40
0.2084074
50
210.3789935
51
238.4007996
0
ARC
8
DEFAULT_255_1_388
10
11.7107641
20
-0.3091214
40
0.2117943
50
239.6521916
51
265.9793852
0
ARC
8
DEFAULT_255_1_388
10
11.720349
20
-0.2334642
40
0.2879689
50
265.1324455
51
270.0603288
0
ARC
8
DEFAULT_255_1_388
10
11.7235867
20
-0.2699582
40
0.2514919
50
269.3314378
51
287.2180039
0
ARC
8
DEFAULT_255_1_388
10
11.739095
20
-0.3265709
40
0.1928357
50
287.7957942
51
329.0808983
0
ARC
8
DEFAULT_255_1_388
10
11.6313707
20
-0.2593349
40
0.319808
50
328.6635261
51
343.3325043
0
ARC
8
DEFAULT_255_1_388
10
11.3869165
20
-0.1831805
40
0.5758408
50
343.0498092
51
351.9392499
0
ARC
8
DEFAULT_255_1_388
10
10.9968487
20
-0.1256795
40
0.9701202
50
351.8071632
51
357.7957897
0
ARC
8
DEFAULT_255_1_388
10
10.6333964
20
-0.1068276
40
1.3340376
50
357.5870923
51
359.2682493
0
ARC
8
DEFAULT_255_1_388
10
12.8289801
20
0.329572
40
0.3175098
50
338.8762533
51
0.5167111
0
ARC
8
DEFAULT_255_1_388
10
12.8479394
20
0.32446
40
0.2979894
50
325.8415285
51
338.4793574
0
ARC
8
DEFAULT_255_1_388
10
12.8040028
20
0.3549242
40
0.351452
50
296.7587686
51
325.7536481
0
ARC
8
DEFAULT_255_1_388
10
12.7711656
20
0.4103363
40
0.4157374
50
296.0927901
51
297.3613472
0
ARC
8
DEFAULT_255_1_388
10
12.8005851
20
-0.3279407
40
0.395855
50
47.9007294
51
67.1948823
0
ARC
8
DEFAULT_255_1_388
10
12.8226493
20
-0.3002401
40
0.360516
50
35.2363914
51
47.551141
0
ARC
8
DEFAULT_255_1_388
10
12.8520897
20
-0.2805907
40
0.3251343
50
359.2759765
51
35.4014143
0
ARC
8
DEFAULT_255_1_388
10
12.7682824
20
-0.2888213
40
0.4089365
50
343.1293083
51
0.5775513
0
ARC
8
DEFAULT_255_1_388
10
12.8497937
20
-0.3112664
40
0.3244269
50
310.8496669
51
342.7449331
0
ARC
8
DEFAULT_255_1_388
10
12.8027812
20
-0.2576087
40
0.3957651
50
281.5472888
51
310.9170406
0
ARC
8
DEFAULT_255_1_388
10
12.7626686
20
-0.0829186
40
0.5749654
50
269.619248
51
281.9789564
0
ARC
8
DEFAULT_255_1_388
10
12.7545464
20
-0.0828224
40
0.5750649
50
257.4585678
51
270.4285689
0
ARC
8
DEFAULT_255_1_388
10
12.7116984
20
-0.2632259
40
0.389671
50
228.7554326
51
257.8484789
0
ARC
8
DEFAULT_255_1_388
10
12.676847
20
-0.3051772
40
0.335154
50
184.0104975
51
228.5071184
0
ARC
8
DEFAULT_255_1_388
10
12.8076862
20
-0.285257
40
0.4671891
50
179.9315832
51
185.3253753
0
ARC
8
DEFAULT_255_1_388
10
12.6753375
20
-0.2810408
40
0.33486
50
145.6796023
51
180.6259786
0
ARC
8
DEFAULT_255_1_388
10
12.6937141
20
-0.2938729
40
0.3572723
50
115.5537685
51
145.6415986
0
ARC
8
DEFAULT_255_1_388
10
12.7320184
20
-0.3624913
40
0.4357296
50
113.243307
51
116.2057839
0
ARC
8
DEFAULT_255_1_388
10
12.7148836
20
0.3572379
40
0.3549126
50
222.9549744
51
244.1370481
0
ARC
8
DEFAULT_255_1_388
10
12.701148
20
0.3418378
40
0.3343711
50
213.3436887
51
222.6274467
0
ARC
8
DEFAULT_255_1_388
10
12.6795549
20
0.3271653
40
0.3082678
50
180.431584
51
213.271499
0
ARC
8
DEFAULT_255_1_388
10
12.7430548
20
0.3324296
40
0.3718363
50
179.9991191
51
181.1690594
0
ARC
8
DEFAULT_255_1_388
10
12.7903004
20
0.3363072
40
0.4190996
50
164.6186169
51
180.529336
0
ARC
8
DEFAULT_255_1_388
10
12.6892653
20
0.363478
40
0.3144772
50
132.2455553
51
164.5090724
0
ARC
8
DEFAULT_255_1_388
10
12.7215631
20
0.326907
40
0.3632644
50
100.7053914
51
132.1386381
0
ARC
8
DEFAULT_255_1_388
10
12.7558692
20
0.1719118
40
0.5219578
50
89.6730358
51
101.2451698
0
ARC
8
DEFAULT_255_1_388
10
12.7628683
20
0.1915648
40
0.5023124
50
76.287748
51
90.4586006
0
ARC
8
DEFAULT_255_1_388
10
12.7973185
20
0.3290671
40
0.3605639
50
47.8240511
51
76.4266241
0
ARC
8
DEFAULT_255_1_388
10
12.8223569
20
0.3583599
40
0.3220463
50
6.9168387
51
47.6262497
0
ARC
8
DEFAULT_255_1_388
10
12.6889022
20
0.3337004
40
0.4575765
50
359.8415968
51
7.9697453
0
ARC
8
DEFAULT_255_1_388
10
12.7273292
20
-0.2783481
40
0.2827228
50
359.445363
51
16.9256873
0
ARC
8
DEFAULT_255_1_388
10
12.7800726
20
-0.2638219
40
0.2280396
50
17.2920767
51
45.4630727
0
ARC
8
DEFAULT_255_1_388
10
12.7739861
20
-0.2690676
40
0.2360485
50
45.30305
51
83.1920945
0
ARC
8
DEFAULT_255_1_388
10
12.7578606
20
-0.3592527
40
0.3275527
50
82.2612665
51
90.1434275
0
ARC
8
DEFAULT_255_1_388
10
12.7543883
20
-0.3330131
40
0.3013237
50
89.4956434
51
104.8580688
0
ARC
8
DEFAULT_255_1_388
10
12.7345072
20
-0.2576545
40
0.2233867
50
104.8856641
51
135.244616
0
ARC
8
DEFAULT_255_1_388
10
12.7401061
20
-0.2626648
40
0.2308906
50
135.3399546
51
172.1044062
0
ARC
8
DEFAULT_255_1_388
10
12.8308586
20
-0.2800333
40
0.3232034
50
171.2645637
51
180.186429
0
ARC
8
DEFAULT_255_1_388
10
12.811859
20
-0.2836574
40
0.304213
50
179.5154935
51
193.6464289
0
ARC
8
DEFAULT_255_1_388
10
12.7200266
20
-0.3070527
40
0.209456
50
193.3540274
51
225.8258581
0
ARC
8
DEFAULT_255_1_388
10
12.7246138
20
-0.2990924
40
0.2183738
50
226.4180634
51
255.8552336
0
ARC
8
DEFAULT_255_1_388
10
12.7534605
20
-0.1937479
40
0.3275812
50
255.4654104
51
268.7987425
0
ARC
8
DEFAULT_255_1_388
10
12.7587781
20
-0.0995455
40
0.4218877
50
268.3449238
51
270.0094605
0
ARC
8
DEFAULT_255_1_388
10
12.7614015
20
-0.1763906
40
0.3450519
50
269.5759586
51
282.0820163
0
ARC
8
DEFAULT_255_1_388
10
12.7867051
20
-0.2882637
40
0.2303642
50
281.752014
51
306.6056188
0
ARC
8
DEFAULT_255_1_388
10
12.7977859
20
-0.3064198
40
0.2091906
50
307.1346085
51
314.027845
0
ARC
8
DEFAULT_255_1_388
10
12.7937371
20
-0.3034541
40
0.2141385
50
314.2552483
51
350.1694025
0
ARC
8
DEFAULT_255_1_388
10
12.6979608
20
-0.2826825
40
0.312082
50
349.4140529
51
0.2933014
0
ARC
8
DEFAULT_255_1_388
10
12.7564885
20
0.2976924
40
0.2588377
50
89.477747
51
105.729729
0
ARC
8
DEFAULT_255_1_388
10
12.7411805
20
0.3545367
40
0.1999733
50
105.9233417
51
135.1660906
0
ARC
8
DEFAULT_255_1_388
10
12.7434836
20
0.3529412
40
0.2027322
50
135.3052302
51
168.9883645
0
ARC
8
DEFAULT_255_1_388
10
12.8365852
20
0.3315996
40
0.2982129
50
168.3801673
51
180.3602268
0
ARC
8
DEFAULT_255_1_388
10
12.8108969
20
0.3273622
40
0.2725291
50
179.5033122
51
194.9125571
0
ARC
8
DEFAULT_255_1_388
10
12.7450376
20
0.3100427
40
0.204431
50
194.9720816
51
224.194444
0
ARC
8
DEFAULT_255_1_388
10
12.7418741
20
0.3074635
40
0.2003651
50
224.2962453
51
262.015664
0
ARC
8
DEFAULT_255_1_388
10
12.7578745
20
0.3897315
40
0.2840925
50
261.1245923
51
270.1962896
0
ARC
8
DEFAULT_255_1_388
10
12.7612227
20
0.3686859
40
0.2630559
50
269.4827276
51
285.0987215
0
ARC
8
DEFAULT_255_1_388
10
12.7785663
20
0.3036175
40
0.1957162
50
285.1585357
51
315.9484501
0
ARC
8
DEFAULT_255_1_388
10
12.7685536
20
0.3128315
40
0.2093195
50
316.0413965
51
351.916092
0
ARC
8
DEFAULT_255_1_388
10
12.6860911
20
0.3287323
40
0.2932279
50
351.105835
51
0.1939062
0
ARC
8
DEFAULT_255_1_388
10
12.7156545
20
0.3321224
40
0.2636739
50
359.4789618
51
16.0678224
0
ARC
8
DEFAULT_255_1_388
10
12.7692017
20
0.3465721
40
0.2082215
50
16.3252067
51
44.7913869
0
ARC
8
DEFAULT_255_1_388
10
12.7672079
20
0.346632
40
0.2095992
50
44.3957814
51
88.2499162
0
ARC
8
DEFAULT_255_1_388
10
12.7589413
20
0.2778006
40
0.2787189
50
86.9833854
51
90.0192215
0
LINE
8
DEFAULT_255_1_388
10
14.212683
20
0.138169
11
14.212683
21
-0.0786865
0
LINE
8
DEFAULT_255_1_388
10
13.3823073
20
-0.1012756
11
13.3823073
21
0.1219048
0
LINE
8
DEFAULT_255_1_388
10
14.0455236
20
-0.1238647
11
14.0455236
21
0.1499153
0
LINE
8
DEFAULT_255_1_388
10
13.5494667
20
0.1625652
11
13.5494667
21
-0.1048898
0
ARC
8
DEFAULT_255_1_388
10
12.8349164
20
-0.0841882
40
1.3777776
50
353.8440855
51
0.2287917
0
ARC
8
DEFAULT_255_1_388
10
13.3568181
20
-0.1424586
40
0.852639
50
344.4934746
51
353.9763743
0
ARC
8
DEFAULT_255_1_388
10
13.6934989
20
-0.2381809
40
0.5026273
50
329.2803599
51
344.7473406
0
ARC
8
DEFAULT_255_1_388
10
13.8050484
20
-0.2993962
40
0.3754848
50
324.9361395
51
328.6153007
0
ARC
8
DEFAULT_255_1_388
10
13.8476134
20
-0.3291414
40
0.3235566
50
280.5801797
51
324.9173226
0
ARC
8
DEFAULT_255_1_388
10
13.8024763
20
-0.1411764
40
0.5167077
50
269.5979457
51
281.6732777
0
ARC
8
DEFAULT_255_1_388
10
13.7943666
20
-0.1546887
40
0.5032026
50
256.6228565
51
270.5105488
0
ARC
8
DEFAULT_255_1_388
10
13.7491409
20
-0.3288655
40
0.3233092
50
215.8618351
51
257.2787793
0
ARC
8
DEFAULT_255_1_388
10
13.8640116
20
-0.2517894
40
0.4615831
50
197.9695203
51
215.2622745
0
ARC
8
DEFAULT_255_1_388
10
14.1435792
20
-0.1574359
40
0.7566307
50
187.8816486
51
198.2346584
0
ARC
8
DEFAULT_255_1_388
10
14.588903
20
-0.0931547
40
1.2065653
50
180.8977266
51
188.0054894
0
ARC
8
DEFAULT_255_1_388
10
14.8939244
20
-0.08166
40
1.5117443
50
180.7434591
51
181.152202
0
ARC
8
DEFAULT_255_1_388
10
14.726424
20
0.1273371
40
1.3441277
50
173.7674302
51
180.2315596
0
ARC
8
DEFAULT_255_1_388
10
14.2182108
20
0.1847779
40
0.8326847
50
164.3058537
51
173.9000553
0
ARC
8
DEFAULT_255_1_388
10
13.8906109
20
0.2791652
40
0.4917711
50
148.7922028
51
164.5682288
0
ARC
8
DEFAULT_255_1_388
10
13.7836846
20
0.3388457
40
0.3694204
50
144.5883979
51
148.1161588
0
ARC
8
DEFAULT_255_1_388
10
13.7449591
20
0.3658667
40
0.322202
50
101.6440149
51
144.5142619
0
ARC
8
DEFAULT_255_1_388
10
13.7927783
20
0.1758337
40
0.5180451
50
89.528284
51
102.5820197
0
ARC
8
DEFAULT_255_1_388
10
13.8016775
20
0.1714376
40
0.5224441
50
77.0437914
51
90.508231
0
ARC
8
DEFAULT_255_1_388
10
13.8469029
20
0.3562272
40
0.3322297
50
48.2777708
51
77.4996087
0
ARC
8
DEFAULT_255_1_388
10
13.8550769
20
0.3707557
40
0.315966
50
36.3141586
51
47.6307332
0
ARC
8
DEFAULT_255_1_388
10
13.7573491
20
0.3049159
40
0.4337313
50
18.2931065
51
35.6770203
0
ARC
8
DEFAULT_255_1_388
10
13.4712332
20
0.2067107
40
0.7362203
50
8.0246996
51
18.5605636
0
ARC
8
DEFAULT_255_1_388
10
13.0028688
20
0.1375432
40
1.2096583
50
1.127539
51
8.1718423
0
ARC
8
DEFAULT_255_1_388
10
12.6379821
20
0.1232374
40
1.5747719
50
0.5432713
51
1.38669
0
ARC
8
DEFAULT_255_1_388
10
12.84372
20
0.1539163
40
1.2018103
50
359.8092569
51
4.9408001
0
ARC
8
DEFAULT_255_1_388
10
13.3173781
20
0.19619
40
0.7262727
50
4.8364937
51
12.2906017
0
ARC
8
DEFAULT_255_1_388
10
13.6273246
20
0.2652485
40
0.4087324
50
12.0806994
51
23.8171225
0
ARC
8
DEFAULT_255_1_388
10
13.7593642
20
0.3211508
40
0.2653719
50
24.2874621
51
31.3934353
0
ARC
8
DEFAULT_255_1_388
10
13.8184078
20
0.3597822
40
0.1948607
50
30.7407708
51
82.4658033
0
ARC
8
DEFAULT_255_1_388
10
13.7981738
20
0.2604017
40
0.2961198
50
81.1057101
51
90.2187368
0
ARC
8
DEFAULT_255_1_388
10
13.794155
20
0.2894421
40
0.2670929
50
89.380395
51
105.6763916
0
ARC
8
DEFAULT_255_1_388
10
13.7735272
20
0.364432
40
0.1893189
50
105.7980655
51
149.7387869
0
ARC
8
DEFAULT_255_1_388
10
13.8932412
20
0.2924719
40
0.3289892
50
149.4208441
51
163.628295
0
ARC
8
DEFAULT_255_1_388
10
14.1284642
20
0.2207345
40
0.5749004
50
163.3764549
51
172.141138
0
ARC
8
DEFAULT_255_1_388
10
14.4997363
20
0.1675582
40
0.9499585
50
172.0258462
51
178.0705453
0
ARC
8
DEFAULT_255_1_388
10
14.8418916
20
0.1513682
40
1.2924734
50
177.8639301
51
179.5036263
0
ARC
8
DEFAULT_255_1_388
10
14.7199935
20
-0.1089849
40
1.170534
50
179.7995545
51
185.246089
0
ARC
8
DEFAULT_255_1_388
10
14.2651528
20
-0.1520596
40
0.7136613
50
185.1411911
51
193.0082205
0
ARC
8
DEFAULT_255_1_388
10
13.9677789
20
-0.2223559
40
0.4080987
50
192.7897338
51
205.2507384
0
ARC
8
DEFAULT_255_1_388
10
13.8499999
20
-0.2749462
40
0.2791522
50
205.8001921
51
211.2545876
0
ARC
8
DEFAULT_255_1_388
10
13.7911538
20
-0.3143868
40
0.2084074
50
210.3789935
51
238.4007996
0
ARC
8
DEFAULT_255_1_388
10
13.7889624
20
-0.3091214
40
0.2117943
50
239.6521916
51
265.9793852
0
ARC
8
DEFAULT_255_1_388
10
13.7985473
20
-0.2334642
40
0.2879689
50
265.1324455
51
270.0603288
0
ARC
8
DEFAULT_255_1_388
10
13.801785
20
-0.2699582
40
0.2514919
50
269.3314378
51
287.2180039
0
ARC
8
DEFAULT_255_1_388
10
13.8172932
20
-0.3265709
40
0.1928357
50
287.7957942
51
329.0808983
0
ARC
8
DEFAULT_255_1_388
10
13.7095689
20
-0.2593349
40
0.319808
50
328.6635261
51
343.3325043
0
ARC
8
DEFAULT_255_1_388
10
13.4651148
20
-0.1831805
40
0.5758408
50
343.0498092
51
351.9392499
0
ARC
8
DEFAULT_255_1_388
10
13.0750469
20
-0.1256795
40
0.9701202
50
351.8071632
51
357.7957897
0
ARC
8
DEFAULT_255_1_388
10
12.7115946
20
-0.1068276
40
1.3340376
50
357.5870923
51
359.2682493
0
LINE
8
DEFAULT_255_1_388
10
14.7918678
20
-0.0127263
11
14.7918678
21
-0.1491645
0
LINE
8
DEFAULT_255_1_388
10
14.7918678
20
-0.1491645
11
14.3509284
21
-0.1491645
0
LINE
8
DEFAULT_255_1_388
10
14.3509284
20
-0.1491645
11
14.3509284
21
-0.0127263
0
LINE
8
DEFAULT_255_1_388
10
14.3509284
20
-0.0127263
11
14.7918678
21
-0.0127263
0
LINE
8
DEFAULT_255_1_388
10
15.8896986
20
0.6757898
11
15.8896986
21
0.5330267
0
LINE
8
DEFAULT_255_1_388
10
15.8896986
20
0.5330267
11
15.4668305
21
0.5330267
0
LINE
8
DEFAULT_255_1_388
10
15.4668305
20
0.5330267
11
15.4668305
21
-0.6398
0
LINE
8
DEFAULT_255_1_388
10
15.4668305
20
-0.6398
11
15.2942497
21
-0.6398
0
LINE
8
DEFAULT_255_1_388
10
15.2942497
20
-0.6398
11
15.2942497
21
0.5330267
0
LINE
8
DEFAULT_255_1_388
10
15.2942497
20
0.5330267
11
14.8722851
21
0.5330267
0
LINE
8
DEFAULT_255_1_388
10
14.8722851
20
0.5330267
11
14.8722851
21
0.6757898
0
LINE
8
DEFAULT_255_1_388
10
14.8722851
20
0.6757898
11
15.8896986
21
0.6757898
0
LINE
8
DEFAULT_255_1_388
10
16.8528983
20
-0.2223532
11
17.0272863
21
-0.2223532
0
LINE
8
DEFAULT_255_1_388
10
16.0143905
20
-0.0434475
11
16.0143905
21
0.0830516
0
LINE
8
DEFAULT_255_1_388
10
17.0272863
20
0.2529217
11
16.8528983
21
0.2529217
0
LINE
8
DEFAULT_255_1_388
10
16.1887785
20
0.0785337
11
16.1887785
21
-0.0488688
0
ARC
8
DEFAULT_255_1_388
10
16.4107097
20
-0.1551671
40
0.6202263
50
340.1774904
51
353.7812217
0
ARC
8
DEFAULT_255_1_388
10
16.587495
20
-0.2210107
40
0.4315926
50
311.4560052
51
340.4420756
0
ARC
8
DEFAULT_255_1_388
10
16.5837489
20
-0.2085335
40
0.4434573
50
282.4332229
51
310.7514507
0
ARC
8
DEFAULT_255_1_388
10
16.5343307
20
-0.0043297
40
0.6535262
50
269.9358869
51
282.8096729
0
ARC
8
DEFAULT_255_1_388
10
16.5285247
20
0.1469329
40
0.8048043
50
269.9995752
51
270.3612856
0
ARC
8
DEFAULT_255_1_388
10
16.5225737
20
-0.1329219
40
0.5249831
50
250.7885263
51
270.6488451
0
ARC
8
DEFAULT_255_1_388
10
16.5036561
20
-0.2046147
40
0.4510942
50
219.3628377
51
250.0611024
0
ARC
8
DEFAULT_255_1_388
10
16.5969436
20
-0.1253347
40
0.5735046
50
193.5480293
51
219.5755675
0
ARC
8
DEFAULT_255_1_388
10
16.8637644
20
-0.056048
40
0.849146
50
181.1220183
51
193.8754971
0
ARC
8
DEFAULT_255_1_388
10
17.0960878
20
-0.0436086
40
1.0816971
50
179.9914644
51
181.5398227
0
ARC
8
DEFAULT_255_1_388
10
16.8884188
20
0.0872586
40
0.8740384
50
169.5837606
51
180.275782
0
ARC
8
DEFAULT_255_1_388
10
16.6817536
20
0.1254439
40
0.6638751
50
155.0367033
51
169.6002779
0
ARC
8
DEFAULT_255_1_388
10
16.5539995
20
0.1870336
40
0.5220662
50
136.7831557
51
155.2472983
0
ARC
8
DEFAULT_255_1_388
10
16.5101785
20
0.2242577
40
0.4646502
50
121.7633063
51
136.4281161
0
ARC
8
DEFAULT_255_1_388
10
16.5253625
20
0.1962049
40
0.4964979
50
95.6460018
51
121.5489589
0
ARC
8
DEFAULT_255_1_388
10
16.5430599
20
0.0714704
40
0.6223912
50
89.9245727
51
96.1375919
0
ARC
8
DEFAULT_255_1_388
10
16.5487305
20
0.0848721
40
0.6090084
50
76.6779212
51
90.456405
0
ARC
8
DEFAULT_255_1_388
10
16.5930117
20
0.263806
40
0.42469
50
47.4858803
51
76.9287069
0
ARC
8
DEFAULT_255_1_388
10
16.5764731
20
0.2525623
40
0.4441778
50
16.5424081
51
46.8934505
0
ARC
8
DEFAULT_255_1_388
10
16.3955781
20
0.1931265
40
0.6345318
50
5.4072971
51
17.0363711
0
ARC
8
DEFAULT_255_1_388
10
16.2337506
20
0.1671304
40
0.6250632
50
7.8888693
51
15.9242022
0
ARC
8
DEFAULT_255_1_388
10
16.4572491
20
0.2320309
40
0.3923364
50
15.7650676
51
27.9410069
0
ARC
8
DEFAULT_255_1_388
10
16.5814661
20
0.2985317
40
0.2514401
50
27.8167196
51
46.4007942
0
ARC
8
DEFAULT_255_1_388
10
16.5870502
20
0.2978882
40
0.2480958
50
47.4372362
51
75.0695672
0
ARC
8
DEFAULT_255_1_388
10
16.5523338
20
0.1770277
40
0.3738281
50
74.7009379
51
87.8124314
0
ARC
8
DEFAULT_255_1_388
10
16.5440955
20
0.0586659
40
0.4924321
50
87.3802571
51
90.0251599
0
ARC
8
DEFAULT_255_1_388
10
16.5397603
20
0.1906997
40
0.3604218
50
89.3451886
51
108.5744412
0
ARC
8
DEFAULT_255_1_388
10
16.5243595
20
0.2484836
40
0.3007661
50
109.2998307
51
143.3037387
0
ARC
8
DEFAULT_255_1_388
10
16.6100885
20
0.1825584
40
0.4089031
50
143.075267
51
163.1918576
0
ARC
8
DEFAULT_255_1_388
10
16.8296719
20
0.1132652
40
0.6391492
50
162.9375929
51
174.6208776
0
ARC
8
DEFAULT_255_1_388
10
17.1251101
20
0.0808711
40
0.9363344
50
174.342123
51
180.1430283
0
ARC
8
DEFAULT_255_1_388
10
17.0203642
20
-0.0534883
40
0.8315986
50
179.6817261
51
189.150555
0
ARC
8
DEFAULT_255_1_388
10
16.7390391
20
-0.1003441
40
0.5464044
50
188.9911061
51
203.5772363
0
ARC
8
DEFAULT_255_1_388
10
16.6175683
20
-0.1507461
40
0.4149206
50
203.9075402
51
215.1312435
0
ARC
8
DEFAULT_255_1_388
10
16.513748
20
-0.2312093
40
0.2837747
50
213.9071511
51
263.8848919
0
ARC
8
DEFAULT_255_1_388
10
16.5278474
20
-0.1429481
40
0.3730641
50
263.1757928
51
270.1031044
0
ARC
8
DEFAULT_255_1_388
10
16.5314553
20
-0.0026489
40
0.5133712
50
269.6722503
51
279.0606936
0
ARC
8
DEFAULT_255_1_388
10
16.5614709
20
-0.184085
40
0.3294739
50
278.8749101
51
293.6349581
0
ARC
8
DEFAULT_255_1_388
10
16.5974912
20
-0.2686749
40
0.2375405
50
293.8553806
51
310.0518171
0
ARC
8
DEFAULT_255_1_388
10
16.5980421
20
-0.2756979
40
0.2318463
50
311.0644687
51
332.0111037
0
ARC
8
DEFAULT_255_1_388
10
16.4639095
20
-0.2017298
40
0.3850112
50
331.6586806
51
343.2877423
0
ARC
8
DEFAULT_255_1_388
10
16.231856
20
-0.1304194
40
0.6277712
50
343.1446576
51
351.0103568
0
ARC
8
DEFAULT_255_1_388
10
16.0685883
20
-0.1004127
40
0.7937327
50
350.71248
51
351.1626997
0
LINE
8
DEFAULT_255_1_388
10
18.0826496
20
-0.5033618
11
18.0826496
21
-0.6398
0
LINE
8
DEFAULT_255_1_388
10
18.0826496
20
-0.6398
11
17.2206491
21
-0.6398
0
LINE
8
DEFAULT_255_1_388
10
17.2206491
20
-0.6398
11
17.2206491
21
-0.5196259
0
LINE
8
DEFAULT_255_1_388
10
17.2206491
20
-0.5196259
11
17.6760456
21
-0.0136298
0
LINE
8
DEFAULT_255_1_388
10
17.3625087
20
0.2881607
11
17.1953493
21
0.2881607
0
LINE
8
DEFAULT_255_1_388
10
17.7745341
20
-0.121154
11
17.4221439
21
-0.5033618
0
LINE
8
DEFAULT_255_1_388
10
17.4221439
20
-0.5033618
11
18.0826496
21
-0.5033618
0
ARC
8
DEFAULT_255_1_388
10
16.1584515
20
1.3283983
40
2.0258655
50
318.5132526
51
320.7829045
0
ARC
8
DEFAULT_255_1_388
10
16.7532472
20
0.8442929
40
1.2589638
50
320.7372878
51
323.9739031
0
ARC
8
DEFAULT_255_1_388
10
17.1941404
20
0.5248554
40
0.7145141
50
323.8962701
51
328.64194
0
ARC
8
DEFAULT_255_1_388
10
17.4243661
20
0.3828545
40
0.4440242
50
328.8294576
51
331.7891185
0
ARC
8
DEFAULT_255_1_388
10
17.5365981
20
0.3249374
40
0.3177517
50
331.4254512
51
352.9365785
0
ARC
8
DEFAULT_255_1_388
10
17.5518981
20
0.321505
40
0.3021496
50
353.2257659
51
0.0166158
0
ARC
8
DEFAULT_255_1_388
10
17.5755742
20
0.3240894
40
0.2784847
50
359.486299
51
15.9343185
0
ARC
8
DEFAULT_255_1_388
10
17.6326009
20
0.3394269
40
0.2194403
50
16.1712913
51
43.5286088
0
ARC
8
DEFAULT_255_1_388
10
17.6412953
20
0.3481191
40
0.2071504
50
43.4417391
51
83.1661095
0
ARC
8
DEFAULT_255_1_388
10
17.6262114
20
0.2652316
40
0.2912888
50
82.160179
51
90.1505708
0
ARC
8
DEFAULT_255_1_388
10
17.6226596
20
0.2048279
40
0.3517025
50
89.5460741
51
102.5418361
0
ARC
8
DEFAULT_255_1_388
10
17.5953316
20
0.3207933
40
0.2325748
50
102.1738499
51
129.206123
0
ARC
8
DEFAULT_255_1_388
10
17.5864769
20
0.3347664
40
0.2161591
50
129.72865
51
135.753947
0
ARC
8
DEFAULT_255_1_388
10
17.6001252
20
0.3238728
40
0.2335433
50
136.1757367
51
166.3673339
0
ARC
8
DEFAULT_255_1_388
10
17.713394
20
0.2935148
40
0.3507873
50
165.9090694
51
178.8684636
0
ARC
8
DEFAULT_255_1_388
10
17.8109711
20
0.2882263
40
0.4484624
50
178.4391136
51
180.0083808
0
ARC
8
DEFAULT_255_1_388
10
17.6530413
20
0.2926197
40
0.4577138
50
163.2878482
51
180.5581842
0
ARC
8
DEFAULT_255_1_388
10
17.5628454
20
0.3174393
40
0.3641968
50
133.4540601
51
162.947111
0
ARC
8
DEFAULT_255_1_388
10
17.5829336
20
0.2960789
40
0.3935189
50
100.7869829
51
133.4382499
0
ARC
8
DEFAULT_255_1_388
10
17.6220581
20
0.1218399
40
0.5720313
50
89.660664
51
101.3702276
0
ARC
8
DEFAULT_255_1_388
10
17.629519
20
0.1287263
40
0.5651495
50
78.2172678
51
90.412935
0
ARC
8
DEFAULT_255_1_388
10
17.6694656
20
0.3114511
40
0.378122
50
55.9269121
51
78.4888449
0
ARC
8
DEFAULT_255_1_388
10
17.6915371
20
0.3495187
40
0.3342379
50
47.929771
51
55.4049217
0
ARC
8
DEFAULT_255_1_388
10
17.7029901
20
0.3611618
40
0.3179217
50
4.334829
51
48.0560205
0
ARC
8
DEFAULT_255_1_388
10
17.5797703
20
0.3420487
40
0.442341
50
359.9251713
51
5.5971671
0
ARC
8
DEFAULT_255_1_388
10
17.6279857
20
0.3483728
40
0.3941854
50
337.8914027
51
358.9967534
0
ARC
8
DEFAULT_255_1_388
10
17.3227428
20
0.4661295
40
0.7213271
50
326.9132501
51
338.3508308
0
ARC
8
DEFAULT_255_1_388
10
16.8743539
20
0.7535105
40
1.2538973
50
319.6471833
51
327.0959558
0
ARC
8
DEFAULT_255_1_388
10
16.4430198
20
1.109305
40
1.8129975
50
317.2588228
51
319.9045804
0
LINE
8
DEFAULT_255_1_388
10
10.4017024
20
63.5143898
11
10.6257864
21
63.5143898
0
LINE
8
DEFAULT_255_1_388
10
10.6257864
20
63.5143898
11
11.0558831
21
62.4409553
0
LINE
8
DEFAULT_255_1_388
10
11.0558831
20
62.4409553
11
11.4859797
21
63.5143898
0
LINE
8
DEFAULT_255_1_388
10
11.4859797
20
63.5143898
11
11.7109673
21
63.5143898
0
LINE
8
DEFAULT_255_1_388
10
11.7109673
20
63.5143898
11
11.7109673
21
62.1988
0
LINE
8
DEFAULT_255_1_388
10
11.7109673
20
62.1988
11
11.5374829
21
62.1988
0
LINE
8
DEFAULT_255_1_388
10
11.5374829
20
62.1988
11
11.5374829
21
62.711121
0
LINE
8
DEFAULT_255_1_388
10
11.5374829
20
62.711121
11
11.5537471
21
63.2641025
0
LINE
8
DEFAULT_255_1_388
10
11.5537471
20
63.2641025
11
11.1218433
21
62.1988
0
LINE
8
DEFAULT_255_1_388
10
11.1218433
20
62.1988
11
10.9890193
21
62.1988
0
LINE
8
DEFAULT_255_1_388
10
10.9890193
20
62.1988
11
10.558019
21
63.2613918
0
LINE
8
DEFAULT_255_1_388
10
10.558019
20
63.2613918
11
10.5751868
21
62.711121
0
LINE
8
DEFAULT_255_1_388
10
10.5751868
20
62.711121
11
10.5751868
21
62.1988
0
LINE
8
DEFAULT_255_1_388
10
10.5751868
20
62.1988
11
10.4017024
21
62.1988
0
LINE
8
DEFAULT_255_1_388
10
10.4017024
20
62.1988
11
10.4017024
21
63.5143898
0
LINE
8
DEFAULT_255_1_388
10
12.1726887
20
63.1764567
11
12.1726887
21
62.1988
0
LINE
8
DEFAULT_255_1_388
10
12.1726887
20
62.1988
11
12.0055293
21
62.1988
0
LINE
8
DEFAULT_255_1_388
10
12.0055293
20
62.1988
11
12.0055293
21
63.1764567
0
LINE
8
DEFAULT_255_1_388
10
12.0055293
20
63.1764567
11
12.1726887
21
63.1764567
0
ARC
8
DEFAULT_255_1_388
10
12.1020655
20
63.4368428
40
0.1100948
50
161.4148232
51
180.5532607
0
ARC
8
DEFAULT_255_1_388
10
12.0880965
20
63.4406875
40
0.0956324
50
138.1830164
51
160.9307633
0
ARC
8
DEFAULT_255_1_388
10
12.0757152
20
63.4514313
40
0.0792417
50
104.6371663
51
138.0036136
0
ARC
8
DEFAULT_255_1_388
10
12.0877691
20
63.4101963
40
0.1221906
50
92.0601206
51
105.2198859
0
ARC
8
DEFAULT_255_1_388
10
12.0904055
20
63.3713583
40
0.161103
50
89.9790681
51
92.5006086
0
ARC
8
DEFAULT_255_1_388
10
12.0915231
20
63.3969998
40
0.1354654
50
78.0234649
51
90.4478111
0
ARC
8
DEFAULT_255_1_388
10
12.1018815
20
63.4435203
40
0.0878096
50
55.0521508
51
78.336297
0
ARC
8
DEFAULT_255_1_388
10
12.107535
20
63.4530168
40
0.0767913
50
42.0506198
51
54.4508489
0
ARC
8
DEFAULT_255_1_388
10
12.0923383
20
63.4390821
40
0.0974091
50
1.7493657
51
42.1498724
0
ARC
8
DEFAULT_255_1_388
10
12.0637288
20
63.4358166
40
0.1261276
50
359.9832635
51
2.8353994
0
ARC
8
DEFAULT_255_1_388
10
12.0823698
20
63.4347412
40
0.1074916
50
342.1062453
51
0.5535864
0
ARC
8
DEFAULT_255_1_388
10
12.0984122
20
63.4303197
40
0.0908695
50
316.7110111
51
341.6513114
0
ARC
8
DEFAULT_255_1_388
10
12.1059554
20
63.4235607
40
0.0807447
50
285.4398289
51
316.5320129
0
ARC
8
DEFAULT_255_1_388
10
12.0935725
20
63.4647023
40
0.1237022
50
272.3543902
51
285.8951677
0
ARC
8
DEFAULT_255_1_388
10
12.0905435
20
63.5062742
40
0.1653687
50
269.9725761
51
272.8112722
0
ARC
8
DEFAULT_255_1_388
10
12.0894487
20
63.4811727
40
0.1402709
50
258.8433431
51
270.4148607
0
ARC
8
DEFAULT_255_1_388
10
12.0793267
20
63.4321739
40
0.0902407
50
238.54281
51
259.1289544
0
ARC
8
DEFAULT_255_1_388
10
12.0716588
20
63.4182694
40
0.0743817
50
222.5056676
51
237.9918132
0
ARC
8
DEFAULT_255_1_388
10
12.0860182
20
63.4313295
40
0.0937918
50
184.1070774
51
222.4604165
0
ARC
8
DEFAULT_255_1_388
10
12.1162596
20
63.4356538
40
0.1242838
50
179.9419581
51
185.0970785
0
LINE
8
DEFAULT_255_1_388
10
13.0626997
20
62.5069155
11
13.2208235
21
62.5069155
0
LINE
8
DEFAULT_255_1_388
10
12.3967727
20
62.6785927
11
12.3967727
21
62.7066032
0
LINE
8
DEFAULT_255_1_388
10
13.2208235
20
62.8403308
11
13.0626997
21
62.8403308
0
LINE
8
DEFAULT_255_1_388
10
12.5639321
20
62.7002783
11
12.5639321
21
62.6686535
0
ARC
8
DEFAULT_255_1_388
10
12.8363554
20
62.5579109
40
0.2407783
50
269.0327343
51
309.2224588
0
ARC
8
DEFAULT_255_1_388
10
12.8599558
20
62.533719
40
0.207135
50
308.3965377
51
329.6987678
0
ARC
8
DEFAULT_255_1_388
10
12.8754616
20
62.5219899
40
0.1878439
50
330.4013397
51
355.3970937
0
ARC
8
DEFAULT_255_1_388
10
12.92686
20
62.5239312
40
0.2944555
50
329.2357424
51
356.6872018
0
ARC
8
DEFAULT_255_1_388
10
12.8650495
20
62.5566153
40
0.3643032
50
324.8702872
51
329.7911998
0
ARC
8
DEFAULT_255_1_388
10
12.8561777
20
62.5642113
40
0.3759315
50
298.8769973
51
324.7015261
0
ARC
8
DEFAULT_255_1_388
10
12.8188321
20
62.623729
40
0.4461015
50
296.902888
51
299.3854973
0
ARC
8
DEFAULT_255_1_388
10
12.8334318
20
62.5913595
40
0.4106323
50
269.8407861
51
297.1298875
0
ARC
8
DEFAULT_255_1_388
10
12.8274314
20
62.6631354
40
0.4824312
50
253.3156606
51
270.5771301
0
ARC
8
DEFAULT_255_1_388
10
12.7996492
20
62.5625943
40
0.3781531
50
221.1002518
51
252.9743523
0
ARC
8
DEFAULT_255_1_388
10
12.8513962
20
62.6070131
40
0.4463481
50
194.5394284
51
221.0302764
0
ARC
8
DEFAULT_255_1_388
10
13.0593783
20
62.6649897
40
0.6622359
50
182.0498004
51
194.8774376
0
ARC
8
DEFAULT_255_1_388
10
13.2586873
20
62.6782778
40
0.8619146
50
179.9790673
51
182.4586753
0
ARC
8
DEFAULT_255_1_388
10
13.0630187
20
62.7099412
40
0.6662543
50
168.615001
51
180.2870547
0
ARC
8
DEFAULT_255_1_388
10
12.9278095
20
62.7364636
40
0.5284705
50
154.9162417
51
168.5402053
0
ARC
8
DEFAULT_255_1_388
10
12.8241371
20
62.7876942
40
0.4128641
50
133.5745308
51
155.2559538
0
ARC
8
DEFAULT_255_1_388
10
12.8058214
20
62.8033116
40
0.3889328
50
122.0165845
51
133.2056002
0
ARC
8
DEFAULT_255_1_388
10
12.8098538
20
62.7933977
40
0.3994808
50
97.8732516
51
121.753124
0
ARC
8
DEFAULT_255_1_388
10
12.8299996
20
62.674459
40
0.5200708
50
89.8471322
51
98.2768545
0
ARC
8
DEFAULT_255_1_388
10
12.8354844
20
62.7430809
40
0.4514657
50
73.3760755
51
90.5199878
0
ARC
8
DEFAULT_255_1_388
10
12.8575761
20
62.824355
40
0.3672743
50
47.7085939
51
73.0510707
0
ARC
8
DEFAULT_255_1_388
10
12.8721863
20
62.8370231
40
0.3480795
50
3.7442743
51
48.0844373
0
ARC
8
DEFAULT_255_1_388
10
12.7609857
20
62.8192946
40
0.4603187
50
2.6192831
51
5.0424684
0
ARC
8
DEFAULT_255_1_388
10
12.8125328
20
62.8237986
40
0.2507126
50
3.78087
51
23.9354314
0
ARC
8
DEFAULT_255_1_388
10
12.8382588
20
62.8328644
40
0.2235311
50
24.4867863
51
46.9439952
0
ARC
8
DEFAULT_255_1_388
10
12.8383533
20
62.8354874
40
0.2215567
50
46.4987715
51
89.3298168
0
ARC
8
DEFAULT_255_1_388
10
12.8314192
20
62.7688742
40
0.2883121
50
88.1066411
51
90.0063536
0
ARC
8
DEFAULT_255_1_388
10
12.8283168
20
62.7746548
40
0.2825481
50
89.3773571
51
107.2070287
0
ARC
8
DEFAULT_255_1_388
10
12.8122436
20
62.8328667
40
0.2221946
50
107.688418
51
143.3582986
0
ARC
8
DEFAULT_255_1_388
10
12.876073
20
62.7849064
40
0.3020337
50
143.2845866
51
162.9352432
0
ARC
8
DEFAULT_255_1_388
10
13.0454746
20
62.7305401
40
0.4799362
50
162.6652705
51
174.0802646
0
ARC
8
DEFAULT_255_1_388
10
13.2865227
20
62.7025287
40
0.7225942
50
173.8422673
51
180.1784414
0
ARC
8
DEFAULT_255_1_388
10
13.2248898
20
62.6652276
40
0.6609665
50
179.7030218
51
188.2277356
0
ARC
8
DEFAULT_255_1_388
10
12.9884505
20
62.6298143
40
0.4218948
50
188.0630838
51
201.115837
0
ARC
8
DEFAULT_255_1_388
10
12.864939
20
62.582673
40
0.2896941
50
201.2186162
51
216.9761863
0
ARC
8
DEFAULT_255_1_388
10
12.8141548
20
62.5446225
40
0.2262366
50
217.0136373
51
265.2055518
0
ARC
8
DEFAULT_255_1_388
10
12.8316885
20
62.6483503
40
0.3311837
50
263.6824874
51
270.1042034
0
LINE
8
DEFAULT_255_1_388
10
13.8813291
20
63.1818781
11
13.8813291
21
63.026465
0
LINE
8
DEFAULT_255_1_388
10
13.5759243
20
62.8927375
11
13.5759243
21
62.1988
0
LINE
8
DEFAULT_255_1_388
10
13.5759243
20
62.1988
11
13.4087649
21
62.1988
0
LINE
8
DEFAULT_255_1_388
10
13.4087649
20
62.1988
11
13.4087649
21
63.1764567
0
LINE
8
DEFAULT_255_1_388
10
13.4087649
20
63.1764567
11
13.5714065
21
63.1764567
0
LINE
8
DEFAULT_255_1_388
10
13.5714065
20
63.1764567
11
13.5741172
21
63.0635112
0
ARC
8
DEFAULT_255_1_388
10
13.8063451
20
62.5698068
40
0.4627735
50
80.6751522
51
86.893806
0
ARC
8
DEFAULT_255_1_388
10
13.7995281
20
62.4606103
40
0.5721798
50
86.8046851
51
90.0423898
0
ARC
8
DEFAULT_255_1_388
10
13.79537
20
62.7373197
40
0.2954939
50
89.2758283
51
106.6212906
0
ARC
8
DEFAULT_255_1_388
10
13.7723725
20
62.8209009
40
0.2088351
50
107.1347109
51
157.6456887
0
ARC
8
DEFAULT_255_1_388
10
13.8491787
20
62.7781908
40
0.296292
50
155.6557383
51
157.256838
0
ARC
8
DEFAULT_255_1_388
10
13.8271401
20
62.9092472
40
0.296341
50
127.8167201
51
148.6300223
0
ARC
8
DEFAULT_255_1_388
10
13.7986149
20
62.9385066
40
0.2557782
50
91.3329934
51
126.7875218
0
ARC
8
DEFAULT_255_1_388
10
13.8071536
20
62.8581718
40
0.3363561
50
89.9858247
51
92.4688453
0
ARC
8
DEFAULT_255_1_388
10
13.8081029
20
62.8890114
40
0.3055179
50
85.3587643
51
90.1624243
0
ARC
8
DEFAULT_255_1_388
10
13.8176094
20
63.0019458
40
0.1921848
50
78.4019195
51
85.4592653
0
ARC
8
DEFAULT_255_1_388
10
13.8339155
20
63.0797142
40
0.1127267
50
67.7849217
51
78.573798
0
ARC
8
DEFAULT_255_1_388
10
13.8460789
20
63.1112374
40
0.0789473
50
63.4805074
51
67.3074739
0
LINE
8
DEFAULT_255_1_388
10
13.9725891
20
62.6849177
11
13.9725891
21
62.696664
0
LINE
8
DEFAULT_255_1_388
10
14.8626001
20
62.6885319
11
14.8626001
21
62.6767856
0
ARC
8
DEFAULT_255_1_388
10
14.6010336
20
62.700304
40
0.628455
50
166.3005265
51
180.3318609
0
ARC
8
DEFAULT_255_1_388
10
14.5039685
20
62.7220267
40
0.52901
50
153.8608648
51
166.0965672
0
ARC
8
DEFAULT_255_1_388
10
14.4290851
20
62.7621652
40
0.4441126
50
135.1317053
51
154.2534962
0
ARC
8
DEFAULT_255_1_388
10
14.3977502
20
62.7898431
40
0.4023863
50
121.7042632
51
134.7771455
0
ARC
8
DEFAULT_255_1_388
10
14.4052934
20
62.7753469
40
0.4186852
50
93.4001111
51
121.5399523
0
ARC
8
DEFAULT_255_1_388
10
14.4159768
20
62.6823759
40
0.5121521
50
89.9706387
51
93.9763381
0
ARC
8
DEFAULT_255_1_388
10
14.4212753
20
62.7263563
40
0.4681988
50
71.3321659
51
90.6162917
0
ARC
8
DEFAULT_255_1_388
10
14.4395786
20
62.7941003
40
0.3981841
50
41.1813875
51
70.7072086
0
ARC
8
DEFAULT_255_1_388
10
14.3858503
20
62.745313
40
0.4707474
50
12.1971434
51
41.3446641
0
ARC
8
DEFAULT_255_1_388
10
14.1691766
20
62.6937328
40
0.6934429
50
359.5702713
51
12.5803533
0
ARC
8
DEFAULT_255_1_388
10
14.2224082
20
62.6732207
40
0.6402018
50
347.0196754
51
0.3190452
0
ARC
8
DEFAULT_255_1_388
10
14.3302136
20
62.6500189
40
0.5299421
50
334.350439
51
346.8460534
0
ARC
8
DEFAULT_255_1_388
10
14.4253382
20
62.6006244
40
0.4228234
50
310.4228125
51
334.8045131
0
ARC
8
DEFAULT_255_1_388
10
14.434536
20
62.5934301
40
0.4113892
50
301.8488154
51
310.0972985
0
ARC
8
DEFAULT_255_1_388
10
14.43091
20
62.6019573
40
0.4205483
50
274.3078723
51
301.6554173
0
ARC
8
DEFAULT_255_1_388
10
14.4184556
20
62.7006943
40
0.5199658
50
269.954904
51
274.859116
0
ARC
8
DEFAULT_255_1_388
10
14.412938
20
62.6443239
40
0.4636233
50
250.8887647
51
270.6313164
0
ARC
8
DEFAULT_255_1_388
10
14.3960541
20
62.5814405
40
0.398705
50
221.1701369
51
250.2227012
0
ARC
8
DEFAULT_255_1_388
10
14.4505206
20
62.6310716
40
0.4723796
50
191.6263861
51
221.3526879
0
ARC
8
DEFAULT_255_1_388
10
14.6629052
20
62.6802203
40
0.6903321
50
179.6101251
51
192.0694841
0
ARC
8
DEFAULT_255_1_388
10
14.7105399
20
62.6731681
40
0.5698993
50
179.636304
51
190.6161344
0
ARC
8
DEFAULT_255_1_388
10
14.5257731
20
62.6371635
40
0.3816643
50
190.4136062
51
208.7168709
0
ARC
8
DEFAULT_255_1_388
10
14.4683765
20
62.6086905
40
0.3176572
50
209.187109
51
217.4221816
0
ARC
8
DEFAULT_255_1_388
10
14.4088235
20
62.5562729
40
0.2385702
50
216.1156863
51
265.2575395
0
ARC
8
DEFAULT_255_1_388
10
14.4177272
20
62.6207608
40
0.3035941
50
264.5891546
51
270.0602378
0
ARC
8
DEFAULT_255_1_388
10
14.4214469
20
62.5780539
40
0.2609091
50
269.2532353
51
291.8793864
0
ARC
8
DEFAULT_255_1_388
10
14.4247348
20
62.5580359
40
0.241148
50
292.9269367
51
323.1777736
0
ARC
8
DEFAULT_255_1_388
10
14.3776633
20
62.5993762
40
0.3036446
50
322.25666
51
323.087958
0
ARC
8
DEFAULT_255_1_388
10
14.3473891
20
62.6176332
40
0.3388345
50
323.6941379
51
343.8493587
0
ARC
8
DEFAULT_255_1_388
10
14.1698327
20
62.6716698
40
0.5244204
50
343.5746655
51
355.008149
0
ARC
8
DEFAULT_255_1_388
10
13.9440018
20
62.6950797
40
0.7514406
50
354.728272
51
0.1208026
0
ARC
8
DEFAULT_255_1_388
10
14.1429044
20
62.7002947
40
0.5525482
50
359.6235211
51
11.2016685
0
ARC
8
DEFAULT_255_1_388
10
14.3154871
20
62.7358284
40
0.3763527
50
10.9991302
51
30.8317616
0
ARC
8
DEFAULT_255_1_388
10
14.3600175
20
62.7592988
40
0.3260975
50
31.3007463
51
37.395541
0
ARC
8
DEFAULT_255_1_388
10
14.4158894
20
62.8064773
40
0.253082
50
36.5918894
51
62.2439906
0
ARC
8
DEFAULT_255_1_388
10
14.4211186
20
62.8061378
40
0.2509927
50
63.3364883
51
89.7193846
0
ARC
8
DEFAULT_255_1_388
10
14.4162639
20
62.7413375
40
0.3158485
50
88.8962924
51
90.004475
0
ARC
8
DEFAULT_255_1_388
10
14.4127067
20
62.8066071
40
0.250604
50
89.1923115
51
114.7099029
0
ARC
8
DEFAULT_255_1_388
10
14.4159408
20
62.8108675
40
0.2481307
50
115.7996284
51
142.2901353
0
ARC
8
DEFAULT_255_1_388
10
14.4627679
20
62.7689752
40
0.310833
50
141.4607507
51
142.383894
0
ARC
8
DEFAULT_255_1_388
10
14.4775531
20
62.7621449
40
0.3267335
50
143.0176473
51
163.2340089
0
ARC
8
DEFAULT_255_1_388
10
14.6550819
20
62.7059553
40
0.5129308
50
162.9446504
51
174.3733893
0
ARC
8
DEFAULT_255_1_388
10
14.8964792
20
62.6788483
40
0.75583
50
174.1225809
51
180.1563667
0
ARC
8
DEFAULT_255_1_388
10
15.5354098
20
63.168172
40
0.3175098
50
338.8762533
51
0.5167111
0
ARC
8
DEFAULT_255_1_388
10
15.5543692
20
63.16306
40
0.2979894
50
325.8415285
51
338.4793574
0
ARC
8
DEFAULT_255_1_388
10
15.5104326
20
63.1935242
40
0.351452
50
296.7587686
51
325.7536481
0
ARC
8
DEFAULT_255_1_388
10
15.4775954
20
63.2489363
40
0.4157374
50
296.0927901
51
297.3613472
0
ARC
8
DEFAULT_255_1_388
10
15.5070149
20
62.5106593
40
0.395855
50
47.9007294
51
67.1948823
0
ARC
8
DEFAULT_255_1_388
10
15.5290791
20
62.5383599
40
0.360516
50
35.2363914
51
47.551141
0
ARC
8
DEFAULT_255_1_388
10
15.5585195
20
62.5580093
40
0.3251343
50
359.2759765
51
35.4014143
0
ARC
8
DEFAULT_255_1_388
10
15.4747122
20
62.5497787
40
0.4089365
50
343.1293083
51
0.5775513
0
ARC
8
DEFAULT_255_1_388
10
15.5562235
20
62.5273336
40
0.3244269
50
310.8496669
51
342.7449331
0
ARC
8
DEFAULT_255_1_388
10
15.509211
20
62.5809913
40
0.3957651
50
281.5472888
51
310.9170406
0
ARC
8
DEFAULT_255_1_388
10
15.4690984
20
62.7556814
40
0.5749654
50
269.619248
51
281.9789564
0
ARC
8
DEFAULT_255_1_388
10
15.4609762
20
62.7557776
40
0.5750649
50
257.4585678
51
270.4285689
0
ARC
8
DEFAULT_255_1_388
10
15.4181282
20
62.5753741
40
0.389671
50
228.7554326
51
257.8484789
0
ARC
8
DEFAULT_255_1_388
10
15.3832767
20
62.5334228
40
0.335154
50
184.0104975
51
228.5071184
0
ARC
8
DEFAULT_255_1_388
10
15.514116
20
62.553343
40
0.4671891
50
179.9315832
51
185.3253753
0
ARC
8
DEFAULT_255_1_388
10
15.3817673
20
62.5575592
40
0.33486
50
145.6796023
51
180.6259786
0
ARC
8
DEFAULT_255_1_388
10
15.4001438
20
62.5447271
40
0.3572723
50
115.5537685
51
145.6415986
0
ARC
8
DEFAULT_255_1_388
10
15.4384482
20
62.4761087
40
0.4357296
50
113.243307
51
116.2057839
0
ARC
8
DEFAULT_255_1_388
10
15.4213134
20
63.1958379
40
0.3549126
50
222.9549744
51
244.1370481
0
ARC
8
DEFAULT_255_1_388
10
15.4075777
20
63.1804378
40
0.3343711
50
213.3436887
51
222.6274467
0
ARC
8
DEFAULT_255_1_388
10
15.3859847
20
63.1657653
40
0.3082678
50
180.431584
51
213.271499
0
ARC
8
DEFAULT_255_1_388
10
15.4494846
20
63.1710296
40
0.3718363
50
179.9991191
51
181.1690594
0
ARC
8
DEFAULT_255_1_388
10
15.4967302
20
63.1749072
40
0.4190996
50
164.6186169
51
180.529336
0
ARC
8
DEFAULT_255_1_388
10
15.395695
20
63.202078
40
0.3144772
50
132.2455553
51
164.5090724
0
ARC
8
DEFAULT_255_1_388
10
15.4279929
20
63.165507
40
0.3632644
50
100.7053914
51
132.1386381
0
ARC
8
DEFAULT_255_1_388
10
15.462299
20
63.0105118
40
0.5219578
50
89.6730358
51
101.2451698
0
ARC
8
DEFAULT_255_1_388
10
15.4692981
20
63.0301648
40
0.5023124
50
76.287748
51
90.4586006
0
ARC
8
DEFAULT_255_1_388
10
15.5037483
20
63.1676671
40
0.3605639
50
47.8240511
51
76.4266241
0
ARC
8
DEFAULT_255_1_388
10
15.5287867
20
63.1969599
40
0.3220463
50
6.9168387
51
47.6262497
0
ARC
8
DEFAULT_255_1_388
10
15.395332
20
63.1723004
40
0.4575765
50
359.8415968
51
7.9697453
0
ARC
8
DEFAULT_255_1_388
10
15.433759
20
62.5602519
40
0.2827228
50
359.445363
51
16.9256873
0
ARC
8
DEFAULT_255_1_388
10
15.4865024
20
62.5747781
40
0.2280396
50
17.2920767
51
45.4630727
0
ARC
8
DEFAULT_255_1_388
10
15.4804159
20
62.5695324
40
0.2360485
50
45.30305
51
83.1920945
0
ARC
8
DEFAULT_255_1_388
10
15.4642904
20
62.4793473
40
0.3275527
50
82.2612665
51
90.1434275
0
ARC
8
DEFAULT_255_1_388
10
15.460818
20
62.5055869
40
0.3013237
50
89.4956434
51
104.8580688
0
ARC
8
DEFAULT_255_1_388
10
15.440937
20
62.5809455
40
0.2233867
50
104.8856641
51
135.244616
0
ARC
8
DEFAULT_255_1_388
10
15.4465359
20
62.5759352
40
0.2308906
50
135.3399546
51
172.1044062
0
ARC
8
DEFAULT_255_1_388
10
15.5372884
20
62.5585667
40
0.3232034
50
171.2645637
51
180.186429
0
ARC
8
DEFAULT_255_1_388
10
15.5182888
20
62.5549426
40
0.304213
50
179.5154935
51
193.6464289
0
ARC
8
DEFAULT_255_1_388
10
15.4264564
20
62.5315473
40
0.209456
50
193.3540274
51
225.8258581
0
ARC
8
DEFAULT_255_1_388
10
15.4310436
20
62.5395076
40
0.2183738
50
226.4180634
51
255.8552336
0
ARC
8
DEFAULT_255_1_388
10
15.4598903
20
62.6448521
40
0.3275812
50
255.4654104
51
268.7987425
0
ARC
8
DEFAULT_255_1_388
10
15.4652079
20
62.7390545
40
0.4218877
50
268.3449238
51
270.0094605
0
ARC
8
DEFAULT_255_1_388
10
15.4678313
20
62.6622094
40
0.3450519
50
269.5759586
51
282.0820163
0
ARC
8
DEFAULT_255_1_388
10
15.4931349
20
62.5503363
40
0.2303642
50
281.752014
51
306.6056188
0
ARC
8
DEFAULT_255_1_388
10
15.5042157
20
62.5321802
40
0.2091906
50
307.1346085
51
314.027845
0
ARC
8
DEFAULT_255_1_388
10
15.5001669
20
62.5351459
40
0.2141385
50
314.2552483
51
350.1694025
0
ARC
8
DEFAULT_255_1_388
10
15.4043906
20
62.5559175
40
0.312082
50
349.4140529
51
0.2933014
0
ARC
8
DEFAULT_255_1_388
10
15.4629183
20
63.1362924
40
0.2588377
50
89.477747
51
105.729729
0
ARC
8
DEFAULT_255_1_388
10
15.4476103
20
63.1931367
40
0.1999733
50
105.9233417
51
135.1660906
0
ARC
8
DEFAULT_255_1_388
10
15.4499134
20
63.1915412
40
0.2027322
50
135.3052302
51
168.9883645
0
ARC
8
DEFAULT_255_1_388
10
15.543015
20
63.1701996
40
0.2982129
50
168.3801673
51
180.3602268
0
ARC
8
DEFAULT_255_1_388
10
15.5173267
20
63.1659622
40
0.2725291
50
179.5033122
51
194.9125571
0
ARC
8
DEFAULT_255_1_388
10
15.4514674
20
63.1486427
40
0.204431
50
194.9720816
51
224.194444
0
ARC
8
DEFAULT_255_1_388
10
15.4483039
20
63.1460635
40
0.2003651
50
224.2962453
51
262.015664
0
ARC
8
DEFAULT_255_1_388
10
15.4643043
20
63.2283315
40
0.2840925
50
261.1245923
51
270.1962896
0
ARC
8
DEFAULT_255_1_388
10
15.4676525
20
63.2072859
40
0.2630559
50
269.4827276
51
285.0987215
0
ARC
8
DEFAULT_255_1_388
10
15.4849961
20
63.1422175
40
0.1957162
50
285.1585357
51
315.9484501
0
ARC
8
DEFAULT_255_1_388
10
15.4749834
20
63.1514315
40
0.2093195
50
316.0413965
51
351.916092
0
ARC
8
DEFAULT_255_1_388
10
15.3925209
20
63.1673323
40
0.2932279
50
351.105835
51
0.1939062
0
ARC
8
DEFAULT_255_1_388
10
15.4220843
20
63.1707224
40
0.2636739
50
359.4789618
51
16.0678224
0
ARC
8
DEFAULT_255_1_388
10
15.4756314
20
63.1851721
40
0.2082215
50
16.3252067
51
44.7913869
0
ARC
8
DEFAULT_255_1_388
10
15.4736377
20
63.185232
40
0.2095992
50
44.3957814
51
88.2499162
0
ARC
8
DEFAULT_255_1_388
10
15.4653711
20
63.1164006
40
0.2787189
50
86.9833854
51
90.0192215
0
LINE
8
DEFAULT_255_1_388
10
16.9191128
20
62.976769
11
16.9191128
21
62.7599135
0
LINE
8
DEFAULT_255_1_388
10
16.0887371
20
62.7373244
11
16.0887371
21
62.9605048
0
LINE
8
DEFAULT_255_1_388
10
16.7519534
20
62.7147353
11
16.7519534
21
62.9885153
0
LINE
8
DEFAULT_255_1_388
10
16.2558965
20
63.0011652
11
16.2558965
21
62.7337102
0
ARC
8
DEFAULT_255_1_388
10
15.5413462
20
62.7544118
40
1.3777776
50
353.8440855
51
0.2287917
0
ARC
8
DEFAULT_255_1_388
10
16.0632479
20
62.6961414
40
0.852639
50
344.4934746
51
353.9763743
0
ARC
8
DEFAULT_255_1_388
10
16.3999286
20
62.6004191
40
0.5026273
50
329.2803599
51
344.7473406
0
ARC
8
DEFAULT_255_1_388
10
16.5114782
20
62.5392038
40
0.3754848
50
324.9361395
51
328.6153007
0
ARC
8
DEFAULT_255_1_388
10
16.5540432
20
62.5094586
40
0.3235566
50
280.5801797
51
324.9173226
0
ARC
8
DEFAULT_255_1_388
10
16.5089061
20
62.6974236
40
0.5167077
50
269.5979457
51
281.6732777
0
ARC
8
DEFAULT_255_1_388
10
16.5007964
20
62.6839113
40
0.5032026
50
256.6228565
51
270.5105488
0
ARC
8
DEFAULT_255_1_388
10
16.4555707
20
62.5097345
40
0.3233092
50
215.8618351
51
257.2787793
0
ARC
8
DEFAULT_255_1_388
10
16.5704414
20
62.5868106
40
0.4615831
50
197.9695203
51
215.2622745
0
ARC
8
DEFAULT_255_1_388
10
16.850009
20
62.6811641
40
0.7566307
50
187.8816486
51
198.2346584
0
ARC
8
DEFAULT_255_1_388
10
17.2953328
20
62.7454453
40
1.2065653
50
180.8977266
51
188.0054894
0
ARC
8
DEFAULT_255_1_388
10
17.6003542
20
62.75694
40
1.5117443
50
180.7434591
51
181.152202
0
ARC
8
DEFAULT_255_1_388
10
17.4328537
20
62.9659371
40
1.3441277
50
173.7674302
51
180.2315596
0
ARC
8
DEFAULT_255_1_388
10
16.9246406
20
63.0233779
40
0.8326847
50
164.3058537
51
173.9000553
0
ARC
8
DEFAULT_255_1_388
10
16.5970406
20
63.1177652
40
0.4917711
50
148.7922028
51
164.5682288
0
ARC
8
DEFAULT_255_1_388
10
16.4901144
20
63.1774457
40
0.3694204
50
144.5883979
51
148.1161588
0
ARC
8
DEFAULT_255_1_388
10
16.4513889
20
63.2044667
40
0.322202
50
101.6440149
51
144.5142619
0
ARC
8
DEFAULT_255_1_388
10
16.4992081
20
63.0144337
40
0.5180451
50
89.528284
51
102.5820197
0
ARC
8
DEFAULT_255_1_388
10
16.5081073
20
63.0100376
40
0.5224441
50
77.0437914
51
90.508231
0
ARC
8
DEFAULT_255_1_388
10
16.5533327
20
63.1948272
40
0.3322297
50
48.2777708
51
77.4996087
0
ARC
8
DEFAULT_255_1_388
10
16.5615067
20
63.2093557
40
0.315966
50
36.3141586
51
47.6307332
0
ARC
8
DEFAULT_255_1_388
10
16.4637789
20
63.1435159
40
0.4337313
50
18.2931065
51
35.6770203
0
ARC
8
DEFAULT_255_1_388
10
16.177663
20
63.0453107
40
0.7362203
50
8.0246996
51
18.5605636
0
ARC
8
DEFAULT_255_1_388
10
15.7092985
20
62.9761432
40
1.2096583
50
1.127539
51
8.1718423
0
ARC
8
DEFAULT_255_1_388
10
15.3444119
20
62.9618374
40
1.5747719
50
0.5432713
51
1.38669
0
ARC
8
DEFAULT_255_1_388
10
15.5501498
20
62.9925163
40
1.2018103
50
359.8092569
51
4.9408001
0
ARC
8
DEFAULT_255_1_388
10
16.0238079
20
63.03479
40
0.7262727
50
4.8364937
51
12.2906017
0
ARC
8
DEFAULT_255_1_388
10
16.3337544
20
63.1038485
40
0.4087324
50
12.0806994
51
23.8171225
0
ARC
8
DEFAULT_255_1_388
10
16.465794
20
63.1597508
40
0.2653719
50
24.2874621
51
31.3934353
0
ARC
8
DEFAULT_255_1_388
10
16.5248375
20
63.1983822
40
0.1948607
50
30.7407708
51
82.4658033
0
ARC
8
DEFAULT_255_1_388
10
16.5046036
20
63.0990017
40
0.2961198
50
81.1057101
51
90.2187368
0
ARC
8
DEFAULT_255_1_388
10
16.5005848
20
63.1280421
40
0.2670929
50
89.380395
51
105.6763916
0
ARC
8
DEFAULT_255_1_388
10
16.479957
20
63.203032
40
0.1893189
50
105.7980655
51
149.7387869
0
ARC
8
DEFAULT_255_1_388
10
16.599671
20
63.1310719
40
0.3289892
50
149.4208441
51
163.628295
0
ARC
8
DEFAULT_255_1_388
10
16.834894
20
63.0593345
40
0.5749004
50
163.3764549
51
172.141138
0
ARC
8
DEFAULT_255_1_388
10
17.2061661
20
63.0061582
40
0.9499585
50
172.0258462
51
178.0705453
0
ARC
8
DEFAULT_255_1_388
10
17.5483214
20
62.9899682
40
1.2924734
50
177.8639301
51
179.5036263
0
ARC
8
DEFAULT_255_1_388
10
17.4264233
20
62.7296151
40
1.170534
50
179.7995545
51
185.246089
0
ARC
8
DEFAULT_255_1_388
10
16.9715826
20
62.6865404
40
0.7136613
50
185.1411911
51
193.0082205
0
ARC
8
DEFAULT_255_1_388
10
16.6742087
20
62.6162441
40
0.4080987
50
192.7897338
51
205.2507384
0
ARC
8
DEFAULT_255_1_388
10
16.5564297
20
62.5636538
40
0.2791522
50
205.8001921
51
211.2545876
0
ARC
8
DEFAULT_255_1_388
10
16.4975836
20
62.5242132
40
0.2084074
50
210.3789935
51
238.4007996
0
ARC
8
DEFAULT_255_1_388
10
16.4953922
20
62.5294786
40
0.2117943
50
239.6521916
51
265.9793852
0
ARC
8
DEFAULT_255_1_388
10
16.5049771
20
62.6051358
40
0.2879689
50
265.1324455
51
270.0603288
0
ARC
8
DEFAULT_255_1_388
10
16.5082148
20
62.5686418
40
0.2514919
50
269.3314378
51
287.2180039
0
ARC
8
DEFAULT_255_1_388
10
16.523723
20
62.5120291
40
0.1928357
50
287.7957942
51
329.0808983
0
ARC
8
DEFAULT_255_1_388
10
16.4159987
20
62.5792651
40
0.319808
50
328.6635261
51
343.3325043
0
ARC
8
DEFAULT_255_1_388
10
16.1715446
20
62.6554195
40
0.5758408
50
343.0498092
51
351.9392499
0
ARC
8
DEFAULT_255_1_388
10
15.7814767
20
62.7129205
40
0.9701202
50
351.8071632
51
357.7957897
0
ARC
8
DEFAULT_255_1_388
10
15.4180244
20
62.7317724
40
1.3340376
50
357.5870923
51
359.2682493
0
LINE
8
DEFAULT_255_1_388
10
17.9582119
20
62.976769
11
17.9582119
21
62.7599135
0
LINE
8
DEFAULT_255_1_388
10
17.1278362
20
62.7373244
11
17.1278362
21
62.9605048
0
LINE
8
DEFAULT_255_1_388
10
17.7910525
20
62.7147353
11
17.7910525
21
62.9885153
0
LINE
8
DEFAULT_255_1_388
10
17.2949956
20
63.0011652
11
17.2949956
21
62.7337102
0
ARC
8
DEFAULT_255_1_388
10
16.5804453
20
62.7544118
40
1.3777776
50
353.8440855
51
0.2287917
0
ARC
8
DEFAULT_255_1_388
10
17.102347
20
62.6961414
40
0.852639
50
344.4934746
51
353.9763743
0
ARC
8
DEFAULT_255_1_388
10
17.4390278
20
62.6004191
40
0.5026273
50
329.2803599
51
344.7473406
0
ARC
8
DEFAULT_255_1_388
10
17.5505773
20
62.5392038
40
0.3754848
50
324.9361395
51
328.6153007
0
ARC
8
DEFAULT_255_1_388
10
17.5931423
20
62.5094586
40
0.3235566
50
280.5801797
51
324.9173226
0
ARC
8
DEFAULT_255_1_388
10
17.5480052
20
62.6974236
40
0.5167077
50
269.5979457
51
281.6732777
0
ARC
8
DEFAULT_255_1_388
10
17.5398955
20
62.6839113
40
0.5032026
50
256.6228565
51
270.5105488
0
ARC
8
DEFAULT_255_1_388
10
17.4946698
20
62.5097345
40
0.3233092
50
215.8618351
51
257.2787793
0
ARC
8
DEFAULT_255_1_388
10
17.6095405
20
62.5868106
40
0.4615831
50
197.9695203
51
215.2622745
0
ARC
8
DEFAULT_255_1_388
10
17.8891081
20
62.6811641
40
0.7566307
50
187.8816486
51
198.2346584
0
ARC
8
DEFAULT_255_1_388
10
18.3344319
20
62.7454453
40
1.2065653
50
180.8977266
51
188.0054894
0
ARC
8
DEFAULT_255_1_388
10
18.6394533
20
62.75694
40
1.5117443
50
180.7434591
51
181.152202
0
ARC
8
DEFAULT_255_1_388
10
18.4719529
20
62.9659371
40
1.3441277
50
173.7674302
51
180.2315596
0
ARC
8
DEFAULT_255_1_388
10
17.9637398
20
63.0233779
40
0.8326847
50
164.3058537
51
173.9000553
0
ARC
8
DEFAULT_255_1_388
10
17.6361398
20
63.1177652
40
0.4917711
50
148.7922028
51
164.5682288
0
ARC
8
DEFAULT_255_1_388
10
17.5292135
20
63.1774457
40
0.3694204
50
144.5883979
51
148.1161588
0
ARC
8
DEFAULT_255_1_388
10
17.490488
20
63.2044667
40
0.322202
50
101.6440149
51
144.5142619
0
ARC
8
DEFAULT_255_1_388
10
17.5383073
20
63.0144337
40
0.5180451
50
89.528284
51
102.5820197
0
ARC
8
DEFAULT_255_1_388
10
17.5472064
20
63.0100376
40
0.5224441
50
77.0437914
51
90.508231
0
ARC
8
DEFAULT_255_1_388
10
17.5924318
20
63.1948272
40
0.3322297
50
48.2777708
51
77.4996087
0
ARC
8
DEFAULT_255_1_388
10
17.6006058
20
63.2093557
40
0.315966
50
36.3141586
51
47.6307332
0
ARC
8
DEFAULT_255_1_388
10
17.502878
20
63.1435159
40
0.4337313
50
18.2931065
51
35.6770203
0
ARC
8
DEFAULT_255_1_388
10
17.2167621
20
63.0453107
40
0.7362203
50
8.0246996
51
18.5605636
0
ARC
8
DEFAULT_255_1_388
10
16.7483977
20
62.9761432
40
1.2096583
50
1.127539
51
8.1718423
0
ARC
8
DEFAULT_255_1_388
10
16.383511
20
62.9618374
40
1.5747719
50
0.5432713
51
1.38669
0
ARC
8
DEFAULT_255_1_388
10
16.5892489
20
62.9925163
40
1.2018103
50
359.8092569
51
4.9408001
0
ARC
8
DEFAULT_255_1_388
10
17.062907
20
63.03479
40
0.7262727
50
4.8364937
51
12.2906017
0
ARC
8
DEFAULT_255_1_388
10
17.3728535
20
63.1038485
40
0.4087324
50
12.0806994
51
23.8171225
0
ARC
8
DEFAULT_255_1_388
10
17.5048931
20
63.1597508
40
0.2653719
50
24.2874621
51
31.3934353
0
ARC
8
DEFAULT_255_1_388
10
17.5639367
20
63.1983822
40
0.1948607
50
30.7407708
51
82.4658033
0
ARC
8
DEFAULT_255_1_388
10
17.5437028
20
63.0990017
40
0.2961198
50
81.1057101
51
90.2187368
0
ARC
8
DEFAULT_255_1_388
10
17.5396839
20
63.1280421
40
0.2670929
50
89.380395
51
105.6763916
0
ARC
8
DEFAULT_255_1_388
10
17.5190561
20
63.203032
40
0.1893189
50
105.7980655
51
149.7387869
0
ARC
8
DEFAULT_255_1_388
10
17.6387701
20
63.1310719
40
0.3289892
50
149.4208441
51
163.628295
0
ARC
8
DEFAULT_255_1_388
10
17.8739931
20
63.0593345
40
0.5749004
50
163.3764549
51
172.141138
0
ARC
8
DEFAULT_255_1_388
10
18.2452653
20
63.0061582
40
0.9499585
50
172.0258462
51
178.0705453
0
ARC
8
DEFAULT_255_1_388
10
18.5874205
20
62.9899682
40
1.2924734
50
177.8639301
51
179.5036263
0
ARC
8
DEFAULT_255_1_388
10
18.4655224
20
62.7296151
40
1.170534
50
179.7995545
51
185.246089
0
ARC
8
DEFAULT_255_1_388
10
18.0106817
20
62.6865404
40
0.7136613
50
185.1411911
51
193.0082205
0
ARC
8
DEFAULT_255_1_388
10
17.7133078
20
62.6162441
40
0.4080987
50
192.7897338
51
205.2507384
0
ARC
8
DEFAULT_255_1_388
10
17.5955288
20
62.5636538
40
0.2791522
50
205.8001921
51
211.2545876
0
ARC
8
DEFAULT_255_1_388
10
17.5366827
20
62.5242132
40
0.2084074
50
210.3789935
51
238.4007996
0
ARC
8
DEFAULT_255_1_388
10
17.5344913
20
62.5294786
40
0.2117943
50
239.6521916
51
265.9793852
0
ARC
8
DEFAULT_255_1_388
10
17.5440762
20
62.6051358
40
0.2879689
50
265.1324455
51
270.0603288
0
ARC
8
DEFAULT_255_1_388
10
17.5473139
20
62.5686418
40
0.2514919
50
269.3314378
51
287.2180039
0
ARC
8
DEFAULT_255_1_388
10
17.5628221
20
62.5120291
40
0.1928357
50
287.7957942
51
329.0808983
0
ARC
8
DEFAULT_255_1_388
10
17.4550978
20
62.5792651
40
0.319808
50
328.6635261
51
343.3325043
0
ARC
8
DEFAULT_255_1_388
10
17.2106437
20
62.6554195
40
0.5758408
50
343.0498092
51
351.9392499
0
ARC
8
DEFAULT_255_1_388
10
16.8205758
20
62.7129205
40
0.9701202
50
351.8071632
51
357.7957897
0
ARC
8
DEFAULT_255_1_388
10
16.4571235
20
62.7317724
40
1.3340376
50
357.5870923
51
359.2682493
0
LINE
8
DEFAULT_255_2_778
10
11.0359959
20
65.1856531
11
10.9838959
21
65.5229531
0
LINE
8
DEFAULT_255_2_778
10
10.9838959
20
65.5229531
11
10.4068959
21
65.5229531
0
LINE
8
DEFAULT_255_2_778
10
10.4068959
20
65.5229531
11
10.2364959
21
65.1856531
0
LINE
8
DEFAULT_255_2_778
10
10.2364959
20
65.1856531
11
9.8694959
21
65.1856531
0
LINE
8
DEFAULT_255_2_778
10
9.8694959
20
65.1856531
11
10.7531959
21
66.8231531
0
LINE
8
DEFAULT_255_2_778
10
10.7531959
20
66.8231531
11
11.0608959
21
66.8231531
0
LINE
8
DEFAULT_255_2_778
10
11.0608959
20
66.8231531
11
11.3754959
21
65.1856531
0
LINE
8
DEFAULT_255_2_778
10
11.3754959
20
65.1856531
11
11.0357959
21
65.1856531
0
LINE
8
DEFAULT_255_2_778
10
11.0357959
20
65.1856531
11
11.0359959
21
65.1856531
0
LINE
8
DEFAULT_255_2_778
10
10.8486959
20
66.4059531
11
10.5430959
21
65.7963531
0
LINE
8
DEFAULT_255_2_778
10
10.5430959
20
65.7963531
11
10.9418959
21
65.7963531
0
LINE
8
DEFAULT_255_2_778
10
10.9418959
20
65.7963531
11
10.8486959
21
66.4059531
0
LINE
8
DEFAULT_255_2_778
10
10.8486959
20
66.4059531
11
10.8486959
21
66.4059531
0
LINE
8
DEFAULT_255_2_778
10
12.1615594
20
66.9131646
11
11.8593594
21
65.1854646
0
LINE
8
DEFAULT_255_2_778
10
11.8593594
20
65.1854646
11
11.5368594
21
65.1854646
0
LINE
8
DEFAULT_255_2_778
10
11.5368594
20
65.1854646
11
11.8400594
21
66.9131646
0
LINE
8
DEFAULT_255_2_778
10
11.8400594
20
66.9131646
11
12.1615594
21
66.9131646
0
LINE
8
DEFAULT_255_2_778
10
12.1615594
20
66.9131646
11
12.1615594
21
66.9131646
0
LINE
8
DEFAULT_255_2_778
10
12.7717594
20
66.9131646
11
12.4695594
21
65.1854646
0
LINE
8
DEFAULT_255_2_778
10
12.4695594
20
65.1854646
11
12.1470594
21
65.1854646
0
LINE
8
DEFAULT_255_2_778
10
12.1470594
20
65.1854646
11
12.4502594
21
66.9131646
0
LINE
8
DEFAULT_255_2_778
10
12.4502594
20
66.9131646
11
12.7717594
21
66.9131646
0
LINE
8
DEFAULT_255_2_778
10
12.7717594
20
66.9131646
11
12.7717594
21
66.9131646
0
ARC
8
DEFAULT_255_2_778
10
13.3180767
20
65.7012764
40
0.5383522
50
238.763891
51
270.7055166
0
ARC
8
DEFAULT_255_2_778
10
13.2867625
20
65.645952
40
0.4748131
50
204.061185
51
238.5328679
0
ARC
8
DEFAULT_255_2_778
10
13.3693681
20
65.6855331
40
0.5663841
50
179.4896096
51
204.3103027
0
ARC
8
DEFAULT_255_2_778
10
13.4933843
20
65.6900727
40
0.6903781
50
175.123126
51
179.9580366
0
ARC
8
DEFAULT_255_2_778
10
13.5850479
20
65.7250152
40
0.7790728
50
149.5392097
51
174.9446897
0
ARC
8
DEFAULT_255_2_778
10
13.459184
20
65.8085212
40
0.628301
50
120.7003982
51
150.2846053
0
ARC
8
DEFAULT_255_2_778
10
13.4196851
20
65.8682024
40
0.556829
50
89.4236852
51
120.3409826
0
ARC
8
DEFAULT_255_2_778
10
13.4252352
20
65.7694671
40
0.6555361
50
88.4553682
51
89.9955718
0
ARC
8
DEFAULT_255_2_778
10
13.4481363
20
65.9536369
40
0.4711572
50
58.4514404
51
90.636095
0
ARC
8
DEFAULT_255_2_778
10
13.4744403
20
66.0170423
40
0.403504
50
35.6058989
51
56.9235594
0
ARC
8
DEFAULT_255_2_778
10
13.3641882
20
65.9432058
40
0.5361477
50
0.6851965
51
35.1616077
0
ARC
8
DEFAULT_255_2_778
10
13.1616313
20
65.9228229
40
0.7391521
50
359.9888194
51
2.0774415
0
ARC
8
DEFAULT_255_2_778
10
13.0480025
20
65.9245249
40
0.852783
50
353.383538
51
359.8759623
0
ARC
8
DEFAULT_255_2_778
10
13.534221
20
65.6721119
40
0.4107176
50
177.8018731
51
179.9839782
0
ARC
8
DEFAULT_255_2_778
10
13.3756217
20
65.660624
40
0.2523852
50
177.3650374
51
219.8309448
0
ARC
8
DEFAULT_255_2_778
10
13.3462068
20
65.6473401
40
0.2214564
50
222.0668323
51
271.55222
0
ARC
8
DEFAULT_255_2_778
10
13.3632002
20
65.8521289
40
0.4263057
50
268.5221572
51
269.9980687
0
ARC
8
DEFAULT_255_2_778
10
13.3616001
20
65.8225217
40
0.3967017
50
270.2290309
51
318.5203973
0
ARC
8
DEFAULT_255_2_778
10
13.4310056
20
65.6392979
40
0.4555006
50
292.4982989
51
325.2807674
0
ARC
8
DEFAULT_255_2_778
10
13.3411907
20
65.8178545
40
0.6549996
50
269.6158853
51
293.7802026
0
ARC
8
DEFAULT_255_2_778
10
13.3368026
20
65.904733
40
0.7418635
50
269.0811303
51
269.9997673
0
ARC
8
DEFAULT_255_2_778
10
13.4205249
20
65.8976977
40
0.2651417
50
88.6426435
51
89.9971979
0
ARC
8
DEFAULT_255_2_778
10
13.4187009
20
65.9329788
40
0.2298681
50
89.5421073
51
130.5025885
0
ARC
8
DEFAULT_255_2_778
10
13.5174398
20
65.8328327
40
0.370282
50
132.0556576
51
154.4346079
0
ARC
8
DEFAULT_255_2_778
10
13.9187288
20
65.6152869
40
0.8264843
50
152.8348001
51
159.2008974
0
ARC
8
DEFAULT_255_2_778
10
13.283715
20
65.9862268
40
0.3137404
50
351.1327381
51
359.8552777
0
ARC
8
DEFAULT_255_2_778
10
13.3301744
20
65.9858274
40
0.2672803
50
359.9157472
51
8.073482
0
ARC
8
DEFAULT_255_2_778
10
13.4328726
20
66.0011276
40
0.1634528
50
7.8192239
51
49.4174523
0
ARC
8
DEFAULT_255_2_778
10
13.4309336
20
65.9879377
40
0.174876
50
51.746929
51
91.3525911
0
LINE
8
DEFAULT_255_2_778
10
12.8055056
20
65.748765
11
12.8090056
21
65.793665
0
LINE
8
DEFAULT_255_2_778
10
13.8951056
20
65.826265
11
13.8768056
21
65.687865
0
LINE
8
DEFAULT_255_2_778
10
13.8768056
20
65.687865
11
13.1238056
21
65.687865
0
LINE
8
DEFAULT_255_2_778
10
13.6588056
20
65.559765
11
13.8054056
21
65.379865
0
LINE
8
DEFAULT_255_2_778
10
13.3249056
20
65.162965
11
13.3247056
21
65.162965
0
LINE
8
DEFAULT_255_2_778
10
13.1461056
20
65.908765
11
13.5868056
21
65.908765
0
LINE
8
DEFAULT_255_2_778
10
13.5868056
20
65.908765
11
13.5937056
21
65.937865
0
LINE
8
DEFAULT_255_2_778
10
13.4268056
20
66.162765
11
13.4268056
21
66.162765
0
ARC
8
DEFAULT_255_2_778
10
14.7973588
20
65.9813783
40
0.4439397
50
89.8554796
51
141.1589213
0
ARC
8
DEFAULT_255_2_778
10
14.7984572
20
65.920443
40
0.5048737
50
88.7717605
51
89.9975792
0
ARC
8
DEFAULT_255_2_778
10
14.8178417
20
66.1093406
40
0.315976
50
50.4893295
51
91.5528058
0
ARC
8
DEFAULT_255_2_778
10
14.8339359
20
66.1437178
40
0.2793745
50
33.8414583
51
48.5499238
0
ARC
8
DEFAULT_255_2_778
10
14.731985
20
66.0848286
40
0.3969262
50
4.3932888
51
32.7062485
0
ARC
8
DEFAULT_255_2_778
10
14.4819065
20
66.0494301
40
0.6491822
50
359.8769204
51
5.8177478
0
ARC
8
DEFAULT_255_2_778
10
14.2701804
20
66.0503881
40
0.8609097
50
353.9399056
51
359.8434284
0
ARC
8
DEFAULT_255_2_778
10
14.4164047
20
66.0160967
40
0.3954956
50
352.2407688
51
359.7520116
0
ARC
8
DEFAULT_255_2_778
10
14.5201997
20
66.0149041
40
0.2916973
50
359.8980094
51
5.448398
0
ARC
8
DEFAULT_255_2_778
10
14.6814536
20
66.0320865
40
0.129553
50
4.6550554
51
97.2610773
0
ARC
8
DEFAULT_255_2_778
10
14.655996
20
65.9063531
40
0.2544097
50
87.9539208
51
89.9945997
0
ARC
8
DEFAULT_255_2_778
10
14.6629447
20
65.8907668
40
0.2700847
50
91.4691634
51
141.078713
0
ARC
8
DEFAULT_255_2_778
10
14.7966376
20
65.7489301
40
0.4639576
50
137.8219849
51
140.394746
0
ARC
8
DEFAULT_255_2_778
10
16.9661161
20
65.795711
40
1.026426
50
77.5141066
51
90.4821212
0
ARC
8
DEFAULT_255_2_778
10
17.0845798
20
66.3049611
40
0.5036389
50
52.814306
51
78.1469212
0
ARC
8
DEFAULT_255_2_778
10
17.1732245
20
66.4332438
40
0.3479303
50
357.5432245
51
51.6759047
0
ARC
8
DEFAULT_255_2_778
10
16.9814613
20
66.4186938
40
0.5393738
50
356.248244
51
359.9613012
0
ARC
8
DEFAULT_255_2_778
10
17.128092
20
66.4060882
40
0.3922439
50
295.0867564
51
356.6841236
0
ARC
8
DEFAULT_255_2_778
10
16.9599154
20
66.6688279
40
0.7026958
50
292.6018649
51
298.4245718
0
ARC
8
DEFAULT_255_2_778
10
17.1412835
20
65.756175
40
0.2784307
50
29.5992916
51
71.4243751
0
ARC
8
DEFAULT_255_2_778
10
17.0686219
20
65.7139727
40
0.3624559
50
358.8250622
51
29.7265593
0
ARC
8
DEFAULT_255_2_778
10
16.932071
20
65.7068262
40
0.4989307
50
356.3312443
51
359.9671937
0
ARC
8
DEFAULT_255_2_778
10
16.9581925
20
65.6880387
40
0.4719696
50
307.6792206
51
358.4048608
0
ARC
8
DEFAULT_255_2_778
10
16.8807048
20
65.8088643
40
0.6150877
50
279.1080464
51
306.5123219
0
ARC
8
DEFAULT_255_2_778
10
16.7961448
20
66.2309116
40
1.0453321
50
269.63465
51
280.0226117
0
ARC
8
DEFAULT_255_2_778
10
16.8094212
20
65.7960308
40
0.3407431
50
267.9747348
51
304.6141501
0
ARC
8
DEFAULT_255_2_778
10
16.8661516
20
65.7098067
40
0.2375665
50
305.166569
51
352.3059676
0
ARC
8
DEFAULT_255_2_778
10
16.775822
20
65.7308166
40
0.3300111
50
350.7906063
51
359.6837465
0
ARC
8
DEFAULT_255_2_778
10
16.9356152
20
65.7364465
40
0.170376
50
357.4933304
51
35.754963
0
ARC
8
DEFAULT_255_2_778
10
16.9423472
20
65.7221963
40
0.1739313
50
40.8670445
51
88.9145542
0
ARC
8
DEFAULT_255_2_778
10
16.9113357
20
65.5369792
40
0.360752
50
84.5431107
51
87.5464559
0
ARC
8
DEFAULT_255_2_778
10
16.8864523
20
66.5090688
40
0.3741259
50
268.9933192
51
299.9063201
0
ARC
8
DEFAULT_255_2_778
10
16.9296435
20
66.4162438
40
0.2722705
50
301.7671328
51
305.0688299
0
ARC
8
DEFAULT_255_2_778
10
16.9572403
20
66.3801463
40
0.2268776
50
304.6024496
51
352.3134516
0
ARC
8
DEFAULT_255_2_778
10
16.9035208
20
66.3908322
40
0.2815642
50
351.6205962
51
359.745937
0
ARC
8
DEFAULT_255_2_778
10
17.0391775
20
66.3969083
40
0.1460884
50
357.1260689
51
87.9509322
0
ARC
8
DEFAULT_255_2_778
10
16.9733166
20
66.1175677
40
0.4312349
50
80.5121161
51
90.1776895
0
ARC
8
DEFAULT_255_2_778
10
18.304359
20
65.4457308
40
0.6634375
50
79.3314563
51
88.7113465
0
ARC
8
DEFAULT_255_2_778
10
18.3079683
20
65.6791839
40
0.4299655
50
88.4925657
51
89.9946723
0
ARC
8
DEFAULT_255_2_778
10
18.2982438
20
65.7992608
40
0.3100425
50
88.1952228
51
143.885382
0
ARC
8
DEFAULT_255_2_778
10
18.4077805
20
66.0442129
40
0.3980768
50
117.0828142
51
147.9763761
0
ARC
8
DEFAULT_255_2_778
10
18.3544747
20
66.1275295
40
0.2997784
50
89.5977622
51
115.2613452
0
ARC
8
DEFAULT_255_2_778
10
18.3464621
20
65.9553482
40
0.4720608
50
75.0830674
51
88.7719532
0
ARC
8
DEFAULT_255_2_778
10
19.3883565
20
65.2725588
40
0.303463
50
178.9513385
51
196.6911244
0
ARC
8
DEFAULT_255_2_778
10
19.5567182
20
65.2779238
40
0.4717738
50
177.8405456
51
179.9770623
0
ARC
8
DEFAULT_255_2_778
10
18.7787325
20
65.5825947
40
0.4198561
50
270.5473861
51
316.8967404
0
ARC
8
DEFAULT_255_2_778
10
18.7827705
20
65.5929581
40
0.4302003
50
268.5226571
51
269.9964175
0
ARC
8
DEFAULT_255_2_778
10
18.7647216
20
65.5410252
40
0.3781887
50
226.455184
51
271.0541416
0
ARC
8
DEFAULT_255_2_778
10
18.7161161
20
65.4956869
40
0.311866
50
179.0506747
51
227.1894377
0
ARC
8
DEFAULT_255_2_778
10
18.7977006
20
65.5007683
40
0.3934079
50
177.4603384
51
179.9875271
0
ARC
8
DEFAULT_255_2_778
10
18.7677222
20
65.5167892
40
0.3630457
50
122.3464314
51
179.7772632
0
ARC
8
DEFAULT_255_2_778
10
18.9127921
20
65.2896577
40
0.6325515
50
98.6956815
51
122.4402135
0
ARC
8
DEFAULT_255_2_778
10
18.9977072
20
64.8346789
40
1.0952432
50
89.6404969
51
99.4883828
0
ARC
8
DEFAULT_255_2_778
10
18.91142
20
66.049956
40
0.2635833
50
349.2520325
51
359.7979352
0
ARC
8
DEFAULT_255_2_778
10
18.9485896
20
66.0491836
40
0.2264121
50
359.9602232
51
5.7075699
0
ARC
8
DEFAULT_255_2_778
10
19.0517084
20
66.0633244
40
0.1224577
50
3.9221136
51
47.9806675
0
ARC
8
DEFAULT_255_2_778
10
19.0461009
20
66.0459028
40
0.1393558
50
51.0640414
51
91.6537281
0
ARC
8
DEFAULT_255_2_778
10
19.0343864
20
65.9117856
40
0.2735232
50
88.3883484
51
89.9950272
0
ARC
8
DEFAULT_255_2_778
10
19.0289472
20
65.9896996
40
0.1956856
50
88.4002709
51
125.6558116
0
ARC
8
DEFAULT_255_2_778
10
19.0229477
20
66.0079867
40
0.1774238
50
127.5242925
51
170.6536699
0
ARC
8
DEFAULT_255_2_778
10
18.8789596
20
66.0217573
40
0.3527561
50
122.7014157
51
177.7346919
0
ARC
8
DEFAULT_255_2_778
10
19.030198
20
65.8167043
40
0.6072396
50
91.7146868
51
124.2570002
0
ARC
8
DEFAULT_255_2_778
10
19.05893
20
65.5598064
40
0.865138
50
89.9735854
51
93.1077226
0
ARC
8
DEFAULT_255_2_778
10
19.0592938
20
65.503256
40
0.9216883
50
89.4414218
51
89.9978259
0
ARC
8
DEFAULT_255_2_778
10
19.0704714
20
65.9047068
40
0.5201984
50
63.6868659
51
90.2414521
0
ARC
8
DEFAULT_255_2_778
10
19.1244671
20
66.0326249
40
0.3816898
50
44.805062
51
62.4405121
0
ARC
8
DEFAULT_255_2_778
10
19.1511934
20
66.0568957
40
0.3456276
50
358.4368244
51
45.0725574
0
ARC
8
DEFAULT_255_2_778
10
18.9988451
20
66.0482092
40
0.4978477
50
354.0151208
51
359.9146153
0
ARC
8
DEFAULT_255_2_778
10
19.916384
20
65.3259006
40
0.5223437
50
178.2666392
51
179.9853875
0
ARC
8
DEFAULT_255_2_778
10
19.7189724
20
65.3180635
40
0.3250299
50
178.5948625
51
200.018038
0
ARC
8
DEFAULT_255_2_778
10
18.8607749
20
65.7069835
40
0.2979407
50
268.1351457
51
269.9967975
0
ARC
8
DEFAULT_255_2_778
10
18.8555143
20
65.7044809
40
0.2954847
50
271.0168715
51
323.4470831
0
ARC
8
DEFAULT_255_2_778
10
19.0185177
20
65.3449003
40
0.3950093
50
89.6139406
51
115.9632081
0
ARC
8
DEFAULT_255_2_778
10
18.9568146
20
65.4860476
40
0.2411766
50
117.4642621
51
142.4598629
0
ARC
8
DEFAULT_255_2_778
10
18.9147894
20
65.5229762
40
0.1853888
50
143.595728
51
174.110017
0
ARC
8
DEFAULT_255_2_778
10
18.8922711
20
65.5174244
40
0.1637466
50
171.368069
51
179.7835889
0
ARC
8
DEFAULT_255_2_778
10
18.8267207
20
65.5143088
40
0.098266
50
177.8221965
51
224.0379617
0
ARC
8
DEFAULT_255_2_778
10
18.8464576
20
65.5393517
40
0.1299333
50
225.9269812
51
272.0384171
0
ARC
8
DEFAULT_255_2_778
10
20.216987
20
66.0744976
40
0.3515032
50
37.8132465
51
89.9360651
0
ARC
8
DEFAULT_255_2_778
10
20.0346749
20
65.5842418
40
0.4267183
50
285.291584
51
321.0175046
0
ARC
8
DEFAULT_255_2_778
10
20.0570669
20
65.5380225
40
0.3763475
50
269.8450062
51
283.8588709
0
ARC
8
DEFAULT_255_2_778
10
20.0560587
20
65.5707286
40
0.4090522
50
268.5880369
51
269.9986183
0
ARC
8
DEFAULT_255_2_778
10
20.0420305
20
65.5175487
40
0.3557701
50
236.3475668
51
270.6359501
0
ARC
8
DEFAULT_255_2_778
10
20.0598141
20
65.5290321
40
0.3752788
50
201.8435891
51
235.058908
0
ARC
8
DEFAULT_255_2_778
10
20.3322211
20
65.6480871
40
0.6724873
50
181.1917384
51
202.6233367
0
ARC
8
DEFAULT_255_2_778
10
20.6351677
20
65.6811339
40
0.9764219
50
180.0156472
51
182.7609519
0
ARC
8
DEFAULT_255_2_778
10
20.5470549
20
65.6817658
40
0.8883095
50
174.2087211
51
180.0579587
0
ARC
8
DEFAULT_255_2_778
10
20.6346038
20
65.6946468
40
0.9727968
50
152.6606942
51
172.4775279
0
ARC
8
DEFAULT_255_2_778
10
20.4685375
20
65.7691269
40
0.7911386
50
151.1967159
51
151.9287309
0
ARC
8
DEFAULT_255_2_778
10
20.2724416
20
65.8931657
40
0.559722
50
125.8155177
51
152.6517649
0
ARC
8
DEFAULT_255_2_778
10
20.1926864
20
65.9876789
40
0.4365104
50
121.2895022
51
124.5859333
0
ARC
8
DEFAULT_255_2_778
10
20.2005174
20
65.9733255
40
0.4528439
50
89.3885498
51
121.1930117
0
ARC
8
DEFAULT_255_2_778
10
20.205315
20
65.8915492
40
0.5345942
50
88.6747242
51
89.9962477
0
ARC
8
DEFAULT_255_2_778
10
21.0229427
20
65.6541181
40
1.044966
50
173.5557888
51
179.5636493
0
ARC
8
DEFAULT_255_2_778
10
20.5582157
20
65.661089
40
0.5802095
50
179.9025124
51
183.3187157
0
ARC
8
DEFAULT_255_2_778
10
20.270534
20
65.632149
40
0.2915917
50
180.9134286
51
207.6247443
0
ARC
8
DEFAULT_255_2_778
10
20.135005
20
65.5677881
40
0.1417894
50
209.9763709
51
272.172214
0
ARC
8
DEFAULT_255_2_778
10
20.1512082
20
65.6915383
40
0.2656585
50
267.6638236
51
269.9934853
0
ARC
8
DEFAULT_255_2_778
10
20.1452669
20
65.6953962
40
0.2695812
50
271.2564257
51
323.4819236
0
ARC
8
DEFAULT_255_2_778
10
20.0042443
20
65.8342425
40
0.4663623
50
320.0808185
51
322.7722781
0
ARC
8
DEFAULT_255_2_778
10
20.2905955
20
65.9805938
40
0.1811681
50
17.7085133
51
91.4917236
0
ARC
8
DEFAULT_255_2_778
10
20.2776466
20
65.8798302
40
0.2819906
50
88.3270304
51
89.9962875
0
ARC
8
DEFAULT_255_2_778
10
20.2751839
20
65.9279886
40
0.2338453
50
89.3920923
51
141.8934507
0
ARC
8
DEFAULT_255_2_778
10
20.4150372
20
65.8183724
40
0.411538
50
141.9009784
51
164.0634131
0
ARC
8
DEFAULT_255_2_778
10
20.9401614
20
65.6506385
40
0.9626867
50
163.0454941
51
172.7936709
0
LINE
8
DEFAULT_255_2_778
10
14.1790793
20
66.4027006
11
14.4788793
21
66.4038006
0
LINE
8
DEFAULT_255_2_778
10
14.4788793
20
66.4038006
11
14.4515793
21
66.2598006
0
LINE
8
DEFAULT_255_2_778
10
15.1262793
20
65.9595006
11
14.9968793
21
65.1856006
0
LINE
8
DEFAULT_255_2_778
10
14.9968793
20
65.1856006
11
14.6764793
21
65.1856006
0
LINE
8
DEFAULT_255_2_778
10
14.6764793
20
65.1856006
11
14.8082793
21
65.9627006
0
LINE
8
DEFAULT_255_2_778
10
14.4391793
20
66.0447006
11
14.2856793
21
65.1854006
0
LINE
8
DEFAULT_255_2_778
10
14.2856793
20
65.1854006
11
13.9652793
21
65.1854006
0
LINE
8
DEFAULT_255_2_778
10
13.9652793
20
65.1854006
11
14.1787793
21
66.4025006
0
LINE
8
DEFAULT_255_2_778
10
14.1787793
20
66.4025006
11
14.1790793
21
66.4027006
0
LINE
8
DEFAULT_255_2_778
10
16.0157793
20
66.0178006
11
15.9692793
21
65.7558006
0
LINE
8
DEFAULT_255_2_778
10
15.9692793
20
65.7558006
11
15.3466793
21
65.7558006
0
LINE
8
DEFAULT_255_2_778
10
15.3466793
20
65.7558006
11
15.3921793
21
66.0178006
0
LINE
8
DEFAULT_255_2_778
10
15.3921793
20
66.0178006
11
16.0157793
21
66.0178006
0
LINE
8
DEFAULT_255_2_778
10
16.0157793
20
66.0178006
11
16.0157793
21
66.0178006
0
LINE
8
DEFAULT_255_2_778
10
16.7894793
20
65.1856006
11
16.1544793
21
65.1856006
0
LINE
8
DEFAULT_255_2_778
10
16.1544793
20
65.1856006
11
16.4417793
21
66.8231006
0
LINE
8
DEFAULT_255_2_778
10
16.4417793
20
66.8231006
11
16.9574793
21
66.8221006
0
LINE
8
DEFAULT_255_2_778
10
16.7894793
20
65.1856006
11
16.7894793
21
65.1856006
0
LINE
8
DEFAULT_255_2_778
10
16.9267793
20
65.8976006
11
16.6131793
21
65.8987006
0
LINE
8
DEFAULT_255_2_778
10
16.6131793
20
65.8987006
11
16.5348793
21
65.4566006
0
LINE
8
DEFAULT_255_2_778
10
16.5348793
20
65.4566006
11
16.7973793
21
65.4555006
0
LINE
8
DEFAULT_255_2_778
10
16.9267793
20
65.8974006
11
16.9267793
21
65.8976006
0
LINE
8
DEFAULT_255_2_778
10
16.7267793
20
66.5501006
11
16.6539793
21
66.1373006
0
LINE
8
DEFAULT_255_2_778
10
16.6539793
20
66.1373006
11
16.8798793
21
66.1350006
0
LINE
8
DEFAULT_255_2_778
10
16.9719793
20
66.5488006
11
16.7267793
21
66.5498006
0
LINE
8
DEFAULT_255_2_778
10
16.7267793
20
66.5498006
11
16.7267793
21
66.5501006
0
LINE
8
DEFAULT_255_2_778
10
18.4681793
20
66.4115006
11
18.4271793
21
66.0977006
0
LINE
8
DEFAULT_255_2_778
10
18.0477793
20
65.9820006
11
17.9056793
21
65.1856006
0
LINE
8
DEFAULT_255_2_778
10
17.9056793
20
65.1856006
11
17.5852793
21
65.1856006
0
LINE
8
DEFAULT_255_2_778
10
17.5852793
20
65.1856006
11
17.7987793
21
66.4027006
0
LINE
8
DEFAULT_255_2_778
10
17.7987793
20
66.4027006
11
18.0998793
21
66.4038006
0
LINE
8
DEFAULT_255_2_778
10
18.0998793
20
66.4038006
11
18.0702793
21
66.2553006
0
LINE
8
DEFAULT_255_2_778
10
18.4679793
20
66.4115006
11
18.4681793
21
66.4115006
0
LINE
8
DEFAULT_255_2_778
10
19.4122793
20
65.1854006
11
19.0976793
21
65.1854006
0
LINE
8
DEFAULT_255_2_778
10
19.0045793
20
65.9299006
11
19.1545793
21
65.9278006
0
LINE
8
DEFAULT_255_2_778
10
19.1545793
20
65.9278006
11
19.1703793
21
66.0008006
0
LINE
8
DEFAULT_255_2_778
10
18.8478793
20
66.0368006
11
18.5264793
21
66.0357006
0
LINE
8
DEFAULT_255_2_778
10
19.4939793
20
65.9963006
11
19.3997793
21
65.4137006
0
LINE
8
DEFAULT_255_2_778
10
19.3997793
20
65.4137006
11
19.3942793
21
65.3417006
0
LINE
8
DEFAULT_255_2_778
10
19.4135793
20
65.2068006
11
19.4124793
21
65.1854006
0
LINE
8
DEFAULT_255_2_778
10
19.4124793
20
65.1854006
11
19.4122793
21
65.1854006
0
LINE
8
DEFAULT_255_2_778
10
19.0928793
20
65.5285006
11
19.1325793
21
65.7389006
0
LINE
8
DEFAULT_255_2_778
10
19.1325793
20
65.7389006
11
19.0211793
21
65.7399006
0
LINE
8
DEFAULT_255_2_778
10
18.8510793
20
65.4095006
11
18.8510793
21
65.4092006
0
LINE
8
DEFAULT_255_2_778
10
20.4946793
20
66.2900006
11
20.6150793
21
66.9131006
0
LINE
8
DEFAULT_255_2_778
10
20.6150793
20
66.9131006
11
20.9364793
21
66.9131006
0
LINE
8
DEFAULT_255_2_778
10
20.9364793
20
66.9131006
11
20.6343793
21
65.1854006
0
LINE
8
DEFAULT_255_2_778
10
20.6343793
20
65.1854006
11
20.3480793
21
65.1854006
0
LINE
8
DEFAULT_255_2_778
10
20.3480793
20
65.1854006
11
20.3663793
21
65.3158006
0
LINE
8
DEFAULT_255_2_778
10
19.6632793
20
65.7714006
11
19.6701793
21
65.8220006
0
LINE
8
DEFAULT_255_2_778
10
20.2176793
20
66.4260006
11
20.2173793
21
66.4260006
0
LINE
8
DEFAULT_255_2_778
10
20.3755793
20
65.5521006
11
20.4631793
21
66.0357006
0
LINE
8
DEFAULT_255_2_778
10
19.9850793
20
65.7714006
11
19.9845793
21
65.7714006
0
LINE
8
DEFAULT_255_2_778
10
21.5304594
20
66.9131646
11
21.2282594
21
65.1854646
0
LINE
8
DEFAULT_255_2_778
10
21.2282594
20
65.1854646
11
20.9057594
21
65.1854646
0
LINE
8
DEFAULT_255_2_778
10
20.9057594
20
65.1854646
11
21.2089594
21
66.9131646
0
LINE
8
DEFAULT_255_2_778
10
21.2089594
20
66.9131646
11
21.5304594
21
66.9131646
0
LINE
8
DEFAULT_255_2_778
10
21.5304594
20
66.9131646
11
21.5304594
21
66.9131646
0
ARC
8
DEFAULT_255_2_778
10
22.0768767
20
65.7012764
40
0.5383522
50
238.763891
51
270.7055166
0
ARC
8
DEFAULT_255_2_778
10
22.0455625
20
65.645952
40
0.4748131
50
204.061185
51
238.5328679
0
ARC
8
DEFAULT_255_2_778
10
22.1281681
20
65.6855331
40
0.5663841
50
179.4896096
51
204.3103027
0
ARC
8
DEFAULT_255_2_778
10
22.2521843
20
65.6900727
40
0.6903781
50
175.123126
51
179.9580366
0
ARC
8
DEFAULT_255_2_778
10
22.3438479
20
65.7250152
40
0.7790728
50
149.5392097
51
174.9446897
0
ARC
8
DEFAULT_255_2_778
10
22.217984
20
65.8085212
40
0.628301
50
120.7003982
51
150.2846053
0
ARC
8
DEFAULT_255_2_778
10
22.1784851
20
65.8682024
40
0.556829
50
89.4236852
51
120.3409826
0
ARC
8
DEFAULT_255_2_778
10
22.1840352
20
65.7694671
40
0.6555361
50
88.4553682
51
89.9955718
0
ARC
8
DEFAULT_255_2_778
10
22.2069363
20
65.9536369
40
0.4711572
50
58.4514404
51
90.636095
0
ARC
8
DEFAULT_255_2_778
10
22.2332403
20
66.0170423
40
0.403504
50
35.6058989
51
56.9235594
0
ARC
8
DEFAULT_255_2_778
10
22.1229882
20
65.9432058
40
0.5361477
50
0.6851965
51
35.1616077
0
ARC
8
DEFAULT_255_2_778
10
21.9204313
20
65.9228229
40
0.7391521
50
359.9888194
51
2.0774415
0
ARC
8
DEFAULT_255_2_778
10
21.8068025
20
65.9245249
40
0.852783
50
353.383538
51
359.8759623
0
ARC
8
DEFAULT_255_2_778
10
22.293021
20
65.6721119
40
0.4107176
50
177.8018731
51
179.9839782
0
ARC
8
DEFAULT_255_2_778
10
22.1344217
20
65.660624
40
0.2523852
50
177.3650374
51
219.8309448
0
ARC
8
DEFAULT_255_2_778
10
22.1050068
20
65.6473401
40
0.2214564
50
222.0668323
51
271.55222
0
ARC
8
DEFAULT_255_2_778
10
22.1220002
20
65.8521289
40
0.4263057
50
268.5221572
51
269.9980687
0
ARC
8
DEFAULT_255_2_778
10
22.1204001
20
65.8225217
40
0.3967017
50
270.2290309
51
318.5203973
0
ARC
8
DEFAULT_255_2_778
10
22.1898056
20
65.6392979
40
0.4555006
50
292.4982989
51
325.2807674
0
ARC
8
DEFAULT_255_2_778
10
22.0999907
20
65.8178545
40
0.6549996
50
269.6158853
51
293.7802026
0
ARC
8
DEFAULT_255_2_778
10
22.0956026
20
65.904733
40
0.7418635
50
269.0811303
51
269.9997673
0
ARC
8
DEFAULT_255_2_778
10
22.1793249
20
65.8976977
40
0.2651417
50
88.6426435
51
89.9971979
0
ARC
8
DEFAULT_255_2_778
10
22.1775009
20
65.9329788
40
0.2298681
50
89.5421073
51
130.5025885
0
ARC
8
DEFAULT_255_2_778
10
22.2762398
20
65.8328327
40
0.370282
50
132.0556576
51
154.4346079
0
ARC
8
DEFAULT_255_2_778
10
22.6775288
20
65.6152869
40
0.8264843
50
152.8348001
51
159.2008974
0
ARC
8
DEFAULT_255_2_778
10
22.042515
20
65.9862268
40
0.3137404
50
351.1327381
51
359.8552777
0
ARC
8
DEFAULT_255_2_778
10
22.0889744
20
65.9858274
40
0.2672803
50
359.9157472
51
8.073482
0
ARC
8
DEFAULT_255_2_778
10
22.1916726
20
66.0011276
40
0.1634528
50
7.8192239
51
49.4174523
0
ARC
8
DEFAULT_255_2_778
10
22.1897336
20
65.9879377
40
0.174876
50
51.746929
51
91.3525911
0
LINE
8
DEFAULT_255_2_778
10
21.5643056
20
65.748765
11
21.5678056
21
65.793665
0
LINE
8
DEFAULT_255_2_778
10
22.6539056
20
65.826265
11
22.6356056
21
65.687865
0
LINE
8
DEFAULT_255_2_778
10
22.6356056
20
65.687865
11
21.8826056
21
65.687865
0
LINE
8
DEFAULT_255_2_778
10
22.4176056
20
65.559765
11
22.5642056
21
65.379865
0
LINE
8
DEFAULT_255_2_778
10
22.0837056
20
65.162965
11
22.0835056
21
65.162965
0
LINE
8
DEFAULT_255_2_778
10
21.9049056
20
65.908765
11
22.3456056
21
65.908765
0
LINE
8
DEFAULT_255_2_778
10
22.3456056
20
65.908765
11
22.3525056
21
65.937865
0
LINE
8
DEFAULT_255_2_778
10
22.1856056
20
66.162765
11
22.1856056
21
66.162765
0
ARC
8
DEFAULT_255_2_778
10
22.5732251
20
65.3018848
40
0.7187609
50
318.1171527
51
335.3457065
0
ARC
8
DEFAULT_255_2_778
10
22.7861338
20
65.1197586
40
0.4387075
50
306.2044829
51
317.2623563
0
ARC
8
DEFAULT_255_2_778
10
22.8118587
20
65.0890063
40
0.3987066
50
269.0092455
51
305.8318035
0
ARC
8
DEFAULT_255_2_778
10
22.8209703
20
65.2536254
40
0.5634934
50
257.9736769
51
268.3723286
0
ARC
8
DEFAULT_255_2_778
10
22.976467
20
66.1078273
40
1.431581
50
256.8370098
51
259.0102636
0
ARC
8
DEFAULT_255_2_778
10
22.7299218
20
65.355881
40
0.396887
50
268.3457775
51
269.9906226
0
ARC
8
DEFAULT_255_2_778
10
22.744688
20
65.1964479
40
0.2379166
50
266.425992
51
328.6474802
0
LINE
8
DEFAULT_255_2_778
10
23.1491646
20
66.4024594
11
23.2378646
21
65.6489594
0
LINE
8
DEFAULT_255_2_778
10
23.2378646
20
65.6489594
11
23.5889646
21
66.4024594
0
LINE
8
DEFAULT_255_2_778
10
23.5889646
20
66.4024594
11
23.9453646
21
66.4024594
0
LINE
8
DEFAULT_255_2_778
10
23.9453646
20
66.4024594
11
23.2264646
21
65.0020594
0
LINE
8
DEFAULT_255_2_778
10
22.6504646
20
64.7138594
11
22.6742646
21
64.9612594
0
LINE
8
DEFAULT_255_2_778
10
22.6742646
20
64.9612594
11
22.7184646
21
64.9591594
0
LINE
8
DEFAULT_255_2_778
10
22.9478646
20
65.0726594
11
23.0182646
21
65.2020594
0
LINE
8
DEFAULT_255_2_778
10
23.0182646
20
65.2020594
11
22.8171646
21
66.4021594
0
LINE
8
DEFAULT_255_2_778
10
22.8171646
20
66.4021594
11
23.1489646
21
66.4021594
0
LINE
8
DEFAULT_255_2_778
10
23.1489646
20
66.4021594
11
23.1491646
21
66.4024594
0
LINE
8
DEFAULT_255_2_778
10
5.4244542
20
66.8019666
11
5.4244542
21
65.6166666
0
LINE
8
DEFAULT_255_2_778
10
5.4244542
20
65.6166666
11
8.3507542
21
65.5796666
0
LINE
8
DEFAULT_255_2_778
10
8.3507542
20
65.5796666
11
8.3507542
21
66.8019666
0
LINE
8
DEFAULT_255_2_778
10
8.3507542
20
66.8019666
11
7.4246542
21
67.6539666
0
LINE
8
DEFAULT_255_2_778
10
7.4246542
20
67.6539666
11
6.2764542
21
67.6539666
0
LINE
8
DEFAULT_255_2_778
10
6.2764542
20
67.6539666
11
5.4244542
21
66.8019666
0
LINE
8
DEFAULT_255_2_778
10
5.5726542
20
65.3944666
11
8.2025542
21
65.3944666
0
LINE
8
DEFAULT_255_2_778
10
8.2025542
20
65.3944666
11
7.4617542
21
64.6906666
0
LINE
8
DEFAULT_255_2_778
10
7.4617542
20
64.6906666
11
6.3504542
21
64.6906666
0
LINE
8
DEFAULT_255_2_778
10
6.3504542
20
64.6906666
11
5.5726542
21
65.3944666
0
ARC
8
DEFAULT_255_2_778
10
7.8458226
20
65.9435768
40
0.1423419
50
264.5115721
51
318.4176283
0
ARC
8
DEFAULT_255_2_778
10
7.8189879
20
65.9406225
40
0.1616977
50
325.5297452
51
3.3557414
0
ARC
8
DEFAULT_255_2_778
10
7.8389795
20
66.2971157
40
0.142084
50
354.4959081
51
48.5537602
0
ARC
8
DEFAULT_255_2_778
10
7.8416444
20
66.2699068
40
0.1619557
50
55.6500697
51
93.3401169
0
ARC
8
DEFAULT_255_2_778
10
7.8414709
20
66.496425
40
0.0654958
50
261.8698976
51
8.1301024
0
ARC
8
DEFAULT_255_2_778
10
7.7988672
20
66.8791455
40
0.1074847
50
358.3696885
51
95.9524071
0
ARC
8
DEFAULT_255_2_778
10
7.7588839
20
66.6507916
40
0.3364968
50
85.0838783
51
90.1320543
0
LINE
8
DEFAULT_255_2_778
10
5.6838084
20
65.8018875
11
6.1283084
21
67.0242875
0
LINE
8
DEFAULT_255_2_778
10
6.1283084
20
67.0242875
11
6.3876084
21
67.0242875
0
LINE
8
DEFAULT_255_2_778
10
6.3876084
20
67.0242875
11
6.8691084
21
65.8389875
0
LINE
8
DEFAULT_255_2_778
10
6.8691084
20
65.8389875
11
6.5358084
21
65.8389875
0
LINE
8
DEFAULT_255_2_778
10
6.5358084
20
65.8389875
11
6.4246084
21
66.0982875
0
LINE
8
DEFAULT_255_2_778
10
6.4246084
20
66.0982875
11
6.0913084
21
66.0982875
0
LINE
8
DEFAULT_255_2_778
10
6.0913084
20
66.0982875
11
6.0913084
21
66.2463875
0
LINE
8
DEFAULT_255_2_778
10
6.0913084
20
66.2463875
11
6.3876084
21
66.2463875
0
LINE
8
DEFAULT_255_2_778
10
6.3876084
20
66.2463875
11
6.2024084
21
66.6908875
0
LINE
8
DEFAULT_255_2_778
10
6.2024084
20
66.6908875
11
5.8690084
21
65.8018875
0
LINE
8
DEFAULT_255_2_778
10
5.8690084
20
65.8018875
11
5.6838084
21
65.8018875
0
LINE
8
DEFAULT_255_2_778
10
5.6838084
20
65.8018875
11
5.6838084
21
65.8018875
0
LINE
8
DEFAULT_255_2_778
10
6.7580084
20
66.4686875
11
6.9062084
21
66.4686875
0
LINE
8
DEFAULT_255_2_778
10
6.9062084
20
66.4686875
11
6.9062084
21
66.3204875
0
LINE
8
DEFAULT_255_2_778
10
6.9062084
20
66.3204875
11
6.7580084
21
66.3204875
0
LINE
8
DEFAULT_255_2_778
10
6.7580084
20
66.3204875
11
6.7580084
21
66.4686875
0
LINE
8
DEFAULT_255_2_778
10
7.2766084
20
66.8020875
11
7.6100084
21
66.8020875
0
LINE
8
DEFAULT_255_2_778
10
7.6100084
20
66.8020875
11
7.6100084
21
66.4315875
0
LINE
8
DEFAULT_255_2_778
10
7.6100084
20
66.4315875
11
7.3507084
21
66.4315875
0
LINE
8
DEFAULT_255_2_778
10
7.3507084
20
66.4315875
11
7.3507084
21
66.2834875
0
LINE
8
DEFAULT_255_2_778
10
7.3507084
20
66.2834875
11
7.6840084
21
66.2834875
0
LINE
8
DEFAULT_255_2_778
10
7.6840084
20
66.2834875
11
7.6840084
21
65.9500875
0
LINE
8
DEFAULT_255_2_778
10
7.6840084
20
65.9500875
11
7.2766084
21
65.9500875
0
LINE
8
DEFAULT_255_2_778
10
7.2766084
20
65.9500875
11
7.2766084
21
66.8020875
0
LINE
8
DEFAULT_255_2_778
10
7.2766084
20
66.8020875
11
7.2766084
21
66.8020875
0
LINE
8
DEFAULT_255_2_778
10
6.9803084
20
66.9872875
11
6.9803084
21
65.8018875
0
LINE
8
DEFAULT_255_2_778
10
6.9803084
20
65.8018875
11
7.8322084
21
65.8018875
0
LINE
8
DEFAULT_255_2_778
10
7.9804084
20
65.9500875
11
7.9804084
21
66.2834875
0
LINE
8
DEFAULT_255_2_778
10
7.9063084
20
66.5056875
11
7.9063084
21
66.8760875
0
LINE
8
DEFAULT_255_2_778
10
7.7581084
20
66.9872875
11
6.9803084
21
66.9872875
0
LINE
8
DEFAULT_255_2_778
10
6.9803084
20
66.9872875
11
6.9803084
21
66.9872875
0
LINE
8
DEFAULT_255_2_778
10
6.3394427
20
65.0115198
11
6.3367427
21
65.0115198
0
ARC
8
DEFAULT_255_2_778
10
6.3340483
20
65.1365854
40
0.1250946
50
247.1356448
51
271.2341787
0
ARC
8
DEFAULT_255_2_778
10
6.3160916
20
65.0942164
40
0.0790776
50
215.0349981
51
247.1960091
0
ARC
8
DEFAULT_255_2_778
10
6.3109464
20
65.0888964
40
0.0718243
50
178.625123
51
213.9163394
0
ARC
8
DEFAULT_255_2_778
10
6.3131693
20
65.2059391
40
0.0740421
50
147.0420611
51
181.175799
0
ARC
8
DEFAULT_255_2_778
10
6.3147919
20
65.2020628
40
0.0775487
50
112.4780918
51
145.2909011
0
ARC
8
DEFAULT_255_2_778
10
6.333917
20
65.1576534
40
0.1258981
50
88.7138988
51
112.7934617
0
ARC
8
DEFAULT_255_2_778
10
6.339481
20
65.1581878
40
0.1253619
50
67.159311
51
91.2516049
0
ARC
8
DEFAULT_255_2_778
10
6.3569794
20
65.2001852
40
0.0798654
50
35.1978461
51
67.0331611
0
ARC
8
DEFAULT_255_2_778
10
6.3626391
20
65.2061431
40
0.0718243
50
358.625123
51
33.9163394
0
ARC
8
DEFAULT_255_2_778
10
6.3604162
20
65.0891004
40
0.0740421
50
327.0420611
51
1.175799
0
ARC
8
DEFAULT_255_2_778
10
6.361381
20
65.0903218
40
0.0739133
50
291.6436853
51
325.8406333
0
ARC
8
DEFAULT_255_2_778
10
6.3401809
20
65.099374
40
0.0482768
50
265.9160158
51
308.3617549
0
ARC
8
DEFAULT_255_2_778
10
6.3451719
20
65.0883207
40
0.036631
50
312.9754563
51
3.2850623
0
ARC
8
DEFAULT_255_2_778
10
6.3448152
20
65.206002
40
0.0369754
50
357.082104
51
47.4006092
0
ARC
8
DEFAULT_255_2_778
10
6.339634
20
65.1958686
40
0.0480383
50
51.0349629
51
93.4505724
0
ARC
8
DEFAULT_255_2_778
10
6.3340455
20
65.195549
40
0.0483461
50
86.8017862
51
128.8135095
0
ARC
8
DEFAULT_255_2_778
10
6.3287702
20
65.206002
40
0.0369754
50
132.5993908
51
182.917896
0
ARC
8
DEFAULT_255_2_778
10
6.3284135
20
65.0883207
40
0.036631
50
176.7149377
51
227.0245437
0
ARC
8
DEFAULT_255_2_778
10
6.3334908
20
65.099686
40
0.0485752
50
231.7867693
51
273.8385805
0
ARC
8
DEFAULT_255_2_778
10
6.5570034
20
65.0880567
40
0.0766655
50
226.2029837
51
273.3195937
0
ARC
8
DEFAULT_255_2_778
10
6.5622798
20
65.0860746
40
0.0790566
50
176.8492311
51
222.4458356
0
ARC
8
DEFAULT_255_2_778
10
6.5699928
20
65.0879647
40
0.043631
50
176.5112098
51
217.639275
0
ARC
8
DEFAULT_255_2_778
10
6.5593879
20
65.0828664
40
0.0322122
50
221.9818643
51
273.6574471
0
ARC
8
DEFAULT_255_2_778
10
6.5632217
20
65.0833151
40
0.0326438
50
266.8760675
51
317.6392064
0
ARC
8
DEFAULT_255_2_778
10
6.5527926
20
65.0879647
40
0.043631
50
322.360725
51
3.4887902
0
ARC
8
DEFAULT_255_2_778
10
6.5605056
20
65.0860746
40
0.0790566
50
317.5541644
51
3.1507689
0
ARC
8
DEFAULT_255_2_778
10
6.5656687
20
65.0883223
40
0.0769357
50
266.6274163
51
313.7210327
0
LINE
8
DEFAULT_255_2_778
10
6.4394427
20
64.9499198
11
6.3828427
21
64.9499198
0
LINE
8
DEFAULT_255_2_778
10
6.3828427
20
64.9499198
11
6.3394427
21
65.0115198
0
LINE
8
DEFAULT_255_2_778
10
6.2391427
20
65.0906198
11
6.2391427
21
65.2044198
0
LINE
8
DEFAULT_255_2_778
10
6.4344427
20
65.2044198
11
6.4344427
21
65.0906198
0
LINE
8
DEFAULT_255_2_778
10
6.3886427
20
65.0216198
11
6.4394427
21
64.9501198
0
LINE
8
DEFAULT_255_2_778
10
6.4394427
20
64.9501198
11
6.4394427
21
64.9499198
0
LINE
8
DEFAULT_255_2_778
10
6.3817427
20
65.0904198
11
6.3817427
21
65.2041198
0
LINE
8
DEFAULT_255_2_778
10
6.2918427
20
65.2041198
11
6.2918427
21
65.0904198
0
LINE
8
DEFAULT_255_2_778
10
6.3367427
20
65.0512198
11
6.3367427
21
65.0512198
0
LINE
8
DEFAULT_255_2_778
10
6.4833427
20
65.0904198
11
6.4833427
21
65.2795198
0
LINE
8
DEFAULT_255_2_778
10
6.4833427
20
65.2795198
11
6.5264427
21
65.2795198
0
LINE
8
DEFAULT_255_2_778
10
6.5264427
20
65.2795198
11
6.5264427
21
65.0906198
0
LINE
8
DEFAULT_255_2_778
10
6.5963427
20
65.0906198
11
6.5963427
21
65.2795198
0
LINE
8
DEFAULT_255_2_778
10
6.5963427
20
65.2795198
11
6.6394427
21
65.2795198
0
LINE
8
DEFAULT_255_2_778
10
6.6394427
20
65.2795198
11
6.6394427
21
65.0904198
0
LINE
8
DEFAULT_255_2_778
10
6.5611427
20
65.0115198
11
6.5614427
21
65.0115198
0
ARC
8
DEFAULT_255_2_778
10
12.1641553
20
66.3146635
40
5.5033955
50
191.4837585
51
191.8239227
0
ARC
8
DEFAULT_255_2_778
10
8.3589245
20
65.5108972
40
1.6145995
50
189.6626565
51
190.4158531
0
ARC
8
DEFAULT_255_2_778
10
6.1197449
20
65.3437409
40
0.6557616
50
349.0334606
51
350.8880298
0
ARC
8
DEFAULT_255_2_778
10
6.0674183
20
65.3473866
40
0.7078549
50
346.9283592
51
349.5494987
0
ARC
8
DEFAULT_255_2_778
10
7.2958769
20
65.1165243
40
0.1856762
50
15.5793022
51
22.5708948
0
ARC
8
DEFAULT_255_2_778
10
7.3328007
20
65.1213058
40
0.1489195
50
11.1061152
51
17.6230497
0
ARC
8
DEFAULT_255_2_778
10
8.063214
20
65.0055593
40
0.6018696
50
164.5010167
51
166.1150622
0
ARC
8
DEFAULT_255_2_778
10
7.6620856
20
65.1165243
40
0.1856762
50
157.4291052
51
164.4206978
0
LINE
8
DEFAULT_255_2_778
10
6.7201313
20
65.0149917
11
6.6762313
21
65.0149917
0
LINE
8
DEFAULT_255_2_778
10
6.6762313
20
65.0149917
11
6.7392313
21
65.2795917
0
LINE
8
DEFAULT_255_2_778
10
6.7392313
20
65.2795917
11
6.7942313
21
65.2795917
0
LINE
8
DEFAULT_255_2_778
10
6.7942313
20
65.2795917
11
6.8577313
21
65.0149917
0
LINE
8
DEFAULT_255_2_778
10
6.8577313
20
65.0149917
11
6.8138313
21
65.0149917
0
LINE
8
DEFAULT_255_2_778
10
6.8138313
20
65.0149917
11
6.8000313
21
65.0789917
0
LINE
8
DEFAULT_255_2_778
10
6.8000313
20
65.0789917
11
6.7336313
21
65.0789917
0
LINE
8
DEFAULT_255_2_778
10
6.7336313
20
65.0789917
11
6.7199313
21
65.0149917
0
LINE
8
DEFAULT_255_2_778
10
6.7199313
20
65.0149917
11
6.7201313
21
65.0149917
0
LINE
8
DEFAULT_255_2_778
10
6.7569313
20
65.1874917
11
6.7418313
21
65.1160917
0
LINE
8
DEFAULT_255_2_778
10
6.7418313
20
65.1160917
11
6.7926313
21
65.1160917
0
LINE
8
DEFAULT_255_2_778
10
6.7926313
20
65.1160917
11
6.7775313
21
65.1869917
0
LINE
8
DEFAULT_255_2_778
10
6.7569313
20
65.1872917
11
6.7569313
21
65.1874917
0
LINE
8
DEFAULT_255_2_778
10
7.0231313
20
65.0149917
11
6.8741313
21
65.0149917
0
LINE
8
DEFAULT_255_2_778
10
6.8741313
20
65.0149917
11
6.8741313
21
65.2795917
0
LINE
8
DEFAULT_255_2_778
10
6.8741313
20
65.2795917
11
6.9170313
21
65.2795917
0
LINE
8
DEFAULT_255_2_778
10
6.9170313
20
65.2795917
11
6.9170313
21
65.0559917
0
LINE
8
DEFAULT_255_2_778
10
6.9170313
20
65.0559917
11
7.0231313
21
65.0559917
0
LINE
8
DEFAULT_255_2_778
10
7.0231313
20
65.0559917
11
7.0231313
21
65.0149917
0
LINE
8
DEFAULT_255_2_778
10
7.0231313
20
65.0149917
11
7.0231313
21
65.0149917
0
LINE
8
DEFAULT_255_2_778
10
7.1760313
20
65.0149917
11
7.0321313
21
65.0149917
0
LINE
8
DEFAULT_255_2_778
10
7.0321313
20
65.0149917
11
7.0321313
21
65.0559917
0
LINE
8
DEFAULT_255_2_778
10
7.0321313
20
65.0559917
11
7.0823313
21
65.0559917
0
LINE
8
DEFAULT_255_2_778
10
7.0823313
20
65.0559917
11
7.0823313
21
65.2385917
0
LINE
8
DEFAULT_255_2_778
10
7.0823313
20
65.2385917
11
7.0321313
21
65.2385917
0
LINE
8
DEFAULT_255_2_778
10
7.0321313
20
65.2385917
11
7.0321313
21
65.2795917
0
LINE
8
DEFAULT_255_2_778
10
7.0321313
20
65.2795917
11
7.1760313
21
65.2795917
0
LINE
8
DEFAULT_255_2_778
10
7.1760313
20
65.2795917
11
7.1760313
21
65.2385917
0
LINE
8
DEFAULT_255_2_778
10
7.1760313
20
65.2385917
11
7.1257313
21
65.2385917
0
LINE
8
DEFAULT_255_2_778
10
7.1257313
20
65.2385917
11
7.1257313
21
65.0559917
0
LINE
8
DEFAULT_255_2_778
10
7.1257313
20
65.0559917
11
7.1760313
21
65.0559917
0
LINE
8
DEFAULT_255_2_778
10
7.1760313
20
65.0559917
11
7.1760313
21
65.0149917
0
LINE
8
DEFAULT_255_2_778
10
7.1760313
20
65.0149917
11
7.1760313
21
65.0149917
0
LINE
8
DEFAULT_255_2_778
10
7.2940313
20
65.0149917
11
7.2509313
21
65.0149917
0
LINE
8
DEFAULT_255_2_778
10
7.2509313
20
65.0149917
11
7.2509313
21
65.2385917
0
LINE
8
DEFAULT_255_2_778
10
7.2509313
20
65.2385917
11
7.1855313
21
65.2385917
0
LINE
8
DEFAULT_255_2_778
10
7.1855313
20
65.2385917
11
7.1855313
21
65.2795917
0
LINE
8
DEFAULT_255_2_778
10
7.1855313
20
65.2795917
11
7.3596313
21
65.2795917
0
LINE
8
DEFAULT_255_2_778
10
7.3596313
20
65.2795917
11
7.3596313
21
65.2385917
0
LINE
8
DEFAULT_255_2_778
10
7.3596313
20
65.2385917
11
7.2943313
21
65.2385917
0
LINE
8
DEFAULT_255_2_778
10
7.2943313
20
65.2385917
11
7.2943313
21
65.0149917
0
LINE
8
DEFAULT_255_2_778
10
7.2943313
20
65.0149917
11
7.2940313
21
65.0149917
0
LINE
8
DEFAULT_255_2_778
10
7.4996313
20
65.0149917
11
7.4565313
21
65.0149917
0
LINE
8
DEFAULT_255_2_778
10
7.4565313
20
65.0149917
11
7.4565313
21
65.1110917
0
LINE
8
DEFAULT_255_2_778
10
7.4565313
20
65.1110917
11
7.3832313
21
65.2795917
0
LINE
8
DEFAULT_255_2_778
10
7.3832313
20
65.2795917
11
7.4281313
21
65.2795917
0
LINE
8
DEFAULT_255_2_778
10
7.4281313
20
65.2795917
11
7.4673313
21
65.1877917
0
LINE
8
DEFAULT_255_2_778
10
7.4906313
20
65.1877917
11
7.5287313
21
65.2795917
0
LINE
8
DEFAULT_255_2_778
10
7.5287313
20
65.2795917
11
7.5731313
21
65.2795917
0
LINE
8
DEFAULT_255_2_778
10
7.5731313
20
65.2795917
11
7.4998313
21
65.1110917
0
LINE
8
DEFAULT_255_2_778
10
7.4998313
20
65.1110917
11
7.4998313
21
65.0149917
0
LINE
8
DEFAULT_255_2_778
10
7.4998313
20
65.0149917
11
7.4996313
21
65.0149917
0
LINE
8
DEFAULT_255_2_778
10
9.3932417
20
52.7843581
11
10.7161417
21
52.7843581
0
LINE
8
DEFAULT_255_2_778
10
10.7161417
20
52.7843581
11
10.7161417
21
35.5864581
0
LINE
8
DEFAULT_255_2_778
10
9.3932834
20
35.5864333
11
12.0390834
21
35.5864333
0
LINE
8
DEFAULT_255_2_778
10
12.0390834
20
35.5864333
11
12.0390834
21
30.2947333
0
LINE
8
DEFAULT_255_2_778
10
12.0390834
20
30.2947333
11
9.3932834
21
30.2947333
0
LINE
8
DEFAULT_255_2_778
10
9.3932834
20
30.2947333
11
9.3932834
21
35.5864333
0
ARC
8
DEFAULT_255_2_778_1
10
13.1928591
20
30.397177
40
4.816461
50
120.9442904
51
122.351755
0
ARC
8
DEFAULT_255_2_778_1
10
12.7462523
20
31.1008039
40
3.9830657
50
122.3407904
51
124.1946752
0
ARC
8
DEFAULT_255_2_778_1
10
12.3063464
20
31.7473306
40
3.2010724
50
124.1855758
51
126.4338849
0
ARC
8
DEFAULT_255_2_778_1
10
11.9204129
20
32.2700611
40
2.5513094
50
126.4326926
51
128.8877368
0
ARC
8
DEFAULT_255_2_778_1
10
11.5855968
20
32.6844658
40
2.0185498
50
128.8749205
51
131.8726567
0
ARC
8
DEFAULT_255_2_778_1
10
11.2884677
20
33.0154854
40
1.5737356
50
131.8616166
51
135.4168838
0
ARC
8
DEFAULT_255_2_778_1
10
11.025668
20
33.2736765
40
1.2053256
50
135.3893975
51
139.9687014
0
ARC
8
DEFAULT_255_2_778_1
10
10.7927889
20
33.4685102
40
0.9016937
50
139.9301659
51
145.9260426
0
ARC
8
DEFAULT_255_2_778_1
10
10.596654
20
33.6005104
40
0.6652776
50
145.8787362
51
153.8146208
0
ARC
8
DEFAULT_255_2_778_1
10
10.4445553
20
33.6748797
40
0.4959714
50
153.770634
51
164.3484794
0
ARC
8
DEFAULT_255_2_778_1
10
10.3432387
20
33.7030786
40
0.3908039
50
164.3220276
51
179.8083066
0
ARC
8
DEFAULT_255_2_778_1
10
10.3642789
20
33.711215
40
0.4118985
50
180.9499449
51
213.8111542
0
ARC
8
DEFAULT_255_2_778_1
10
10.6401828
20
33.8807896
40
0.73561
50
212.8271214
51
224.258472
0
ARC
8
DEFAULT_255_2_778_1
10
11.0230335
20
34.2501236
40
1.267567
50
224.1376218
51
231.4508261
0
ARC
8
DEFAULT_255_2_778_1
10
11.6657195
20
35.0531168
40
2.2960809
50
231.3955893
51
236.1256478
0
ARC
8
DEFAULT_255_2_778_1
10
13.4980223
20
37.7996293
40
5.5976905
50
236.2233172
51
239.1314682
0
ARC
8
DEFAULT_255_2_778_1
10
25.447927
20
57.5273568
40
28.6623793
50
238.8606853
51
239.0711101
0
ARC
8
DEFAULT_255_2_778_1
10
6.2757281
20
25.4302653
40
8.7248518
50
57.2420924
51
59.4062964
0
ARC
8
DEFAULT_255_2_778_1
10
9.5034241
20
30.4612102
40
2.747542
50
52.8289294
51
57.079028
0
ARC
8
DEFAULT_255_2_778_1
10
10.2780783
20
31.4815488
40
1.466457
50
46.3041868
51
52.8596521
0
ARC
8
DEFAULT_255_2_778_1
10
10.7103073
20
31.9316842
40
0.8424061
50
36.2174211
51
46.4090895
0
ARC
8
DEFAULT_255_2_778_1
10
10.9948088
20
32.1365128
40
0.4918609
50
17.400375
51
36.5489745
0
ARC
8
DEFAULT_255_2_778_1
10
11.1088994
20
32.1763754
40
0.3710912
50
0.0676858
51
16.7951297
0
ARC
8
DEFAULT_255_2_778_1
10
11.0878613
20
32.1782428
40
0.3921317
50
343.8035191
51
359.7912046
0
ARC
8
DEFAULT_255_2_778_1
10
10.9815912
20
32.2087167
40
0.5026844
50
333.2506233
51
343.8465691
0
ARC
8
DEFAULT_255_2_778_1
10
10.8277757
20
32.2854313
40
0.6745679
50
325.6600948
51
333.3122657
0
ARC
8
DEFAULT_255_2_778_1
10
10.6323344
20
32.4182296
40
0.9108568
50
319.7560915
51
325.6976089
0
ARC
8
DEFAULT_255_2_778_1
10
10.404199
20
32.6100002
40
1.2088854
50
315.4577584
51
319.8037947
0
ARC
8
DEFAULT_255_2_778_1
10
10.1408127
20
32.8688507
40
1.5781764
50
311.7298824
51
315.4670864
0
ARC
8
DEFAULT_255_2_778_1
10
9.8317879
20
33.2144074
40
2.0417554
50
308.723055
51
311.7470879
0
ARC
8
DEFAULT_255_2_778_1
10
9.477589
20
33.6556492
40
2.6075745
50
306.1165163
51
308.7300151
0
ARC
8
DEFAULT_255_2_778_1
10
9.0746091
20
34.2069523
40
3.2904564
50
303.9559446
51
306.1266333
0
ARC
8
DEFAULT_255_2_778_1
10
8.6630432
20
34.816215
40
4.0257023
50
302.3733397
51
303.9712246
0
ARC
8
DEFAULT_255_2_778_1
10
8.2434347
20
35.4777058
40
4.8090549
50
300.9434827
51
302.3758078
0
LINE
8
DEFAULT_255_2_778
10
10.7161417
20
30.2947581
11
10.7161417
21
13.0968581
0
LINE
8
DEFAULT_255_2_778
10
10.7161417
20
13.0968581
11
9.3932417
21
13.0968581
0
LINE
8
DEFAULT_255_1_388
10
4.8809318
20
60.3508382
11
4.8809318
21
60.2144
0
LINE
8
DEFAULT_255_1_388
10
4.8809318
20
60.2144
11
4.0189313
21
60.2144
0
LINE
8
DEFAULT_255_1_388
10
4.0189313
20
60.2144
11
4.0189313
21
60.3345741
0
LINE
8
DEFAULT_255_1_388
10
4.0189313
20
60.3345741
11
4.4743278
21
60.8405702
0
LINE
8
DEFAULT_255_1_388
10
4.1607909
20
61.1423607
11
3.9936315
21
61.1423607
0
LINE
8
DEFAULT_255_1_388
10
4.5728163
20
60.733046
11
4.2204262
21
60.3508382
0
LINE
8
DEFAULT_255_1_388
10
4.2204262
20
60.3508382
11
4.8809318
21
60.3508382
0
ARC
8
DEFAULT_255_1_388
10
2.9567337
20
62.1825983
40
2.0258655
50
318.5132526
51
320.7829045
0
ARC
8
DEFAULT_255_1_388
10
3.5515294
20
61.6984929
40
1.2589638
50
320.7372878
51
323.9739031
0
ARC
8
DEFAULT_255_1_388
10
3.9924226
20
61.3790554
40
0.7145141
50
323.8962701
51
328.64194
0
ARC
8
DEFAULT_255_1_388
10
4.2226484
20
61.2370545
40
0.4440242
50
328.8294576
51
331.7891185
0
ARC
8
DEFAULT_255_1_388
10
4.3348804
20
61.1791374
40
0.3177517
50
331.4254512
51
352.9365785
0
ARC
8
DEFAULT_255_1_388
10
4.3501804
20
61.175705
40
0.3021496
50
353.2257659
51
0.0166158
0
ARC
8
DEFAULT_255_1_388
10
4.3738564
20
61.1782894
40
0.2784847
50
359.486299
51
15.9343185
0
ARC
8
DEFAULT_255_1_388
10
4.4308831
20
61.1936269
40
0.2194403
50
16.1712913
51
43.5286088
0
ARC
8
DEFAULT_255_1_388
10
4.4395776
20
61.2023191
40
0.2071504
50
43.4417391
51
83.1661095
0
ARC
8
DEFAULT_255_1_388
10
4.4244937
20
61.1194316
40
0.2912888
50
82.160179
51
90.1505708
0
ARC
8
DEFAULT_255_1_388
10
4.4209418
20
61.0590279
40
0.3517025
50
89.5460741
51
102.5418361
0
ARC
8
DEFAULT_255_1_388
10
4.3936138
20
61.1749933
40
0.2325748
50
102.1738499
51
129.206123
0
ARC
8
DEFAULT_255_1_388
10
4.3847592
20
61.1889664
40
0.2161591
50
129.72865
51
135.753947
0
ARC
8
DEFAULT_255_1_388
10
4.3984074
20
61.1780728
40
0.2335433
50
136.1757367
51
166.3673339
0
ARC
8
DEFAULT_255_1_388
10
4.5116762
20
61.1477148
40
0.3507873
50
165.9090694
51
178.8684636
0
ARC
8
DEFAULT_255_1_388
10
4.6092534
20
61.1424263
40
0.4484624
50
178.4391136
51
180.0083808
0
ARC
8
DEFAULT_255_1_388
10
4.4513235
20
61.1468197
40
0.4577138
50
163.2878482
51
180.5581842
0
ARC
8
DEFAULT_255_1_388
10
4.3611276
20
61.1716393
40
0.3641968
50
133.4540601
51
162.947111
0
ARC
8
DEFAULT_255_1_388
10
4.3812158
20
61.1502789
40
0.3935189
50
100.7869829
51
133.4382499
0
ARC
8
DEFAULT_255_1_388
10
4.4203403
20
60.9760399
40
0.5720313
50
89.660664
51
101.3702276
0
ARC
8
DEFAULT_255_1_388
10
4.4278012
20
60.9829263
40
0.5651495
50
78.2172678
51
90.412935
0
ARC
8
DEFAULT_255_1_388
10
4.4677478
20
61.1656511
40
0.378122
50
55.9269121
51
78.4888449
0
ARC
8
DEFAULT_255_1_388
10
4.4898193
20
61.2037187
40
0.3342379
50
47.929771
51
55.4049217
0
ARC
8
DEFAULT_255_1_388
10
4.5012723
20
61.2153618
40
0.3179217
50
4.334829
51
48.0560205
0
ARC
8
DEFAULT_255_1_388
10
4.3780525
20
61.1962487
40
0.442341
50
359.9251713
51
5.5971671
0
ARC
8
DEFAULT_255_1_388
10
4.426268
20
61.2025728
40
0.3941854
50
337.8914027
51
358.9967534
0
ARC
8
DEFAULT_255_1_388
10
4.121025
20
61.3203295
40
0.7213271
50
326.9132501
51
338.3508308
0
ARC
8
DEFAULT_255_1_388
10
3.6726362
20
61.6077105
40
1.2538973
50
319.6471833
51
327.0959558
0
ARC
8
DEFAULT_255_1_388
10
3.241302
20
61.963505
40
1.8129975
50
317.2588228
51
319.9045804
0
LINE
8
DEFAULT_255_1_388
10
5.7637143
20
61.5299898
11
5.7637143
21
60.656243
0
LINE
8
DEFAULT_255_1_388
10
5.7637143
20
60.656243
11
5.9462343
21
60.656243
0
LINE
8
DEFAULT_255_1_388
10
5.9462343
20
60.656243
11
5.9462343
21
60.5198048
0
LINE
8
DEFAULT_255_1_388
10
5.9462343
20
60.5198048
11
5.7637143
21
60.5198048
0
LINE
8
DEFAULT_255_1_388
10
5.7637143
20
60.5198048
11
5.7637143
21
60.2144
0
LINE
8
DEFAULT_255_1_388
10
5.7637143
20
60.2144
11
5.5956513
21
60.2144
0
LINE
8
DEFAULT_255_1_388
10
5.5956513
20
60.2144
11
5.5956513
21
60.5198048
0
LINE
8
DEFAULT_255_1_388
10
5.5956513
20
60.5198048
11
4.996588
21
60.5198048
0
LINE
8
DEFAULT_255_1_388
10
4.996588
20
60.5198048
11
4.996588
21
60.6182933
0
LINE
8
DEFAULT_255_1_388
10
4.996588
20
60.6182933
11
5.5857121
21
61.5299898
0
LINE
8
DEFAULT_255_1_388
10
5.5857121
20
61.5299898
11
5.7637143
21
61.5299898
0
LINE
8
DEFAULT_255_1_388
10
5.5757729
20
61.2652455
11
5.1863366
21
60.656243
0
LINE
8
DEFAULT_255_1_388
10
5.1863366
20
60.656243
11
5.5956513
21
60.656243
0
LINE
8
DEFAULT_255_1_388
10
5.5956513
20
60.656243
11
5.5956513
21
61.301388
0
LINE
8
DEFAULT_255_1_388
10
5.5956513
20
61.301388
11
5.5757729
21
61.2652455
0
LINE
8
DEFAULT_255_1_388
10
6.201943
20
61.5299898
11
6.5760187
21
60.4448089
0
LINE
8
DEFAULT_255_1_388
10
6.5760187
20
60.4448089
11
6.9519015
21
61.5299898
0
LINE
8
DEFAULT_255_1_388
10
6.9519015
20
61.5299898
11
7.14165
21
61.5299898
0
LINE
8
DEFAULT_255_1_388
10
7.14165
20
61.5299898
11
6.6537252
21
60.2144
0
LINE
8
DEFAULT_255_1_388
10
6.6537252
20
60.2144
11
6.5001193
21
60.2144
0
LINE
8
DEFAULT_255_1_388
10
6.5001193
20
60.2144
11
6.013098
21
61.5299898
0
LINE
8
DEFAULT_255_1_388
10
6.013098
20
61.5299898
11
6.201943
21
61.5299898
0
LINE
8
DEFAULT_255_1_388
10
5.0312882
20
5.9674898
11
5.0312882
21
5.8247267
0
LINE
8
DEFAULT_255_1_388
10
5.0312882
20
5.8247267
11
4.6084201
21
5.8247267
0
LINE
8
DEFAULT_255_1_388
10
4.6084201
20
5.8247267
11
4.6084201
21
4.6519
0
LINE
8
DEFAULT_255_1_388
10
4.6084201
20
4.6519
11
4.4358393
21
4.6519
0
LINE
8
DEFAULT_255_1_388
10
4.4358393
20
4.6519
11
4.4358393
21
5.8247267
0
LINE
8
DEFAULT_255_1_388
10
4.4358393
20
5.8247267
11
4.0138747
21
5.8247267
0
LINE
8
DEFAULT_255_1_388
10
4.0138747
20
5.8247267
11
4.0138747
21
5.9674898
0
LINE
8
DEFAULT_255_1_388
10
4.0138747
20
5.9674898
11
5.0312882
21
5.9674898
0
LINE
8
DEFAULT_255_1_388
10
6.2375468
20
5.9674898
11
6.2375468
21
4.6519
0
LINE
8
DEFAULT_255_1_388
10
6.2375468
20
4.6519
11
6.0631588
21
4.6519
0
LINE
8
DEFAULT_255_1_388
10
6.0631588
20
4.6519
11
6.0631588
21
5.2599989
0
LINE
8
DEFAULT_255_1_388
10
6.0631588
20
5.2599989
11
5.3999425
21
5.2599989
0
LINE
8
DEFAULT_255_1_388
10
5.3999425
20
5.2599989
11
5.3999425
21
4.6519
0
LINE
8
DEFAULT_255_1_388
10
5.3999425
20
4.6519
11
5.2264582
21
4.6519
0
LINE
8
DEFAULT_255_1_388
10
5.2264582
20
4.6519
11
5.2264582
21
5.9674898
0
LINE
8
DEFAULT_255_1_388
10
5.2264582
20
5.9674898
11
5.3999425
21
5.9674898
0
LINE
8
DEFAULT_255_1_388
10
5.3999425
20
5.9674898
11
5.3999425
21
5.4018585
0
LINE
8
DEFAULT_255_1_388
10
5.3999425
20
5.4018585
11
6.0631588
21
5.4018585
0
LINE
8
DEFAULT_255_1_388
10
6.0631588
20
5.4018585
11
6.0631588
21
5.9674898
0
LINE
8
DEFAULT_255_1_388
10
6.0631588
20
5.9674898
11
6.2375468
21
5.9674898
0
LINE
8
DEFAULT_255_1_388
10
4.924632
20
13.0068468
11
5.0990199
21
13.0068468
0
LINE
8
DEFAULT_255_1_388
10
4.0861242
20
13.1857525
11
4.0861242
21
13.3122516
0
LINE
8
DEFAULT_255_1_388
10
5.0990199
20
13.4821217
11
4.924632
21
13.4821217
0
LINE
8
DEFAULT_255_1_388
10
4.2605121
20
13.3077337
11
4.2605121
21
13.1803312
0
ARC
8
DEFAULT_255_1_388
10
4.4824433
20
13.0740329
40
0.6202263
50
340.1774904
51
353.7812217
0
ARC
8
DEFAULT_255_1_388
10
4.6592286
20
13.0081893
40
0.4315926
50
311.4560052
51
340.4420756
0
ARC
8
DEFAULT_255_1_388
10
4.6554826
20
13.0206665
40
0.4434573
50
282.4332229
51
310.7514507
0
ARC
8
DEFAULT_255_1_388
10
4.6060644
20
13.2248703
40
0.6535262
50
269.9358869
51
282.8096729
0
ARC
8
DEFAULT_255_1_388
10
4.6002583
20
13.3761329
40
0.8048043
50
269.9995752
51
270.3612856
0
ARC
8
DEFAULT_255_1_388
10
4.5943073
20
13.0962781
40
0.5249831
50
250.7885263
51
270.6488451
0
ARC
8
DEFAULT_255_1_388
10
4.5753898
20
13.0245853
40
0.4510942
50
219.3628377
51
250.0611024
0
ARC
8
DEFAULT_255_1_388
10
4.6686772
20
13.1038653
40
0.5735046
50
193.5480293
51
219.5755675
0
ARC
8
DEFAULT_255_1_388
10
4.9354981
20
13.173152
40
0.849146
50
181.1220183
51
193.8754971
0
ARC
8
DEFAULT_255_1_388
10
5.1678214
20
13.1855914
40
1.0816971
50
179.9914644
51
181.5398227
0
ARC
8
DEFAULT_255_1_388
10
4.9601525
20
13.3164586
40
0.8740384
50
169.5837606
51
180.275782
0
ARC
8
DEFAULT_255_1_388
10
4.7534873
20
13.3546439
40
0.6638751
50
155.0367033
51
169.6002779
0
ARC
8
DEFAULT_255_1_388
10
4.6257331
20
13.4162336
40
0.5220662
50
136.7831557
51
155.2472983
0
ARC
8
DEFAULT_255_1_388
10
4.5819122
20
13.4534577
40
0.4646502
50
121.7633063
51
136.4281161
0
ARC
8
DEFAULT_255_1_388
10
4.5970962
20
13.4254049
40
0.4964979
50
95.6460018
51
121.5489589
0
ARC
8
DEFAULT_255_1_388
10
4.6147936
20
13.3006704
40
0.6223912
50
89.9245727
51
96.1375919
0
ARC
8
DEFAULT_255_1_388
10
4.6204641
20
13.3140721
40
0.6090084
50
76.6779212
51
90.456405
0
ARC
8
DEFAULT_255_1_388
10
4.6647454
20
13.493006
40
0.42469
50
47.4858803
51
76.9287069
0
ARC
8
DEFAULT_255_1_388
10
4.6482068
20
13.4817623
40
0.4441778
50
16.5424081
51
46.8934505
0
ARC
8
DEFAULT_255_1_388
10
4.4673118
20
13.4223265
40
0.6345318
50
5.4072971
51
17.0363711
0
ARC
8
DEFAULT_255_1_388
10
4.3054843
20
13.3963304
40
0.6250632
50
7.8888693
51
15.9242022
0
ARC
8
DEFAULT_255_1_388
10
4.5289828
20
13.4612309
40
0.3923364
50
15.7650676
51
27.9410069
0
ARC
8
DEFAULT_255_1_388
10
4.6531997
20
13.5277317
40
0.2514401
50
27.8167196
51
46.4007942
0
ARC
8
DEFAULT_255_1_388
10
4.6587839
20
13.5270882
40
0.2480958
50
47.4372362
51
75.0695672
0
ARC
8
DEFAULT_255_1_388
10
4.6240675
20
13.4062277
40
0.3738281
50
74.7009379
51
87.8124314
0
ARC
8
DEFAULT_255_1_388
10
4.6158292
20
13.2878659
40
0.4924321
50
87.3802571
51
90.0251599
0
ARC
8
DEFAULT_255_1_388
10
4.6114939
20
13.4198997
40
0.3604218
50
89.3451886
51
108.5744412
0
ARC
8
DEFAULT_255_1_388
10
4.5960931
20
13.4776836
40
0.3007661
50
109.2998307
51
143.3037387
0
ARC
8
DEFAULT_255_1_388
10
4.6818221
20
13.4117584
40
0.4089031
50
143.075267
51
163.1918576
0
ARC
8
DEFAULT_255_1_388
10
4.9014055
20
13.3424652
40
0.6391492
50
162.9375929
51
174.6208776
0
ARC
8
DEFAULT_255_1_388
10
5.1968437
20
13.3100711
40
0.9363344
50
174.342123
51
180.1430283
0
ARC
8
DEFAULT_255_1_388
10
5.0920978
20
13.1757117
40
0.8315986
50
179.6817261
51
189.150555
0
ARC
8
DEFAULT_255_1_388
10
4.8107727
20
13.1288559
40
0.5464044
50
188.9911061
51
203.5772363
0
ARC
8
DEFAULT_255_1_388
10
4.6893019
20
13.0784539
40
0.4149206
50
203.9075402
51
215.1312435
0
ARC
8
DEFAULT_255_1_388
10
4.5854817
20
12.9979907
40
0.2837747
50
213.9071511
51
263.8848919
0
ARC
8
DEFAULT_255_1_388
10
4.599581
20
13.0862519
40
0.3730641
50
263.1757928
51
270.1031044
0
ARC
8
DEFAULT_255_1_388
10
4.603189
20
13.2265511
40
0.5133712
50
269.6722503
51
279.0606936
0
ARC
8
DEFAULT_255_1_388
10
4.6332045
20
13.045115
40
0.3294739
50
278.8749101
51
293.6349581
0
ARC
8
DEFAULT_255_1_388
10
4.6692249
20
12.9605251
40
0.2375405
50
293.8553806
51
310.0518171
0
ARC
8
DEFAULT_255_1_388
10
4.6697758
20
12.9535021
40
0.2318463
50
311.0644687
51
332.0111037
0
ARC
8
DEFAULT_255_1_388
10
4.5356431
20
13.0274702
40
0.3850112
50
331.6586806
51
343.2877423
0
ARC
8
DEFAULT_255_1_388
10
4.3035896
20
13.0987806
40
0.6277712
50
343.1446576
51
351.0103568
0
ARC
8
DEFAULT_255_1_388
10
4.140322
20
13.1287873
40
0.7937327
50
350.71248
51
351.1626997
0
LINE
8
DEFAULT_255_1_388
10
5.8869281
20
12.9707042
11
5.8869281
21
13.9049898
0
LINE
8
DEFAULT_255_1_388
10
5.8869281
20
13.9049898
11
6.0613161
21
13.9049898
0
LINE
8
DEFAULT_255_1_388
10
6.0613161
20
13.9049898
11
6.0613161
21
12.9734149
0
LINE
8
DEFAULT_255_1_388
10
5.2309403
20
12.9526329
11
5.4044247
21
12.9526329
0
ARC
8
DEFAULT_255_1_388
10
5.5560883
20
12.9690958
40
0.5052462
50
346.3132364
51
0.4897996
0
ARC
8
DEFAULT_255_1_388
10
5.7100416
20
12.9296792
40
0.3463431
50
313.3793278
51
346.6225662
0
ARC
8
DEFAULT_255_1_388
10
5.68745
20
12.9581186
40
0.3825426
50
281.1587645
51
312.9130978
0
ARC
8
DEFAULT_255_1_388
10
5.6491405
20
13.1262607
40
0.5549427
50
269.6423454
51
281.6796473
0
ARC
8
DEFAULT_255_1_388
10
5.6414184
20
13.1880499
40
0.6167359
50
258.9989698
51
270.3955842
0
ARC
8
DEFAULT_255_1_388
10
5.5992642
20
12.9800792
40
0.4045461
50
239.625581
51
259.2387746
0
ARC
8
DEFAULT_255_1_388
10
5.5667635
20
12.9187638
40
0.3352261
50
227.4961805
51
239.1189042
0
ARC
8
DEFAULT_255_1_388
10
5.5625519
20
12.9119009
40
0.3273245
50
191.3396895
51
227.2280349
0
ARC
8
DEFAULT_255_1_388
10
5.7205841
20
12.9492896
40
0.4896551
50
179.6087821
51
191.9932937
0
ARC
8
DEFAULT_255_1_388
10
5.7356585
20
12.9501216
40
0.3312434
50
179.565607
51
192.0702314
0
ARC
8
DEFAULT_255_1_388
10
5.6263538
20
12.925556
40
0.2192212
50
191.7655537
51
215.6462731
0
ARC
8
DEFAULT_255_1_388
10
5.6062779
20
12.9134629
40
0.1958682
50
216.1940686
51
224.3931249
0
ARC
8
DEFAULT_255_1_388
10
5.6070475
20
12.9164862
40
0.1985399
50
224.861176
51
254.3628599
0
ARC
8
DEFAULT_255_1_388
10
5.6375018
20
13.0171135
40
0.3036595
50
253.9470645
51
267.395327
0
ARC
8
DEFAULT_255_1_388
10
5.6454318
20
13.1210346
40
0.4078462
50
266.9458957
51
270.0343693
0
ARC
8
DEFAULT_255_1_388
10
5.6482898
20
12.9903844
40
0.2772084
50
269.4598277
51
286.1819188
0
ARC
8
DEFAULT_255_1_388
10
5.6641871
20
12.9320765
40
0.2167824
50
286.4415261
51
315.8045035
0
ARC
8
DEFAULT_255_1_388
10
5.6580904
20
12.9368201
40
0.2244619
50
316.0212602
51
345.479585
0
ARC
8
DEFAULT_255_1_388
10
5.5489062
20
12.9675753
40
0.3378781
50
345.0729937
51
358.3249855
0
ARC
8
DEFAULT_255_1_388
10
5.4513508
20
12.9738509
40
0.4355887
50
357.8749464
51
359.5860856
0
LINE
8
DEFAULT_255_1_388
10
7.1501112
20
13.0068468
11
7.3244992
21
13.0068468
0
LINE
8
DEFAULT_255_1_388
10
6.3116034
20
13.1857525
11
6.3116034
21
13.3122516
0
LINE
8
DEFAULT_255_1_388
10
7.3244992
20
13.4821217
11
7.1501112
21
13.4821217
0
LINE
8
DEFAULT_255_1_388
10
6.4859914
20
13.3077337
11
6.4859914
21
13.1803312
0
ARC
8
DEFAULT_255_1_388
10
6.7079226
20
13.0740329
40
0.6202263
50
340.1774904
51
353.7812217
0
ARC
8
DEFAULT_255_1_388
10
6.8847078
20
13.0081893
40
0.4315926
50
311.4560052
51
340.4420756
0
ARC
8
DEFAULT_255_1_388
10
6.8809618
20
13.0206665
40
0.4434573
50
282.4332229
51
310.7514507
0
ARC
8
DEFAULT_255_1_388
10
6.8315436
20
13.2248703
40
0.6535262
50
269.9358869
51
282.8096729
0
ARC
8
DEFAULT_255_1_388
10
6.8257376
20
13.3761329
40
0.8048043
50
269.9995752
51
270.3612856
0
ARC
8
DEFAULT_255_1_388
10
6.8197866
20
13.0962781
40
0.5249831
50
250.7885263
51
270.6488451
0
ARC
8
DEFAULT_255_1_388
10
6.800869
20
13.0245853
40
0.4510942
50
219.3628377
51
250.0611024
0
ARC
8
DEFAULT_255_1_388
10
6.8941565
20
13.1038653
40
0.5735046
50
193.5480293
51
219.5755675
0
ARC
8
DEFAULT_255_1_388
10
7.1609773
20
13.173152
40
0.849146
50
181.1220183
51
193.8754971
0
ARC
8
DEFAULT_255_1_388
10
7.3933007
20
13.1855914
40
1.0816971
50
179.9914644
51
181.5398227
0
ARC
8
DEFAULT_255_1_388
10
7.1856317
20
13.3164586
40
0.8740384
50
169.5837606
51
180.275782
0
ARC
8
DEFAULT_255_1_388
10
6.9789665
20
13.3546439
40
0.6638751
50
155.0367033
51
169.6002779
0
ARC
8
DEFAULT_255_1_388
10
6.8512124
20
13.4162336
40
0.5220662
50
136.7831557
51
155.2472983
0
ARC
8
DEFAULT_255_1_388
10
6.8073914
20
13.4534577
40
0.4646502
50
121.7633063
51
136.4281161
0
ARC
8
DEFAULT_255_1_388
10
6.8225754
20
13.4254049
40
0.4964979
50
95.6460018
51
121.5489589
0
ARC
8
DEFAULT_255_1_388
10
6.8402728
20
13.3006704
40
0.6223912
50
89.9245727
51
96.1375919
0
ARC
8
DEFAULT_255_1_388
10
6.8459434
20
13.3140721
40
0.6090084
50
76.6779212
51
90.456405
0
ARC
8
DEFAULT_255_1_388
10
6.8902246
20
13.493006
40
0.42469
50
47.4858803
51
76.9287069
0
ARC
8
DEFAULT_255_1_388
10
6.873686
20
13.4817623
40
0.4441778
50
16.5424081
51
46.8934505
0
ARC
8
DEFAULT_255_1_388
10
6.692791
20
13.4223265
40
0.6345318
50
5.4072971
51
17.0363711
0
ARC
8
DEFAULT_255_1_388
10
6.5309635
20
13.3963304
40
0.6250632
50
7.8888693
51
15.9242022
0
ARC
8
DEFAULT_255_1_388
10
6.754462
20
13.4612309
40
0.3923364
50
15.7650676
51
27.9410069
0
ARC
8
DEFAULT_255_1_388
10
6.878679
20
13.5277317
40
0.2514401
50
27.8167196
51
46.4007942
0
ARC
8
DEFAULT_255_1_388
10
6.8842631
20
13.5270882
40
0.2480958
50
47.4372362
51
75.0695672
0
ARC
8
DEFAULT_255_1_388
10
6.8495467
20
13.4062277
40
0.3738281
50
74.7009379
51
87.8124314
0
ARC
8
DEFAULT_255_1_388
10
6.8413084
20
13.2878659
40
0.4924321
50
87.3802571
51
90.0251599
0
ARC
8
DEFAULT_255_1_388
10
6.8369732
20
13.4198997
40
0.3604218
50
89.3451886
51
108.5744412
0
ARC
8
DEFAULT_255_1_388
10
6.8215724
20
13.4776836
40
0.3007661
50
109.2998307
51
143.3037387
0
ARC
8
DEFAULT_255_1_388
10
6.9073013
20
13.4117584
40
0.4089031
50
143.075267
51
163.1918576
0
ARC
8
DEFAULT_255_1_388
10
7.1268848
20
13.3424652
40
0.6391492
50
162.9375929
51
174.6208776
0
ARC
8
DEFAULT_255_1_388
10
7.422323
20
13.3100711
40
0.9363344
50
174.342123
51
180.1430283
0
ARC
8
DEFAULT_255_1_388
10
7.3175771
20
13.1757117
40
0.8315986
50
179.6817261
51
189.150555
0
ARC
8
DEFAULT_255_1_388
10
7.036252
20
13.1288559
40
0.5464044
50
188.9911061
51
203.5772363
0
ARC
8
DEFAULT_255_1_388
10
6.9147812
20
13.0784539
40
0.4149206
50
203.9075402
51
215.1312435
0
ARC
8
DEFAULT_255_1_388
10
6.8109609
20
12.9979907
40
0.2837747
50
213.9071511
51
263.8848919
0
ARC
8
DEFAULT_255_1_388
10
6.8250603
20
13.0862519
40
0.3730641
50
263.1757928
51
270.1031044
0
ARC
8
DEFAULT_255_1_388
10
6.8286682
20
13.2265511
40
0.5133712
50
269.6722503
51
279.0606936
0
ARC
8
DEFAULT_255_1_388
10
6.8586838
20
13.045115
40
0.3294739
50
278.8749101
51
293.6349581
0
ARC
8
DEFAULT_255_1_388
10
6.8947041
20
12.9605251
40
0.2375405
50
293.8553806
51
310.0518171
0
ARC
8
DEFAULT_255_1_388
10
6.895255
20
12.9535021
40
0.2318463
50
311.0644687
51
332.0111037
0
ARC
8
DEFAULT_255_1_388
10
6.7611223
20
13.0274702
40
0.3850112
50
331.6586806
51
343.2877423
0
ARC
8
DEFAULT_255_1_388
10
6.5290689
20
13.0987806
40
0.6277712
50
343.1446576
51
351.0103568
0
ARC
8
DEFAULT_255_1_388
10
6.3658012
20
13.1287873
40
0.7937327
50
350.71248
51
351.1626997
0
LINE
8
DEFAULT_255_1_388
10
7.882902
20
13.2164737
11
7.882902
21
13.0800355
0
LINE
8
DEFAULT_255_1_388
10
7.882902
20
13.0800355
11
7.4419625
21
13.0800355
0
LINE
8
DEFAULT_255_1_388
10
7.4419625
20
13.0800355
11
7.4419625
21
13.2164737
0
LINE
8
DEFAULT_255_1_388
10
7.4419625
20
13.2164737
11
7.882902
21
13.2164737
0
LINE
8
DEFAULT_255_1_388
10
4.925632
20
20.9443468
11
5.1000199
21
20.9443468
0
LINE
8
DEFAULT_255_1_388
10
4.0871242
20
21.1232525
11
4.0871242
21
21.2497516
0
LINE
8
DEFAULT_255_1_388
10
5.1000199
20
21.4196217
11
4.925632
21
21.4196217
0
LINE
8
DEFAULT_255_1_388
10
4.2615121
20
21.2452337
11
4.2615121
21
21.1178312
0
ARC
8
DEFAULT_255_1_388
10
4.4834433
20
21.0115329
40
0.6202263
50
340.1774904
51
353.7812217
0
ARC
8
DEFAULT_255_1_388
10
4.6602286
20
20.9456893
40
0.4315926
50
311.4560052
51
340.4420756
0
ARC
8
DEFAULT_255_1_388
10
4.6564826
20
20.9581665
40
0.4434573
50
282.4332229
51
310.7514507
0
ARC
8
DEFAULT_255_1_388
10
4.6070644
20
21.1623703
40
0.6535262
50
269.9358869
51
282.8096729
0
ARC
8
DEFAULT_255_1_388
10
4.6012583
20
21.3136329
40
0.8048043
50
269.9995752
51
270.3612856
0
ARC
8
DEFAULT_255_1_388
10
4.5953073
20
21.0337781
40
0.5249831
50
250.7885263
51
270.6488451
0
ARC
8
DEFAULT_255_1_388
10
4.5763898
20
20.9620853
40
0.4510942
50
219.3628377
51
250.0611024
0
ARC
8
DEFAULT_255_1_388
10
4.6696772
20
21.0413653
40
0.5735046
50
193.5480293
51
219.5755675
0
ARC
8
DEFAULT_255_1_388
10
4.9364981
20
21.110652
40
0.849146
50
181.1220183
51
193.8754971
0
ARC
8
DEFAULT_255_1_388
10
5.1688214
20
21.1230914
40
1.0816971
50
179.9914644
51
181.5398227
0
ARC
8
DEFAULT_255_1_388
10
4.9611525
20
21.2539586
40
0.8740384
50
169.5837606
51
180.275782
0
ARC
8
DEFAULT_255_1_388
10
4.7544873
20
21.2921439
40
0.6638751
50
155.0367033
51
169.6002779
0
ARC
8
DEFAULT_255_1_388
10
4.6267331
20
21.3537336
40
0.5220662
50
136.7831557
51
155.2472983
0
ARC
8
DEFAULT_255_1_388
10
4.5829122
20
21.3909577
40
0.4646502
50
121.7633063
51
136.4281161
0
ARC
8
DEFAULT_255_1_388
10
4.5980962
20
21.3629049
40
0.4964979
50
95.6460018
51
121.5489589
0
ARC
8
DEFAULT_255_1_388
10
4.6157936
20
21.2381704
40
0.6223912
50
89.9245727
51
96.1375919
0
ARC
8
DEFAULT_255_1_388
10
4.6214641
20
21.2515721
40
0.6090084
50
76.6779212
51
90.456405
0
ARC
8
DEFAULT_255_1_388
10
4.6657454
20
21.430506
40
0.42469
50
47.4858803
51
76.9287069
0
ARC
8
DEFAULT_255_1_388
10
4.6492068
20
21.4192623
40
0.4441778
50
16.5424081
51
46.8934505
0
ARC
8
DEFAULT_255_1_388
10
4.4683118
20
21.3598265
40
0.6345318
50
5.4072971
51
17.0363711
0
ARC
8
DEFAULT_255_1_388
10
4.3064843
20
21.3338304
40
0.6250632
50
7.8888693
51
15.9242022
0
ARC
8
DEFAULT_255_1_388
10
4.5299828
20
21.3987309
40
0.3923364
50
15.7650676
51
27.9410069
0
ARC
8
DEFAULT_255_1_388
10
4.6541997
20
21.4652317
40
0.2514401
50
27.8167196
51
46.4007942
0
ARC
8
DEFAULT_255_1_388
10
4.6597839
20
21.4645882
40
0.2480958
50
47.4372362
51
75.0695672
0
ARC
8
DEFAULT_255_1_388
10
4.6250675
20
21.3437277
40
0.3738281
50
74.7009379
51
87.8124314
0
ARC
8
DEFAULT_255_1_388
10
4.6168292
20
21.2253659
40
0.4924321
50
87.3802571
51
90.0251599
0
ARC
8
DEFAULT_255_1_388
10
4.6124939
20
21.3573997
40
0.3604218
50
89.3451886
51
108.5744412
0
ARC
8
DEFAULT_255_1_388
10
4.5970931
20
21.4151836
40
0.3007661
50
109.2998307
51
143.3037387
0
ARC
8
DEFAULT_255_1_388
10
4.6828221
20
21.3492584
40
0.4089031
50
143.075267
51
163.1918576
0
ARC
8
DEFAULT_255_1_388
10
4.9024055
20
21.2799652
40
0.6391492
50
162.9375929
51
174.6208776
0
ARC
8
DEFAULT_255_1_388
10
5.1978437
20
21.2475711
40
0.9363344
50
174.342123
51
180.1430283
0
ARC
8
DEFAULT_255_1_388
10
5.0930978
20
21.1132117
40
0.8315986
50
179.6817261
51
189.150555
0
ARC
8
DEFAULT_255_1_388
10
4.8117727
20
21.0663559
40
0.5464044
50
188.9911061
51
203.5772363
0
ARC
8
DEFAULT_255_1_388
10
4.6903019
20
21.0159539
40
0.4149206
50
203.9075402
51
215.1312435
0
ARC
8
DEFAULT_255_1_388
10
4.5864817
20
20.9354907
40
0.2837747
50
213.9071511
51
263.8848919
0
ARC
8
DEFAULT_255_1_388
10
4.600581
20
21.0237519
40
0.3730641
50
263.1757928
51
270.1031044
0
ARC
8
DEFAULT_255_1_388
10
4.604189
20
21.1640511
40
0.5133712
50
269.6722503
51
279.0606936
0
ARC
8
DEFAULT_255_1_388
10
4.6342045
20
20.982615
40
0.3294739
50
278.8749101
51
293.6349581
0
ARC
8
DEFAULT_255_1_388
10
4.6702249
20
20.8980251
40
0.2375405
50
293.8553806
51
310.0518171
0
ARC
8
DEFAULT_255_1_388
10
4.6707758
20
20.8910021
40
0.2318463
50
311.0644687
51
332.0111037
0
ARC
8
DEFAULT_255_1_388
10
4.5366431
20
20.9649702
40
0.3850112
50
331.6586806
51
343.2877423
0
ARC
8
DEFAULT_255_1_388
10
4.3045896
20
21.0362806
40
0.6277712
50
343.1446576
51
351.0103568
0
ARC
8
DEFAULT_255_1_388
10
4.141322
20
21.0662873
40
0.7937327
50
350.71248
51
351.1626997
0
LINE
8
DEFAULT_255_1_388
10
6.3478424
20
21.8424898
11
6.3478424
21
20.5269
0
LINE
8
DEFAULT_255_1_388
10
6.3478424
20
20.5269
11
6.1734545
21
20.5269
0
LINE
8
DEFAULT_255_1_388
10
6.1734545
20
20.5269
11
6.1734545
21
21.1349989
0
LINE
8
DEFAULT_255_1_388
10
6.1734545
20
21.1349989
11
5.5102382
21
21.1349989
0
LINE
8
DEFAULT_255_1_388
10
5.5102382
20
21.1349989
11
5.5102382
21
20.5269
0
LINE
8
DEFAULT_255_1_388
10
5.5102382
20
20.5269
11
5.3367538
21
20.5269
0
LINE
8
DEFAULT_255_1_388
10
5.3367538
20
20.5269
11
5.3367538
21
21.8424898
0
LINE
8
DEFAULT_255_1_388
10
5.3367538
20
21.8424898
11
5.5102382
21
21.8424898
0
LINE
8
DEFAULT_255_1_388
10
5.5102382
20
21.8424898
11
5.5102382
21
21.2768585
0
LINE
8
DEFAULT_255_1_388
10
5.5102382
20
21.2768585
11
6.1734545
21
21.2768585
0
LINE
8
DEFAULT_255_1_388
10
6.1734545
20
21.2768585
11
6.1734545
21
21.8424898
0
LINE
8
DEFAULT_255_1_388
10
6.1734545
20
21.8424898
11
6.3478424
21
21.8424898
0
LINE
8
DEFAULT_255_1_388
10
7.161954
20
21.8488148
11
7.161954
21
20.5269
0
LINE
8
DEFAULT_255_1_388
10
7.161954
20
20.5269
11
6.993891
21
20.5269
0
LINE
8
DEFAULT_255_1_388
10
6.993891
20
20.5269
11
6.993891
21
21.640995
0
LINE
8
DEFAULT_255_1_388
10
6.993891
20
21.640995
11
6.6568615
21
21.5172066
0
LINE
8
DEFAULT_255_1_388
10
6.6568615
20
21.5172066
11
6.6568615
21
21.6690055
0
LINE
8
DEFAULT_255_1_388
10
6.6568615
20
21.6690055
11
7.1357506
21
21.8488148
0
LINE
8
DEFAULT_255_1_388
10
7.1357506
20
21.8488148
11
7.161954
21
21.8488148
0
LINE
8
DEFAULT_255_1_388
10
8.016726
20
21.1539737
11
8.016726
21
21.0175355
0
LINE
8
DEFAULT_255_1_388
10
8.016726
20
21.0175355
11
7.5757865
21
21.0175355
0
LINE
8
DEFAULT_255_1_388
10
7.5757865
20
21.0175355
11
7.5757865
21
21.1539737
0
LINE
8
DEFAULT_255_1_388
10
7.5757865
20
21.1539737
11
8.016726
21
21.1539737
0
LINE
8
DEFAULT_255_1_388
10
4.787532
20
28.8818468
11
4.9619199
21
28.8818468
0
LINE
8
DEFAULT_255_1_388
10
3.9490242
20
29.0607525
11
3.9490242
21
29.1872516
0
LINE
8
DEFAULT_255_1_388
10
4.9619199
20
29.3571217
11
4.787532
21
29.3571217
0
LINE
8
DEFAULT_255_1_388
10
4.1234121
20
29.1827337
11
4.1234121
21
29.0553312
0
ARC
8
DEFAULT_255_1_388
10
4.3453433
20
28.9490329
40
0.6202263
50
340.1774904
51
353.7812217
0
ARC
8
DEFAULT_255_1_388
10
4.5221286
20
28.8831893
40
0.4315926
50
311.4560052
51
340.4420756
0
ARC
8
DEFAULT_255_1_388
10
4.5183826
20
28.8956665
40
0.4434573
50
282.4332229
51
310.7514507
0
ARC
8
DEFAULT_255_1_388
10
4.4689644
20
29.0998703
40
0.6535262
50
269.9358869
51
282.8096729
0
ARC
8
DEFAULT_255_1_388
10
4.4631583
20
29.2511329
40
0.8048043
50
269.9995752
51
270.3612856
0
ARC
8
DEFAULT_255_1_388
10
4.4572073
20
28.9712781
40
0.5249831
50
250.7885263
51
270.6488451
0
ARC
8
DEFAULT_255_1_388
10
4.4382898
20
28.8995853
40
0.4510942
50
219.3628377
51
250.0611024
0
ARC
8
DEFAULT_255_1_388
10
4.5315772
20
28.9788653
40
0.5735046
50
193.5480293
51
219.5755675
0
ARC
8
DEFAULT_255_1_388
10
4.7983981
20
29.048152
40
0.849146
50
181.1220183
51
193.8754971
0
ARC
8
DEFAULT_255_1_388
10
5.0307214
20
29.0605914
40
1.0816971
50
179.9914644
51
181.5398227
0
ARC
8
DEFAULT_255_1_388
10
4.8230525
20
29.1914586
40
0.8740384
50
169.5837606
51
180.275782
0
ARC
8
DEFAULT_255_1_388
10
4.6163873
20
29.2296439
40
0.6638751
50
155.0367033
51
169.6002779
0
ARC
8
DEFAULT_255_1_388
10
4.4886331
20
29.2912336
40
0.5220662
50
136.7831557
51
155.2472983
0
ARC
8
DEFAULT_255_1_388
10
4.4448122
20
29.3284577
40
0.4646502
50
121.7633063
51
136.4281161
0
ARC
8
DEFAULT_255_1_388
10
4.4599962
20
29.3004049
40
0.4964979
50
95.6460018
51
121.5489589
0
ARC
8
DEFAULT_255_1_388
10
4.4776936
20
29.1756704
40
0.6223912
50
89.9245727
51
96.1375919
0
ARC
8
DEFAULT_255_1_388
10
4.4833641
20
29.1890721
40
0.6090084
50
76.6779212
51
90.456405
0
ARC
8
DEFAULT_255_1_388
10
4.5276454
20
29.368006
40
0.42469
50
47.4858803
51
76.9287069
0
ARC
8
DEFAULT_255_1_388
10
4.5111068
20
29.3567623
40
0.4441778
50
16.5424081
51
46.8934505
0
ARC
8
DEFAULT_255_1_388
10
4.3302118
20
29.2973265
40
0.6345318
50
5.4072971
51
17.0363711
0
ARC
8
DEFAULT_255_1_388
10
4.1683843
20
29.2713304
40
0.6250632
50
7.8888693
51
15.9242022
0
ARC
8
DEFAULT_255_1_388
10
4.3918828
20
29.3362309
40
0.3923364
50
15.7650676
51
27.9410069
0
ARC
8
DEFAULT_255_1_388
10
4.5160997
20
29.4027317
40
0.2514401
50
27.8167196
51
46.4007942
0
ARC
8
DEFAULT_255_1_388
10
4.5216839
20
29.4020882
40
0.2480958
50
47.4372362
51
75.0695672
0
ARC
8
DEFAULT_255_1_388
10
4.4869675
20
29.2812277
40
0.3738281
50
74.7009379
51
87.8124314
0
ARC
8
DEFAULT_255_1_388
10
4.4787292
20
29.1628659
40
0.4924321
50
87.3802571
51
90.0251599
0
ARC
8
DEFAULT_255_1_388
10
4.4743939
20
29.2948997
40
0.3604218
50
89.3451886
51
108.5744412
0
ARC
8
DEFAULT_255_1_388
10
4.4589931
20
29.3526836
40
0.3007661
50
109.2998307
51
143.3037387
0
ARC
8
DEFAULT_255_1_388
10
4.5447221
20
29.2867584
40
0.4089031
50
143.075267
51
163.1918576
0
ARC
8
DEFAULT_255_1_388
10
4.7643055
20
29.2174652
40
0.6391492
50
162.9375929
51
174.6208776
0
ARC
8
DEFAULT_255_1_388
10
5.0597437
20
29.1850711
40
0.9363344
50
174.342123
51
180.1430283
0
ARC
8
DEFAULT_255_1_388
10
4.9549978
20
29.0507117
40
0.8315986
50
179.6817261
51
189.150555
0
ARC
8
DEFAULT_255_1_388
10
4.6736727
20
29.0038559
40
0.5464044
50
188.9911061
51
203.5772363
0
ARC
8
DEFAULT_255_1_388
10
4.5522019
20
28.9534539
40
0.4149206
50
203.9075402
51
215.1312435
0
ARC
8
DEFAULT_255_1_388
10
4.4483817
20
28.8729907
40
0.2837747
50
213.9071511
51
263.8848919
0
ARC
8
DEFAULT_255_1_388
10
4.462481
20
28.9612519
40
0.3730641
50
263.1757928
51
270.1031044
0
ARC
8
DEFAULT_255_1_388
10
4.466089
20
29.1015511
40
0.5133712
50
269.6722503
51
279.0606936
0
ARC
8
DEFAULT_255_1_388
10
4.4961045
20
28.920115
40
0.3294739
50
278.8749101
51
293.6349581
0
ARC
8
DEFAULT_255_1_388
10
4.5321249
20
28.8355251
40
0.2375405
50
293.8553806
51
310.0518171
0
ARC
8
DEFAULT_255_1_388
10
4.5326758
20
28.8285021
40
0.2318463
50
311.0644687
51
332.0111037
0
ARC
8
DEFAULT_255_1_388
10
4.3985431
20
28.9024702
40
0.3850112
50
331.6586806
51
343.2877423
0
ARC
8
DEFAULT_255_1_388
10
4.1664896
20
28.9737806
40
0.6277712
50
343.1446576
51
351.0103568
0
ARC
8
DEFAULT_255_1_388
10
4.003222
20
29.0037873
40
0.7937327
50
350.71248
51
351.1626997
0
LINE
8
DEFAULT_255_1_388
10
6.2097424
20
29.7799898
11
6.2097424
21
28.4644
0
LINE
8
DEFAULT_255_1_388
10
6.2097424
20
28.4644
11
6.0353545
21
28.4644
0
LINE
8
DEFAULT_255_1_388
10
6.0353545
20
28.4644
11
6.0353545
21
29.0724989
0
LINE
8
DEFAULT_255_1_388
10
6.0353545
20
29.0724989
11
5.3721382
21
29.0724989
0
LINE
8
DEFAULT_255_1_388
10
5.3721382
20
29.0724989
11
5.3721382
21
28.4644
0
LINE
8
DEFAULT_255_1_388
10
5.3721382
20
28.4644
11
5.1986538
21
28.4644
0
LINE
8
DEFAULT_255_1_388
10
5.1986538
20
28.4644
11
5.1986538
21
29.7799898
0
LINE
8
DEFAULT_255_1_388
10
5.1986538
20
29.7799898
11
5.3721382
21
29.7799898
0
LINE
8
DEFAULT_255_1_388
10
5.3721382
20
29.7799898
11
5.3721382
21
29.2143585
0
LINE
8
DEFAULT_255_1_388
10
5.3721382
20
29.2143585
11
6.0353545
21
29.2143585
0
LINE
8
DEFAULT_255_1_388
10
6.0353545
20
29.2143585
11
6.0353545
21
29.7799898
0
LINE
8
DEFAULT_255_1_388
10
6.0353545
20
29.7799898
11
6.2097424
21
29.7799898
0
LINE
8
DEFAULT_255_1_388
10
7.023854
20
29.7863148
11
7.023854
21
28.4644
0
LINE
8
DEFAULT_255_1_388
10
7.023854
20
28.4644
11
6.855791
21
28.4644
0
LINE
8
DEFAULT_255_1_388
10
6.855791
20
28.4644
11
6.855791
21
29.578495
0
LINE
8
DEFAULT_255_1_388
10
6.855791
20
29.578495
11
6.5187615
21
29.4547066
0
LINE
8
DEFAULT_255_1_388
10
6.5187615
20
29.4547066
11
6.5187615
21
29.6065055
0
LINE
8
DEFAULT_255_1_388
10
6.5187615
20
29.6065055
11
6.9976506
21
29.7863148
0
LINE
8
DEFAULT_255_1_388
10
6.9976506
20
29.7863148
11
7.023854
21
29.7863148
0
LINE
8
DEFAULT_255_1_388
10
8.0096428
20
29.5540987
11
8.0096428
21
29.1700838
0
LINE
8
DEFAULT_255_1_388
10
8.0096428
20
29.1700838
11
8.37649
21
29.1700838
0
LINE
8
DEFAULT_255_1_388
10
8.37649
20
29.1700838
11
8.37649
21
29.0119601
0
LINE
8
DEFAULT_255_1_388
10
8.37649
20
29.0119601
11
8.0096428
21
29.0119601
0
LINE
8
DEFAULT_255_1_388
10
8.0096428
20
29.0119601
11
8.0096428
21
28.5963204
0
LINE
8
DEFAULT_255_1_388
10
8.0096428
20
28.5963204
11
7.8415798
21
28.5963204
0
LINE
8
DEFAULT_255_1_388
10
7.8415798
20
28.5963204
11
7.8415798
21
29.0119601
0
LINE
8
DEFAULT_255_1_388
10
7.8415798
20
29.0119601
11
7.4747327
21
29.0119601
0
LINE
8
DEFAULT_255_1_388
10
7.4747327
20
29.0119601
11
7.4747327
21
29.1700838
0
LINE
8
DEFAULT_255_1_388
10
7.4747327
20
29.1700838
11
7.8415798
21
29.1700838
0
LINE
8
DEFAULT_255_1_388
10
7.8415798
20
29.1700838
11
7.8415798
21
29.5540987
0
LINE
8
DEFAULT_255_1_388
10
7.8415798
20
29.5540987
11
8.0096428
21
29.5540987
0
LINE
8
DEFAULT_255_1_388
10
4.788232
20
36.8193468
11
4.9626199
21
36.8193468
0
LINE
8
DEFAULT_255_1_388
10
3.9497242
20
36.9982525
11
3.9497242
21
37.1247516
0
LINE
8
DEFAULT_255_1_388
10
4.9626199
20
37.2946217
11
4.788232
21
37.2946217
0
LINE
8
DEFAULT_255_1_388
10
4.1241121
20
37.1202337
11
4.1241121
21
36.9928312
0
ARC
8
DEFAULT_255_1_388
10
4.3460433
20
36.8865329
40
0.6202263
50
340.1774904
51
353.7812217
0
ARC
8
DEFAULT_255_1_388
10
4.5228286
20
36.8206893
40
0.4315926
50
311.4560052
51
340.4420756
0
ARC
8
DEFAULT_255_1_388
10
4.5190826
20
36.8331665
40
0.4434573
50
282.4332229
51
310.7514507
0
ARC
8
DEFAULT_255_1_388
10
4.4696644
20
37.0373703
40
0.6535262
50
269.9358869
51
282.8096729
0
ARC
8
DEFAULT_255_1_388
10
4.4638583
20
37.1886329
40
0.8048043
50
269.9995752
51
270.3612856
0
ARC
8
DEFAULT_255_1_388
10
4.4579073
20
36.9087781
40
0.5249831
50
250.7885263
51
270.6488451
0
ARC
8
DEFAULT_255_1_388
10
4.4389898
20
36.8370853
40
0.4510942
50
219.3628377
51
250.0611024
0
ARC
8
DEFAULT_255_1_388
10
4.5322772
20
36.9163653
40
0.5735046
50
193.5480293
51
219.5755675
0
ARC
8
DEFAULT_255_1_388
10
4.7990981
20
36.985652
40
0.849146
50
181.1220183
51
193.8754971
0
ARC
8
DEFAULT_255_1_388
10
5.0314214
20
36.9980914
40
1.0816971
50
179.9914644
51
181.5398227
0
ARC
8
DEFAULT_255_1_388
10
4.8237525
20
37.1289586
40
0.8740384
50
169.5837606
51
180.275782
0
ARC
8
DEFAULT_255_1_388
10
4.6170873
20
37.1671439
40
0.6638751
50
155.0367033
51
169.6002779
0
ARC
8
DEFAULT_255_1_388
10
4.4893331
20
37.2287336
40
0.5220662
50
136.7831557
51
155.2472983
0
ARC
8
DEFAULT_255_1_388
10
4.4455122
20
37.2659577
40
0.4646502
50
121.7633063
51
136.4281161
0
ARC
8
DEFAULT_255_1_388
10
4.4606962
20
37.2379049
40
0.4964979
50
95.6460018
51
121.5489589
0
ARC
8
DEFAULT_255_1_388
10
4.4783936
20
37.1131704
40
0.6223912
50
89.9245727
51
96.1375919
0
ARC
8
DEFAULT_255_1_388
10
4.4840641
20
37.1265721
40
0.6090084
50
76.6779212
51
90.456405
0
ARC
8
DEFAULT_255_1_388
10
4.5283454
20
37.305506
40
0.42469
50
47.4858803
51
76.9287069
0
ARC
8
DEFAULT_255_1_388
10
4.5118068
20
37.2942623
40
0.4441778
50
16.5424081
51
46.8934505
0
ARC
8
DEFAULT_255_1_388
10
4.3309118
20
37.2348265
40
0.6345318
50
5.4072971
51
17.0363711
0
ARC
8
DEFAULT_255_1_388
10
4.1690843
20
37.2088304
40
0.6250632
50
7.8888693
51
15.9242022
0
ARC
8
DEFAULT_255_1_388
10
4.3925828
20
37.2737309
40
0.3923364
50
15.7650676
51
27.9410069
0
ARC
8
DEFAULT_255_1_388
10
4.5167997
20
37.3402317
40
0.2514401
50
27.8167196
51
46.4007942
0
ARC
8
DEFAULT_255_1_388
10
4.5223839
20
37.3395882
40
0.2480958
50
47.4372362
51
75.0695672
0
ARC
8
DEFAULT_255_1_388
10
4.4876675
20
37.2187277
40
0.3738281
50
74.7009379
51
87.8124314
0
ARC
8
DEFAULT_255_1_388
10
4.4794292
20
37.1003659
40
0.4924321
50
87.3802571
51
90.0251599
0
ARC
8
DEFAULT_255_1_388
10
4.4750939
20
37.2323997
40
0.3604218
50
89.3451886
51
108.5744412
0
ARC
8
DEFAULT_255_1_388
10
4.4596931
20
37.2901836
40
0.3007661
50
109.2998307
51
143.3037387
0
ARC
8
DEFAULT_255_1_388
10
4.5454221
20
37.2242584
40
0.4089031
50
143.075267
51
163.1918576
0
ARC
8
DEFAULT_255_1_388
10
4.7650055
20
37.1549652
40
0.6391492
50
162.9375929
51
174.6208776
0
ARC
8
DEFAULT_255_1_388
10
5.0604437
20
37.1225711
40
0.9363344
50
174.342123
51
180.1430283
0
ARC
8
DEFAULT_255_1_388
10
4.9556978
20
36.9882117
40
0.8315986
50
179.6817261
51
189.150555
0
ARC
8
DEFAULT_255_1_388
10
4.6743727
20
36.9413559
40
0.5464044
50
188.9911061
51
203.5772363
0
ARC
8
DEFAULT_255_1_388
10
4.5529019
20
36.8909539
40
0.4149206
50
203.9075402
51
215.1312435
0
ARC
8
DEFAULT_255_1_388
10
4.4490817
20
36.8104907
40
0.2837747
50
213.9071511
51
263.8848919
0
ARC
8
DEFAULT_255_1_388
10
4.463181
20
36.8987519
40
0.3730641
50
263.1757928
51
270.1031044
0
ARC
8
DEFAULT_255_1_388
10
4.466789
20
37.0390511
40
0.5133712
50
269.6722503
51
279.0606936
0
ARC
8
DEFAULT_255_1_388
10
4.4968045
20
36.857615
40
0.3294739
50
278.8749101
51
293.6349581
0
ARC
8
DEFAULT_255_1_388
10
4.5328249
20
36.7730251
40
0.2375405
50
293.8553806
51
310.0518171
0
ARC
8
DEFAULT_255_1_388
10
4.5333758
20
36.7660021
40
0.2318463
50
311.0644687
51
332.0111037
0
ARC
8
DEFAULT_255_1_388
10
4.3992431
20
36.8399702
40
0.3850112
50
331.6586806
51
343.2877423
0
ARC
8
DEFAULT_255_1_388
10
4.1671896
20
36.9112806
40
0.6277712
50
343.1446576
51
351.0103568
0
ARC
8
DEFAULT_255_1_388
10
4.003922
20
36.9412873
40
0.7937327
50
350.71248
51
351.1626997
0
LINE
8
DEFAULT_255_1_388
10
5.7505281
20
36.7832042
11
5.7505281
21
37.7174898
0
LINE
8
DEFAULT_255_1_388
10
5.7505281
20
37.7174898
11
5.9249161
21
37.7174898
0
LINE
8
DEFAULT_255_1_388
10
5.9249161
20
37.7174898
11
5.9249161
21
36.7859149
0
LINE
8
DEFAULT_255_1_388
10
5.0945403
20
36.7651329
11
5.2680247
21
36.7651329
0
ARC
8
DEFAULT_255_1_388
10
5.4196883
20
36.7815958
40
0.5052462
50
346.3132364
51
0.4897996
0
ARC
8
DEFAULT_255_1_388
10
5.5736416
20
36.7421792
40
0.3463431
50
313.3793278
51
346.6225662
0
ARC
8
DEFAULT_255_1_388
10
5.55105
20
36.7706186
40
0.3825426
50
281.1587645
51
312.9130978
0
ARC
8
DEFAULT_255_1_388
10
5.5127405
20
36.9387607
40
0.5549427
50
269.6423454
51
281.6796473
0
ARC
8
DEFAULT_255_1_388
10
5.5050184
20
37.0005499
40
0.6167359
50
258.9989698
51
270.3955842
0
ARC
8
DEFAULT_255_1_388
10
5.4628642
20
36.7925792
40
0.4045461
50
239.625581
51
259.2387746
0
ARC
8
DEFAULT_255_1_388
10
5.4303635
20
36.7312638
40
0.3352261
50
227.4961805
51
239.1189042
0
ARC
8
DEFAULT_255_1_388
10
5.4261519
20
36.7244009
40
0.3273245
50
191.3396895
51
227.2280349
0
ARC
8
DEFAULT_255_1_388
10
5.5841841
20
36.7617896
40
0.4896551
50
179.6087821
51
191.9932937
0
ARC
8
DEFAULT_255_1_388
10
5.5992585
20
36.7626216
40
0.3312434
50
179.565607
51
192.0702314
0
ARC
8
DEFAULT_255_1_388
10
5.4899538
20
36.738056
40
0.2192212
50
191.7655537
51
215.6462731
0
ARC
8
DEFAULT_255_1_388
10
5.4698779
20
36.7259629
40
0.1958682
50
216.1940686
51
224.3931249
0
ARC
8
DEFAULT_255_1_388
10
5.4706475
20
36.7289862
40
0.1985399
50
224.861176
51
254.3628599
0
ARC
8
DEFAULT_255_1_388
10
5.5011018
20
36.8296135
40
0.3036595
50
253.9470645
51
267.395327
0
ARC
8
DEFAULT_255_1_388
10
5.5090318
20
36.9335346
40
0.4078462
50
266.9458957
51
270.0343693
0
ARC
8
DEFAULT_255_1_388
10
5.5118898
20
36.8028844
40
0.2772084
50
269.4598277
51
286.1819188
0
ARC
8
DEFAULT_255_1_388
10
5.5277871
20
36.7445765
40
0.2167824
50
286.4415261
51
315.8045035
0
ARC
8
DEFAULT_255_1_388
10
5.5216904
20
36.7493201
40
0.2244619
50
316.0212602
51
345.479585
0
ARC
8
DEFAULT_255_1_388
10
5.4125062
20
36.7800753
40
0.3378781
50
345.0729937
51
358.3249855
0
ARC
8
DEFAULT_255_1_388
10
5.3149508
20
36.7863509
40
0.4355887
50
357.8749464
51
359.5860856
0
LINE
8
DEFAULT_255_1_388
10
7.0137112
20
36.8193468
11
7.1880992
21
36.8193468
0
LINE
8
DEFAULT_255_1_388
10
6.1752034
20
36.9982525
11
6.1752034
21
37.1247516
0
LINE
8
DEFAULT_255_1_388
10
7.1880992
20
37.2946217
11
7.0137112
21
37.2946217
0
LINE
8
DEFAULT_255_1_388
10
6.3495914
20
37.1202337
11
6.3495914
21
36.9928312
0
ARC
8
DEFAULT_255_1_388
10
6.5715226
20
36.8865329
40
0.6202263
50
340.1774904
51
353.7812217
0
ARC
8
DEFAULT_255_1_388
10
6.7483078
20
36.8206893
40
0.4315926
50
311.4560052
51
340.4420756
0
ARC
8
DEFAULT_255_1_388
10
6.7445618
20
36.8331665
40
0.4434573
50
282.4332229
51
310.7514507
0
ARC
8
DEFAULT_255_1_388
10
6.6951436
20
37.0373703
40
0.6535262
50
269.9358869
51
282.8096729
0
ARC
8
DEFAULT_255_1_388
10
6.6893376
20
37.1886329
40
0.8048043
50
269.9995752
51
270.3612856
0
ARC
8
DEFAULT_255_1_388
10
6.6833866
20
36.9087781
40
0.5249831
50
250.7885263
51
270.6488451
0
ARC
8
DEFAULT_255_1_388
10
6.664469
20
36.8370853
40
0.4510942
50
219.3628377
51
250.0611024
0
ARC
8
DEFAULT_255_1_388
10
6.7577565
20
36.9163653
40
0.5735046
50
193.5480293
51
219.5755675
0
ARC
8
DEFAULT_255_1_388
10
7.0245773
20
36.985652
40
0.849146
50
181.1220183
51
193.8754971
0
ARC
8
DEFAULT_255_1_388
10
7.2569007
20
36.9980914
40
1.0816971
50
179.9914644
51
181.5398227
0
ARC
8
DEFAULT_255_1_388
10
7.0492317
20
37.1289586
40
0.8740384
50
169.5837606
51
180.275782
0
ARC
8
DEFAULT_255_1_388
10
6.8425665
20
37.1671439
40
0.6638751
50
155.0367033
51
169.6002779
0
ARC
8
DEFAULT_255_1_388
10
6.7148124
20
37.2287336
40
0.5220662
50
136.7831557
51
155.2472983
0
ARC
8
DEFAULT_255_1_388
10
6.6709914
20
37.2659577
40
0.4646502
50
121.7633063
51
136.4281161
0
ARC
8
DEFAULT_255_1_388
10
6.6861754
20
37.2379049
40
0.4964979
50
95.6460018
51
121.5489589
0
ARC
8
DEFAULT_255_1_388
10
6.7038728
20
37.1131704
40
0.6223912
50
89.9245727
51
96.1375919
0
ARC
8
DEFAULT_255_1_388
10
6.7095434
20
37.1265721
40
0.6090084
50
76.6779212
51
90.456405
0
ARC
8
DEFAULT_255_1_388
10
6.7538246
20
37.305506
40
0.42469
50
47.4858803
51
76.9287069
0
ARC
8
DEFAULT_255_1_388
10
6.737286
20
37.2942623
40
0.4441778
50
16.5424081
51
46.8934505
0
ARC
8
DEFAULT_255_1_388
10
6.556391
20
37.2348265
40
0.6345318
50
5.4072971
51
17.0363711
0
ARC
8
DEFAULT_255_1_388
10
6.3945635
20
37.2088304
40
0.6250632
50
7.8888693
51
15.9242022
0
ARC
8
DEFAULT_255_1_388
10
6.618062
20
37.2737309
40
0.3923364
50
15.7650676
51
27.9410069
0
ARC
8
DEFAULT_255_1_388
10
6.742279
20
37.3402317
40
0.2514401
50
27.8167196
51
46.4007942
0
ARC
8
DEFAULT_255_1_388
10
6.7478631
20
37.3395882
40
0.2480958
50
47.4372362
51
75.0695672
0
ARC
8
DEFAULT_255_1_388
10
6.7131467
20
37.2187277
40
0.3738281
50
74.7009379
51
87.8124314
0
ARC
8
DEFAULT_255_1_388
10
6.7049084
20
37.1003659
40
0.4924321
50
87.3802571
51
90.0251599
0
ARC
8
DEFAULT_255_1_388
10
6.7005732
20
37.2323997
40
0.3604218
50
89.3451886
51
108.5744412
0
ARC
8
DEFAULT_255_1_388
10
6.6851724
20
37.2901836
40
0.3007661
50
109.2998307
51
143.3037387
0
ARC
8
DEFAULT_255_1_388
10
6.7709013
20
37.2242584
40
0.4089031
50
143.075267
51
163.1918576
0
ARC
8
DEFAULT_255_1_388
10
6.9904848
20
37.1549652
40
0.6391492
50
162.9375929
51
174.6208776
0
ARC
8
DEFAULT_255_1_388
10
7.285923
20
37.1225711
40
0.9363344
50
174.342123
51
180.1430283
0
ARC
8
DEFAULT_255_1_388
10
7.1811771
20
36.9882117
40
0.8315986
50
179.6817261
51
189.150555
0
ARC
8
DEFAULT_255_1_388
10
6.899852
20
36.9413559
40
0.5464044
50
188.9911061
51
203.5772363
0
ARC
8
DEFAULT_255_1_388
10
6.7783812
20
36.8909539
40
0.4149206
50
203.9075402
51
215.1312435
0
ARC
8
DEFAULT_255_1_388
10
6.6745609
20
36.8104907
40
0.2837747
50
213.9071511
51
263.8848919
0
ARC
8
DEFAULT_255_1_388
10
6.6886603
20
36.8987519
40
0.3730641
50
263.1757928
51
270.1031044
0
ARC
8
DEFAULT_255_1_388
10
6.6922682
20
37.0390511
40
0.5133712
50
269.6722503
51
279.0606936
0
ARC
8
DEFAULT_255_1_388
10
6.7222838
20
36.857615
40
0.3294739
50
278.8749101
51
293.6349581
0
ARC
8
DEFAULT_255_1_388
10
6.7583041
20
36.7730251
40
0.2375405
50
293.8553806
51
310.0518171
0
ARC
8
DEFAULT_255_1_388
10
6.758855
20
36.7660021
40
0.2318463
50
311.0644687
51
332.0111037
0
ARC
8
DEFAULT_255_1_388
10
6.6247223
20
36.8399702
40
0.3850112
50
331.6586806
51
343.2877423
0
ARC
8
DEFAULT_255_1_388
10
6.3926689
20
36.9112806
40
0.6277712
50
343.1446576
51
351.0103568
0
ARC
8
DEFAULT_255_1_388
10
6.2294012
20
36.9412873
40
0.7937327
50
350.71248
51
351.1626997
0
LINE
8
DEFAULT_255_1_388
10
7.8775188
20
37.4915987
11
7.8775188
21
37.1075838
0
LINE
8
DEFAULT_255_1_388
10
7.8775188
20
37.1075838
11
8.244366
21
37.1075838
0
LINE
8
DEFAULT_255_1_388
10
8.244366
20
37.1075838
11
8.244366
21
36.9494601
0
LINE
8
DEFAULT_255_1_388
10
8.244366
20
36.9494601
11
7.8775188
21
36.9494601
0
LINE
8
DEFAULT_255_1_388
10
7.8775188
20
36.9494601
11
7.8775188
21
36.5338204
0
LINE
8
DEFAULT_255_1_388
10
7.8775188
20
36.5338204
11
7.7094559
21
36.5338204
0
LINE
8
DEFAULT_255_1_388
10
7.7094559
20
36.5338204
11
7.7094559
21
36.9494601
0
LINE
8
DEFAULT_255_1_388
10
7.7094559
20
36.9494601
11
7.3426087
21
36.9494601
0
LINE
8
DEFAULT_255_1_388
10
7.3426087
20
36.9494601
11
7.3426087
21
37.1075838
0
LINE
8
DEFAULT_255_1_388
10
7.3426087
20
37.1075838
11
7.7094559
21
37.1075838
0
LINE
8
DEFAULT_255_1_388
10
7.7094559
20
37.1075838
11
7.7094559
21
37.4915987
0
LINE
8
DEFAULT_255_1_388
10
7.7094559
20
37.4915987
11
7.8775188
21
37.4915987
0
LINE
8
DEFAULT_255_1_388
10
4.925632
20
44.7568468
11
5.1000199
21
44.7568468
0
LINE
8
DEFAULT_255_1_388
10
4.0871242
20
44.9357525
11
4.0871242
21
45.0622516
0
LINE
8
DEFAULT_255_1_388
10
5.1000199
20
45.2321217
11
4.925632
21
45.2321217
0
LINE
8
DEFAULT_255_1_388
10
4.2615121
20
45.0577337
11
4.2615121
21
44.9303312
0
ARC
8
DEFAULT_255_1_388
10
4.4834433
20
44.8240329
40
0.6202263
50
340.1774904
51
353.7812217
0
ARC
8
DEFAULT_255_1_388
10
4.6602286
20
44.7581893
40
0.4315926
50
311.4560052
51
340.4420756
0
ARC
8
DEFAULT_255_1_388
10
4.6564826
20
44.7706665
40
0.4434573
50
282.4332229
51
310.7514507
0
ARC
8
DEFAULT_255_1_388
10
4.6070644
20
44.9748703
40
0.6535262
50
269.9358869
51
282.8096729
0
ARC
8
DEFAULT_255_1_388
10
4.6012583
20
45.1261329
40
0.8048043
50
269.9995752
51
270.3612856
0
ARC
8
DEFAULT_255_1_388
10
4.5953073
20
44.8462781
40
0.5249831
50
250.7885263
51
270.6488451
0
ARC
8
DEFAULT_255_1_388
10
4.5763898
20
44.7745853
40
0.4510942
50
219.3628377
51
250.0611024
0
ARC
8
DEFAULT_255_1_388
10
4.6696772
20
44.8538653
40
0.5735046
50
193.5480293
51
219.5755675
0
ARC
8
DEFAULT_255_1_388
10
4.9364981
20
44.923152
40
0.849146
50
181.1220183
51
193.8754971
0
ARC
8
DEFAULT_255_1_388
10
5.1688214
20
44.9355914
40
1.0816971
50
179.9914644
51
181.5398227
0
ARC
8
DEFAULT_255_1_388
10
4.9611525
20
45.0664586
40
0.8740384
50
169.5837606
51
180.275782
0
ARC
8
DEFAULT_255_1_388
10
4.7544873
20
45.1046439
40
0.6638751
50
155.0367033
51
169.6002779
0
ARC
8
DEFAULT_255_1_388
10
4.6267331
20
45.1662336
40
0.5220662
50
136.7831557
51
155.2472983
0
ARC
8
DEFAULT_255_1_388
10
4.5829122
20
45.2034577
40
0.4646502
50
121.7633063
51
136.4281161
0
ARC
8
DEFAULT_255_1_388
10
4.5980962
20
45.1754049
40
0.4964979
50
95.6460018
51
121.5489589
0
ARC
8
DEFAULT_255_1_388
10
4.6157936
20
45.0506704
40
0.6223912
50
89.9245727
51
96.1375919
0
ARC
8
DEFAULT_255_1_388
10
4.6214641
20
45.0640721
40
0.6090084
50
76.6779212
51
90.456405
0
ARC
8
DEFAULT_255_1_388
10
4.6657454
20
45.243006
40
0.42469
50
47.4858803
51
76.9287069
0
ARC
8
DEFAULT_255_1_388
10
4.6492068
20
45.2317623
40
0.4441778
50
16.5424081
51
46.8934505
0
ARC
8
DEFAULT_255_1_388
10
4.4683118
20
45.1723265
40
0.6345318
50
5.4072971
51
17.0363711
0
ARC
8
DEFAULT_255_1_388
10
4.3064843
20
45.1463304
40
0.6250632
50
7.8888693
51
15.9242022
0
ARC
8
DEFAULT_255_1_388
10
4.5299828
20
45.2112309
40
0.3923364
50
15.7650676
51
27.9410069
0
ARC
8
DEFAULT_255_1_388
10
4.6541997
20
45.2777317
40
0.2514401
50
27.8167196
51
46.4007942
0
ARC
8
DEFAULT_255_1_388
10
4.6597839
20
45.2770882
40
0.2480958
50
47.4372362
51
75.0695672
0
ARC
8
DEFAULT_255_1_388
10
4.6250675
20
45.1562277
40
0.3738281
50
74.7009379
51
87.8124314
0
ARC
8
DEFAULT_255_1_388
10
4.6168292
20
45.0378659
40
0.4924321
50
87.3802571
51
90.0251599
0
ARC
8
DEFAULT_255_1_388
10
4.6124939
20
45.1698997
40
0.3604218
50
89.3451886
51
108.5744412
0
ARC
8
DEFAULT_255_1_388
10
4.5970931
20
45.2276836
40
0.3007661
50
109.2998307
51
143.3037387
0
ARC
8
DEFAULT_255_1_388
10
4.6828221
20
45.1617584
40
0.4089031
50
143.075267
51
163.1918576
0
ARC
8
DEFAULT_255_1_388
10
4.9024055
20
45.0924652
40
0.6391492
50
162.9375929
51
174.6208776
0
ARC
8
DEFAULT_255_1_388
10
5.1978437
20
45.0600711
40
0.9363344
50
174.342123
51
180.1430283
0
ARC
8
DEFAULT_255_1_388
10
5.0930978
20
44.9257117
40
0.8315986
50
179.6817261
51
189.150555
0
ARC
8
DEFAULT_255_1_388
10
4.8117727
20
44.8788559
40
0.5464044
50
188.9911061
51
203.5772363
0
ARC
8
DEFAULT_255_1_388
10
4.6903019
20
44.8284539
40
0.4149206
50
203.9075402
51
215.1312435
0
ARC
8
DEFAULT_255_1_388
10
4.5864817
20
44.7479907
40
0.2837747
50
213.9071511
51
263.8848919
0
ARC
8
DEFAULT_255_1_388
10
4.600581
20
44.8362519
40
0.3730641
50
263.1757928
51
270.1031044
0
ARC
8
DEFAULT_255_1_388
10
4.604189
20
44.9765511
40
0.5133712
50
269.6722503
51
279.0606936
0
ARC
8
DEFAULT_255_1_388
10
4.6342045
20
44.795115
40
0.3294739
50
278.8749101
51
293.6349581
0
ARC
8
DEFAULT_255_1_388
10
4.6702249
20
44.7105251
40
0.2375405
50
293.8553806
51
310.0518171
0
ARC
8
DEFAULT_255_1_388
10
4.6707758
20
44.7035021
40
0.2318463
50
311.0644687
51
332.0111037
0
ARC
8
DEFAULT_255_1_388
10
4.5366431
20
44.7774702
40
0.3850112
50
331.6586806
51
343.2877423
0
ARC
8
DEFAULT_255_1_388
10
4.3045896
20
44.8487806
40
0.6277712
50
343.1446576
51
351.0103568
0
ARC
8
DEFAULT_255_1_388
10
4.141322
20
44.8787873
40
0.7937327
50
350.71248
51
351.1626997
0
LINE
8
DEFAULT_255_1_388
10
6.3478424
20
45.6549898
11
6.3478424
21
44.3394
0
LINE
8
DEFAULT_255_1_388
10
6.3478424
20
44.3394
11
6.1734545
21
44.3394
0
LINE
8
DEFAULT_255_1_388
10
6.1734545
20
44.3394
11
6.1734545
21
44.9474989
0
LINE
8
DEFAULT_255_1_388
10
6.1734545
20
44.9474989
11
5.5102382
21
44.9474989
0
LINE
8
DEFAULT_255_1_388
10
5.5102382
20
44.9474989
11
5.5102382
21
44.3394
0
LINE
8
DEFAULT_255_1_388
10
5.5102382
20
44.3394
11
5.3367538
21
44.3394
0
LINE
8
DEFAULT_255_1_388
10
5.3367538
20
44.3394
11
5.3367538
21
45.6549898
0
LINE
8
DEFAULT_255_1_388
10
5.3367538
20
45.6549898
11
5.5102382
21
45.6549898
0
LINE
8
DEFAULT_255_1_388
10
5.5102382
20
45.6549898
11
5.5102382
21
45.0893585
0
LINE
8
DEFAULT_255_1_388
10
5.5102382
20
45.0893585
11
6.1734545
21
45.0893585
0
LINE
8
DEFAULT_255_1_388
10
6.1734545
20
45.0893585
11
6.1734545
21
45.6549898
0
LINE
8
DEFAULT_255_1_388
10
6.1734545
20
45.6549898
11
6.3478424
21
45.6549898
0
LINE
8
DEFAULT_255_1_388
10
7.4375412
20
45.117369
11
7.4375412
21
44.9005135
0
LINE
8
DEFAULT_255_1_388
10
6.6071654
20
44.8779244
11
6.6071654
21
45.1011048
0
LINE
8
DEFAULT_255_1_388
10
7.2703817
20
44.8553353
11
7.2703817
21
45.1291153
0
LINE
8
DEFAULT_255_1_388
10
6.7743249
20
45.1417652
11
6.7743249
21
44.8743102
0
ARC
8
DEFAULT_255_1_388
10
6.0597746
20
44.8950118
40
1.3777776
50
353.8440855
51
0.2287917
0
ARC
8
DEFAULT_255_1_388
10
6.5816763
20
44.8367414
40
0.852639
50
344.4934746
51
353.9763743
0
ARC
8
DEFAULT_255_1_388
10
6.918357
20
44.7410191
40
0.5026273
50
329.2803599
51
344.7473406
0
ARC
8
DEFAULT_255_1_388
10
7.0299066
20
44.6798038
40
0.3754848
50
324.9361395
51
328.6153007
0
ARC
8
DEFAULT_255_1_388
10
7.0724716
20
44.6500586
40
0.3235566
50
280.5801797
51
324.9173226
0
ARC
8
DEFAULT_255_1_388
10
7.0273344
20
44.8380236
40
0.5167077
50
269.5979457
51
281.6732777
0
ARC
8
DEFAULT_255_1_388
10
7.0192248
20
44.8245113
40
0.5032026
50
256.6228565
51
270.5105488
0
ARC
8
DEFAULT_255_1_388
10
6.9739991
20
44.6503345
40
0.3233092
50
215.8618351
51
257.2787793
0
ARC
8
DEFAULT_255_1_388
10
7.0888698
20
44.7274106
40
0.4615831
50
197.9695203
51
215.2622745
0
ARC
8
DEFAULT_255_1_388
10
7.3684373
20
44.8217641
40
0.7566307
50
187.8816486
51
198.2346584
0
ARC
8
DEFAULT_255_1_388
10
7.8137612
20
44.8860453
40
1.2065653
50
180.8977266
51
188.0054894
0
ARC
8
DEFAULT_255_1_388
10
8.1187825
20
44.89754
40
1.5117443
50
180.7434591
51
181.152202
0
ARC
8
DEFAULT_255_1_388
10
7.9512821
20
45.1065371
40
1.3441277
50
173.7674302
51
180.2315596
0
ARC
8
DEFAULT_255_1_388
10
7.443069
20
45.1639779
40
0.8326847
50
164.3058537
51
173.9000553
0
ARC
8
DEFAULT_255_1_388
10
7.115469
20
45.2583652
40
0.4917711
50
148.7922028
51
164.5682288
0
ARC
8
DEFAULT_255_1_388
10
7.0085427
20
45.3180457
40
0.3694204
50
144.5883979
51
148.1161588
0
ARC
8
DEFAULT_255_1_388
10
6.9698173
20
45.3450667
40
0.322202
50
101.6440149
51
144.5142619
0
ARC
8
DEFAULT_255_1_388
10
7.0176365
20
45.1550337
40
0.5180451
50
89.528284
51
102.5820197
0
ARC
8
DEFAULT_255_1_388
10
7.0265357
20
45.1506376
40
0.5224441
50
77.0437914
51
90.508231
0
ARC
8
DEFAULT_255_1_388
10
7.0717611
20
45.3354272
40
0.3322297
50
48.2777708
51
77.4996087
0
ARC
8
DEFAULT_255_1_388
10
7.0799351
20
45.3499557
40
0.315966
50
36.3141586
51
47.6307332
0
ARC
8
DEFAULT_255_1_388
10
6.9822073
20
45.2841159
40
0.4337313
50
18.2931065
51
35.6770203
0
ARC
8
DEFAULT_255_1_388
10
6.6960914
20
45.1859107
40
0.7362203
50
8.0246996
51
18.5605636
0
ARC
8
DEFAULT_255_1_388
10
6.2277269
20
45.1167432
40
1.2096583
50
1.127539
51
8.1718423
0
ARC
8
DEFAULT_255_1_388
10
5.8628403
20
45.1024374
40
1.5747719
50
0.5432713
51
1.38669
0
ARC
8
DEFAULT_255_1_388
10
6.0685781
20
45.1331163
40
1.2018103
50
359.8092569
51
4.9408001
0
ARC
8
DEFAULT_255_1_388
10
6.5422363
20
45.17539
40
0.7262727
50
4.8364937
51
12.2906017
0
ARC
8
DEFAULT_255_1_388
10
6.8521827
20
45.2444485
40
0.4087324
50
12.0806994
51
23.8171225
0
ARC
8
DEFAULT_255_1_388
10
6.9842223
20
45.3003508
40
0.2653719
50
24.2874621
51
31.3934353
0
ARC
8
DEFAULT_255_1_388
10
7.0432659
20
45.3389822
40
0.1948607
50
30.7407708
51
82.4658033
0
ARC
8
DEFAULT_255_1_388
10
7.023032
20
45.2396017
40
0.2961198
50
81.1057101
51
90.2187368
0
ARC
8
DEFAULT_255_1_388
10
7.0190132
20
45.2686421
40
0.2670929
50
89.380395
51
105.6763916
0
ARC
8
DEFAULT_255_1_388
10
6.9983854
20
45.343632
40
0.1893189
50
105.7980655
51
149.7387869
0
ARC
8
DEFAULT_255_1_388
10
7.1180994
20
45.2716719
40
0.3289892
50
149.4208441
51
163.628295
0
ARC
8
DEFAULT_255_1_388
10
7.3533224
20
45.1999345
40
0.5749004
50
163.3764549
51
172.141138
0
ARC
8
DEFAULT_255_1_388
10
7.7245945
20
45.1467582
40
0.9499585
50
172.0258462
51
178.0705453
0
ARC
8
DEFAULT_255_1_388
10
8.0667498
20
45.1305682
40
1.2924734
50
177.8639301
51
179.5036263
0
ARC
8
DEFAULT_255_1_388
10
7.9448517
20
44.8702151
40
1.170534
50
179.7995545
51
185.246089
0
ARC
8
DEFAULT_255_1_388
10
7.490011
20
44.8271404
40
0.7136613
50
185.1411911
51
193.0082205
0
ARC
8
DEFAULT_255_1_388
10
7.192637
20
44.7568441
40
0.4080987
50
192.7897338
51
205.2507384
0
ARC
8
DEFAULT_255_1_388
10
7.074858
20
44.7042538
40
0.2791522
50
205.8001921
51
211.2545876
0
ARC
8
DEFAULT_255_1_388
10
7.0160119
20
44.6648132
40
0.2084074
50
210.3789935
51
238.4007996
0
ARC
8
DEFAULT_255_1_388
10
7.0138205
20
44.6700786
40
0.2117943
50
239.6521916
51
265.9793852
0
ARC
8
DEFAULT_255_1_388
10
7.0234054
20
44.7457358
40
0.2879689
50
265.1324455
51
270.0603288
0
ARC
8
DEFAULT_255_1_388
10
7.0266431
20
44.7092418
40
0.2514919
50
269.3314378
51
287.2180039
0
ARC
8
DEFAULT_255_1_388
10
7.0421514
20
44.6526291
40
0.1928357
50
287.7957942
51
329.0808983
0
ARC
8
DEFAULT_255_1_388
10
6.9344271
20
44.7198651
40
0.319808
50
328.6635261
51
343.3325043
0
ARC
8
DEFAULT_255_1_388
10
6.6899729
20
44.7960195
40
0.5758408
50
343.0498092
51
351.9392499
0
ARC
8
DEFAULT_255_1_388
10
6.2999051
20
44.8535205
40
0.9701202
50
351.8071632
51
357.7957897
0
ARC
8
DEFAULT_255_1_388
10
5.9364528
20
44.8723724
40
1.3340376
50
357.5870923
51
359.2682493
0
LINE
8
DEFAULT_255_1_388
10
8.016726
20
44.9664737
11
8.016726
21
44.8300355
0
LINE
8
DEFAULT_255_1_388
10
8.016726
20
44.8300355
11
7.5757865
21
44.8300355
0
LINE
8
DEFAULT_255_1_388
10
7.5757865
20
44.8300355
11
7.5757865
21
44.9664737
0
LINE
8
DEFAULT_255_1_388
10
7.5757865
20
44.9664737
11
8.016726
21
44.9664737
0
LINE
8
DEFAULT_255_1_388
10
4.787532
20
52.6943468
11
4.9619199
21
52.6943468
0
LINE
8
DEFAULT_255_1_388
10
3.9490242
20
52.8732525
11
3.9490242
21
52.9997516
0
LINE
8
DEFAULT_255_1_388
10
4.9619199
20
53.1696217
11
4.787532
21
53.1696217
0
LINE
8
DEFAULT_255_1_388
10
4.1234121
20
52.9952337
11
4.1234121
21
52.8678312
0
ARC
8
DEFAULT_255_1_388
10
4.3453433
20
52.7615329
40
0.6202263
50
340.1774904
51
353.7812217
0
ARC
8
DEFAULT_255_1_388
10
4.5221286
20
52.6956893
40
0.4315926
50
311.4560052
51
340.4420756
0
ARC
8
DEFAULT_255_1_388
10
4.5183826
20
52.7081665
40
0.4434573
50
282.4332229
51
310.7514507
0
ARC
8
DEFAULT_255_1_388
10
4.4689644
20
52.9123703
40
0.6535262
50
269.9358869
51
282.8096729
0
ARC
8
DEFAULT_255_1_388
10
4.4631583
20
53.0636329
40
0.8048043
50
269.9995752
51
270.3612856
0
ARC
8
DEFAULT_255_1_388
10
4.4572073
20
52.7837781
40
0.5249831
50
250.7885263
51
270.6488451
0
ARC
8
DEFAULT_255_1_388
10
4.4382898
20
52.7120853
40
0.4510942
50
219.3628377
51
250.0611024
0
ARC
8
DEFAULT_255_1_388
10
4.5315772
20
52.7913653
40
0.5735046
50
193.5480293
51
219.5755675
0
ARC
8
DEFAULT_255_1_388
10
4.7983981
20
52.860652
40
0.849146
50
181.1220183
51
193.8754971
0
ARC
8
DEFAULT_255_1_388
10
5.0307214
20
52.8730914
40
1.0816971
50
179.9914644
51
181.5398227
0
ARC
8
DEFAULT_255_1_388
10
4.8230525
20
53.0039586
40
0.8740384
50
169.5837606
51
180.275782
0
ARC
8
DEFAULT_255_1_388
10
4.6163873
20
53.0421439
40
0.6638751
50
155.0367033
51
169.6002779
0
ARC
8
DEFAULT_255_1_388
10
4.4886331
20
53.1037336
40
0.5220662
50
136.7831557
51
155.2472983
0
ARC
8
DEFAULT_255_1_388
10
4.4448122
20
53.1409577
40
0.4646502
50
121.7633063
51
136.4281161
0
ARC
8
DEFAULT_255_1_388
10
4.4599962
20
53.1129049
40
0.4964979
50
95.6460018
51
121.5489589
0
ARC
8
DEFAULT_255_1_388
10
4.4776936
20
52.9881704
40
0.6223912
50
89.9245727
51
96.1375919
0
ARC
8
DEFAULT_255_1_388
10
4.4833641
20
53.0015721
40
0.6090084
50
76.6779212
51
90.456405
0
ARC
8
DEFAULT_255_1_388
10
4.5276454
20
53.180506
40
0.42469
50
47.4858803
51
76.9287069
0
ARC
8
DEFAULT_255_1_388
10
4.5111068
20
53.1692623
40
0.4441778
50
16.5424081
51
46.8934505
0
ARC
8
DEFAULT_255_1_388
10
4.3302118
20
53.1098265
40
0.6345318
50
5.4072971
51
17.0363711
0
ARC
8
DEFAULT_255_1_388
10
4.1683843
20
53.0838304
40
0.6250632
50
7.8888693
51
15.9242022
0
ARC
8
DEFAULT_255_1_388
10
4.3918828
20
53.1487309
40
0.3923364
50
15.7650676
51
27.9410069
0
ARC
8
DEFAULT_255_1_388
10
4.5160997
20
53.2152317
40
0.2514401
50
27.8167196
51
46.4007942
0
ARC
8
DEFAULT_255_1_388
10
4.5216839
20
53.2145882
40
0.2480958
50
47.4372362
51
75.0695672
0
ARC
8
DEFAULT_255_1_388
10
4.4869675
20
53.0937277
40
0.3738281
50
74.7009379
51
87.8124314
0
ARC
8
DEFAULT_255_1_388
10
4.4787292
20
52.9753659
40
0.4924321
50
87.3802571
51
90.0251599
0
ARC
8
DEFAULT_255_1_388
10
4.4743939
20
53.1073997
40
0.3604218
50
89.3451886
51
108.5744412
0
ARC
8
DEFAULT_255_1_388
10
4.4589931
20
53.1651836
40
0.3007661
50
109.2998307
51
143.3037387
0
ARC
8
DEFAULT_255_1_388
10
4.5447221
20
53.0992584
40
0.4089031
50
143.075267
51
163.1918576
0
ARC
8
DEFAULT_255_1_388
10
4.7643055
20
53.0299652
40
0.6391492
50
162.9375929
51
174.6208776
0
ARC
8
DEFAULT_255_1_388
10
5.0597437
20
52.9975711
40
0.9363344
50
174.342123
51
180.1430283
0
ARC
8
DEFAULT_255_1_388
10
4.9549978
20
52.8632117
40
0.8315986
50
179.6817261
51
189.150555
0
ARC
8
DEFAULT_255_1_388
10
4.6736727
20
52.8163559
40
0.5464044
50
188.9911061
51
203.5772363
0
ARC
8
DEFAULT_255_1_388
10
4.5522019
20
52.7659539
40
0.4149206
50
203.9075402
51
215.1312435
0
ARC
8
DEFAULT_255_1_388
10
4.4483817
20
52.6854907
40
0.2837747
50
213.9071511
51
263.8848919
0
ARC
8
DEFAULT_255_1_388
10
4.462481
20
52.7737519
40
0.3730641
50
263.1757928
51
270.1031044
0
ARC
8
DEFAULT_255_1_388
10
4.466089
20
52.9140511
40
0.5133712
50
269.6722503
51
279.0606936
0
ARC
8
DEFAULT_255_1_388
10
4.4961045
20
52.732615
40
0.3294739
50
278.8749101
51
293.6349581
0
ARC
8
DEFAULT_255_1_388
10
4.5321249
20
52.6480251
40
0.2375405
50
293.8553806
51
310.0518171
0
ARC
8
DEFAULT_255_1_388
10
4.5326758
20
52.6410021
40
0.2318463
50
311.0644687
51
332.0111037
0
ARC
8
DEFAULT_255_1_388
10
4.3985431
20
52.7149702
40
0.3850112
50
331.6586806
51
343.2877423
0
ARC
8
DEFAULT_255_1_388
10
4.1664896
20
52.7862806
40
0.6277712
50
343.1446576
51
351.0103568
0
ARC
8
DEFAULT_255_1_388
10
4.003222
20
52.8162873
40
0.7937327
50
350.71248
51
351.1626997
0
LINE
8
DEFAULT_255_1_388
10
6.2097424
20
53.5924898
11
6.2097424
21
52.2769
0
LINE
8
DEFAULT_255_1_388
10
6.2097424
20
52.2769
11
6.0353545
21
52.2769
0
LINE
8
DEFAULT_255_1_388
10
6.0353545
20
52.2769
11
6.0353545
21
52.8849989
0
LINE
8
DEFAULT_255_1_388
10
6.0353545
20
52.8849989
11
5.3721382
21
52.8849989
0
LINE
8
DEFAULT_255_1_388
10
5.3721382
20
52.8849989
11
5.3721382
21
52.2769
0
LINE
8
DEFAULT_255_1_388
10
5.3721382
20
52.2769
11
5.1986538
21
52.2769
0
LINE
8
DEFAULT_255_1_388
10
5.1986538
20
52.2769
11
5.1986538
21
53.5924898
0
LINE
8
DEFAULT_255_1_388
10
5.1986538
20
53.5924898
11
5.3721382
21
53.5924898
0
LINE
8
DEFAULT_255_1_388
10
5.3721382
20
53.5924898
11
5.3721382
21
53.0268585
0
LINE
8
DEFAULT_255_1_388
10
5.3721382
20
53.0268585
11
6.0353545
21
53.0268585
0
LINE
8
DEFAULT_255_1_388
10
6.0353545
20
53.0268585
11
6.0353545
21
53.5924898
0
LINE
8
DEFAULT_255_1_388
10
6.0353545
20
53.5924898
11
6.2097424
21
53.5924898
0
LINE
8
DEFAULT_255_1_388
10
7.2994412
20
53.054869
11
7.2994412
21
52.8380135
0
LINE
8
DEFAULT_255_1_388
10
6.4690654
20
52.8154244
11
6.4690654
21
53.0386048
0
LINE
8
DEFAULT_255_1_388
10
7.1322817
20
52.7928353
11
7.1322817
21
53.0666153
0
LINE
8
DEFAULT_255_1_388
10
6.6362249
20
53.0792652
11
6.6362249
21
52.8118102
0
ARC
8
DEFAULT_255_1_388
10
5.9216746
20
52.8325118
40
1.3777776
50
353.8440855
51
0.2287917
0
ARC
8
DEFAULT_255_1_388
10
6.4435763
20
52.7742414
40
0.852639
50
344.4934746
51
353.9763743
0
ARC
8
DEFAULT_255_1_388
10
6.780257
20
52.6785191
40
0.5026273
50
329.2803599
51
344.7473406
0
ARC
8
DEFAULT_255_1_388
10
6.8918066
20
52.6173038
40
0.3754848
50
324.9361395
51
328.6153007
0
ARC
8
DEFAULT_255_1_388
10
6.9343716
20
52.5875586
40
0.3235566
50
280.5801797
51
324.9173226
0
ARC
8
DEFAULT_255_1_388
10
6.8892344
20
52.7755236
40
0.5167077
50
269.5979457
51
281.6732777
0
ARC
8
DEFAULT_255_1_388
10
6.8811248
20
52.7620113
40
0.5032026
50
256.6228565
51
270.5105488
0
ARC
8
DEFAULT_255_1_388
10
6.8358991
20
52.5878345
40
0.3233092
50
215.8618351
51
257.2787793
0
ARC
8
DEFAULT_255_1_388
10
6.9507698
20
52.6649106
40
0.4615831
50
197.9695203
51
215.2622745
0
ARC
8
DEFAULT_255_1_388
10
7.2303373
20
52.7592641
40
0.7566307
50
187.8816486
51
198.2346584
0
ARC
8
DEFAULT_255_1_388
10
7.6756612
20
52.8235453
40
1.2065653
50
180.8977266
51
188.0054894
0
ARC
8
DEFAULT_255_1_388
10
7.9806825
20
52.83504
40
1.5117443
50
180.7434591
51
181.152202
0
ARC
8
DEFAULT_255_1_388
10
7.8131821
20
53.0440371
40
1.3441277
50
173.7674302
51
180.2315596
0
ARC
8
DEFAULT_255_1_388
10
7.304969
20
53.1014779
40
0.8326847
50
164.3058537
51
173.9000553
0
ARC
8
DEFAULT_255_1_388
10
6.977369
20
53.1958652
40
0.4917711
50
148.7922028
51
164.5682288
0
ARC
8
DEFAULT_255_1_388
10
6.8704427
20
53.2555457
40
0.3694204
50
144.5883979
51
148.1161588
0
ARC
8
DEFAULT_255_1_388
10
6.8317173
20
53.2825667
40
0.322202
50
101.6440149
51
144.5142619
0
ARC
8
DEFAULT_255_1_388
10
6.8795365
20
53.0925337
40
0.5180451
50
89.528284
51
102.5820197
0
ARC
8
DEFAULT_255_1_388
10
6.8884357
20
53.0881376
40
0.5224441
50
77.0437914
51
90.508231
0
ARC
8
DEFAULT_255_1_388
10
6.9336611
20
53.2729272
40
0.3322297
50
48.2777708
51
77.4996087
0
ARC
8
DEFAULT_255_1_388
10
6.9418351
20
53.2874557
40
0.315966
50
36.3141586
51
47.6307332
0
ARC
8
DEFAULT_255_1_388
10
6.8441073
20
53.2216159
40
0.4337313
50
18.2931065
51
35.6770203
0
ARC
8
DEFAULT_255_1_388
10
6.5579914
20
53.1234107
40
0.7362203
50
8.0246996
51
18.5605636
0
ARC
8
DEFAULT_255_1_388
10
6.0896269
20
53.0542432
40
1.2096583
50
1.127539
51
8.1718423
0
ARC
8
DEFAULT_255_1_388
10
5.7247403
20
53.0399374
40
1.5747719
50
0.5432713
51
1.38669
0
ARC
8
DEFAULT_255_1_388
10
5.9304781
20
53.0706163
40
1.2018103
50
359.8092569
51
4.9408001
0
ARC
8
DEFAULT_255_1_388
10
6.4041363
20
53.11289
40
0.7262727
50
4.8364937
51
12.2906017
0
ARC
8
DEFAULT_255_1_388
10
6.7140827
20
53.1819485
40
0.4087324
50
12.0806994
51
23.8171225
0
ARC
8
DEFAULT_255_1_388
10
6.8461223
20
53.2378508
40
0.2653719
50
24.2874621
51
31.3934353
0
ARC
8
DEFAULT_255_1_388
10
6.9051659
20
53.2764822
40
0.1948607
50
30.7407708
51
82.4658033
0
ARC
8
DEFAULT_255_1_388
10
6.884932
20
53.1771017
40
0.2961198
50
81.1057101
51
90.2187368
0
ARC
8
DEFAULT_255_1_388
10
6.8809132
20
53.2061421
40
0.2670929
50
89.380395
51
105.6763916
0
ARC
8
DEFAULT_255_1_388
10
6.8602854
20
53.281132
40
0.1893189
50
105.7980655
51
149.7387869
0
ARC
8
DEFAULT_255_1_388
10
6.9799994
20
53.2091719
40
0.3289892
50
149.4208441
51
163.628295
0
ARC
8
DEFAULT_255_1_388
10
7.2152224
20
53.1374345
40
0.5749004
50
163.3764549
51
172.141138
0
ARC
8
DEFAULT_255_1_388
10
7.5864945
20
53.0842582
40
0.9499585
50
172.0258462
51
178.0705453
0
ARC
8
DEFAULT_255_1_388
10
7.9286498
20
53.0680682
40
1.2924734
50
177.8639301
51
179.5036263
0
ARC
8
DEFAULT_255_1_388
10
7.8067517
20
52.8077151
40
1.170534
50
179.7995545
51
185.246089
0
ARC
8
DEFAULT_255_1_388
10
7.351911
20
52.7646404
40
0.7136613
50
185.1411911
51
193.0082205
0
ARC
8
DEFAULT_255_1_388
10
7.054537
20
52.6943441
40
0.4080987
50
192.7897338
51
205.2507384
0
ARC
8
DEFAULT_255_1_388
10
6.936758
20
52.6417538
40
0.2791522
50
205.8001921
51
211.2545876
0
ARC
8
DEFAULT_255_1_388
10
6.8779119
20
52.6023132
40
0.2084074
50
210.3789935
51
238.4007996
0
ARC
8
DEFAULT_255_1_388
10
6.8757205
20
52.6075786
40
0.2117943
50
239.6521916
51
265.9793852
0
ARC
8
DEFAULT_255_1_388
10
6.8853054
20
52.6832358
40
0.2879689
50
265.1324455
51
270.0603288
0
ARC
8
DEFAULT_255_1_388
10
6.8885431
20
52.6467418
40
0.2514919
50
269.3314378
51
287.2180039
0
ARC
8
DEFAULT_255_1_388
10
6.9040514
20
52.5901291
40
0.1928357
50
287.7957942
51
329.0808983
0
ARC
8
DEFAULT_255_1_388
10
6.7963271
20
52.6573651
40
0.319808
50
328.6635261
51
343.3325043
0
ARC
8
DEFAULT_255_1_388
10
6.5518729
20
52.7335195
40
0.5758408
50
343.0498092
51
351.9392499
0
ARC
8
DEFAULT_255_1_388
10
6.1618051
20
52.7910205
40
0.9701202
50
351.8071632
51
357.7957897
0
ARC
8
DEFAULT_255_1_388
10
5.7983528
20
52.8098724
40
1.3340376
50
357.5870923
51
359.2682493
0
LINE
8
DEFAULT_255_1_388
10
8.0096428
20
53.3665987
11
8.0096428
21
52.9825838
0
LINE
8
DEFAULT_255_1_388
10
8.0096428
20
52.9825838
11
8.37649
21
52.9825838
0
LINE
8
DEFAULT_255_1_388
10
8.37649
20
52.9825838
11
8.37649
21
52.8244601
0
LINE
8
DEFAULT_255_1_388
10
8.37649
20
52.8244601
11
8.0096428
21
52.8244601
0
LINE
8
DEFAULT_255_1_388
10
8.0096428
20
52.8244601
11
8.0096428
21
52.4088204
0
LINE
8
DEFAULT_255_1_388
10
8.0096428
20
52.4088204
11
7.8415798
21
52.4088204
0
LINE
8
DEFAULT_255_1_388
10
7.8415798
20
52.4088204
11
7.8415798
21
52.8244601
0
LINE
8
DEFAULT_255_1_388
10
7.8415798
20
52.8244601
11
7.4747327
21
52.8244601
0
LINE
8
DEFAULT_255_1_388
10
7.4747327
20
52.8244601
11
7.4747327
21
52.9825838
0
LINE
8
DEFAULT_255_1_388
10
7.4747327
20
52.9825838
11
7.8415798
21
52.9825838
0
LINE
8
DEFAULT_255_1_388
10
7.8415798
20
52.9825838
11
7.8415798
21
53.3665987
0
LINE
8
DEFAULT_255_1_388
10
7.8415798
20
53.3665987
11
8.0096428
21
53.3665987
0
LINE
8
DEFAULT_255_1_388
10
23.1190856
20
60.992369
11
23.1190856
21
60.7755135
0
LINE
8
DEFAULT_255_1_388
10
22.2887099
20
60.7529244
11
22.2887099
21
60.9761048
0
LINE
8
DEFAULT_255_1_388
10
22.9519262
20
60.7303353
11
22.9519262
21
61.0041153
0
LINE
8
DEFAULT_255_1_388
10
22.4558693
20
61.0167652
11
22.4558693
21
60.7493102
0
ARC
8
DEFAULT_255_1_388
10
21.741319
20
60.7700118
40
1.3777776
50
353.8440855
51
0.2287917
0
ARC
8
DEFAULT_255_1_388
10
22.2632208
20
60.7117414
40
0.852639
50
344.4934746
51
353.9763743
0
ARC
8
DEFAULT_255_1_388
10
22.5999015
20
60.6160191
40
0.5026273
50
329.2803599
51
344.7473406
0
ARC
8
DEFAULT_255_1_388
10
22.7114511
20
60.5548038
40
0.3754848
50
324.9361395
51
328.6153007
0
ARC
8
DEFAULT_255_1_388
10
22.7540161
20
60.5250586
40
0.3235566
50
280.5801797
51
324.9173226
0
ARC
8
DEFAULT_255_1_388
10
22.7088789
20
60.7130236
40
0.5167077
50
269.5979457
51
281.6732777
0
ARC
8
DEFAULT_255_1_388
10
22.7007693
20
60.6995113
40
0.5032026
50
256.6228565
51
270.5105488
0
ARC
8
DEFAULT_255_1_388
10
22.6555435
20
60.5253345
40
0.3233092
50
215.8618351
51
257.2787793
0
ARC
8
DEFAULT_255_1_388
10
22.7704142
20
60.6024106
40
0.4615831
50
197.9695203
51
215.2622745
0
ARC
8
DEFAULT_255_1_388
10
23.0499818
20
60.6967641
40
0.7566307
50
187.8816486
51
198.2346584
0
ARC
8
DEFAULT_255_1_388
10
23.4953056
20
60.7610453
40
1.2065653
50
180.8977266
51
188.0054894
0
ARC
8
DEFAULT_255_1_388
10
23.800327
20
60.77254
40
1.5117443
50
180.7434591
51
181.152202
0
ARC
8
DEFAULT_255_1_388
10
23.6328266
20
60.9815371
40
1.3441277
50
173.7674302
51
180.2315596
0
ARC
8
DEFAULT_255_1_388
10
23.1246135
20
61.0389779
40
0.8326847
50
164.3058537
51
173.9000553
0
ARC
8
DEFAULT_255_1_388
10
22.7970135
20
61.1333652
40
0.4917711
50
148.7922028
51
164.5682288
0
ARC
8
DEFAULT_255_1_388
10
22.6900872
20
61.1930457
40
0.3694204
50
144.5883979
51
148.1161588
0
ARC
8
DEFAULT_255_1_388
10
22.6513618
20
61.2200667
40
0.322202
50
101.6440149
51
144.5142619
0
ARC
8
DEFAULT_255_1_388
10
22.699181
20
61.0300337
40
0.5180451
50
89.528284
51
102.5820197
0
ARC
8
DEFAULT_255_1_388
10
22.7080802
20
61.0256376
40
0.5224441
50
77.0437914
51
90.508231
0
ARC
8
DEFAULT_255_1_388
10
22.7533055
20
61.2104272
40
0.3322297
50
48.2777708
51
77.4996087
0
ARC
8
DEFAULT_255_1_388
10
22.7614795
20
61.2249557
40
0.315966
50
36.3141586
51
47.6307332
0
ARC
8
DEFAULT_255_1_388
10
22.6637518
20
61.1591159
40
0.4337313
50
18.2931065
51
35.6770203
0
ARC
8
DEFAULT_255_1_388
10
22.3776358
20
61.0609107
40
0.7362203
50
8.0246996
51
18.5605636
0
ARC
8
DEFAULT_255_1_388
10
21.9092714
20
60.9917432
40
1.2096583
50
1.127539
51
8.1718423
0
ARC
8
DEFAULT_255_1_388
10
21.5443847
20
60.9774374
40
1.5747719
50
0.5432713
51
1.38669
0
ARC
8
DEFAULT_255_1_388
10
21.7501226
20
61.0081163
40
1.2018103
50
359.8092569
51
4.9408001
0
ARC
8
DEFAULT_255_1_388
10
22.2237807
20
61.05039
40
0.7262727
50
4.8364937
51
12.2906017
0
ARC
8
DEFAULT_255_1_388
10
22.5337272
20
61.1194485
40
0.4087324
50
12.0806994
51
23.8171225
0
ARC
8
DEFAULT_255_1_388
10
22.6657668
20
61.1753508
40
0.2653719
50
24.2874621
51
31.3934353
0
ARC
8
DEFAULT_255_1_388
10
22.7248104
20
61.2139822
40
0.1948607
50
30.7407708
51
82.4658033
0
ARC
8
DEFAULT_255_1_388
10
22.7045765
20
61.1146017
40
0.2961198
50
81.1057101
51
90.2187368
0
ARC
8
DEFAULT_255_1_388
10
22.7005577
20
61.1436421
40
0.2670929
50
89.380395
51
105.6763916
0
ARC
8
DEFAULT_255_1_388
10
22.6799299
20
61.218632
40
0.1893189
50
105.7980655
51
149.7387869
0
ARC
8
DEFAULT_255_1_388
10
22.7996439
20
61.1466719
40
0.3289892
50
149.4208441
51
163.628295
0
ARC
8
DEFAULT_255_1_388
10
23.0348668
20
61.0749345
40
0.5749004
50
163.3764549
51
172.141138
0
ARC
8
DEFAULT_255_1_388
10
23.406139
20
61.0217582
40
0.9499585
50
172.0258462
51
178.0705453
0
ARC
8
DEFAULT_255_1_388
10
23.7482943
20
61.0055682
40
1.2924734
50
177.8639301
51
179.5036263
0
ARC
8
DEFAULT_255_1_388
10
23.6263961
20
60.7452151
40
1.170534
50
179.7995545
51
185.246089
0
ARC
8
DEFAULT_255_1_388
10
23.1715554
20
60.7021404
40
0.7136613
50
185.1411911
51
193.0082205
0
ARC
8
DEFAULT_255_1_388
10
22.8741815
20
60.6318441
40
0.4080987
50
192.7897338
51
205.2507384
0
ARC
8
DEFAULT_255_1_388
10
22.7564025
20
60.5792538
40
0.2791522
50
205.8001921
51
211.2545876
0
ARC
8
DEFAULT_255_1_388
10
22.6975564
20
60.5398132
40
0.2084074
50
210.3789935
51
238.4007996
0
ARC
8
DEFAULT_255_1_388
10
22.695365
20
60.5450786
40
0.2117943
50
239.6521916
51
265.9793852
0
ARC
8
DEFAULT_255_1_388
10
22.7049499
20
60.6207358
40
0.2879689
50
265.1324455
51
270.0603288
0
ARC
8
DEFAULT_255_1_388
10
22.7081876
20
60.5842418
40
0.2514919
50
269.3314378
51
287.2180039
0
ARC
8
DEFAULT_255_1_388
10
22.7236958
20
60.5276291
40
0.1928357
50
287.7957942
51
329.0808983
0
ARC
8
DEFAULT_255_1_388
10
22.6159715
20
60.5948651
40
0.319808
50
328.6635261
51
343.3325043
0
ARC
8
DEFAULT_255_1_388
10
22.3715174
20
60.6710195
40
0.5758408
50
343.0498092
51
351.9392499
0
ARC
8
DEFAULT_255_1_388
10
21.9814496
20
60.7285205
40
0.9701202
50
351.8071632
51
357.7957897
0
ARC
8
DEFAULT_255_1_388
10
21.6179973
20
60.7473724
40
1.3340376
50
357.5870923
51
359.2682493
0
LINE
8
DEFAULT_255_1_388
10
23.4380439
20
61.5299898
11
23.8121196
21
60.4448089
0
LINE
8
DEFAULT_255_1_388
10
23.8121196
20
60.4448089
11
24.1880024
21
61.5299898
0
LINE
8
DEFAULT_255_1_388
10
24.1880024
20
61.5299898
11
24.3777509
21
61.5299898
0
LINE
8
DEFAULT_255_1_388
10
24.3777509
20
61.5299898
11
23.8898261
21
60.2144
0
LINE
8
DEFAULT_255_1_388
10
23.8898261
20
60.2144
11
23.7362202
21
60.2144
0
LINE
8
DEFAULT_255_1_388
10
23.7362202
20
60.2144
11
23.2491989
21
61.5299898
0
LINE
8
DEFAULT_255_1_388
10
23.2491989
20
61.5299898
11
23.4380439
21
61.5299898
0
ENDSEC
0
EOF