0
SECTION
2
HEADER
9
$MEASUREMENT
70
1
0
ENDSEC
0
SECTION
2
TABLES
0
TABLE
2
LTYPE
0
LTYPE
72
65
70
64
2
CONTINUOUS
3
______
73
0
40
0
0
ENDTAB
0
TABLE
2
LAYER
0
LAYER
2
DEFAULT_255_2_778
70
0
62
255
6
CONTINUOUS
0
ENDTAB
0
ENDSEC
0
SECTION
2
ENTITIES
0
ARC
8
DEFAULT_255_2_778
10
24.6651113
20
60.7905885
40
0.9886899
50
70.4669801
51
89.9612608
0
ARC
8
DEFAULT_255_2_778
10
24.665425
20
60.7932167
40
0.9861081
50
49.6809479
51
70.4330998
0
ARC
8
DEFAULT_255_2_778
10
24.6515346
20
60.7783785
40
1.0064099
50
26.744651
51
49.6245983
0
ARC
8
DEFAULT_255_2_778
10
24.6599685
20
60.7828411
40
0.9968701
50
13.8680849
51
26.733741
0
ARC
8
DEFAULT_255_2_778
10
24.6361154
20
60.7768747
40
1.0214577
50
2.1269872
51
13.8722999
0
ARC
8
DEFAULT_255_2_778
10
24.6633209
20
60.7784951
40
0.9942111
50
0.5868495
51
2.0918577
0
ARC
8
DEFAULT_255_2_778
10
25.5370944
20
60.7713555
40
0.0526695
50
8.5413386
51
53.2881492
0
ARC
8
DEFAULT_255_2_778
10
25.2398298
20
60.1834835
40
0.716518
50
67.798252
51
75.6281357
0
ARC
8
DEFAULT_255_2_778
10
0.3086039
20
60.7734561
40
0.0517416
50
128.8037827
51
173.6507288
0
ARC
8
DEFAULT_255_2_778
10
30.7840404
20
54.6878449
40
0.9733393
50
0.001954
51
2.1456115
0
ARC
8
DEFAULT_255_2_778
10
30.7643538
20
54.686664
40
0.9930565
50
2.171176
51
19.5811259
0
ARC
8
DEFAULT_255_2_778
10
30.7700974
20
54.6869118
40
0.9875635
50
19.679256
51
40.5148935
0
ARC
8
DEFAULT_255_2_778
10
30.7616582
20
54.6802912
40
0.9982804
50
40.4891076
51
63.7184155
0
ARC
8
DEFAULT_255_2_778
10
30.7544669
20
54.6601282
40
1.0195463
50
63.8577821
51
86.8363871
0
ARC
8
DEFAULT_255_2_778
10
30.7571909
20
54.6951982
40
0.9843798
50
86.8820423
51
89.9948254
0
ARC
8
DEFAULT_255_2_778
10
31.7254864
20
54.5991963
40
0.0320829
50
6.2303791
51
52.5843888
0
ARC
8
DEFAULT_255_2_778
10
30.761064
20
54.6039664
40
0.9963166
50
359.9259163
51
41.6494466
0
ARC
8
DEFAULT_255_2_778
10
30.7584698
20
54.6049441
40
0.9976082
50
41.5084725
51
88.2712593
0
ARC
8
DEFAULT_255_2_778
10
30.7573024
20
54.5838196
40
1.0187584
50
88.2414743
51
90.0012753
0
LINE
8
DEFAULT_255_2_778
10
25.6574798
20
60.7886781
11
25.6574798
21
60.7791781
0
LINE
8
DEFAULT_255_2_778
10
25.6574798
20
60.7791781
11
25.6574798
21
58.6791781
0
LINE
8
DEFAULT_255_2_778
10
25.6574798
20
58.6791781
11
25.5859798
21
58.6793781
0
LINE
8
DEFAULT_255_2_778
10
25.5859798
20
58.6793781
11
25.5891798
21
60.7791781
0
LINE
8
DEFAULT_255_2_778
10
25.5685798
20
60.8135781
11
25.5441798
21
60.8304781
0
LINE
8
DEFAULT_255_2_778
10
25.5441798
20
60.8304781
11
25.5105798
21
60.8468781
0
LINE
8
DEFAULT_255_2_778
10
25.4176798
20
60.8775781
11
25.2933798
21
60.9042781
0
LINE
8
DEFAULT_255_2_778
10
25.2933798
20
60.9042781
11
25.1422798
21
60.9262781
0
LINE
8
DEFAULT_255_2_778
10
25.1422798
20
60.9262781
11
24.9700798
21
60.9426781
0
LINE
8
DEFAULT_255_2_778
10
24.9700798
20
60.9426781
11
24.5892798
21
60.9566781
0
LINE
8
DEFAULT_255_2_778
10
24.5892798
20
60.9566781
11
1.2572798
21
60.9566781
0
LINE
8
DEFAULT_255_2_778
10
1.2572798
20
60.9566781
11
1.0622798
21
60.9532781
0
LINE
8
DEFAULT_255_2_778
10
1.0622798
20
60.9532781
11
0.8744798
21
60.9431781
0
LINE
8
DEFAULT_255_2_778
10
0.8744798
20
60.9431781
11
0.7016798
21
60.9267781
0
LINE
8
DEFAULT_255_2_778
10
0.7016798
20
60.9267781
11
0.5500798
21
60.9048781
0
LINE
8
DEFAULT_255_2_778
10
0.5500798
20
60.9048781
11
0.4256798
21
60.8778781
0
LINE
8
DEFAULT_255_2_778
10
0.4256798
20
60.8778781
11
0.3751798
21
60.8629781
0
LINE
8
DEFAULT_255_2_778
10
0.3751798
20
60.8629781
11
0.3330798
21
60.8471781
0
LINE
8
DEFAULT_255_2_778
10
0.3330798
20
60.8471781
11
0.3000798
21
60.8307781
0
LINE
8
DEFAULT_255_2_778
10
0.3000798
20
60.8307781
11
0.2761798
21
60.8137781
0
LINE
8
DEFAULT_255_2_778
10
30.7572798
20
55.6795781
11
28.6572798
21
55.6795781
0
LINE
8
DEFAULT_255_2_778
10
28.6572798
20
55.6795781
11
28.6572798
21
54.7434781
0
LINE
8
DEFAULT_255_2_778
10
28.6572798
20
54.7434781
11
30.7572798
21
54.7434781
0
LINE
8
DEFAULT_255_2_778
10
30.7572798
20
54.7434781
11
31.0662798
21
54.7365781
0
LINE
8
DEFAULT_255_2_778
10
31.0662798
20
54.7365781
11
31.3451798
21
54.7164781
0
LINE
8
DEFAULT_255_2_778
10
31.3451798
20
54.7164781
11
31.5663798
21
54.6852781
0
LINE
8
DEFAULT_255_2_778
10
31.5663798
20
54.6852781
11
31.6483798
21
54.6664781
0
LINE
8
DEFAULT_255_2_778
10
31.6483798
20
54.6664781
11
31.7084798
21
54.6460781
0
LINE
8
DEFAULT_255_2_778
10
31.7084798
20
54.6460781
11
31.7295798
21
54.6355781
0
LINE
8
DEFAULT_255_2_778
10
31.7295798
20
54.6355781
11
31.7449798
21
54.6246781
0
LINE
8
DEFAULT_255_2_778
10
30.7572798
20
55.6025781
11
28.6572798
21
55.6025781
0
ARC
8
DEFAULT_255_2_778
10
28.7546125
20
58.674052
40
3.1688944
50
179.9023515
51
179.997826
0
ARC
8
DEFAULT_255_2_778
10
28.6573367
20
58.6741617
40
3.0716185
50
179.9998041
51
224.9511318
0
ARC
8
DEFAULT_255_2_778
10
28.6576181
20
58.6741905
40
3.0718381
50
224.9478036
51
269.9944895
0
ARC
8
DEFAULT_255_2_778
10
28.6542011
20
58.6763851
40
2.9970701
50
179.9471256
51
198.6705446
0
ARC
8
DEFAULT_255_2_778
10
28.6614042
20
58.6838389
40
3.0062841
50
198.7611815
51
256.3788718
0
ARC
8
DEFAULT_255_2_778
10
28.6553998
20
58.6869916
40
3.0079414
50
256.5041705
51
270.0349062
0
ARC
8
DEFAULT_255_2_778
10
28.6570854
20
58.7783976
40
4.0351468
50
268.3157872
51
269.9992466
0
ARC
8
DEFAULT_255_2_778
10
28.6582101
20
58.8091138
40
4.0658826
50
258.6068101
51
268.3126662
0
ARC
8
DEFAULT_255_2_778
10
28.6572007
20
58.794667
40
4.0515214
50
247.1732942
51
258.580445
0
ARC
8
DEFAULT_255_2_778
10
28.6651732
20
58.8115154
40
4.0701433
50
235.8207443
51
247.1618653
0
ARC
8
DEFAULT_255_2_778
10
28.6711731
20
58.8185275
40
4.0793151
50
224.516681
51
235.8063585
0
ARC
8
DEFAULT_255_2_778
10
28.6846035
20
58.8303107
40
4.097153
50
213.2887792
51
224.502496
0
ARC
8
DEFAULT_255_2_778
10
28.6922232
20
58.8346775
40
4.1059193
50
202.1207898
51
213.2813575
0
ARC
8
DEFAULT_255_2_778
10
28.6996964
20
58.8368541
40
4.113662
50
190.9940334
51
202.1096775
0
ARC
8
DEFAULT_255_2_778
10
28.7104232
20
58.8387026
40
4.1245444
50
181.4473438
51
190.9908236
0
ARC
8
DEFAULT_255_2_778
10
28.7520821
20
58.8411088
40
4.1662512
50
180.0000182
51
181.4659538
0
ARC
8
DEFAULT_255_2_778
10
28.7026132
20
58.8413694
40
4.1167821
50
179.9598974
51
180.0036458
0
ARC
8
DEFAULT_255_2_778
10
3.3582581
20
2.8732259
40
1.7470755
50
269.9597988
51
297.4733569
0
ARC
8
DEFAULT_255_2_778
10
3.3546614
20
2.8811926
40
1.755803
50
297.4575571
51
349.4175587
0
ARC
8
DEFAULT_255_2_778
10
3.3432893
20
2.8804262
40
1.7668433
50
349.5097144
51
357.8016195
0
ARC
8
DEFAULT_255_2_778
10
3.3297384
20
2.8807067
40
1.7803951
50
357.8093259
51
359.9985791
0
ARC
8
DEFAULT_255_2_778
10
3.366537
20
2.8821957
40
1.7435972
50
359.9496208
51
29.0612408
0
ARC
8
DEFAULT_255_2_778
10
3.3567292
20
2.8786377
40
1.7538993
50
29.0072074
51
76.4362464
0
ARC
8
DEFAULT_255_2_778
10
3.3570619
20
2.8684901
40
1.763688
50
76.5240661
51
85.6729149
0
ARC
8
DEFAULT_255_2_778
10
3.3554301
20
2.856592
40
1.7756755
50
85.6493801
51
89.9953479
0
ARC
8
DEFAULT_255_2_778
10
3.3548079
20
2.8875465
40
1.7447211
50
89.9748313
51
120.8280965
0
ARC
8
DEFAULT_255_2_778
10
3.3567307
20
2.8792993
40
1.7527905
50
120.7439164
51
164.0605426
0
ARC
8
DEFAULT_255_2_778
10
3.3681578
20
2.8784588
40
1.7640106
50
164.1362217
51
173.4869118
0
ARC
8
DEFAULT_255_2_778
10
3.3753687
20
2.8767554
40
1.7713682
50
173.458624
51
179.1780361
0
ARC
8
DEFAULT_255_2_778
10
3.3631135
20
2.8771704
40
1.7591084
50
179.1858281
51
179.999483
0
ARC
8
DEFAULT_255_2_778
10
3.3501572
20
2.8773411
40
1.7461522
50
180.0050794
51
213.708345
0
ARC
8
DEFAULT_255_2_778
10
3.355596
20
2.8769897
40
1.7504847
50
213.5999819
51
252.6281869
0
ARC
8
DEFAULT_255_2_778
10
3.3585716
20
2.892042
40
1.7657394
50
252.6818669
51
261.3147021
0
ARC
8
DEFAULT_255_2_778
10
3.3570784
20
2.8853151
40
1.7588643
50
261.3296972
51
270.0082719
0
ARC
8
DEFAULT_255_2_778
10
3.3563455
20
2.872429
40
2.0516992
50
278.7577793
51
303.2228477
0
ARC
8
DEFAULT_255_2_778
10
3.3511025
20
2.8798389
40
2.0607707
50
303.2319165
51
355.2828615
0
ARC
8
DEFAULT_255_2_778
10
3.3512107
20
2.8769702
40
2.060429
50
355.362114
51
0.0031993
0
ARC
8
DEFAULT_255_2_778
10
3.3303914
20
2.8769327
40
2.0812484
50
0.0041992
51
4.3543538
0
ARC
8
DEFAULT_255_2_778
10
3.3600079
20
2.8817172
40
2.0513556
50
4.2839133
51
29.4150467
0
ARC
8
DEFAULT_255_2_778
10
3.352102
20
2.8771253
40
2.0604975
50
29.4183014
51
81.0252928
0
ARC
8
DEFAULT_255_2_778
10
3.3536881
20
2.8669972
40
2.0702567
50
81.1123783
51
89.8991441
0
ARC
8
DEFAULT_255_2_778
10
3.3591927
20
2.88554
40
2.0517117
50
90.0519519
51
115.1793176
0
ARC
8
DEFAULT_255_2_778
10
3.3629587
20
2.8777044
40
2.0604051
50
115.1813906
51
166.7919876
0
ARC
8
DEFAULT_255_2_778
10
3.3732219
20
2.8785495
40
2.070206
50
166.8796615
51
175.6672518
0
ARC
8
DEFAULT_255_2_778
10
3.3841732
20
2.8769327
40
2.0812483
50
175.6456462
51
179.9958008
0
ARC
8
DEFAULT_255_2_778
10
3.3519742
20
2.8763103
40
2.0490495
50
179.9783304
51
208.407178
0
ARC
8
DEFAULT_255_2_778
10
3.3620019
20
2.8790968
40
2.0591966
50
208.3426388
51
251.3345078
0
ARC
8
DEFAULT_255_2_778
10
3.3622964
20
2.8884289
40
2.068134
50
251.4095199
51
261.1980689
0
ARC
8
DEFAULT_255_2_778
10
3.3568484
20
2.8791892
40
1.6765176
50
305.2663171
51
359.9939207
0
ARC
8
DEFAULT_255_2_778
10
3.3583379
20
2.8789622
40
1.6750282
50
0.0016805
51
7.6491855
0
ARC
8
DEFAULT_255_2_778
10
3.3499856
20
2.8778748
40
1.683451
50
7.6480286
51
11.7380138
0
ARC
8
DEFAULT_255_2_778
10
3.3572155
20
2.8790606
40
1.676131
50
11.7486022
51
78.2469757
0
ARC
8
DEFAULT_255_2_778
10
3.3557847
20
2.8734129
40
1.6819516
50
78.2384474
51
82.2925798
0
ARC
8
DEFAULT_255_2_778
10
3.356899
20
2.881895
40
1.6733966
50
82.2914377
51
89.9981464
0
ARC
8
DEFAULT_255_2_778
10
3.3574096
20
2.8790386
40
1.676253
50
90.0156009
51
144.7428493
0
ARC
8
DEFAULT_255_2_778
10
3.2854667
20
2.9291177
40
1.5885989
50
144.7199218
51
149.2628622
0
ARC
8
DEFAULT_255_2_778
10
3.3574318
20
2.8792662
40
1.6500816
50
163.2413938
51
175.5203465
0
ARC
8
DEFAULT_255_2_778
10
3.3553125
20
2.8795615
40
1.6479459
50
175.5248269
51
180.0003774
0
ARC
8
DEFAULT_255_2_778
10
3.3573547
20
2.8793642
40
1.6499882
50
179.9935256
51
225.0046867
0
ARC
8
DEFAULT_255_2_778
10
3.3576732
20
2.8793337
40
1.6501919
50
224.9961199
51
270.0012299
0
ARC
8
DEFAULT_255_2_778
10
3.357718
20
2.8762595
40
1.6471176
50
269.9996754
51
274.4887647
0
ARC
8
DEFAULT_255_2_778
10
3.3574174
20
2.8784265
40
1.6493015
50
274.493281
51
286.7678615
0
LINE
8
DEFAULT_255_2_778
10
3.3570323
20
0.8105509
11
3.3570323
21
1.1261509
0
LINE
8
DEFAULT_255_2_778
10
3.3573323
20
1.1264509
11
3.3570323
21
1.1261509
0
LINE
8
DEFAULT_255_2_778
10
3.6224323
20
1.1462509
11
3.6687323
21
0.8446509
0
LINE
8
DEFAULT_255_2_778
10
3.0458323
20
0.8446509
11
3.0921323
21
1.1462509
0
LINE
8
DEFAULT_255_2_778
10
3.9385323
20
1.3106509
11
3.9470323
21
1.3132509
0
LINE
8
DEFAULT_255_2_778
10
3.9470323
20
1.3132509
11
3.9639323
21
1.3193509
0
LINE
8
DEFAULT_255_2_778
10
3.9639323
20
1.3193509
11
3.9854323
21
1.3275509
0
LINE
8
DEFAULT_255_2_778
10
3.9854323
20
1.3275509
11
4.0089323
21
1.3370509
0
LINE
8
DEFAULT_255_2_778
10
4.0089323
20
1.3370509
11
4.0595323
21
1.3587509
0
LINE
8
DEFAULT_255_2_778
10
4.0595323
20
1.3587509
11
4.1121323
21
1.3836509
0
LINE
8
DEFAULT_255_2_778
10
4.1121323
20
1.3836509
11
4.1656323
21
1.4114509
0
LINE
8
DEFAULT_255_2_778
10
4.1656323
20
1.4114509
11
4.2193323
21
1.4418509
0
LINE
8
DEFAULT_255_2_778
10
4.2193323
20
1.4418509
11
4.3248323
21
1.5103509
0
LINE
8
DEFAULT_255_2_778
10
1.9200323
20
3.7410509
11
1.8896323
21
3.6873509
0
LINE
8
DEFAULT_255_2_778
10
1.8896323
20
3.6873509
11
1.8618323
21
3.6339509
0
LINE
8
DEFAULT_255_2_778
10
1.8618323
20
3.6339509
11
1.8370323
21
3.5812509
0
LINE
8
DEFAULT_255_2_778
10
1.8370323
20
3.5812509
11
1.8153323
21
3.5307509
0
LINE
8
DEFAULT_255_2_778
10
1.8153323
20
3.5307509
11
1.8057323
21
3.5071509
0
LINE
8
DEFAULT_255_2_778
10
1.8057323
20
3.5071509
11
1.7975323
21
3.4857509
0
LINE
8
DEFAULT_255_2_778
10
1.7975323
20
3.4857509
11
1.7915323
21
3.4688509
0
LINE
8
DEFAULT_255_2_778
10
1.7915323
20
3.4688509
11
1.7888323
21
3.4603509
0
LINE
8
DEFAULT_255_2_778
10
1.7888323
20
3.4603509
11
1.7774323
21
3.3550509
0
LINE
8
DEFAULT_255_2_778
10
3.8332323
20
1.2992509
11
3.9385323
21
1.3106509
0
ARC
8
DEFAULT_255_2_778
10
28.6503071
20
58.6819423
40
2.0512005
50
156.3936889
51
180.0767817
0
ARC
8
DEFAULT_255_2_778
10
28.6589538
20
58.6767818
40
2.0611903
50
99.8351159
51
156.3584937
0
ARC
8
DEFAULT_255_2_778
10
28.6564828
20
58.6658444
40
2.0715494
50
89.9771624
51
99.7161044
0
ARC
8
DEFAULT_255_2_778
10
28.6600573
20
58.6861949
40
2.0512005
50
66.3936889
51
90.0767817
0
ARC
8
DEFAULT_255_2_778
10
28.6548968
20
58.6775482
40
2.0611903
50
9.8351159
51
66.3584937
0
ARC
8
DEFAULT_255_2_778
10
28.6439594
20
58.6800192
40
2.0715494
50
359.9771624
51
9.7161044
0
ARC
8
DEFAULT_255_2_778
10
28.6643099
20
58.6764447
40
2.0512005
50
336.3936889
51
0.0767817
0
ARC
8
DEFAULT_255_2_778
10
28.6556632
20
58.6816052
40
2.0611903
50
279.8351159
51
336.3584937
0
ARC
8
DEFAULT_255_2_778
10
28.6581342
20
58.6925426
40
2.0715494
50
269.9771624
51
279.7161044
0
ARC
8
DEFAULT_255_2_778
10
28.6545597
20
58.6721922
40
2.0512005
50
246.3936889
51
270.0767817
0
ARC
8
DEFAULT_255_2_778
10
28.6597202
20
58.6808388
40
2.0611903
50
189.8351159
51
246.3584937
0
ARC
8
DEFAULT_255_2_778
10
28.6706576
20
58.6783678
40
2.0715494
50
179.9771624
51
189.7161044
0
ARC
8
DEFAULT_255_2_778
10
28.6500885
20
58.681767
40
1.7458819
50
153.5905438
51
180.0844542
0
ARC
8
DEFAULT_255_2_778
10
28.6581537
20
58.6776455
40
1.7549386
50
99.098676
51
153.5871455
0
ARC
8
DEFAULT_255_2_778
10
28.6565887
20
58.6660244
40
1.7661692
50
89.9798924
51
98.9889272
0
ARC
8
DEFAULT_255_2_778
10
28.6597626
20
58.686418
40
1.7457774
50
63.5897396
51
90.0838262
0
ARC
8
DEFAULT_255_2_778
10
28.6555816
20
58.6781673
40
1.7550267
50
9.1008921
51
63.5872969
0
ARC
8
DEFAULT_255_2_778
10
28.6442653
20
58.6798147
40
1.7659433
50
359.979847
51
8.9900429
0
ARC
8
DEFAULT_255_2_778
10
28.6645452
20
58.6766489
40
1.7456652
50
333.5875631
51
0.0835199
0
ARC
8
DEFAULT_255_2_778
10
28.6561197
20
58.6808951
40
1.7551001
50
278.9741288
51
333.5857658
0
ARC
8
DEFAULT_255_2_778
10
28.6578107
20
58.6921718
40
1.7659783
50
269.9804606
51
278.8628634
0
ARC
8
DEFAULT_255_2_778
10
28.6546446
20
58.6719614
40
1.7457697
50
243.5883672
51
270.084148
0
ARC
8
DEFAULT_255_2_778
10
28.6588319
20
58.6802019
40
1.7550128
50
188.9719201
51
243.5856011
0
ARC
8
DEFAULT_255_2_778
10
28.6703861
20
58.6785913
40
1.7661777
50
179.9804645
51
188.8618568
0
ARC
8
DEFAULT_255_2_778
10
28.6572471
20
58.679019
40
1.6497254
50
224.9898544
51
270.0021336
0
ARC
8
DEFAULT_255_2_778
10
28.6568338
20
58.679432
40
1.6497253
50
179.9978634
51
225.0101467
0
ARC
8
DEFAULT_255_2_778
10
28.6574362
20
58.6797567
40
1.6762051
50
125.2631428
51
179.9935955
0
ARC
8
DEFAULT_255_2_778
10
28.6563185
20
58.6799996
40
1.6750875
50
180.001899
51
187.6963434
0
ARC
8
DEFAULT_255_2_778
10
28.6647919
20
58.6811023
40
1.6836322
50
187.6949144
51
191.7448216
0
ARC
8
DEFAULT_255_2_778
10
28.6573033
20
58.6796883
40
1.6760125
50
191.7496045
51
258.2503955
0
ARC
8
DEFAULT_255_2_778
10
28.658775
20
58.6847864
40
1.6813035
50
258.236673
51
262.3321603
0
ARC
8
DEFAULT_255_2_778
10
28.6577022
20
58.6765852
40
1.6730325
50
262.3310946
51
269.9982813
0
ARC
8
DEFAULT_255_2_778
10
28.6571747
20
58.6799153
40
1.6763625
50
270.0163143
51
324.7409096
0
ARC
8
DEFAULT_255_2_778
10
28.7318482
20
58.6274659
40
1.5851102
50
324.7308055
51
329.2787456
0
ARC
8
DEFAULT_255_2_778
10
28.6573882
20
58.679593
40
1.6498474
50
343.2347822
51
355.4871003
0
ARC
8
DEFAULT_255_2_778
10
28.6597085
20
58.6792713
40
1.6475089
50
355.4919032
51
0.0002382
0
ARC
8
DEFAULT_255_2_778
10
28.6570027
20
58.6793432
40
1.6502147
50
359.9977405
51
45.0035481
0
ARC
8
DEFAULT_255_2_778
10
28.6569952
20
58.6796711
40
1.6499882
50
44.9953133
51
90.0064744
0
ARC
8
DEFAULT_255_2_778
10
28.6567979
20
58.6817133
40
1.647946
50
89.9996226
51
94.4751731
0
ARC
8
DEFAULT_255_2_778
10
28.6570932
20
58.6795941
40
1.6500817
50
94.4796535
51
106.7586062
0
LINE
8
DEFAULT_255_2_778
10
26.5991085
20
58.6791935
11
26.5991085
21
58.6791935
0
LINE
8
DEFAULT_255_2_778
10
26.9042085
20
58.6791935
11
26.9042085
21
58.6791935
0
LINE
8
DEFAULT_255_2_778
10
28.8753085
20
57.0292935
11
28.6573085
21
57.0292935
0
LINE
8
DEFAULT_255_2_778
10
27.0071085
20
58.6794935
11
27.0071085
21
58.9051935
0
LINE
8
DEFAULT_255_2_778
10
28.0760085
20
60.2481935
11
28.0675085
21
60.2454935
0
LINE
8
DEFAULT_255_2_778
10
28.0675085
20
60.2454935
11
28.0506085
21
60.2394935
0
LINE
8
DEFAULT_255_2_778
10
28.0506085
20
60.2394935
11
28.0292085
21
60.2312935
0
LINE
8
DEFAULT_255_2_778
10
28.0292085
20
60.2312935
11
28.0056085
21
60.2216935
0
LINE
8
DEFAULT_255_2_778
10
28.0056085
20
60.2216935
11
27.9551085
21
60.1999935
0
LINE
8
DEFAULT_255_2_778
10
27.9551085
20
60.1999935
11
27.9024085
21
60.1751935
0
LINE
8
DEFAULT_255_2_778
10
27.9024085
20
60.1751935
11
27.8490085
21
60.1473935
0
LINE
8
DEFAULT_255_2_778
10
27.8490085
20
60.1473935
11
27.7953085
21
60.1169935
0
LINE
8
DEFAULT_255_2_778
10
27.7953085
20
60.1169935
11
27.6897085
21
60.0483935
0
LINE
8
DEFAULT_255_2_778
10
30.0945085
20
57.8176935
11
30.1249085
21
57.8713935
0
LINE
8
DEFAULT_255_2_778
10
30.1249085
20
57.8713935
11
30.1527085
21
57.9248935
0
LINE
8
DEFAULT_255_2_778
10
30.1527085
20
57.9248935
11
30.1776085
21
57.9774935
0
LINE
8
DEFAULT_255_2_778
10
30.1776085
20
57.9774935
11
30.1993085
21
58.0280935
0
LINE
8
DEFAULT_255_2_778
10
30.1993085
20
58.0280935
11
30.2088085
21
58.0515935
0
LINE
8
DEFAULT_255_2_778
10
30.2088085
20
58.0515935
11
30.2170085
21
58.0729935
0
LINE
8
DEFAULT_255_2_778
10
30.2170085
20
58.0729935
11
30.2231085
21
58.0899935
0
LINE
8
DEFAULT_255_2_778
10
30.2231085
20
58.0899935
11
30.2257085
21
58.0983935
0
LINE
8
DEFAULT_255_2_778
10
30.2257085
20
58.0983935
11
30.2371085
21
58.2036935
0
LINE
8
DEFAULT_255_2_778
10
28.1813085
20
60.2595935
11
28.0760085
21
60.2481935
0
ARC
8
DEFAULT_255_2_778
10
30.7241882
20
0.925463
40
1.0330756
50
351.9468978
51
357.1930274
0
ARC
8
DEFAULT_255_2_778
10
30.7831353
20
0.9222271
40
0.974041
50
357.2133393
51
359.9889111
0
ARC
8
DEFAULT_255_2_778
10
31.7004168
20
0.9300822
40
0.0573266
50
301.0346912
51
351.9340949
0
ARC
8
DEFAULT_255_2_778
10
31.6005223
20
1.0522475
40
0.2147
50
306.9814167
51
307.0802386
0
ARC
8
DEFAULT_255_2_778
10
31.1053818
20
2.7756657
40
2.0111737
50
276.8477303
51
283.2509568
0
ARC
8
DEFAULT_255_2_778
10
25.6864055
20
1.6107864
40
0.863614
50
259.5439432
51
259.7935035
0
ARC
8
DEFAULT_255_2_778
10
25.5798797
20
1.0703663
40
0.3129068
50
249.104395
51
260.7673341
0
ARC
8
DEFAULT_255_2_778
10
25.4609623
20
0.8011457
40
0.016758
50
190.3372189
51
232.5675935
0
ARC
8
DEFAULT_255_2_778
10
25.0344624
20
10.9371373
40
0.3190036
50
90.0101496
51
90.2130375
0
ARC
8
DEFAULT_255_2_778
10
25.0345066
20
10.9568562
40
0.2992846
50
45.0152598
51
90.0192758
0
ARC
8
DEFAULT_255_2_778
10
25.0344375
20
10.957126
40
0.2991426
50
0.0397919
51
44.9693763
0
ARC
8
DEFAULT_255_2_778
10
25.0230516
20
10.9573755
40
0.3105284
50
359.7164364
51
359.9922961
0
ARC
8
DEFAULT_255_2_778
10
25.739007
20
0.2217693
40
0.3001307
50
180.024953
51
269.9941329
0
ARC
8
DEFAULT_255_2_778
10
25.6405968
20
0.1170202
40
0.3067208
50
180.0712738
51
206.067362
0
ARC
8
DEFAULT_255_2_778
10
25.6371856
20
0.1161536
40
0.3032766
50
206.203494
51
229.239377
0
ARC
8
DEFAULT_255_2_778
10
25.6338036
20
0.1112093
40
0.2973241
50
229.1109434
51
249.9309871
0
ARC
8
DEFAULT_255_2_778
10
25.6329553
20
0.1072266
40
0.2932928
50
249.8196651
51
269.6720021
0
ARC
8
DEFAULT_255_2_778
10
23.8324376
20
11.5663614
40
0.3113266
50
270.0076938
51
270.2831851
0
ARC
8
DEFAULT_255_2_778
10
23.8325794
20
11.5539126
40
0.2988778
50
224.9825062
51
269.9808347
0
ARC
8
DEFAULT_255_2_778
10
23.8322189
20
11.5538044
40
0.2985464
50
179.9937268
51
225.0167067
0
ARC
8
DEFAULT_255_2_778
10
23.8468847
20
11.5537951
40
0.3132122
50
179.7176444
51
179.9923285
0
ARC
8
DEFAULT_255_2_778
10
0.2894296
20
6.9595231
40
0.032463
50
186.5170405
51
232.2971738
0
ARC
8
DEFAULT_255_2_778
10
1.2556917
20
6.9548463
40
0.9983561
50
184.8269178
51
232.6075414
0
ARC
8
DEFAULT_255_2_778
10
1.2561203
20
6.9524615
40
0.9967235
50
232.5047174
51
270.0664497
0
ARC
8
DEFAULT_255_2_778
10
1.2574112
20
6.8644904
40
0.9857517
50
266.3181254
51
269.9921601
0
ARC
8
DEFAULT_255_2_778
10
1.2599388
20
6.8971236
40
1.01848
50
243.8440306
51
266.2941162
0
ARC
8
DEFAULT_255_2_778
10
1.2538575
20
6.8794375
40
0.999927
50
220.5149388
51
243.7100781
0
ARC
8
DEFAULT_255_2_778
10
1.2483269
20
6.8736471
40
0.9919612
50
199.7259601
51
220.468201
0
ARC
8
DEFAULT_255_2_778
10
1.2431888
20
6.8703403
40
0.9860094
50
181.9028222
51
199.6458515
0
ARC
8
DEFAULT_255_2_778
10
1.2387296
20
6.870359
40
0.9815533
50
180.0011915
51
181.9125608
0
ARC
8
DEFAULT_255_2_778
10
23.9586925
20
11.6803549
40
0.3002163
50
180.0221935
51
269.9778161
0
ARC
8
DEFAULT_255_2_778
10
25.1580669
20
11.0795292
40
0.3001094
50
0.0208901
51
89.9791099
0
ARC
8
DEFAULT_255_2_778
10
8.199385
20
6.8593704
40
0.0116079
50
296.0151136
51
348.9152681
0
ARC
8
DEFAULT_255_2_778
10
7.9165457
20
6.2555692
40
0.3001306
50
270.005844
51
359.9750701
0
ARC
8
DEFAULT_255_2_778
10
9.6785815
20
0.1442334
40
0.3001949
50
270.0371877
51
359.9819077
0
ARC
8
DEFAULT_255_2_778
10
9.7011188
20
0.1161731
40
0.3056575
50
333.8866839
51
359.9747998
0
ARC
8
DEFAULT_255_2_778
10
9.7029711
20
0.1161778
40
0.3039973
50
310.7669158
51
333.7322286
0
ARC
8
DEFAULT_255_2_778
10
9.7054995
20
0.1124864
40
0.299551
50
290.1882538
51
310.8616851
0
ARC
8
DEFAULT_255_2_778
10
9.7075528
20
0.1090684
40
0.2956354
50
270.3534171
51
290.0433749
0
ARC
8
DEFAULT_255_2_778
10
3.3543626
20
2.271367
40
1.4613311
50
270.114242
51
282.4206487
0
ARC
8
DEFAULT_255_2_778
10
3.3609005
20
2.277827
40
1.4677929
50
257.6065075
51
269.8585296
0
ARC
8
DEFAULT_255_2_778
10
1.2534561
20
0.8429756
40
0.9962806
50
179.9273648
51
221.6532185
0
ARC
8
DEFAULT_255_2_778
10
1.2561442
20
0.8420205
40
0.9976575
50
221.5096321
51
268.2683305
0
ARC
8
DEFAULT_255_2_778
10
1.2572537
20
0.8627361
40
1.0183973
50
268.2411575
51
270.0012746
0
ARC
8
DEFAULT_255_2_778
10
30.7570885
20
0.921704
40
1.0000654
50
270.0107611
51
350.1967732
0
ARC
8
DEFAULT_255_2_778
10
30.7450422
20
0.9233615
40
1.0122181
50
350.2204197
51
351.8656865
0
ARC
8
DEFAULT_255_2_778
10
1.2547172
20
0.7416087
40
0.9623734
50
269.9956575
51
270.152359
0
ARC
8
DEFAULT_255_2_778
10
1.2547674
20
0.776758
40
0.9975228
50
224.9970842
51
269.9929257
0
ARC
8
DEFAULT_255_2_778
10
1.2543319
20
0.7766789
40
0.9971591
50
179.9928613
51
225.0115657
0
ARC
8
DEFAULT_255_2_778
10
1.2219817
20
0.7768762
40
0.9648089
50
179.8478259
51
180.0043372
0
ARC
8
DEFAULT_255_2_778
10
1.2534979
20
60.7806577
40
0.9963226
50
138.3541388
51
180.0816049
0
ARC
8
DEFAULT_255_2_778
10
1.25616
20
60.7816772
40
0.9976376
50
91.732932
51
138.4994886
0
ARC
8
DEFAULT_255_2_778
10
1.2572666
20
60.7605794
40
1.0187592
50
89.9994554
51
91.7592612
0
ARC
8
DEFAULT_255_2_778
10
25.5381208
20
58.6711068
40
0.0483443
50
9.6836023
51
56.11179
0
ARC
8
DEFAULT_255_2_778
10
25.265375
20
58.1148112
40
0.6721285
50
68.9148693
51
77.2006729
0
ARC
8
DEFAULT_255_2_778
10
24.5901082
20
60.7811588
40
0.9981144
50
38.8411812
51
85.6809567
0
ARC
8
DEFAULT_255_2_778
10
24.5922394
20
60.7803917
40
0.9969372
50
359.9452239
51
38.9523369
0
ARC
8
DEFAULT_255_2_778
10
30.7925709
20
0.7768762
40
0.9648088
50
359.9956628
51
0.1521741
0
ARC
8
DEFAULT_255_2_778
10
30.7598988
20
0.7767125
40
0.997481
50
315.0042102
51
0.0052064
0
ARC
8
DEFAULT_255_2_778
10
30.7598614
20
0.7768155
40
0.9975805
50
270.0027558
51
315.0015454
0
ARC
8
DEFAULT_255_2_778
10
30.7598364
20
0.7422627
40
0.9630275
50
269.8476872
51
270.0043411
0
ARC
8
DEFAULT_255_2_778
10
30.7572813
20
60.7792857
40
1.000095
50
359.9973023
51
44.9982952
0
ARC
8
DEFAULT_255_2_778
10
30.7572932
20
60.779171
40
1.0001677
50
45.0034213
51
90.0009657
0
ARC
8
DEFAULT_255_2_778
10
23.6682932
20
11.6835639
40
0.0099274
50
196.5347812
51
251.7013494
0
LINE
8
DEFAULT_255_2_778
10
31.7296763
20
0.8807386
11
31.7084763
21
0.8672386
0
LINE
8
DEFAULT_255_2_778
10
31.7084763
20
0.8672386
11
31.6483763
21
0.8415386
0
LINE
8
DEFAULT_255_2_778
10
31.6483763
20
0.8415386
11
31.5663763
21
0.8180386
0
LINE
8
DEFAULT_255_2_778
10
31.3451763
20
0.7788386
11
31.0662763
21
0.7537386
0
LINE
8
DEFAULT_255_2_778
10
31.0662763
20
0.7537386
11
30.7572763
21
0.7450386
0
LINE
8
DEFAULT_255_2_778
10
30.7572763
20
0.7450386
11
25.7447763
21
0.7450386
0
LINE
8
DEFAULT_255_2_778
10
25.7447763
20
0.7450386
11
25.6304763
21
0.7492386
0
LINE
8
DEFAULT_255_2_778
10
25.6304763
20
0.7492386
11
25.5333763
21
0.7608386
0
LINE
8
DEFAULT_255_2_778
10
25.4682763
20
0.7780386
11
25.4507763
21
0.7878386
0
LINE
8
DEFAULT_255_2_778
10
25.4444763
20
0.7981386
11
25.4383763
21
0.2219386
0
LINE
8
DEFAULT_255_2_778
10
25.1623763
20
11.3807386
11
25.1795763
21
11.3844386
0
LINE
8
DEFAULT_255_2_778
10
25.1795763
20
11.3844386
11
25.2055763
21
11.3931386
0
LINE
8
DEFAULT_255_2_778
10
25.2055763
20
11.3931386
11
25.2369763
21
11.4050386
0
LINE
8
DEFAULT_255_2_778
10
25.2369763
20
11.4050386
11
25.2716763
21
11.4190386
0
LINE
8
DEFAULT_255_2_778
10
25.2716763
20
11.4190386
11
25.3465763
21
11.4513386
0
LINE
8
DEFAULT_255_2_778
10
25.3465763
20
11.4513386
11
25.4259763
21
11.4870386
0
LINE
8
DEFAULT_255_2_778
10
25.4259763
20
11.4870386
11
25.5076763
21
11.5251386
0
LINE
8
DEFAULT_255_2_778
10
25.5076763
20
11.5251386
11
25.5907763
21
11.5646386
0
LINE
8
DEFAULT_255_2_778
10
25.5907763
20
11.5646386
11
25.7587763
21
11.6466386
0
LINE
8
DEFAULT_255_2_778
10
25.7587763
20
11.6466386
11
25.7450763
21
0.7450386
0
LINE
8
DEFAULT_255_2_778
10
25.7450763
20
0.7450386
11
25.7389763
21
-0.0783614
0
LINE
8
DEFAULT_255_2_778
10
25.4388763
20
0.2216386
11
25.3338763
21
0.1166386
0
LINE
8
DEFAULT_255_2_778
10
25.1629763
20
11.3804386
11
23.9585763
21
11.3804386
0
LINE
8
DEFAULT_255_2_778
10
23.9585763
20
11.3804386
11
23.9632763
21
17.3552386
0
LINE
8
DEFAULT_255_2_778
10
23.9632763
20
17.3552386
11
7.9009763
21
17.3552386
0
LINE
8
DEFAULT_255_2_778
10
7.9009763
20
17.3552386
11
7.9110763
21
6.8150386
0
LINE
8
DEFAULT_255_2_778
10
7.9110763
20
6.8150386
11
1.2572763
21
6.8150386
0
LINE
8
DEFAULT_255_2_778
10
1.2572763
20
6.8150386
11
0.9482763
21
6.8219386
0
LINE
8
DEFAULT_255_2_778
10
0.9482763
20
6.8219386
11
0.6693763
21
6.8420386
0
LINE
8
DEFAULT_255_2_778
10
0.6693763
20
6.8420386
11
0.4481763
21
6.8732386
0
LINE
8
DEFAULT_255_2_778
10
0.4481763
20
6.8732386
11
0.3661763
21
6.8920386
0
LINE
8
DEFAULT_255_2_778
10
0.3661763
20
6.8920386
11
0.3061763
21
6.9124386
0
LINE
8
DEFAULT_255_2_778
10
0.3061763
20
6.9124386
11
0.2849763
21
6.9230386
0
LINE
8
DEFAULT_255_2_778
10
0.2849763
20
6.9230386
11
0.2695763
21
6.9338386
0
LINE
8
DEFAULT_255_2_778
10
0.2571763
20
6.9558386
11
0.2608763
21
6.8708386
0
LINE
8
DEFAULT_255_2_778
10
1.2572763
20
5.9557386
11
7.9171763
21
5.9557386
0
LINE
8
DEFAULT_255_2_778
10
7.9171763
20
5.9557386
11
7.9941763
21
5.8787386
0
LINE
8
DEFAULT_255_2_778
10
7.9941763
20
5.8787386
11
1.2572763
21
5.8787386
0
LINE
8
DEFAULT_255_2_778
10
23.5423763
20
17.0790386
11
23.5336763
21
16.0789386
0
LINE
8
DEFAULT_255_2_778
10
23.5336763
20
16.0789386
11
23.5336763
21
11.5553386
0
LINE
8
DEFAULT_255_2_778
10
23.5336763
20
11.5553386
11
23.6584763
21
11.6802386
0
LINE
8
DEFAULT_255_2_778
10
23.9585763
20
11.3801386
11
23.8336763
21
11.2553386
0
LINE
8
DEFAULT_255_2_778
10
23.8336763
20
11.2553386
11
25.0337763
21
11.2553386
0
LINE
8
DEFAULT_255_2_778
10
25.0337763
20
11.2553386
11
25.1581763
21
11.3796386
0
LINE
8
DEFAULT_255_2_778
10
25.4581763
20
11.0796386
11
25.3338763
21
10.9552386
0
LINE
8
DEFAULT_255_2_778
10
25.3338763
20
10.9552386
11
25.3338763
21
0.1137386
0
LINE
8
DEFAULT_255_2_778
10
25.3338763
20
0.1137386
11
10.0070763
21
0.1137386
0
LINE
8
DEFAULT_255_2_778
10
10.0070763
20
0.1137386
11
10.0070763
21
9.2788386
0
LINE
8
DEFAULT_255_2_778
10
10.0070763
20
9.2788386
11
8.2965763
21
9.2788386
0
LINE
8
DEFAULT_255_2_778
10
8.2965763
20
9.2788386
11
8.2938763
21
8.9788386
0
LINE
8
DEFAULT_255_2_778
10
8.2044763
20
6.8489386
11
8.1869763
21
6.8410386
0
LINE
8
DEFAULT_255_2_778
10
8.1869763
20
6.8410386
11
8.1591763
21
6.8335386
0
LINE
8
DEFAULT_255_2_778
10
8.1591763
20
6.8335386
11
8.1218763
21
6.8272386
0
LINE
8
DEFAULT_255_2_778
10
8.1218763
20
6.8272386
11
8.0247763
21
6.8179386
0
LINE
8
DEFAULT_255_2_778
10
8.0247763
20
6.8179386
11
7.9104763
21
6.8145386
0
LINE
8
DEFAULT_255_2_778
10
7.9104763
20
6.8145386
11
7.9165763
21
5.9554386
0
LINE
8
DEFAULT_255_2_778
10
8.2166763
20
6.2554386
11
8.2936763
21
6.1784386
0
LINE
8
DEFAULT_255_2_778
10
8.2936763
20
6.1784386
11
8.2936763
21
8.9785386
0
LINE
8
DEFAULT_255_2_778
10
8.2936763
20
8.9785386
11
9.6726763
21
8.9785386
0
LINE
8
DEFAULT_255_2_778
10
9.6726763
20
8.9785386
11
9.6726763
21
0.8439386
0
LINE
8
DEFAULT_255_2_778
10
9.6726763
20
0.8439386
11
9.6787763
21
-0.1559614
0
LINE
8
DEFAULT_255_2_778
10
9.9787763
20
0.1441386
11
10.0067763
21
0.1160386
0
LINE
8
DEFAULT_255_2_778
10
9.6726763
20
8.9785386
11
9.9726763
21
9.2786386
0
LINE
8
DEFAULT_255_2_778
10
9.9726763
20
9.2786386
11
9.9726763
21
0.8442386
0
LINE
8
DEFAULT_255_2_778
10
9.9726763
20
0.8442386
11
3.6686763
21
0.8442386
0
LINE
8
DEFAULT_255_2_778
10
3.0458763
20
0.8442386
11
0.2571763
21
0.8442386
0
LINE
8
DEFAULT_255_2_778
10
1.2572763
20
-0.1556614
11
30.7572763
21
-0.0783614
0
LINE
8
DEFAULT_255_2_778
10
1.2572763
20
-0.2207614
11
1.2572763
21
-0.2207614
0
LINE
8
DEFAULT_255_2_778
10
0.2571763
20
0.7794386
11
0.2571763
21
60.7792386
0
LINE
8
DEFAULT_255_2_778
10
25.5650763
20
58.7112386
11
25.5407763
21
58.7268386
0
LINE
8
DEFAULT_255_2_778
10
25.5407763
20
58.7268386
11
25.5071763
21
58.7419386
0
LINE
8
DEFAULT_255_2_778
10
25.4142763
20
58.7702386
11
25.2899763
21
58.7951386
0
LINE
8
DEFAULT_255_2_778
10
25.2899763
20
58.7951386
11
25.1388763
21
58.8157386
0
LINE
8
DEFAULT_255_2_778
10
25.1388763
20
58.8157386
11
24.9665763
21
58.8310386
0
LINE
8
DEFAULT_255_2_778
10
24.9665763
20
58.8310386
11
24.5858763
21
58.8440386
0
LINE
8
DEFAULT_255_2_778
10
24.5858763
20
58.8440386
11
24.5890763
21
60.9564386
0
LINE
8
DEFAULT_255_2_778
10
24.5890763
20
60.9564386
11
24.5890763
21
61.7793386
0
LINE
8
DEFAULT_255_2_778
10
24.5890763
20
61.7793386
11
24.6652763
21
61.7764386
0
LINE
8
DEFAULT_255_2_778
10
25.5891763
20
60.7794386
11
31.7573763
21
60.7794386
0
LINE
8
DEFAULT_255_2_778
10
31.7573763
20
60.7794386
11
31.7573763
21
0.7794386
0
LINE
8
DEFAULT_255_2_778
10
31.7573763
20
0.7794386
11
31.7573763
21
0.7794386
0
LINE
8
DEFAULT_255_2_778
10
30.7572763
20
61.7793386
11
1.2572763
21
61.7793386
0
LINE
8
DEFAULT_255_2_778
10
1.2572763
20
61.7793386
11
1.2572763
21
-0.2207614
0
LINE
8
DEFAULT_255_2_778
10
1.2572763
20
-0.2207614
11
30.7572763
21
-0.2207614
0
LINE
8
DEFAULT_255_2_778
10
30.7572763
20
-0.2207614
11
30.7572763
21
61.7793386
0
LINE
8
DEFAULT_255_2_778
10
8.2171763
20
6.2562386
11
8.2110763
21
6.8576386
0
LINE
8
DEFAULT_255_2_778
10
8.2110763
20
6.8576386
11
8.2009763
21
17.0793386
0
LINE
8
DEFAULT_255_2_778
10
23.9632763
20
17.3555386
11
23.8672763
21
17.2610386
0
LINE
8
DEFAULT_255_2_778
10
23.8672763
20
17.2610386
11
23.8209763
21
17.2166386
0
LINE
8
DEFAULT_255_2_778
10
23.8209763
20
17.2166386
11
23.7770763
21
17.1750386
0
LINE
8
DEFAULT_255_2_778
10
23.7770763
20
17.1750386
11
23.7368763
21
17.1380386
0
LINE
8
DEFAULT_255_2_778
10
23.7368763
20
17.1380386
11
23.7188763
21
17.1219386
0
LINE
8
DEFAULT_255_2_778
10
23.7188763
20
17.1219386
11
23.7024763
21
17.1076386
0
LINE
8
DEFAULT_255_2_778
10
23.7024763
20
17.1076386
11
23.6883763
21
17.0957386
0
LINE
8
DEFAULT_255_2_778
10
23.6883763
20
17.0957386
11
23.6770763
21
17.0867386
0
LINE
8
DEFAULT_255_2_778
10
23.6770763
20
17.0867386
11
23.6688763
21
17.0811386
0
LINE
8
DEFAULT_255_2_778
10
23.6688763
20
17.0811386
11
23.6640763
21
17.0790386
0
LINE
8
DEFAULT_255_2_778
10
23.6640763
20
17.0790386
11
8.2002763
21
17.0790386
0
LINE
8
DEFAULT_255_2_778
10
8.2002763
20
17.0790386
11
8.1954763
21
17.0811386
0
LINE
8
DEFAULT_255_2_778
10
8.1954763
20
17.0811386
11
8.1872763
21
17.0867386
0
LINE
8
DEFAULT_255_2_778
10
8.1872763
20
17.0867386
11
8.1758763
21
17.0957386
0
LINE
8
DEFAULT_255_2_778
10
8.1758763
20
17.0957386
11
8.1618763
21
17.1076386
0
LINE
8
DEFAULT_255_2_778
10
8.1618763
20
17.1076386
11
8.1454763
21
17.1219386
0
LINE
8
DEFAULT_255_2_778
10
8.1454763
20
17.1219386
11
8.1274763
21
17.1380386
0
LINE
8
DEFAULT_255_2_778
10
8.1274763
20
17.1380386
11
8.0872763
21
17.1750386
0
LINE
8
DEFAULT_255_2_778
10
8.0872763
20
17.1750386
11
8.0433763
21
17.2166386
0
LINE
8
DEFAULT_255_2_778
10
8.0433763
20
17.2166386
11
7.9970763
21
17.2610386
0
LINE
8
DEFAULT_255_2_778
10
7.9970763
20
17.2610386
11
7.9009763
21
17.3555386
0
LINE
8
DEFAULT_255_2_778
10
23.6632763
20
17.0793386
11
23.6587763
21
11.6807386
0
LINE
8
DEFAULT_255_2_778
10
23.6651763
20
11.6741386
11
23.6825763
21
11.6677386
0
LINE
8
DEFAULT_255_2_778
10
23.6825763
20
11.6677386
11
23.7103763
21
11.6619386
0
LINE
8
DEFAULT_255_2_778
10
23.7103763
20
11.6619386
11
23.7476763
21
11.6569386
0
LINE
8
DEFAULT_255_2_778
10
23.7476763
20
11.6569386
11
23.7928763
21
11.6527386
0
LINE
8
DEFAULT_255_2_778
10
23.7928763
20
11.6527386
11
23.8444763
21
11.6495386
0
LINE
8
DEFAULT_255_2_778
10
23.8444763
20
11.6495386
11
23.9587763
21
11.6468386
0
LINE
8
DEFAULT_255_2_778
10
23.9587763
20
11.6468386
11
25.7587763
21
11.6468386
0
LINE
8
DEFAULT_255_2_778
10
25.7587763
20
11.6468386
11
25.6746763
21
11.4812386
0
LINE
8
DEFAULT_255_2_778
10
25.6746763
20
11.4812386
11
25.6330763
21
11.4005386
0
LINE
8
DEFAULT_255_2_778
10
25.6330763
20
11.4005386
11
25.5920763
21
11.3219386
0
LINE
8
DEFAULT_255_2_778
10
25.5920763
20
11.3219386
11
25.5523763
21
11.2468386
0
LINE
8
DEFAULT_255_2_778
10
25.5523763
20
11.2468386
11
25.5148763
21
11.1772386
0
LINE
8
DEFAULT_255_2_778
10
25.5148763
20
11.1772386
11
25.4976763
21
11.1460386
0
LINE
8
DEFAULT_255_2_778
10
25.4976763
20
11.1460386
11
25.4820763
21
11.1185386
0
LINE
8
DEFAULT_255_2_778
10
25.4820763
20
11.1185386
11
25.4690763
21
11.0970386
0
LINE
8
DEFAULT_255_2_778
10
25.4690763
20
11.0970386
11
25.4605763
21
11.0849386
0
LINE
8
DEFAULT_255_2_778
10
25.4605763
20
11.0849386
11
25.4581763
21
11.0804386
0
LINE
8
DEFAULT_255_2_778
10
25.4581763
20
11.0804386
11
25.4449763
21
0.7984386
0
LINE
8
DEFAULT_255_2_778
10
9.9734763
20
0.8450386
11
9.9795763
21
0.1449386
0
ARC
8
DEFAULT_255_2_778
10
7.9831323
20
6.1776882
40
0.3113242
50
0.0076941
51
0.2831854
0
ARC
8
DEFAULT_255_2_778
10
7.995809
20
6.1778346
40
0.2986475
50
314.964197
51
359.9799402
0
ARC
8
DEFAULT_255_2_778
10
7.9955451
20
6.1775707
40
0.2986476
50
270.0200598
51
315.035803
0
ARC
8
DEFAULT_255_2_778
10
7.9956914
20
6.1902473
40
0.3113241
50
269.7168146
51
269.9923059
0
LINE
8
DEFAULT_255_2_778
10
8.6569527
20
17.0792269
11
8.6569527
21
9.8294269
0
LINE
8
DEFAULT_255_2_778
10
8.6569527
20
9.8294269
11
24.9068527
21
9.8294269
0
LINE
8
DEFAULT_255_2_778
10
24.9068527
20
9.8294269
11
24.9068527
21
1.8294269
0
LINE
8
DEFAULT_255_2_778
10
24.9068527
20
1.8294269
11
10.4068527
21
1.8294269
0
LINE
8
DEFAULT_255_2_778
10
10.4068527
20
1.8294269
11
10.4068527
21
9.8294269
0
LINE
8
DEFAULT_255_2_778
10
8.3071527
20
9.2793269
11
8.3071527
21
16.0794269
0
LINE
8
DEFAULT_255_2_778
10
8.3071527
20
16.0794269
11
8.2984527
21
17.0795269
0
LINE
8
DEFAULT_255_2_778
10
23.1568527
20
17.0792269
11
23.1568527
21
9.8294269
0
LINE
8
DEFAULT_255_2_778
10
24.9067607
20
3.632947
11
10.4067607
21
3.632947
0
LINE
8
DEFAULT_255_2_778
10
24.9067607
20
3.439747
11
10.4067607
21
3.439747
0
LINE
8
DEFAULT_255_2_778
10
10.4067607
20
2.568247
11
24.9067607
21
2.568247
0
LINE
8
DEFAULT_255_2_778
10
24.9067607
20
2.029247
11
10.4067607
21
2.029247
0
LINE
8
DEFAULT_255_2_778
10
23.1568607
20
15.334647
11
8.6568607
21
15.334647
0
LINE
8
DEFAULT_255_2_778
10
23.1568607
20
15.155747
11
8.6568607
21
15.155747
0
LINE
8
DEFAULT_255_2_778
10
23.1568607
20
11.632847
11
8.6568607
21
11.632847
0
LINE
8
DEFAULT_255_2_778
10
23.1568607
20
11.439747
11
8.6568607
21
11.439747
0
LINE
8
DEFAULT_255_2_778
10
8.6568607
20
10.568447
11
23.1568607
21
10.568447
0
LINE
8
DEFAULT_255_2_778
10
8.6568607
20
10.029247
11
23.1568607
21
10.029247
0
LINE
8
DEFAULT_255_2_778
10
10.0070607
20
1.579247
11
25.3335607
21
1.579247
0
LINE
8
DEFAULT_255_2_778
10
10.0070607
20
1.316747
11
25.3335607
21
1.316747
0
ARC
8
DEFAULT_255_2_778
10
12.4006277
20
5.4813584
40
1.3934732
50
148.7097776
51
180.0912291
0
ARC
8
DEFAULT_255_2_778
10
12.407203
20
5.4789483
40
1.4003446
50
97.2044605
51
148.7652361
0
ARC
8
DEFAULT_255_2_778
10
12.4068245
20
5.4653938
40
1.413746
50
89.9865517
51
97.1203488
0
ARC
8
DEFAULT_255_2_778
10
12.4093898
20
5.4854648
40
1.3936767
50
58.7121209
51
90.0918224
0
ARC
8
DEFAULT_255_2_778
10
12.4071024
20
5.4790973
40
1.4003068
50
7.2044767
51
58.7674439
0
ARC
8
DEFAULT_255_2_778
10
12.3935104
20
5.4794715
40
1.413746
50
359.9865518
51
7.1203489
0
ARC
8
DEFAULT_255_2_778
10
12.413618
20
5.4769025
40
1.3936401
50
328.7113818
51
0.0919762
0
ARC
8
DEFAULT_255_2_778
10
12.4071801
20
5.4792593
40
1.4003663
50
277.2023214
51
328.7657772
0
ARC
8
DEFAULT_255_2_778
10
12.4074889
20
5.4931158
40
1.4140762
50
269.986525
51
277.1195187
0
ARC
8
DEFAULT_255_2_778
10
12.4049339
20
5.4724745
40
1.3934366
50
238.7090384
51
270.0913829
0
ARC
8
DEFAULT_255_2_778
10
12.4074134
20
5.4791202
40
1.4004041
50
187.2023053
51
238.7635694
0
ARC
8
DEFAULT_255_2_778
10
12.4212324
20
5.4788071
40
1.4140762
50
179.986525
51
187.1195186
0
LINE
8
DEFAULT_255_2_778
10
13.2455563
20
6.6004397
11
11.2860563
21
4.6409397
0
LINE
8
DEFAULT_255_2_778
10
11.5688563
20
4.3580397
11
13.5283563
21
6.3175397
0
LINE
8
DEFAULT_255_2_778
10
11.0071563
20
5.4791397
11
11.0071563
21
5.4791397
0
ARC
8
DEFAULT_255_2_778
10
15.9008277
20
5.4813584
40
1.3934732
50
148.7097776
51
180.0912291
0
ARC
8
DEFAULT_255_2_778
10
15.907403
20
5.4789483
40
1.4003446
50
97.2044605
51
148.7652361
0
ARC
8
DEFAULT_255_2_778
10
15.9070245
20
5.4653938
40
1.413746
50
89.9865517
51
97.1203488
0
ARC
8
DEFAULT_255_2_778
10
15.9095898
20
5.4854648
40
1.3936767
50
58.7121209
51
90.0918224
0
ARC
8
DEFAULT_255_2_778
10
15.9073024
20
5.4790973
40
1.4003068
50
7.2044767
51
58.7674439
0
ARC
8
DEFAULT_255_2_778
10
15.8937104
20
5.4794715
40
1.413746
50
359.9865518
51
7.1203489
0
ARC
8
DEFAULT_255_2_778
10
15.913818
20
5.4769025
40
1.3936401
50
328.7113818
51
0.0919762
0
ARC
8
DEFAULT_255_2_778
10
15.9073801
20
5.4792593
40
1.4003663
50
277.2023214
51
328.7657772
0
ARC
8
DEFAULT_255_2_778
10
15.9076889
20
5.4931158
40
1.4140762
50
269.986525
51
277.1195187
0
ARC
8
DEFAULT_255_2_778
10
15.9051339
20
5.4724745
40
1.3934366
50
238.7090384
51
270.0913829
0
ARC
8
DEFAULT_255_2_778
10
15.9076134
20
5.4791202
40
1.4004041
50
187.2023053
51
238.7635694
0
ARC
8
DEFAULT_255_2_778
10
15.9214324
20
5.4788071
40
1.4140762
50
179.986525
51
187.1195186
0
LINE
8
DEFAULT_255_2_778
10
16.7457563
20
6.6004397
11
14.7862563
21
4.6409397
0
LINE
8
DEFAULT_255_2_778
10
15.0690563
20
4.3580397
11
17.0285563
21
6.3175397
0
LINE
8
DEFAULT_255_2_778
10
14.5073563
20
5.4791397
11
14.5073563
21
5.4791397
0
ARC
8
DEFAULT_255_2_778
10
19.4010277
20
5.4813584
40
1.3934732
50
148.7097776
51
180.0912291
0
ARC
8
DEFAULT_255_2_778
10
19.407603
20
5.4789483
40
1.4003446
50
97.2044605
51
148.7652361
0
ARC
8
DEFAULT_255_2_778
10
19.4072245
20
5.4653938
40
1.413746
50
89.9865517
51
97.1203488
0
ARC
8
DEFAULT_255_2_778
10
19.4097898
20
5.4854648
40
1.3936767
50
58.7121209
51
90.0918224
0
ARC
8
DEFAULT_255_2_778
10
19.4075024
20
5.4790973
40
1.4003068
50
7.2044767
51
58.7674439
0
ARC
8
DEFAULT_255_2_778
10
19.3939104
20
5.4794715
40
1.413746
50
359.9865518
51
7.1203489
0
ARC
8
DEFAULT_255_2_778
10
19.414018
20
5.4769025
40
1.3936401
50
328.7113818
51
0.0919762
0
ARC
8
DEFAULT_255_2_778
10
19.4075801
20
5.4792593
40
1.4003663
50
277.2023214
51
328.7657772
0
ARC
8
DEFAULT_255_2_778
10
19.4078889
20
5.4931158
40
1.4140762
50
269.986525
51
277.1195187
0
ARC
8
DEFAULT_255_2_778
10
19.4053339
20
5.4724745
40
1.3934366
50
238.7090384
51
270.0913829
0
ARC
8
DEFAULT_255_2_778
10
19.4078134
20
5.4791202
40
1.4004041
50
187.2023053
51
238.7635694
0
ARC
8
DEFAULT_255_2_778
10
19.4216324
20
5.4788071
40
1.4140762
50
179.986525
51
187.1195186
0
LINE
8
DEFAULT_255_2_778
10
20.2459563
20
6.6004397
11
18.2864563
21
4.6409397
0
LINE
8
DEFAULT_255_2_778
10
18.5692563
20
4.3580397
11
20.5287563
21
6.3175397
0
LINE
8
DEFAULT_255_2_778
10
18.0075563
20
5.4791397
11
18.0075563
21
5.4791397
0
ARC
8
DEFAULT_255_2_778
10
22.9009277
20
5.4813584
40
1.3934732
50
148.7097776
51
180.0912291
0
ARC
8
DEFAULT_255_2_778
10
22.907503
20
5.4789483
40
1.4003446
50
97.2044605
51
148.7652361
0
ARC
8
DEFAULT_255_2_778
10
22.9071245
20
5.4653938
40
1.413746
50
89.9865517
51
97.1203488
0
ARC
8
DEFAULT_255_2_778
10
22.9096898
20
5.4854648
40
1.3936767
50
58.7121209
51
90.0918224
0
ARC
8
DEFAULT_255_2_778
10
22.9074024
20
5.4790973
40
1.4003068
50
7.2044767
51
58.7674439
0
ARC
8
DEFAULT_255_2_778
10
22.8938104
20
5.4794715
40
1.413746
50
359.9865518
51
7.1203489
0
ARC
8
DEFAULT_255_2_778
10
22.913918
20
5.4769025
40
1.3936401
50
328.7113818
51
0.0919762
0
ARC
8
DEFAULT_255_2_778
10
22.9074801
20
5.4792593
40
1.4003663
50
277.2023214
51
328.7657772
0
ARC
8
DEFAULT_255_2_778
10
22.9077889
20
5.4931158
40
1.4140762
50
269.986525
51
277.1195187
0
ARC
8
DEFAULT_255_2_778
10
22.9052339
20
5.4724745
40
1.3934366
50
238.7090384
51
270.0913829
0
ARC
8
DEFAULT_255_2_778
10
22.9077134
20
5.4791202
40
1.4004041
50
187.2023053
51
238.7635694
0
ARC
8
DEFAULT_255_2_778
10
22.9215324
20
5.4788071
40
1.4140762
50
179.986525
51
187.1195186
0
LINE
8
DEFAULT_255_2_778
10
23.7458563
20
6.6004397
11
21.7863563
21
4.6409397
0
LINE
8
DEFAULT_255_2_778
10
22.0691563
20
4.3580397
11
24.0286563
21
6.3175397
0
LINE
8
DEFAULT_255_2_778
10
21.5074563
20
5.4791397
11
21.5074563
21
5.4791397
0
ARC
8
DEFAULT_255_2_778
10
10.6507277
20
13.3813584
40
1.3934732
50
148.7097776
51
180.0912291
0
ARC
8
DEFAULT_255_2_778
10
10.657303
20
13.3789483
40
1.4003446
50
97.2044605
51
148.7652361
0
ARC
8
DEFAULT_255_2_778
10
10.6569245
20
13.3653938
40
1.413746
50
89.9865517
51
97.1203488
0
ARC
8
DEFAULT_255_2_778
10
10.6594898
20
13.3854648
40
1.3936767
50
58.7121209
51
90.0918224
0
ARC
8
DEFAULT_255_2_778
10
10.6572024
20
13.3790973
40
1.4003068
50
7.2044767
51
58.7674439
0
ARC
8
DEFAULT_255_2_778
10
10.6436104
20
13.3794715
40
1.413746
50
359.9865518
51
7.1203489
0
ARC
8
DEFAULT_255_2_778
10
10.663718
20
13.3769025
40
1.3936401
50
328.7113818
51
0.0919762
0
ARC
8
DEFAULT_255_2_778
10
10.6572801
20
13.3792593
40
1.4003663
50
277.2023214
51
328.7657772
0
ARC
8
DEFAULT_255_2_778
10
10.6575889
20
13.3931158
40
1.4140762
50
269.986525
51
277.1195187
0
ARC
8
DEFAULT_255_2_778
10
10.6550339
20
13.3724745
40
1.3934366
50
238.7090384
51
270.0913829
0
ARC
8
DEFAULT_255_2_778
10
10.6575134
20
13.3791202
40
1.4004041
50
187.2023053
51
238.7635694
0
ARC
8
DEFAULT_255_2_778
10
10.6713324
20
13.3788071
40
1.4140762
50
179.986525
51
187.1195186
0
LINE
8
DEFAULT_255_2_778
10
11.4956563
20
14.5004397
11
9.5361563
21
12.5409397
0
LINE
8
DEFAULT_255_2_778
10
9.8189563
20
12.2580397
11
11.7784563
21
14.2175397
0
LINE
8
DEFAULT_255_2_778
10
9.2572563
20
13.3791397
11
9.2572563
21
13.3791397
0
ARC
8
DEFAULT_255_2_778
10
14.1509277
20
13.3813584
40
1.3934732
50
148.7097776
51
180.0912291
0
ARC
8
DEFAULT_255_2_778
10
14.157503
20
13.3789483
40
1.4003446
50
97.2044605
51
148.7652361
0
ARC
8
DEFAULT_255_2_778
10
14.1571245
20
13.3653938
40
1.413746
50
89.9865517
51
97.1203488
0
ARC
8
DEFAULT_255_2_778
10
14.1596898
20
13.3854648
40
1.3936767
50
58.7121209
51
90.0918224
0
ARC
8
DEFAULT_255_2_778
10
14.1574024
20
13.3790973
40
1.4003068
50
7.2044767
51
58.7674439
0
ARC
8
DEFAULT_255_2_778
10
14.1438104
20
13.3794715
40
1.413746
50
359.9865518
51
7.1203489
0
ARC
8
DEFAULT_255_2_778
10
14.163918
20
13.3769025
40
1.3936401
50
328.7113818
51
0.0919762
0
ARC
8
DEFAULT_255_2_778
10
14.1574801
20
13.3792593
40
1.4003663
50
277.2023214
51
328.7657772
0
ARC
8
DEFAULT_255_2_778
10
14.1577889
20
13.3931158
40
1.4140762
50
269.986525
51
277.1195187
0
ARC
8
DEFAULT_255_2_778
10
14.1552339
20
13.3724745
40
1.3934366
50
238.7090384
51
270.0913829
0
ARC
8
DEFAULT_255_2_778
10
14.1577134
20
13.3791202
40
1.4004041
50
187.2023053
51
238.7635694
0
ARC
8
DEFAULT_255_2_778
10
14.1715324
20
13.3788071
40
1.4140762
50
179.986525
51
187.1195186
0
LINE
8
DEFAULT_255_2_778
10
14.9958563
20
14.5004397
11
13.0363563
21
12.5409397
0
LINE
8
DEFAULT_255_2_778
10
13.3191563
20
12.2580397
11
15.2786563
21
14.2175397
0
LINE
8
DEFAULT_255_2_778
10
12.7574563
20
13.3791397
11
12.7574563
21
13.3791397
0
ARC
8
DEFAULT_255_2_778
10
17.6510277
20
13.3813584
40
1.3934732
50
148.7097776
51
180.0912291
0
ARC
8
DEFAULT_255_2_778
10
17.657603
20
13.3789483
40
1.4003446
50
97.2044605
51
148.7652361
0
ARC
8
DEFAULT_255_2_778
10
17.6572245
20
13.3653938
40
1.413746
50
89.9865517
51
97.1203488
0
ARC
8
DEFAULT_255_2_778
10
17.6597898
20
13.3854648
40
1.3936767
50
58.7121209
51
90.0918224
0
ARC
8
DEFAULT_255_2_778
10
17.6575024
20
13.3790973
40
1.4003068
50
7.2044767
51
58.7674439
0
ARC
8
DEFAULT_255_2_778
10
17.6439104
20
13.3794715
40
1.413746
50
359.9865518
51
7.1203489
0
ARC
8
DEFAULT_255_2_778
10
17.664018
20
13.3769025
40
1.3936401
50
328.7113818
51
0.0919762
0
ARC
8
DEFAULT_255_2_778
10
17.6575801
20
13.3792593
40
1.4003663
50
277.2023214
51
328.7657772
0
ARC
8
DEFAULT_255_2_778
10
17.6578889
20
13.3931158
40
1.4140762
50
269.986525
51
277.1195187
0
ARC
8
DEFAULT_255_2_778
10
17.6553339
20
13.3724745
40
1.3934366
50
238.7090384
51
270.0913829
0
ARC
8
DEFAULT_255_2_778
10
17.6578134
20
13.3791202
40
1.4004041
50
187.2023053
51
238.7635694
0
ARC
8
DEFAULT_255_2_778
10
17.6716324
20
13.3788071
40
1.4140762
50
179.986525
51
187.1195186
0
LINE
8
DEFAULT_255_2_778
10
18.4959563
20
14.5004397
11
16.5364563
21
12.5409397
0
LINE
8
DEFAULT_255_2_778
10
16.8192563
20
12.2580397
11
18.7787563
21
14.2175397
0
LINE
8
DEFAULT_255_2_778
10
16.2575563
20
13.3791397
11
16.2575563
21
13.3791397
0
ARC
8
DEFAULT_255_2_778
10
21.1509358
20
13.3813584
40
1.3934732
50
148.7097776
51
180.0912291
0
ARC
8
DEFAULT_255_2_778
10
21.1575111
20
13.3789483
40
1.4003446
50
97.2044605
51
148.7652361
0
ARC
8
DEFAULT_255_2_778
10
21.1571325
20
13.3653938
40
1.413746
50
89.9865517
51
97.1203488
0
ARC
8
DEFAULT_255_2_778
10
21.1596979
20
13.3854648
40
1.3936767
50
58.7121209
51
90.0918224
0
ARC
8
DEFAULT_255_2_778
10
21.1574104
20
13.3790973
40
1.4003068
50
7.2044767
51
58.7674439
0
ARC
8
DEFAULT_255_2_778
10
21.1438185
20
13.3794715
40
1.413746
50
359.9865518
51
7.1203489
0
ARC
8
DEFAULT_255_2_778
10
21.1639261
20
13.3769025
40
1.3936401
50
328.7113818
51
0.0919762
0
ARC
8
DEFAULT_255_2_778
10
21.1574881
20
13.3792593
40
1.4003663
50
277.2023214
51
328.7657772
0
ARC
8
DEFAULT_255_2_778
10
21.1577969
20
13.3931158
40
1.4140762
50
269.986525
51
277.1195187
0
ARC
8
DEFAULT_255_2_778
10
21.1552419
20
13.3724745
40
1.3934366
50
238.7090384
51
270.0913829
0
ARC
8
DEFAULT_255_2_778
10
21.1577215
20
13.3791202
40
1.4004041
50
187.2023053
51
238.7635694
0
ARC
8
DEFAULT_255_2_778
10
21.1715405
20
13.3788071
40
1.4140762
50
179.986525
51
187.1195186
0
LINE
8
DEFAULT_255_2_778
10
21.9958644
20
14.5004397
11
20.0363644
21
12.5409397
0
LINE
8
DEFAULT_255_2_778
10
20.3191644
20
12.2580397
11
22.2786644
21
14.2175397
0
LINE
8
DEFAULT_255_2_778
10
19.7574644
20
13.3791397
11
19.7574644
21
13.3791397
0
LINE
8
DEFAULT_255_2_778
10
17.1573794
20
8.1792482
11
17.1573794
21
8.9793482
0
LINE
8
DEFAULT_255_2_778
10
17.1573794
20
8.9793482
11
14.6573794
21
8.9793482
0
LINE
8
DEFAULT_255_2_778
10
14.6573794
20
8.9793482
11
14.6573794
21
8.1792482
0
LINE
8
DEFAULT_255_2_778
10
14.6573794
20
8.1792482
11
17.1573794
21
8.1792482
0
LINE
8
DEFAULT_255_2_778
10
20.6575794
20
8.1792482
11
20.6575794
21
8.9793482
0
LINE
8
DEFAULT_255_2_778
10
20.6575794
20
8.9793482
11
18.1575794
21
8.9793482
0
LINE
8
DEFAULT_255_2_778
10
18.1575794
20
8.9793482
11
18.1575794
21
8.1792482
0
LINE
8
DEFAULT_255_2_778
10
18.1575794
20
8.1792482
11
20.6575794
21
8.1792482
0
LINE
8
DEFAULT_255_2_778
10
24.1575714
20
8.1792482
11
24.1575714
21
8.9793482
0
LINE
8
DEFAULT_255_2_778
10
24.1575714
20
8.9793482
11
21.6574714
21
8.9793482
0
LINE
8
DEFAULT_255_2_778
10
21.6574714
20
8.9793482
11
21.6574714
21
8.1792482
0
LINE
8
DEFAULT_255_2_778
10
21.6574714
20
8.1792482
11
24.1575714
21
8.1792482
0
LINE
8
DEFAULT_255_2_778
10
13.6571754
20
8.1792482
11
13.6571754
21
8.9793482
0
LINE
8
DEFAULT_255_2_778
10
13.6571754
20
8.9793482
11
11.1571754
21
8.9793482
0
LINE
8
DEFAULT_255_2_778
10
11.1571754
20
8.9793482
11
11.1571754
21
8.1792482
0
LINE
8
DEFAULT_255_2_778
10
11.1571754
20
8.1792482
11
13.6571754
21
8.1792482
0
ENDSEC
0
EOF