0
SECTION
2
HEADER
9
$MEASUREMENT
70
1
0
ENDSEC
0
SECTION
2
TABLES
0
TABLE
2
LTYPE
0
LTYPE
72
65
70
64
2
CONTINUOUS
3
______
73
0
40
0
0
ENDTAB
0
TABLE
2
LAYER
0
LAYER
2
DEFAULT_255_2_778
70
0
62
255
6
CONTINUOUS
0
LAYER
2
DEFAULT_255_1_388
70
0
62
255
6
CONTINUOUS
0
ENDTAB
0
ENDSEC
0
SECTION
2
ENTITIES
0
ARC
8
DEFAULT_255_2_778
10
3.5700693
20
131.3676523
40
0.7914215
50
129.1312896
51
180.1450914
0
ARC
8
DEFAULT_255_2_778
10
3.5703345
20
131.3681394
40
0.7912112
50
89.854026
51
129.1684493
0
ARC
8
DEFAULT_255_2_778
10
25.7993937
20
131.3678259
40
0.7915249
50
39.4792447
51
90.147911
0
ARC
8
DEFAULT_255_2_778
10
25.7999935
20
131.3676726
40
0.7911595
50
359.8533901
51
39.5154338
0
ARC
8
DEFAULT_255_2_778
10
25.7996693
20
-1.9864
40
0.7914836
50
309.4761667
51
0.1482649
0
ARC
8
DEFAULT_255_2_778
10
25.799398
20
-1.9868311
40
0.7913235
50
269.8517415
51
309.511178
0
ARC
8
DEFAULT_255_2_778
10
3.570342
20
-1.9867729
40
0.7913815
50
219.1282118
51
270.1454017
0
ARC
8
DEFAULT_255_2_778
10
3.5700247
20
-1.9863904
40
0.7913769
50
179.8524075
51
219.1641908
0
LINE
8
DEFAULT_255_2_778
10
3.5723503
20
132.1593481
11
25.7973503
21
132.1593481
0
LINE
8
DEFAULT_255_2_778
10
26.5911503
20
131.3656481
11
26.5911503
21
-1.9843519
0
LINE
8
DEFAULT_255_2_778
10
25.7973503
20
-2.7781519
11
3.5723503
21
-2.7781519
0
LINE
8
DEFAULT_255_2_778
10
2.7786503
20
-1.9843519
11
2.7786503
21
131.3656481
0
LINE
8
DEFAULT_255_1_388
10
8.9749985
20
0.6821148
11
8.9749985
21
-0.6398
0
LINE
8
DEFAULT_255_1_388
10
8.9749985
20
-0.6398
11
8.8069355
21
-0.6398
0
LINE
8
DEFAULT_255_1_388
10
8.8069355
20
-0.6398
11
8.8069355
21
0.474295
0
LINE
8
DEFAULT_255_1_388
10
8.8069355
20
0.474295
11
8.469906
21
0.3505066
0
LINE
8
DEFAULT_255_1_388
10
8.469906
20
0.3505066
11
8.469906
21
0.5023055
0
LINE
8
DEFAULT_255_1_388
10
8.469906
20
0.5023055
11
8.9487951
21
0.6821148
0
LINE
8
DEFAULT_255_1_388
10
8.9487951
20
0.6821148
11
8.9749985
21
0.6821148
0
LINE
8
DEFAULT_255_1_388
10
10.314081
20
0.6757898
11
10.314081
21
0.5818191
0
LINE
8
DEFAULT_255_1_388
10
10.314081
20
0.5818191
11
9.7692316
21
-0.6398
0
LINE
8
DEFAULT_255_1_388
10
9.7692316
20
-0.6398
11
9.5939401
21
-0.6398
0
LINE
8
DEFAULT_255_1_388
10
9.5939401
20
-0.6398
11
10.1369824
21
0.538448
0
LINE
8
DEFAULT_255_1_388
10
10.1369824
20
0.538448
11
9.4249736
21
0.538448
0
LINE
8
DEFAULT_255_1_388
10
9.4249736
20
0.538448
11
9.4249736
21
0.6757898
0
LINE
8
DEFAULT_255_1_388
10
9.4249736
20
0.6757898
11
10.314081
21
0.6757898
0
LINE
8
DEFAULT_255_1_388
10
11.1299997
20
0.6766934
11
11.1598173
21
0.6766934
0
LINE
8
DEFAULT_255_1_388
10
11.1598173
20
0.6766934
11
11.1598173
21
0.5348338
0
LINE
8
DEFAULT_255_1_388
10
11.1598173
20
0.5348338
11
11.1290961
21
0.5348338
0
LINE
8
DEFAULT_255_1_388
10
10.5137687
20
-0.1392253
11
10.5137687
21
-0.0750722
0
LINE
8
DEFAULT_255_1_388
10
10.6818317
20
-0.0967578
11
10.6818317
21
-0.1582001
0
ARC
8
DEFAULT_255_1_388
10
11.1349853
20
-0.0274174
40
0.562282
50
90.6001079
51
104.5146616
0
ARC
8
DEFAULT_255_1_388
10
11.0912812
20
0.13511
40
0.3939917
50
104.2855758
51
133.8630124
0
ARC
8
DEFAULT_255_1_388
10
11.1097065
20
0.1229243
40
0.4155734
50
134.5304124
51
161.6210222
0
ARC
8
DEFAULT_255_1_388
10
11.2956997
20
0.0573421
40
0.6127682
50
161.2850533
51
174.2074364
0
ARC
8
DEFAULT_255_1_388
10
11.4546564
20
0.0354437
40
0.7731446
50
173.7817938
51
174.9251711
0
ARC
8
DEFAULT_255_1_388
10
10.9420758
20
-0.120073
40
0.3412588
50
95.8332067
51
138.995412
0
ARC
8
DEFAULT_255_1_388
10
10.9672038
20
-0.2639305
40
0.4870358
50
89.8755506
51
97.0540979
0
ARC
8
DEFAULT_255_1_388
10
10.9725427
20
-0.1699159
40
0.3930432
50
71.6407016
51
90.6240821
0
ARC
8
DEFAULT_255_1_388
10
10.9894821
20
-0.1075567
40
0.3285421
50
39.6368051
51
71.0190743
0
ARC
8
DEFAULT_255_1_388
10
10.9178728
20
-0.1694414
40
0.4231706
50
10.6588054
51
39.9044509
0
ARC
8
DEFAULT_255_1_388
10
10.7437274
20
-0.2072777
40
0.60133
50
359.6827842
51
11.1326896
0
ARC
8
DEFAULT_255_1_388
10
10.739261
20
-0.2152285
40
0.6058047
50
347.2485908
51
0.4371098
0
ARC
8
DEFAULT_255_1_388
10
10.9268395
20
-0.2603621
40
0.4128987
50
318.1408565
51
347.6118497
0
ARC
8
DEFAULT_255_1_388
10
10.9633992
20
-0.2904097
40
0.3656244
50
275.6342406
51
317.824739
0
ARC
8
DEFAULT_255_1_388
10
10.9385513
20
-0.1442173
40
0.513655
50
269.8872513
51
276.7916069
0
ARC
8
DEFAULT_255_1_388
10
10.9323705
20
-0.2595819
40
0.398323
50
246.9139443
51
270.7436787
0
ARC
8
DEFAULT_255_1_388
10
10.9330901
20
-0.2755956
40
0.3839368
50
218.1665534
51
245.8780431
0
ARC
8
DEFAULT_255_1_388
10
11.0320273
20
-0.1928097
40
0.5128958
50
191.4115343
51
218.6077624
0
ARC
8
DEFAULT_255_1_388
10
11.250059
20
-0.1439223
40
0.7363054
50
179.6344971
51
191.7836758
0
ARC
8
DEFAULT_255_1_388
10
11.8780464
20
-0.0675505
40
1.3642984
50
171.4523743
51
180.3158856
0
ARC
8
DEFAULT_255_1_388
10
11.3836191
20
0.0093895
40
0.8639311
50
157.9802296
51
171.6246761
0
ARC
8
DEFAULT_255_1_388
10
11.1345542
20
0.1087038
40
0.5958004
50
141.4299236
51
157.8541251
0
ARC
8
DEFAULT_255_1_388
10
11.0623625
20
0.1597746
40
0.5075416
50
102.871586
51
140.8564533
0
ARC
8
DEFAULT_255_1_388
10
11.1352178
20
-0.1147057
40
0.7914163
50
90.377773
51
103.5868422
0
ARC
8
DEFAULT_255_1_388
10
10.9396699
20
-0.1827457
40
0.2667015
50
89.8751238
51
126.2072139
0
ARC
8
DEFAULT_255_1_388
10
10.944817
20
-0.2001153
40
0.2838229
50
124.9742447
51
144.8960197
0
ARC
8
DEFAULT_255_1_388
10
10.9250415
20
-0.1840019
40
0.2583845
50
145.2974778
51
160.2660922
0
ARC
8
DEFAULT_255_1_388
10
11.2706903
20
-0.1617849
40
0.5888695
50
179.6512124
51
190.285571
0
ARC
8
DEFAULT_255_1_388
10
11.0801383
20
-0.1977032
40
0.3949683
50
190.0944895
51
207.5099647
0
ARC
8
DEFAULT_255_1_388
10
11.0164965
20
-0.2279823
40
0.3245464
50
207.9585471
51
216.325377
0
ARC
8
DEFAULT_255_1_388
10
10.9782602
20
-0.2594288
40
0.2751259
50
215.7661336
51
232.5457193
0
ARC
8
DEFAULT_255_1_388
10
10.9351718
20
-0.3141727
40
0.2054668
50
232.8005815
51
270.6605497
0
ARC
8
DEFAULT_255_1_388
10
10.9403142
20
-0.2732147
40
0.2464268
50
269.3550767
51
288.474612
0
ARC
8
DEFAULT_255_1_388
10
10.9507649
20
-0.3125279
40
0.2058436
50
289.1831976
51
322.9685307
0
ARC
8
DEFAULT_255_1_388
10
10.8819751
20
-0.2582721
40
0.2934408
50
322.6007085
51
346.5183319
0
ARC
8
DEFAULT_255_1_388
10
10.7517507
20
-0.2250566
40
0.4278249
50
346.2584622
51
358.7739592
0
ARC
8
DEFAULT_255_1_388
10
10.6366082
20
-0.2188171
40
0.5430876
50
358.3757628
51
0.0082477
0
ARC
8
DEFAULT_255_1_388
10
10.72229
20
-0.2157144
40
0.4574157
50
359.6211417
51
11.28403
0
ARC
8
DEFAULT_255_1_388
10
10.8659507
20
-0.1857465
40
0.3106708
50
11.0483152
51
31.8145585
0
ARC
8
DEFAULT_255_1_388
10
10.9007212
20
-0.1668955
40
0.2711963
50
32.3028554
51
38.0820598
0
ARC
8
DEFAULT_255_1_388
10
10.9480445
20
-0.1240283
40
0.2075566
50
36.8249851
51
85.741667
0
ARC
8
DEFAULT_255_1_388
10
10.9404857
20
-0.1803935
40
0.2643487
50
85.0150021
51
90.050843
0
LINE
8
DEFAULT_255_1_388
10
11.7859875
20
-0.0371225
11
11.7859875
21
0.0993157
0
LINE
8
DEFAULT_255_1_388
10
11.7859875
20
0.0993157
11
11.911583
21
0.0993157
0
LINE
8
DEFAULT_255_1_388
10
11.6974382
20
0.3306282
11
11.5302788
21
0.3306282
0
LINE
8
DEFAULT_255_1_388
10
11.5185324
20
-0.2928313
11
11.6865954
21
-0.2928313
0
LINE
8
DEFAULT_255_1_388
10
11.911583
20
-0.0371225
11
11.7859875
21
-0.0371225
0
ARC
8
DEFAULT_255_1_388
10
11.9083056
20
0.4809922
40
0.3816905
50
270.491971
51
281.8953028
0
ARC
8
DEFAULT_255_1_388
10
11.9354483
20
0.3570199
40
0.2547877
50
281.6690378
51
301.2943765
0
ARC
8
DEFAULT_255_1_388
10
11.9545934
20
0.3219926
40
0.2149197
50
301.7834992
51
311.754567
0
ARC
8
DEFAULT_255_1_388
10
11.9648976
20
0.310565
40
0.1995326
50
311.7325027
51
354.2803031
0
ARC
8
DEFAULT_255_1_388
10
11.8831392
20
0.324628
40
0.2823461
50
353.0941646
51
0.1174696
0
ARC
8
DEFAULT_255_1_388
10
11.831295
20
0.3299874
40
0.3342238
50
359.1804452
51
15.0452323
0
ARC
8
DEFAULT_255_1_388
10
11.9827008
20
0.3741546
40
0.1765747
50
13.957816
51
77.6713812
0
ARC
8
DEFAULT_255_1_388
10
11.9392244
20
0.2183464
40
0.3381982
50
76.111571
51
90.7028736
0
ARC
8
DEFAULT_255_1_388
10
11.9325656
20
0.249125
40
0.3074046
50
89.5321574
51
103.5319393
0
ARC
8
DEFAULT_255_1_388
10
11.9100039
20
0.3390443
40
0.2147041
50
103.2930114
51
133.5619756
0
ARC
8
DEFAULT_255_1_388
10
11.9049981
20
0.3457351
40
0.2064084
50
133.8349761
51
173.5343225
0
ARC
8
DEFAULT_255_1_388
10
11.9863638
20
0.3313144
40
0.2889266
50
172.5097183
51
180.1360699
0
ARC
8
DEFAULT_255_1_388
10
11.8793402
20
0.335188
40
0.3490913
50
155.3483706
51
180.7484035
0
ARC
8
DEFAULT_255_1_388
10
11.8738378
20
0.3319519
40
0.3454798
50
131.5745177
51
154.4799474
0
ARC
8
DEFAULT_255_1_388
10
11.9090661
20
0.2963422
40
0.3955058
50
96.9874487
51
131.9690874
0
ARC
8
DEFAULT_255_1_388
10
11.9337553
20
0.1562407
40
0.537622
50
89.8592909
51
97.7827481
0
ARC
8
DEFAULT_255_1_388
10
11.9391662
20
0.126736
40
0.5671399
50
78.3654493
51
90.4132586
0
ARC
8
DEFAULT_255_1_388
10
11.9794303
20
0.3133918
40
0.3762034
50
56.6229818
51
78.6387103
0
ARC
8
DEFAULT_255_1_388
10
12.0036133
20
0.3556846
40
0.3275964
50
47.0254604
51
56.085558
0
ARC
8
DEFAULT_255_1_388
10
12.0058384
20
0.3601189
40
0.3228382
50
10.9207523
51
46.777927
0
ARC
8
DEFAULT_255_1_388
10
11.8523978
20
0.3246401
40
0.4802559
50
359.6364235
51
11.6087615
0
ARC
8
DEFAULT_255_1_388
10
12.0588143
20
0.3229404
40
0.273833
50
332.3549969
51
359.7179765
0
ARC
8
DEFAULT_255_1_388
10
11.9856544
20
0.3576285
40
0.3547505
50
325.2332381
51
332.8746682
0
ARC
8
DEFAULT_255_1_388
10
12.0028127
20
0.3456763
40
0.3338396
50
292.9803892
51
325.2391113
0
ARC
8
DEFAULT_255_1_388
10
11.9717323
20
0.4061679
40
0.4016959
50
292.542178
51
293.6931461
0
ARC
8
DEFAULT_255_1_388
10
12.0160895
20
-0.3203964
40
0.372079
50
57.643292
51
72.8626085
0
ARC
8
DEFAULT_255_1_388
10
12.0559729
20
-0.2557727
40
0.2961455
50
36.7246661
51
57.4701329
0
ARC
8
DEFAULT_255_1_388
10
12.0546886
20
-0.254353
40
0.2963321
50
8.054535
51
36.3561529
0
ARC
8
DEFAULT_255_1_388
10
11.9576558
20
-0.2717927
40
0.3948682
50
359.8316595
51
8.5873361
0
ARC
8
DEFAULT_255_1_388
10
11.9154033
20
-0.277203
40
0.4371398
50
343.9831631
51
0.557075
0
ARC
8
DEFAULT_255_1_388
10
12.0151082
20
-0.3045037
40
0.3337749
50
311.6358204
51
343.7652116
0
ARC
8
DEFAULT_255_1_388
10
11.9725336
20
-0.2565045
40
0.3979351
50
279.7829743
51
311.625622
0
ARC
8
DEFAULT_255_1_388
10
11.9386471
20
-0.0948358
40
0.5630417
50
269.7285092
51
280.3857694
0
ARC
8
DEFAULT_255_1_388
10
11.9316784
20
-0.0994759
40
0.5584119
50
256.6827433
51
270.4412869
0
ARC
8
DEFAULT_255_1_388
10
11.8935771
20
-0.2552302
40
0.3980715
50
229.4223821
51
256.8554507
0
ARC
8
DEFAULT_255_1_388
10
11.8469324
20
-0.3077317
40
0.3278564
50
181.8183354
51
229.6455015
0
ARC
8
DEFAULT_255_1_388
10
11.9638933
20
-0.2930175
40
0.4453611
50
179.9760419
51
183.2330638
0
ARC
8
DEFAULT_255_1_388
10
11.9445486
20
-0.2953219
40
0.2579652
50
179.4467996
51
196.2871626
0
ARC
8
DEFAULT_255_1_388
10
11.889694
20
-0.3103291
40
0.2011057
50
196.5661293
51
227.7059371
0
ARC
8
DEFAULT_255_1_388
10
11.9081547
20
-0.2896845
40
0.2287994
50
227.7653015
51
257.8763321
0
ARC
8
DEFAULT_255_1_388
10
11.933463
20
-0.1836039
40
0.3378385
50
257.4583525
51
270.4267406
0
ARC
8
DEFAULT_255_1_388
10
11.9385879
20
-0.150977
40
0.3704652
50
269.5965319
51
280.8788143
0
ARC
8
DEFAULT_255_1_388
10
11.9644107
20
-0.2799471
40
0.2389415
50
280.6347277
51
299.8594068
0
ARC
8
DEFAULT_255_1_388
10
11.9858877
20
-0.3207264
40
0.19289
50
300.3575552
51
314.5515667
0
ARC
8
DEFAULT_255_1_388
10
11.9765553
20
-0.3138975
40
0.204312
50
315.0730962
51
345.0429362
0
ARC
8
DEFAULT_255_1_388
10
11.872706
20
-0.2836461
40
0.31246
50
344.598526
51
357.9270698
0
ARC
8
DEFAULT_255_1_388
10
11.7717365
20
-0.2767295
40
0.4136265
50
357.4755098
51
0.0224936
0
ARC
8
DEFAULT_255_1_388
10
11.8870243
20
-0.2739901
40
0.2983498
50
359.5051035
51
13.4236939
0
ARC
8
DEFAULT_255_1_388
10
11.9845333
20
-0.2490363
40
0.1977186
50
12.9497905
51
48.7550905
0
ARC
8
DEFAULT_255_1_388
10
11.9640254
20
-0.2770627
40
0.2323321
50
49.509109
51
72.1832965
0
ARC
8
DEFAULT_255_1_388
10
11.9237723
20
-0.3965368
40
0.358397
50
71.9008458
51
84.3555134
0
ARC
8
DEFAULT_255_1_388
10
11.9056117
20
-0.5497288
40
0.512641
50
84.019632
51
89.3326067
0
LINE
8
DEFAULT_255_1_388
10
12.9470678
20
-0.0127263
11
12.9470678
21
-0.1491645
0
LINE
8
DEFAULT_255_1_388
10
12.9470678
20
-0.1491645
11
12.5061284
21
-0.1491645
0
LINE
8
DEFAULT_255_1_388
10
12.5061284
20
-0.1491645
11
12.5061284
21
-0.0127263
0
LINE
8
DEFAULT_255_1_388
10
12.5061284
20
-0.0127263
11
12.9470678
21
-0.0127263
0
LINE
8
DEFAULT_255_1_388
10
13.3103007
20
0.6757898
11
13.3103007
21
-0.4979404
0
LINE
8
DEFAULT_255_1_388
10
13.3103007
20
-0.4979404
11
13.9337602
21
-0.4979404
0
LINE
8
DEFAULT_255_1_388
10
13.9337602
20
-0.4979404
11
13.9337602
21
-0.6398
0
LINE
8
DEFAULT_255_1_388
10
13.9337602
20
-0.6398
11
13.1359128
21
-0.6398
0
LINE
8
DEFAULT_255_1_388
10
13.1359128
20
-0.6398
11
13.1359128
21
0.6757898
0
LINE
8
DEFAULT_255_1_388
10
13.1359128
20
0.6757898
11
13.3103007
21
0.6757898
0
LINE
8
DEFAULT_255_1_388
10
14.6376369
20
0.6821148
11
14.6376369
21
-0.6398
0
LINE
8
DEFAULT_255_1_388
10
14.6376369
20
-0.6398
11
14.4695739
21
-0.6398
0
LINE
8
DEFAULT_255_1_388
10
14.4695739
20
-0.6398
11
14.4695739
21
0.474295
0
LINE
8
DEFAULT_255_1_388
10
14.4695739
20
0.474295
11
14.1325444
21
0.3505066
0
LINE
8
DEFAULT_255_1_388
10
14.1325444
20
0.3505066
11
14.1325444
21
0.5023055
0
LINE
8
DEFAULT_255_1_388
10
14.1325444
20
0.5023055
11
14.6114335
21
0.6821148
0
LINE
8
DEFAULT_255_1_388
10
14.6114335
20
0.6821148
11
14.6376369
21
0.6821148
0
LINE
8
DEFAULT_255_1_388
10
15.753539
20
0.6766934
11
15.7833566
21
0.6766934
0
LINE
8
DEFAULT_255_1_388
10
15.7833566
20
0.6766934
11
15.7833566
21
0.5348338
0
LINE
8
DEFAULT_255_1_388
10
15.7833566
20
0.5348338
11
15.7526354
21
0.5348338
0
LINE
8
DEFAULT_255_1_388
10
15.1373081
20
-0.1392253
11
15.1373081
21
-0.0750722
0
LINE
8
DEFAULT_255_1_388
10
15.305371
20
-0.0967578
11
15.305371
21
-0.1582001
0
ARC
8
DEFAULT_255_1_388
10
15.7585246
20
-0.0274174
40
0.562282
50
90.6001079
51
104.5146616
0
ARC
8
DEFAULT_255_1_388
10
15.7148205
20
0.13511
40
0.3939917
50
104.2855758
51
133.8630124
0
ARC
8
DEFAULT_255_1_388
10
15.7332458
20
0.1229243
40
0.4155734
50
134.5304124
51
161.6210222
0
ARC
8
DEFAULT_255_1_388
10
15.919239
20
0.0573421
40
0.6127682
50
161.2850533
51
174.2074364
0
ARC
8
DEFAULT_255_1_388
10
16.0781957
20
0.0354437
40
0.7731446
50
173.7817938
51
174.9251711
0
ARC
8
DEFAULT_255_1_388
10
15.5656151
20
-0.120073
40
0.3412588
50
95.8332067
51
138.995412
0
ARC
8
DEFAULT_255_1_388
10
15.5907431
20
-0.2639305
40
0.4870358
50
89.8755506
51
97.0540979
0
ARC
8
DEFAULT_255_1_388
10
15.596082
20
-0.1699159
40
0.3930432
50
71.6407016
51
90.6240821
0
ARC
8
DEFAULT_255_1_388
10
15.6130214
20
-0.1075567
40
0.3285421
50
39.6368051
51
71.0190743
0
ARC
8
DEFAULT_255_1_388
10
15.5414121
20
-0.1694414
40
0.4231706
50
10.6588054
51
39.9044509
0
ARC
8
DEFAULT_255_1_388
10
15.3672667
20
-0.2072777
40
0.60133
50
359.6827842
51
11.1326896
0
ARC
8
DEFAULT_255_1_388
10
15.3628003
20
-0.2152285
40
0.6058047
50
347.2485908
51
0.4371098
0
ARC
8
DEFAULT_255_1_388
10
15.5503788
20
-0.2603621
40
0.4128987
50
318.1408565
51
347.6118497
0
ARC
8
DEFAULT_255_1_388
10
15.5869385
20
-0.2904097
40
0.3656244
50
275.6342406
51
317.824739
0
ARC
8
DEFAULT_255_1_388
10
15.5620906
20
-0.1442173
40
0.513655
50
269.8872513
51
276.7916069
0
ARC
8
DEFAULT_255_1_388
10
15.5559098
20
-0.2595819
40
0.398323
50
246.9139443
51
270.7436787
0
ARC
8
DEFAULT_255_1_388
10
15.5566294
20
-0.2755956
40
0.3839368
50
218.1665534
51
245.8780431
0
ARC
8
DEFAULT_255_1_388
10
15.6555666
20
-0.1928097
40
0.5128958
50
191.4115343
51
218.6077624
0
ARC
8
DEFAULT_255_1_388
10
15.8735983
20
-0.1439223
40
0.7363054
50
179.6344971
51
191.7836758
0
ARC
8
DEFAULT_255_1_388
10
16.5015857
20
-0.0675505
40
1.3642984
50
171.4523743
51
180.3158856
0
ARC
8
DEFAULT_255_1_388
10
16.0071584
20
0.0093895
40
0.8639311
50
157.9802296
51
171.6246761
0
ARC
8
DEFAULT_255_1_388
10
15.7580935
20
0.1087038
40
0.5958004
50
141.4299236
51
157.8541251
0
ARC
8
DEFAULT_255_1_388
10
15.6859018
20
0.1597746
40
0.5075416
50
102.871586
51
140.8564533
0
ARC
8
DEFAULT_255_1_388
10
15.7587571
20
-0.1147057
40
0.7914163
50
90.377773
51
103.5868422
0
ARC
8
DEFAULT_255_1_388
10
15.5632092
20
-0.1827457
40
0.2667015
50
89.8751238
51
126.2072139
0
ARC
8
DEFAULT_255_1_388
10
15.5683563
20
-0.2001153
40
0.2838229
50
124.9742447
51
144.8960197
0
ARC
8
DEFAULT_255_1_388
10
15.5485808
20
-0.1840019
40
0.2583845
50
145.2974778
51
160.2660922
0
ARC
8
DEFAULT_255_1_388
10
15.8942296
20
-0.1617849
40
0.5888695
50
179.6512124
51
190.285571
0
ARC
8
DEFAULT_255_1_388
10
15.7036776
20
-0.1977032
40
0.3949683
50
190.0944895
51
207.5099647
0
ARC
8
DEFAULT_255_1_388
10
15.6400358
20
-0.2279823
40
0.3245464
50
207.9585471
51
216.325377
0
ARC
8
DEFAULT_255_1_388
10
15.6017995
20
-0.2594288
40
0.2751259
50
215.7661336
51
232.5457193
0
ARC
8
DEFAULT_255_1_388
10
15.5587111
20
-0.3141727
40
0.2054668
50
232.8005815
51
270.6605497
0
ARC
8
DEFAULT_255_1_388
10
15.5638535
20
-0.2732147
40
0.2464268
50
269.3550767
51
288.474612
0
ARC
8
DEFAULT_255_1_388
10
15.5743042
20
-0.3125279
40
0.2058436
50
289.1831976
51
322.9685307
0
ARC
8
DEFAULT_255_1_388
10
15.5055144
20
-0.2582721
40
0.2934408
50
322.6007085
51
346.5183319
0
ARC
8
DEFAULT_255_1_388
10
15.37529
20
-0.2250566
40
0.4278249
50
346.2584622
51
358.7739592
0
ARC
8
DEFAULT_255_1_388
10
15.2601475
20
-0.2188171
40
0.5430876
50
358.3757628
51
0.0082477
0
ARC
8
DEFAULT_255_1_388
10
15.3458294
20
-0.2157144
40
0.4574157
50
359.6211417
51
11.28403
0
ARC
8
DEFAULT_255_1_388
10
15.48949
20
-0.1857465
40
0.3106708
50
11.0483152
51
31.8145585
0
ARC
8
DEFAULT_255_1_388
10
15.5242605
20
-0.1668955
40
0.2711963
50
32.3028554
51
38.0820598
0
ARC
8
DEFAULT_255_1_388
10
15.5715838
20
-0.1240283
40
0.2075566
50
36.8249851
51
85.741667
0
ARC
8
DEFAULT_255_1_388
10
15.5640251
20
-0.1803935
40
0.2643487
50
85.0150021
51
90.050843
0
LINE
8
DEFAULT_255_1_388
10
17.0619003
20
-0.6398
11
16.9363049
21
-0.2964455
0
LINE
8
DEFAULT_255_1_388
10
16.9363049
20
-0.2964455
11
16.3851306
21
-0.2964455
0
LINE
8
DEFAULT_255_1_388
10
16.3851306
20
-0.2964455
11
16.2613422
21
-0.6398
0
LINE
8
DEFAULT_255_1_388
10
16.2613422
20
-0.6398
11
16.0824365
21
-0.6398
0
LINE
8
DEFAULT_255_1_388
10
16.0824365
20
-0.6398
11
16.5848183
21
0.6757898
0
LINE
8
DEFAULT_255_1_388
10
16.5848183
20
0.6757898
11
16.7366171
21
0.6757898
0
LINE
8
DEFAULT_255_1_388
10
16.7366171
20
0.6757898
11
17.2399025
21
-0.6398
0
LINE
8
DEFAULT_255_1_388
10
17.2399025
20
-0.6398
11
17.0619003
21
-0.6398
0
LINE
8
DEFAULT_255_1_388
10
16.6607177
20
0.4616451
11
16.4375373
21
-0.1536823
0
LINE
8
DEFAULT_255_1_388
10
16.4375373
20
-0.1536823
11
16.8848017
21
-0.1536823
0
LINE
8
DEFAULT_255_1_388
10
16.8848017
20
-0.1536823
11
16.6607177
21
0.4616451
0
LINE
8
DEFAULT_255_1_388
10
17.4305546
20
0.6757898
11
17.6383745
21
-0.2250639
0
LINE
8
DEFAULT_255_1_388
10
17.6383745
20
-0.2250639
11
17.6636743
21
-0.3985483
0
LINE
8
DEFAULT_255_1_388
10
17.6636743
20
-0.3985483
11
17.7007204
21
-0.2422316
0
LINE
8
DEFAULT_255_1_388
10
17.7007204
20
-0.2422316
11
17.960947
21
0.6757898
0
LINE
8
DEFAULT_255_1_388
10
17.960947
20
0.6757898
11
18.1073244
21
0.6757898
0
LINE
8
DEFAULT_255_1_388
10
18.1073244
20
0.6757898
11
18.361226
21
-0.2422316
0
LINE
8
DEFAULT_255_1_388
10
18.361226
20
-0.2422316
11
18.3973686
21
-0.401259
0
LINE
8
DEFAULT_255_1_388
10
18.3973686
20
-0.401259
11
18.4253791
21
-0.2241604
0
LINE
8
DEFAULT_255_1_388
10
18.4253791
20
-0.2241604
11
18.6295847
21
0.6757898
0
LINE
8
DEFAULT_255_1_388
10
18.6295847
20
0.6757898
11
18.8039726
21
0.6757898
0
LINE
8
DEFAULT_255_1_388
10
18.8039726
20
0.6757898
11
18.4850144
21
-0.6398
0
LINE
8
DEFAULT_255_1_388
10
18.4850144
20
-0.6398
11
18.3268906
21
-0.6398
0
LINE
8
DEFAULT_255_1_388
10
18.3268906
20
-0.6398
11
18.0558212
21
0.3188819
0
LINE
8
DEFAULT_255_1_388
10
18.0558212
20
0.3188819
11
18.0350393
21
0.4191775
0
LINE
8
DEFAULT_255_1_388
10
18.0350393
20
0.4191775
11
18.0142573
21
0.3188819
0
LINE
8
DEFAULT_255_1_388
10
18.0142573
20
0.3188819
11
17.7332487
21
-0.6398
0
LINE
8
DEFAULT_255_1_388
10
17.7332487
20
-0.6398
11
17.575125
21
-0.6398
0
LINE
8
DEFAULT_255_1_388
10
17.575125
20
-0.6398
11
17.2570703
21
0.6757898
0
LINE
8
DEFAULT_255_1_388
10
17.2570703
20
0.6757898
11
17.4305546
21
0.6757898
0
LINE
8
DEFAULT_255_1_388
10
19.8096398
20
-0.6398
11
19.6840444
21
-0.2964455
0
LINE
8
DEFAULT_255_1_388
10
19.6840444
20
-0.2964455
11
19.1328701
21
-0.2964455
0
LINE
8
DEFAULT_255_1_388
10
19.1328701
20
-0.2964455
11
19.0090817
21
-0.6398
0
LINE
8
DEFAULT_255_1_388
10
19.0090817
20
-0.6398
11
18.830176
21
-0.6398
0
LINE
8
DEFAULT_255_1_388
10
18.830176
20
-0.6398
11
19.3325578
21
0.6757898
0
LINE
8
DEFAULT_255_1_388
10
19.3325578
20
0.6757898
11
19.4843566
21
0.6757898
0
LINE
8
DEFAULT_255_1_388
10
19.4843566
20
0.6757898
11
19.987642
21
-0.6398
0
LINE
8
DEFAULT_255_1_388
10
19.987642
20
-0.6398
11
19.8096398
21
-0.6398
0
LINE
8
DEFAULT_255_1_388
10
19.4084572
20
0.4616451
11
19.1852768
21
-0.1536823
0
LINE
8
DEFAULT_255_1_388
10
19.1852768
20
-0.1536823
11
19.6325412
21
-0.1536823
0
LINE
8
DEFAULT_255_1_388
10
19.6325412
20
-0.1536823
11
19.4084572
21
0.4616451
0
LINE
8
DEFAULT_255_1_388
10
7.4355024
20
127.0143898
11
7.6595864
21
127.0143898
0
LINE
8
DEFAULT_255_1_388
10
7.6595864
20
127.0143898
11
8.0896831
21
125.9409553
0
LINE
8
DEFAULT_255_1_388
10
8.0896831
20
125.9409553
11
8.5197797
21
127.0143898
0
LINE
8
DEFAULT_255_1_388
10
8.5197797
20
127.0143898
11
8.7447673
21
127.0143898
0
LINE
8
DEFAULT_255_1_388
10
8.7447673
20
127.0143898
11
8.7447673
21
125.6988
0
LINE
8
DEFAULT_255_1_388
10
8.7447673
20
125.6988
11
8.5712829
21
125.6988
0
LINE
8
DEFAULT_255_1_388
10
8.5712829
20
125.6988
11
8.5712829
21
126.211121
0
LINE
8
DEFAULT_255_1_388
10
8.5712829
20
126.211121
11
8.5875471
21
126.7641025
0
LINE
8
DEFAULT_255_1_388
10
8.5875471
20
126.7641025
11
8.1556433
21
125.6988
0
LINE
8
DEFAULT_255_1_388
10
8.1556433
20
125.6988
11
8.0228193
21
125.6988
0
LINE
8
DEFAULT_255_1_388
10
8.0228193
20
125.6988
11
7.591819
21
126.7613918
0
LINE
8
DEFAULT_255_1_388
10
7.591819
20
126.7613918
11
7.6089868
21
126.211121
0
LINE
8
DEFAULT_255_1_388
10
7.6089868
20
126.211121
11
7.6089868
21
125.6988
0
LINE
8
DEFAULT_255_1_388
10
7.6089868
20
125.6988
11
7.4355024
21
125.6988
0
LINE
8
DEFAULT_255_1_388
10
7.4355024
20
125.6988
11
7.4355024
21
127.0143898
0
LINE
8
DEFAULT_255_1_388
10
9.2064887
20
126.6764567
11
9.2064887
21
125.6988
0
LINE
8
DEFAULT_255_1_388
10
9.2064887
20
125.6988
11
9.0393293
21
125.6988
0
LINE
8
DEFAULT_255_1_388
10
9.0393293
20
125.6988
11
9.0393293
21
126.6764567
0
LINE
8
DEFAULT_255_1_388
10
9.0393293
20
126.6764567
11
9.2064887
21
126.6764567
0
ARC
8
DEFAULT_255_1_388
10
9.1358655
20
126.9368428
40
0.1100948
50
161.4148232
51
180.5532607
0
ARC
8
DEFAULT_255_1_388
10
9.1218965
20
126.9406875
40
0.0956324
50
138.1830164
51
160.9307633
0
ARC
8
DEFAULT_255_1_388
10
9.1095152
20
126.9514313
40
0.0792417
50
104.6371663
51
138.0036136
0
ARC
8
DEFAULT_255_1_388
10
9.1215691
20
126.9101963
40
0.1221906
50
92.0601206
51
105.2198859
0
ARC
8
DEFAULT_255_1_388
10
9.1242055
20
126.8713583
40
0.161103
50
89.9790681
51
92.5006086
0
ARC
8
DEFAULT_255_1_388
10
9.1253231
20
126.8969998
40
0.1354654
50
78.0234649
51
90.4478111
0
ARC
8
DEFAULT_255_1_388
10
9.1356815
20
126.9435203
40
0.0878096
50
55.0521508
51
78.336297
0
ARC
8
DEFAULT_255_1_388
10
9.141335
20
126.9530168
40
0.0767913
50
42.0506198
51
54.4508489
0
ARC
8
DEFAULT_255_1_388
10
9.1261383
20
126.9390821
40
0.0974091
50
1.7493657
51
42.1498724
0
ARC
8
DEFAULT_255_1_388
10
9.0975288
20
126.9358166
40
0.1261276
50
359.9832635
51
2.8353994
0
ARC
8
DEFAULT_255_1_388
10
9.1161698
20
126.9347412
40
0.1074916
50
342.1062453
51
0.5535864
0
ARC
8
DEFAULT_255_1_388
10
9.1322122
20
126.9303197
40
0.0908695
50
316.7110111
51
341.6513114
0
ARC
8
DEFAULT_255_1_388
10
9.1397554
20
126.9235607
40
0.0807447
50
285.4398289
51
316.5320129
0
ARC
8
DEFAULT_255_1_388
10
9.1273725
20
126.9647023
40
0.1237022
50
272.3543902
51
285.8951677
0
ARC
8
DEFAULT_255_1_388
10
9.1243435
20
127.0062742
40
0.1653687
50
269.9725761
51
272.8112722
0
ARC
8
DEFAULT_255_1_388
10
9.1232487
20
126.9811727
40
0.1402709
50
258.8433431
51
270.4148607
0
ARC
8
DEFAULT_255_1_388
10
9.1131267
20
126.9321739
40
0.0902407
50
238.54281
51
259.1289544
0
ARC
8
DEFAULT_255_1_388
10
9.1054588
20
126.9182694
40
0.0743817
50
222.5056676
51
237.9918132
0
ARC
8
DEFAULT_255_1_388
10
9.1198182
20
126.9313295
40
0.0937918
50
184.1070774
51
222.4604165
0
ARC
8
DEFAULT_255_1_388
10
9.1500596
20
126.9356538
40
0.1242838
50
179.9419581
51
185.0970785
0
LINE
8
DEFAULT_255_1_388
10
10.0964997
20
126.0069155
11
10.2546235
21
126.0069155
0
LINE
8
DEFAULT_255_1_388
10
9.4305727
20
126.1785927
11
9.4305727
21
126.2066032
0
LINE
8
DEFAULT_255_1_388
10
10.2546235
20
126.3403308
11
10.0964997
21
126.3403308
0
LINE
8
DEFAULT_255_1_388
10
9.5977321
20
126.2002783
11
9.5977321
21
126.1686535
0
ARC
8
DEFAULT_255_1_388
10
9.8701554
20
126.0579109
40
0.2407783
50
269.0327343
51
309.2224588
0
ARC
8
DEFAULT_255_1_388
10
9.8937558
20
126.033719
40
0.207135
50
308.3965377
51
329.6987678
0
ARC
8
DEFAULT_255_1_388
10
9.9092616
20
126.0219899
40
0.1878439
50
330.4013397
51
355.3970937
0
ARC
8
DEFAULT_255_1_388
10
9.96066
20
126.0239312
40
0.2944555
50
329.2357424
51
356.6872018
0
ARC
8
DEFAULT_255_1_388
10
9.8988495
20
126.0566153
40
0.3643032
50
324.8702872
51
329.7911998
0
ARC
8
DEFAULT_255_1_388
10
9.8899777
20
126.0642113
40
0.3759315
50
298.8769973
51
324.7015261
0
ARC
8
DEFAULT_255_1_388
10
9.8526321
20
126.123729
40
0.4461015
50
296.902888
51
299.3854973
0
ARC
8
DEFAULT_255_1_388
10
9.8672318
20
126.0913595
40
0.4106323
50
269.8407861
51
297.1298875
0
ARC
8
DEFAULT_255_1_388
10
9.8612314
20
126.1631354
40
0.4824312
50
253.3156606
51
270.5771301
0
ARC
8
DEFAULT_255_1_388
10
9.8334492
20
126.0625943
40
0.3781531
50
221.1002518
51
252.9743523
0
ARC
8
DEFAULT_255_1_388
10
9.8851962
20
126.1070131
40
0.4463481
50
194.5394284
51
221.0302764
0
ARC
8
DEFAULT_255_1_388
10
10.0931783
20
126.1649897
40
0.6622359
50
182.0498004
51
194.8774376
0
ARC
8
DEFAULT_255_1_388
10
10.2924873
20
126.1782778
40
0.8619146
50
179.9790673
51
182.4586753
0
ARC
8
DEFAULT_255_1_388
10
10.0968187
20
126.2099412
40
0.6662543
50
168.615001
51
180.2870547
0
ARC
8
DEFAULT_255_1_388
10
9.9616095
20
126.2364636
40
0.5284705
50
154.9162417
51
168.5402053
0
ARC
8
DEFAULT_255_1_388
10
9.8579371
20
126.2876942
40
0.4128641
50
133.5745308
51
155.2559538
0
ARC
8
DEFAULT_255_1_388
10
9.8396214
20
126.3033116
40
0.3889328
50
122.0165845
51
133.2056002
0
ARC
8
DEFAULT_255_1_388
10
9.8436538
20
126.2933977
40
0.3994808
50
97.8732516
51
121.753124
0
ARC
8
DEFAULT_255_1_388
10
9.8637996
20
126.174459
40
0.5200708
50
89.8471322
51
98.2768545
0
ARC
8
DEFAULT_255_1_388
10
9.8692844
20
126.2430809
40
0.4514657
50
73.3760755
51
90.5199878
0
ARC
8
DEFAULT_255_1_388
10
9.8913761
20
126.324355
40
0.3672743
50
47.7085939
51
73.0510707
0
ARC
8
DEFAULT_255_1_388
10
9.9059863
20
126.3370231
40
0.3480795
50
3.7442743
51
48.0844373
0
ARC
8
DEFAULT_255_1_388
10
9.7947857
20
126.3192946
40
0.4603187
50
2.6192831
51
5.0424684
0
ARC
8
DEFAULT_255_1_388
10
9.8463328
20
126.3237986
40
0.2507126
50
3.78087
51
23.9354314
0
ARC
8
DEFAULT_255_1_388
10
9.8720588
20
126.3328644
40
0.2235311
50
24.4867863
51
46.9439952
0
ARC
8
DEFAULT_255_1_388
10
9.8721533
20
126.3354874
40
0.2215567
50
46.4987715
51
89.3298168
0
ARC
8
DEFAULT_255_1_388
10
9.8652192
20
126.2688742
40
0.2883121
50
88.1066411
51
90.0063536
0
ARC
8
DEFAULT_255_1_388
10
9.8621168
20
126.2746548
40
0.2825481
50
89.3773571
51
107.2070287
0
ARC
8
DEFAULT_255_1_388
10
9.8460436
20
126.3328667
40
0.2221946
50
107.688418
51
143.3582986
0
ARC
8
DEFAULT_255_1_388
10
9.909873
20
126.2849064
40
0.3020337
50
143.2845866
51
162.9352432
0
ARC
8
DEFAULT_255_1_388
10
10.0792746
20
126.2305401
40
0.4799362
50
162.6652705
51
174.0802646
0
ARC
8
DEFAULT_255_1_388
10
10.3203227
20
126.2025287
40
0.7225942
50
173.8422673
51
180.1784414
0
ARC
8
DEFAULT_255_1_388
10
10.2586898
20
126.1652276
40
0.6609665
50
179.7030218
51
188.2277356
0
ARC
8
DEFAULT_255_1_388
10
10.0222505
20
126.1298143
40
0.4218948
50
188.0630838
51
201.115837
0
ARC
8
DEFAULT_255_1_388
10
9.898739
20
126.082673
40
0.2896941
50
201.2186162
51
216.9761863
0
ARC
8
DEFAULT_255_1_388
10
9.8479548
20
126.0446225
40
0.2262366
50
217.0136373
51
265.2055518
0
ARC
8
DEFAULT_255_1_388
10
9.8654885
20
126.1483503
40
0.3311837
50
263.6824874
51
270.1042034
0
LINE
8
DEFAULT_255_1_388
10
10.9151291
20
126.6818781
11
10.9151291
21
126.526465
0
LINE
8
DEFAULT_255_1_388
10
10.6097243
20
126.3927375
11
10.6097243
21
125.6988
0
LINE
8
DEFAULT_255_1_388
10
10.6097243
20
125.6988
11
10.4425649
21
125.6988
0
LINE
8
DEFAULT_255_1_388
10
10.4425649
20
125.6988
11
10.4425649
21
126.6764567
0
LINE
8
DEFAULT_255_1_388
10
10.4425649
20
126.6764567
11
10.6052065
21
126.6764567
0
LINE
8
DEFAULT_255_1_388
10
10.6052065
20
126.6764567
11
10.6079172
21
126.5635112
0
ARC
8
DEFAULT_255_1_388
10
10.8401451
20
126.0698068
40
0.4627735
50
80.6751522
51
86.893806
0
ARC
8
DEFAULT_255_1_388
10
10.8333281
20
125.9606103
40
0.5721798
50
86.8046851
51
90.0423898
0
ARC
8
DEFAULT_255_1_388
10
10.82917
20
126.2373197
40
0.2954939
50
89.2758283
51
106.6212906
0
ARC
8
DEFAULT_255_1_388
10
10.8061725
20
126.3209009
40
0.2088351
50
107.1347109
51
157.6456887
0
ARC
8
DEFAULT_255_1_388
10
10.8829787
20
126.2781908
40
0.296292
50
155.6557383
51
157.256838
0
ARC
8
DEFAULT_255_1_388
10
10.8609401
20
126.4092472
40
0.296341
50
127.8167201
51
148.6300223
0
ARC
8
DEFAULT_255_1_388
10
10.8324149
20
126.4385066
40
0.2557782
50
91.3329934
51
126.7875218
0
ARC
8
DEFAULT_255_1_388
10
10.8409536
20
126.3581718
40
0.3363561
50
89.9858247
51
92.4688453
0
ARC
8
DEFAULT_255_1_388
10
10.8419029
20
126.3890114
40
0.3055179
50
85.3587643
51
90.1624243
0
ARC
8
DEFAULT_255_1_388
10
10.8514094
20
126.5019458
40
0.1921848
50
78.4019195
51
85.4592653
0
ARC
8
DEFAULT_255_1_388
10
10.8677155
20
126.5797142
40
0.1127267
50
67.7849217
51
78.573798
0
ARC
8
DEFAULT_255_1_388
10
10.8798789
20
126.6112374
40
0.0789473
50
63.4805074
51
67.3074739
0
LINE
8
DEFAULT_255_1_388
10
11.0063891
20
126.1849177
11
11.0063891
21
126.196664
0
LINE
8
DEFAULT_255_1_388
10
11.8964001
20
126.1885319
11
11.8964001
21
126.1767856
0
ARC
8
DEFAULT_255_1_388
10
11.6348336
20
126.200304
40
0.628455
50
166.3005265
51
180.3318609
0
ARC
8
DEFAULT_255_1_388
10
11.5377685
20
126.2220267
40
0.52901
50
153.8608648
51
166.0965672
0
ARC
8
DEFAULT_255_1_388
10
11.4628851
20
126.2621652
40
0.4441126
50
135.1317053
51
154.2534962
0
ARC
8
DEFAULT_255_1_388
10
11.4315502
20
126.2898431
40
0.4023863
50
121.7042632
51
134.7771455
0
ARC
8
DEFAULT_255_1_388
10
11.4390934
20
126.2753469
40
0.4186852
50
93.4001111
51
121.5399523
0
ARC
8
DEFAULT_255_1_388
10
11.4497768
20
126.1823759
40
0.5121521
50
89.9706387
51
93.9763381
0
ARC
8
DEFAULT_255_1_388
10
11.4550753
20
126.2263563
40
0.4681988
50
71.3321659
51
90.6162917
0
ARC
8
DEFAULT_255_1_388
10
11.4733786
20
126.2941003
40
0.3981841
50
41.1813875
51
70.7072086
0
ARC
8
DEFAULT_255_1_388
10
11.4196503
20
126.245313
40
0.4707474
50
12.1971434
51
41.3446641
0
ARC
8
DEFAULT_255_1_388
10
11.2029766
20
126.1937328
40
0.6934429
50
359.5702713
51
12.5803533
0
ARC
8
DEFAULT_255_1_388
10
11.2562082
20
126.1732207
40
0.6402018
50
347.0196754
51
0.3190452
0
ARC
8
DEFAULT_255_1_388
10
11.3640136
20
126.1500189
40
0.5299421
50
334.350439
51
346.8460534
0
ARC
8
DEFAULT_255_1_388
10
11.4591382
20
126.1006244
40
0.4228234
50
310.4228125
51
334.8045131
0
ARC
8
DEFAULT_255_1_388
10
11.468336
20
126.0934301
40
0.4113892
50
301.8488154
51
310.0972985
0
ARC
8
DEFAULT_255_1_388
10
11.46471
20
126.1019573
40
0.4205483
50
274.3078723
51
301.6554173
0
ARC
8
DEFAULT_255_1_388
10
11.4522556
20
126.2006943
40
0.5199658
50
269.954904
51
274.859116
0
ARC
8
DEFAULT_255_1_388
10
11.446738
20
126.1443239
40
0.4636233
50
250.8887647
51
270.6313164
0
ARC
8
DEFAULT_255_1_388
10
11.4298541
20
126.0814405
40
0.398705
50
221.1701369
51
250.2227012
0
ARC
8
DEFAULT_255_1_388
10
11.4843206
20
126.1310716
40
0.4723796
50
191.6263861
51
221.3526879
0
ARC
8
DEFAULT_255_1_388
10
11.6967052
20
126.1802203
40
0.6903321
50
179.6101251
51
192.0694841
0
ARC
8
DEFAULT_255_1_388
10
11.7443399
20
126.1731681
40
0.5698993
50
179.636304
51
190.6161344
0
ARC
8
DEFAULT_255_1_388
10
11.5595731
20
126.1371635
40
0.3816643
50
190.4136062
51
208.7168709
0
ARC
8
DEFAULT_255_1_388
10
11.5021765
20
126.1086905
40
0.3176572
50
209.187109
51
217.4221816
0
ARC
8
DEFAULT_255_1_388
10
11.4426235
20
126.0562729
40
0.2385702
50
216.1156863
51
265.2575395
0
ARC
8
DEFAULT_255_1_388
10
11.4515272
20
126.1207608
40
0.3035941
50
264.5891546
51
270.0602378
0
ARC
8
DEFAULT_255_1_388
10
11.4552469
20
126.0780539
40
0.2609091
50
269.2532353
51
291.8793864
0
ARC
8
DEFAULT_255_1_388
10
11.4585348
20
126.0580359
40
0.241148
50
292.9269367
51
323.1777736
0
ARC
8
DEFAULT_255_1_388
10
11.4114633
20
126.0993762
40
0.3036446
50
322.25666
51
323.087958
0
ARC
8
DEFAULT_255_1_388
10
11.3811891
20
126.1176332
40
0.3388345
50
323.6941379
51
343.8493587
0
ARC
8
DEFAULT_255_1_388
10
11.2036327
20
126.1716698
40
0.5244204
50
343.5746655
51
355.008149
0
ARC
8
DEFAULT_255_1_388
10
10.9778018
20
126.1950797
40
0.7514406
50
354.728272
51
0.1208026
0
ARC
8
DEFAULT_255_1_388
10
11.1767044
20
126.2002947
40
0.5525482
50
359.6235211
51
11.2016685
0
ARC
8
DEFAULT_255_1_388
10
11.3492871
20
126.2358284
40
0.3763527
50
10.9991302
51
30.8317616
0
ARC
8
DEFAULT_255_1_388
10
11.3938175
20
126.2592988
40
0.3260975
50
31.3007463
51
37.395541
0
ARC
8
DEFAULT_255_1_388
10
11.4496894
20
126.3064773
40
0.253082
50
36.5918894
51
62.2439906
0
ARC
8
DEFAULT_255_1_388
10
11.4549186
20
126.3061378
40
0.2509927
50
63.3364883
51
89.7193846
0
ARC
8
DEFAULT_255_1_388
10
11.4500639
20
126.2413375
40
0.3158485
50
88.8962924
51
90.004475
0
ARC
8
DEFAULT_255_1_388
10
11.4465067
20
126.3066071
40
0.250604
50
89.1923115
51
114.7099029
0
ARC
8
DEFAULT_255_1_388
10
11.4497408
20
126.3108675
40
0.2481307
50
115.7996284
51
142.2901353
0
ARC
8
DEFAULT_255_1_388
10
11.4965679
20
126.2689752
40
0.310833
50
141.4607507
51
142.383894
0
ARC
8
DEFAULT_255_1_388
10
11.5113531
20
126.2621449
40
0.3267335
50
143.0176473
51
163.2340089
0
ARC
8
DEFAULT_255_1_388
10
11.6888819
20
126.2059553
40
0.5129308
50
162.9446504
51
174.3733893
0
ARC
8
DEFAULT_255_1_388
10
11.9302792
20
126.1788483
40
0.75583
50
174.1225809
51
180.1563667
0
LINE
8
DEFAULT_255_1_388
10
12.3066184
20
127.0143898
11
12.3066184
21
125.8406596
0
LINE
8
DEFAULT_255_1_388
10
12.3066184
20
125.8406596
11
12.9300778
21
125.8406596
0
LINE
8
DEFAULT_255_1_388
10
12.9300778
20
125.8406596
11
12.9300778
21
125.6988
0
LINE
8
DEFAULT_255_1_388
10
12.9300778
20
125.6988
11
12.1322304
21
125.6988
0
LINE
8
DEFAULT_255_1_388
10
12.1322304
20
125.6988
11
12.1322304
21
127.0143898
0
LINE
8
DEFAULT_255_1_388
10
12.1322304
20
127.0143898
11
12.3066184
21
127.0143898
0
LINE
8
DEFAULT_255_1_388
10
13.0574804
20
126.1849177
11
13.0574804
21
126.196664
0
LINE
8
DEFAULT_255_1_388
10
13.9474914
20
126.1885319
11
13.9474914
21
126.1767856
0
ARC
8
DEFAULT_255_1_388
10
13.6859249
20
126.200304
40
0.628455
50
166.3005265
51
180.3318609
0
ARC
8
DEFAULT_255_1_388
10
13.5888598
20
126.2220267
40
0.52901
50
153.8608648
51
166.0965672
0
ARC
8
DEFAULT_255_1_388
10
13.5139764
20
126.2621652
40
0.4441126
50
135.1317053
51
154.2534962
0
ARC
8
DEFAULT_255_1_388
10
13.4826415
20
126.2898431
40
0.4023863
50
121.7042632
51
134.7771455
0
ARC
8
DEFAULT_255_1_388
10
13.4901847
20
126.2753469
40
0.4186852
50
93.4001111
51
121.5399523
0
ARC
8
DEFAULT_255_1_388
10
13.5008681
20
126.1823759
40
0.5121521
50
89.9706387
51
93.9763381
0
ARC
8
DEFAULT_255_1_388
10
13.5061666
20
126.2263563
40
0.4681988
50
71.3321659
51
90.6162917
0
ARC
8
DEFAULT_255_1_388
10
13.5244699
20
126.2941003
40
0.3981841
50
41.1813875
51
70.7072086
0
ARC
8
DEFAULT_255_1_388
10
13.4707416
20
126.245313
40
0.4707474
50
12.1971434
51
41.3446641
0
ARC
8
DEFAULT_255_1_388
10
13.2540679
20
126.1937328
40
0.6934429
50
359.5702713
51
12.5803533
0
ARC
8
DEFAULT_255_1_388
10
13.3072996
20
126.1732207
40
0.6402018
50
347.0196754
51
0.3190452
0
ARC
8
DEFAULT_255_1_388
10
13.4151049
20
126.1500189
40
0.5299421
50
334.350439
51
346.8460534
0
ARC
8
DEFAULT_255_1_388
10
13.5102295
20
126.1006244
40
0.4228234
50
310.4228125
51
334.8045131
0
ARC
8
DEFAULT_255_1_388
10
13.5194273
20
126.0934301
40
0.4113892
50
301.8488154
51
310.0972985
0
ARC
8
DEFAULT_255_1_388
10
13.5158014
20
126.1019573
40
0.4205483
50
274.3078723
51
301.6554173
0
ARC
8
DEFAULT_255_1_388
10
13.5033469
20
126.2006943
40
0.5199658
50
269.954904
51
274.859116
0
ARC
8
DEFAULT_255_1_388
10
13.4978293
20
126.1443239
40
0.4636233
50
250.8887647
51
270.6313164
0
ARC
8
DEFAULT_255_1_388
10
13.4809454
20
126.0814405
40
0.398705
50
221.1701369
51
250.2227012
0
ARC
8
DEFAULT_255_1_388
10
13.535412
20
126.1310716
40
0.4723796
50
191.6263861
51
221.3526879
0
ARC
8
DEFAULT_255_1_388
10
13.7477965
20
126.1802203
40
0.6903321
50
179.6101251
51
192.0694841
0
ARC
8
DEFAULT_255_1_388
10
13.7954312
20
126.1731681
40
0.5698993
50
179.636304
51
190.6161344
0
ARC
8
DEFAULT_255_1_388
10
13.6106644
20
126.1371635
40
0.3816643
50
190.4136062
51
208.7168709
0
ARC
8
DEFAULT_255_1_388
10
13.5532678
20
126.1086905
40
0.3176572
50
209.187109
51
217.4221816
0
ARC
8
DEFAULT_255_1_388
10
13.4937149
20
126.0562729
40
0.2385702
50
216.1156863
51
265.2575395
0
ARC
8
DEFAULT_255_1_388
10
13.5026185
20
126.1207608
40
0.3035941
50
264.5891546
51
270.0602378
0
ARC
8
DEFAULT_255_1_388
10
13.5063382
20
126.0780539
40
0.2609091
50
269.2532353
51
291.8793864
0
ARC
8
DEFAULT_255_1_388
10
13.5096261
20
126.0580359
40
0.241148
50
292.9269367
51
323.1777736
0
ARC
8
DEFAULT_255_1_388
10
13.4625546
20
126.0993762
40
0.3036446
50
322.25666
51
323.087958
0
ARC
8
DEFAULT_255_1_388
10
13.4322804
20
126.1176332
40
0.3388345
50
323.6941379
51
343.8493587
0
ARC
8
DEFAULT_255_1_388
10
13.254724
20
126.1716698
40
0.5244204
50
343.5746655
51
355.008149
0
ARC
8
DEFAULT_255_1_388
10
13.0288932
20
126.1950797
40
0.7514406
50
354.728272
51
0.1208026
0
ARC
8
DEFAULT_255_1_388
10
13.2277957
20
126.2002947
40
0.5525482
50
359.6235211
51
11.2016685
0
ARC
8
DEFAULT_255_1_388
10
13.4003785
20
126.2358284
40
0.3763527
50
10.9991302
51
30.8317616
0
ARC
8
DEFAULT_255_1_388
10
13.4449088
20
126.2592988
40
0.3260975
50
31.3007463
51
37.395541
0
ARC
8
DEFAULT_255_1_388
10
13.5007807
20
126.3064773
40
0.253082
50
36.5918894
51
62.2439906
0
ARC
8
DEFAULT_255_1_388
10
13.5060099
20
126.3061378
40
0.2509927
50
63.3364883
51
89.7193846
0
ARC
8
DEFAULT_255_1_388
10
13.5011552
20
126.2413375
40
0.3158485
50
88.8962924
51
90.004475
0
ARC
8
DEFAULT_255_1_388
10
13.497598
20
126.3066071
40
0.250604
50
89.1923115
51
114.7099029
0
ARC
8
DEFAULT_255_1_388
10
13.5008321
20
126.3108675
40
0.2481307
50
115.7996284
51
142.2901353
0
ARC
8
DEFAULT_255_1_388
10
13.5476593
20
126.2689752
40
0.310833
50
141.4607507
51
142.383894
0
ARC
8
DEFAULT_255_1_388
10
13.5624444
20
126.2621449
40
0.3267335
50
143.0176473
51
163.2340089
0
ARC
8
DEFAULT_255_1_388
10
13.7399732
20
126.2059553
40
0.5129308
50
162.9446504
51
174.3733893
0
ARC
8
DEFAULT_255_1_388
10
13.9813705
20
126.1788483
40
0.75583
50
174.1225809
51
180.1563667
0
LINE
8
DEFAULT_255_1_388
10
14.782385
20
126.568029
11
14.790517
21
126.6764567
0
LINE
8
DEFAULT_255_1_388
10
14.790517
20
126.6764567
11
14.9432194
21
126.6764567
0
LINE
8
DEFAULT_255_1_388
10
14.9432194
20
126.6764567
11
14.9432194
21
125.7222927
0
LINE
8
DEFAULT_255_1_388
10
14.1670576
20
125.4828481
11
14.2537998
21
125.5831438
0
LINE
8
DEFAULT_255_1_388
10
14.7751564
20
125.7123535
11
14.7751564
21
125.796385
0
LINE
8
DEFAULT_255_1_388
10
14.7751564
20
125.9662551
11
14.7751564
21
126.4126159
0
ARC
8
DEFAULT_255_1_388
10
14.9212542
20
126.200622
40
0.8039074
50
169.8802333
51
180.3464902
0
ARC
8
DEFAULT_255_1_388
10
14.6565348
20
126.249787
40
0.5346711
50
152.8534324
51
170.0824729
0
ARC
8
DEFAULT_255_1_388
10
14.5627743
20
126.2941868
40
0.4309932
50
142.0147746
51
152.418569
0
ARC
8
DEFAULT_255_1_388
10
14.4911192
20
126.3594169
40
0.3344504
50
94.3317494
51
143.2674518
0
ARC
8
DEFAULT_255_1_388
10
14.5028051
20
126.2713903
40
0.423138
50
89.9487512
51
95.0093077
0
ARC
8
DEFAULT_255_1_388
10
14.5074849
20
126.2893021
40
0.4052487
50
72.9496911
51
90.6081488
0
ARC
8
DEFAULT_255_1_388
10
14.5305572
20
126.3728718
40
0.3185963
50
37.7743532
51
72.5099202
0
ARC
8
DEFAULT_255_1_388
10
14.4270438
20
125.7179774
40
0.5161937
50
346.3655403
51
0.4789834
0
ARC
8
DEFAULT_255_1_388
10
14.5809271
20
125.6788644
40
0.3574311
50
314.3365584
51
346.6438898
0
ARC
8
DEFAULT_255_1_388
10
14.5694416
20
125.69499
40
0.3770042
50
280.7144
51
313.872307
0
ARC
8
DEFAULT_255_1_388
10
14.5317151
20
125.8631099
40
0.5492378
50
269.6628653
51
281.3208129
0
ARC
8
DEFAULT_255_1_388
10
14.5298811
20
125.8167105
40
0.5028309
50
245.5258654
51
269.8407328
0
ARC
8
DEFAULT_255_1_388
10
14.4869657
20
125.7362065
40
0.4118207
50
232.6664457
51
246.3200328
0
ARC
8
DEFAULT_255_1_388
10
14.43249
20
125.6639386
40
0.3213227
50
214.3036526
51
232.5750527
0
ARC
8
DEFAULT_255_1_388
10
14.5582933
20
125.8243259
40
0.3884393
50
218.381912
51
236.3657409
0
ARC
8
DEFAULT_255_1_388
10
14.5132702
20
125.7615326
40
0.3112322
50
236.8637655
51
270.6382272
0
ARC
8
DEFAULT_255_1_388
10
14.5194385
20
125.7987587
40
0.3484494
50
269.5557858
51
282.3972101
0
ARC
8
DEFAULT_255_1_388
10
14.5459971
20
125.6845767
40
0.2312324
50
282.043923
51
308.3079272
0
ARC
8
DEFAULT_255_1_388
10
14.5556085
20
125.669247
40
0.2132542
50
308.8347234
51
315.2037678
0
ARC
8
DEFAULT_255_1_388
10
14.5467794
20
125.6757123
40
0.2240808
50
315.6213011
51
345.6795376
0
ARC
8
DEFAULT_255_1_388
10
14.4366219
20
125.7063736
40
0.3384084
50
345.2627538
51
358.6311244
0
ARC
8
DEFAULT_255_1_388
10
14.3367725
20
125.7122581
40
0.4383839
50
358.1739988
51
0.0124651
0
ARC
8
DEFAULT_255_1_388
10
14.5261901
20
126.0116381
40
0.3291173
50
275.6950404
51
319.1537182
0
ARC
8
DEFAULT_255_1_388
10
14.5023532
20
126.1494049
40
0.4686772
50
269.8805882
51
276.9235205
0
ARC
8
DEFAULT_255_1_388
10
14.4963832
20
126.02449
40
0.3437976
50
244.0748846
51
270.8321697
0
ARC
8
DEFAULT_255_1_388
10
14.504834
20
126.0267423
40
0.3495805
50
217.781776
51
242.9905232
0
ARC
8
DEFAULT_255_1_388
10
14.5723771
20
126.0868567
40
0.4398355
50
217.5209891
51
218.58043
0
ARC
8
DEFAULT_255_1_388
10
14.603961
20
126.105413
40
0.4762087
50
195.3497149
51
216.9773048
0
ARC
8
DEFAULT_255_1_388
10
14.8315499
20
126.1715667
40
0.7131994
50
183.9387193
51
195.6348167
0
ARC
8
DEFAULT_255_1_388
10
15.0875694
20
126.1945646
40
0.9702086
50
179.929381
51
184.2551265
0
ARC
8
DEFAULT_255_1_388
10
14.9389361
20
126.1733515
40
0.6535206
50
179.6989243
51
188.5749266
0
ARC
8
DEFAULT_255_1_388
10
14.7124551
20
126.1379789
40
0.4242988
50
188.4117627
51
202.0559679
0
ARC
8
DEFAULT_255_1_388
10
14.6034811
20
126.0951952
40
0.3072368
50
202.2924994
51
215.4475859
0
ARC
8
DEFAULT_255_1_388
10
14.5309882
20
126.0390576
40
0.2156547
50
214.4673097
51
264.3362727
0
ARC
8
DEFAULT_255_1_388
10
14.542455
20
126.1106673
40
0.2880794
50
263.4723224
51
270.0965288
0
ARC
8
DEFAULT_255_1_388
10
14.5469785
20
126.0938896
40
0.2713313
50
269.1472473
51
291.7978484
0
ARC
8
DEFAULT_255_1_388
10
14.5540046
20
126.0625081
40
0.2396396
50
293.0243185
51
327.6232391
0
ARC
8
DEFAULT_255_1_388
10
14.4743479
20
126.1207435
40
0.3381603
50
326.5171836
51
332.8160011
0
ARC
8
DEFAULT_255_1_388
10
14.5138661
20
126.2737272
40
0.29591
50
27.9928465
51
47.6314088
0
ARC
8
DEFAULT_255_1_388
10
14.5545366
20
126.3124256
40
0.2399437
50
48.5793547
51
88.6245273
0
ARC
8
DEFAULT_255_1_388
10
14.5448484
20
126.2284448
40
0.3242237
50
87.2690754
51
90.0178312
0
ARC
8
DEFAULT_255_1_388
10
14.5416183
20
126.3022957
40
0.2503923
50
89.2839515
51
110.1847982
0
ARC
8
DEFAULT_255_1_388
10
14.5346984
20
126.3322002
40
0.2199699
50
111.180781
51
145.0423499
0
ARC
8
DEFAULT_255_1_388
10
14.5707845
20
126.3009759
40
0.2674811
50
143.9895932
51
144.106678
0
ARC
8
DEFAULT_255_1_388
10
14.6077916
20
126.278819
40
0.3104736
50
144.7981654
51
162.8715843
0
ARC
8
DEFAULT_255_1_388
10
14.7984515
20
126.2175138
40
0.5107383
50
162.598526
51
173.3417416
0
ARC
8
DEFAULT_255_1_388
10
15.0985888
20
126.1802767
40
0.8131718
50
173.1877249
51
180.2459848
0
LINE
8
DEFAULT_255_1_388
10
15.3769304
20
126.6764567
11
15.3769304
21
125.6988
0
LINE
8
DEFAULT_255_1_388
10
15.3769304
20
125.6988
11
15.2097709
21
125.6988
0
LINE
8
DEFAULT_255_1_388
10
15.2097709
20
125.6988
11
15.2097709
21
126.6764567
0
LINE
8
DEFAULT_255_1_388
10
15.2097709
20
126.6764567
11
15.3769304
21
126.6764567
0
ARC
8
DEFAULT_255_1_388
10
15.3063072
20
126.9368428
40
0.1100948
50
161.4148232
51
180.5532607
0
ARC
8
DEFAULT_255_1_388
10
15.2923382
20
126.9406875
40
0.0956324
50
138.1830164
51
160.9307633
0
ARC
8
DEFAULT_255_1_388
10
15.2799569
20
126.9514313
40
0.0792417
50
104.6371663
51
138.0036136
0
ARC
8
DEFAULT_255_1_388
10
15.2920107
20
126.9101963
40
0.1221906
50
92.0601206
51
105.2198859
0
ARC
8
DEFAULT_255_1_388
10
15.2946472
20
126.8713583
40
0.161103
50
89.9790681
51
92.5006086
0
ARC
8
DEFAULT_255_1_388
10
15.2957648
20
126.8969998
40
0.1354654
50
78.0234649
51
90.4478111
0
ARC
8
DEFAULT_255_1_388
10
15.3061232
20
126.9435203
40
0.0878096
50
55.0521508
51
78.336297
0
ARC
8
DEFAULT_255_1_388
10
15.3117766
20
126.9530168
40
0.0767913
50
42.0506198
51
54.4508489
0
ARC
8
DEFAULT_255_1_388
10
15.2965799
20
126.9390821
40
0.0974091
50
1.7493657
51
42.1498724
0
ARC
8
DEFAULT_255_1_388
10
15.2679705
20
126.9358166
40
0.1261276
50
359.9832635
51
2.8353994
0
ARC
8
DEFAULT_255_1_388
10
15.2866115
20
126.9347412
40
0.1074916
50
342.1062453
51
0.5535864
0
ARC
8
DEFAULT_255_1_388
10
15.3026539
20
126.9303197
40
0.0908695
50
316.7110111
51
341.6513114
0
ARC
8
DEFAULT_255_1_388
10
15.3101971
20
126.9235607
40
0.0807447
50
285.4398289
51
316.5320129
0
ARC
8
DEFAULT_255_1_388
10
15.2978142
20
126.9647023
40
0.1237022
50
272.3543902
51
285.8951677
0
ARC
8
DEFAULT_255_1_388
10
15.2947852
20
127.0062742
40
0.1653687
50
269.9725761
51
272.8112722
0
ARC
8
DEFAULT_255_1_388
10
15.2936904
20
126.9811727
40
0.1402709
50
258.8433431
51
270.4148607
0
ARC
8
DEFAULT_255_1_388
10
15.2835684
20
126.9321739
40
0.0902407
50
238.54281
51
259.1289544
0
ARC
8
DEFAULT_255_1_388
10
15.2759005
20
126.9182694
40
0.0743817
50
222.5056676
51
237.9918132
0
ARC
8
DEFAULT_255_1_388
10
15.2902599
20
126.9313295
40
0.0937918
50
184.1070774
51
222.4604165
0
ARC
8
DEFAULT_255_1_388
10
15.3205012
20
126.9356538
40
0.1242838
50
179.9419581
51
185.0970785
0
LINE
8
DEFAULT_255_1_388
10
15.7582346
20
126.6764567
11
15.9723793
21
126.3195488
0
LINE
8
DEFAULT_255_1_388
10
15.9723793
20
126.3195488
11
16.1892348
21
126.6764567
0
LINE
8
DEFAULT_255_1_388
10
16.1892348
20
126.6764567
11
16.3844047
21
126.6764567
0
LINE
8
DEFAULT_255_1_388
10
16.3844047
20
126.6764567
11
16.0645429
21
126.1930498
0
LINE
8
DEFAULT_255_1_388
10
16.0645429
20
126.1930498
11
16.3943439
21
125.6988
0
LINE
8
DEFAULT_255_1_388
10
16.3943439
20
125.6988
11
16.2009812
21
125.6988
0
LINE
8
DEFAULT_255_1_388
10
16.2009812
20
125.6988
11
15.97509
21
126.0647436
0
LINE
8
DEFAULT_255_1_388
10
15.97509
20
126.0647436
11
15.7491989
21
125.6988
0
LINE
8
DEFAULT_255_1_388
10
15.7491989
20
125.6988
11
15.5549326
21
125.6988
0
LINE
8
DEFAULT_255_1_388
10
15.5549326
20
125.6988
11
15.8847336
21
126.1930498
0
LINE
8
DEFAULT_255_1_388
10
15.8847336
20
126.1930498
11
15.5648718
21
126.6764567
0
LINE
8
DEFAULT_255_1_388
10
15.5648718
20
126.6764567
11
15.7582346
21
126.6764567
0
LINE
8
DEFAULT_255_1_388
10
17.55181
20
127.0207148
11
17.55181
21
125.6988
0
LINE
8
DEFAULT_255_1_388
10
17.55181
20
125.6988
11
17.383747
21
125.6988
0
LINE
8
DEFAULT_255_1_388
10
17.383747
20
125.6988
11
17.383747
21
126.812895
0
LINE
8
DEFAULT_255_1_388
10
17.383747
20
126.812895
11
17.0467175
21
126.6891066
0
LINE
8
DEFAULT_255_1_388
10
17.0467175
20
126.6891066
11
17.0467175
21
126.8409055
0
LINE
8
DEFAULT_255_1_388
10
17.0467175
20
126.8409055
11
17.5256066
21
127.0207148
0
LINE
8
DEFAULT_255_1_388
10
17.5256066
20
127.0207148
11
17.55181
21
127.0207148
0
LINE
8
DEFAULT_255_1_388
10
18.5909091
20
127.0207148
11
18.5909091
21
125.6988
0
LINE
8
DEFAULT_255_1_388
10
18.5909091
20
125.6988
11
18.4228461
21
125.6988
0
LINE
8
DEFAULT_255_1_388
10
18.4228461
20
125.6988
11
18.4228461
21
126.812895
0
LINE
8
DEFAULT_255_1_388
10
18.4228461
20
126.812895
11
18.0858166
21
126.6891066
0
LINE
8
DEFAULT_255_1_388
10
18.0858166
20
126.6891066
11
18.0858166
21
126.8409055
0
LINE
8
DEFAULT_255_1_388
10
18.0858166
20
126.8409055
11
18.5647058
21
127.0207148
0
LINE
8
DEFAULT_255_1_388
10
18.5647058
20
127.0207148
11
18.5909091
21
127.0207148
0
LINE
8
DEFAULT_255_1_388
10
19.9055954
20
126.476769
11
19.9055954
21
126.2599135
0
LINE
8
DEFAULT_255_1_388
10
19.0752197
20
126.2373244
11
19.0752197
21
126.4605048
0
LINE
8
DEFAULT_255_1_388
10
19.738436
20
126.2147353
11
19.738436
21
126.4885153
0
LINE
8
DEFAULT_255_1_388
10
19.2423791
20
126.5011652
11
19.2423791
21
126.2337102
0
ARC
8
DEFAULT_255_1_388
10
18.5278288
20
126.2544118
40
1.3777776
50
353.8440855
51
0.2287917
0
ARC
8
DEFAULT_255_1_388
10
19.0497305
20
126.1961414
40
0.852639
50
344.4934746
51
353.9763743
0
ARC
8
DEFAULT_255_1_388
10
19.3864113
20
126.1004191
40
0.5026273
50
329.2803599
51
344.7473406
0
ARC
8
DEFAULT_255_1_388
10
19.4979608
20
126.0392038
40
0.3754848
50
324.9361395
51
328.6153007
0
ARC
8
DEFAULT_255_1_388
10
19.5405258
20
126.0094586
40
0.3235566
50
280.5801797
51
324.9173226
0
ARC
8
DEFAULT_255_1_388
10
19.4953887
20
126.1974236
40
0.5167077
50
269.5979457
51
281.6732777
0
ARC
8
DEFAULT_255_1_388
10
19.487279
20
126.1839113
40
0.5032026
50
256.6228565
51
270.5105488
0
ARC
8
DEFAULT_255_1_388
10
19.4420533
20
126.0097345
40
0.3233092
50
215.8618351
51
257.2787793
0
ARC
8
DEFAULT_255_1_388
10
19.556924
20
126.0868106
40
0.4615831
50
197.9695203
51
215.2622745
0
ARC
8
DEFAULT_255_1_388
10
19.8364916
20
126.1811641
40
0.7566307
50
187.8816486
51
198.2346584
0
ARC
8
DEFAULT_255_1_388
10
20.2818154
20
126.2454453
40
1.2065653
50
180.8977266
51
188.0054894
0
ARC
8
DEFAULT_255_1_388
10
20.5868368
20
126.25694
40
1.5117443
50
180.7434591
51
181.152202
0
ARC
8
DEFAULT_255_1_388
10
20.4193364
20
126.4659371
40
1.3441277
50
173.7674302
51
180.2315596
0
ARC
8
DEFAULT_255_1_388
10
19.9111232
20
126.5233779
40
0.8326847
50
164.3058537
51
173.9000553
0
ARC
8
DEFAULT_255_1_388
10
19.5835233
20
126.6177652
40
0.4917711
50
148.7922028
51
164.5682288
0
ARC
8
DEFAULT_255_1_388
10
19.476597
20
126.6774457
40
0.3694204
50
144.5883979
51
148.1161588
0
ARC
8
DEFAULT_255_1_388
10
19.4378715
20
126.7044667
40
0.322202
50
101.6440149
51
144.5142619
0
ARC
8
DEFAULT_255_1_388
10
19.4856907
20
126.5144337
40
0.5180451
50
89.528284
51
102.5820197
0
ARC
8
DEFAULT_255_1_388
10
19.4945899
20
126.5100376
40
0.5224441
50
77.0437914
51
90.508231
0
ARC
8
DEFAULT_255_1_388
10
19.5398153
20
126.6948272
40
0.3322297
50
48.2777708
51
77.4996087
0
ARC
8
DEFAULT_255_1_388
10
19.5479893
20
126.7093557
40
0.315966
50
36.3141586
51
47.6307332
0
ARC
8
DEFAULT_255_1_388
10
19.4502615
20
126.6435159
40
0.4337313
50
18.2931065
51
35.6770203
0
ARC
8
DEFAULT_255_1_388
10
19.1641456
20
126.5453107
40
0.7362203
50
8.0246996
51
18.5605636
0
ARC
8
DEFAULT_255_1_388
10
18.6957812
20
126.4761432
40
1.2096583
50
1.127539
51
8.1718423
0
ARC
8
DEFAULT_255_1_388
10
18.3308945
20
126.4618374
40
1.5747719
50
0.5432713
51
1.38669
0
ARC
8
DEFAULT_255_1_388
10
18.5366324
20
126.4925163
40
1.2018103
50
359.8092569
51
4.9408001
0
ARC
8
DEFAULT_255_1_388
10
19.0102905
20
126.53479
40
0.7262727
50
4.8364937
51
12.2906017
0
ARC
8
DEFAULT_255_1_388
10
19.320237
20
126.6038485
40
0.4087324
50
12.0806994
51
23.8171225
0
ARC
8
DEFAULT_255_1_388
10
19.4522766
20
126.6597508
40
0.2653719
50
24.2874621
51
31.3934353
0
ARC
8
DEFAULT_255_1_388
10
19.5113202
20
126.6983822
40
0.1948607
50
30.7407708
51
82.4658033
0
ARC
8
DEFAULT_255_1_388
10
19.4910862
20
126.5990017
40
0.2961198
50
81.1057101
51
90.2187368
0
ARC
8
DEFAULT_255_1_388
10
19.4870674
20
126.6280421
40
0.2670929
50
89.380395
51
105.6763916
0
ARC
8
DEFAULT_255_1_388
10
19.4664396
20
126.703032
40
0.1893189
50
105.7980655
51
149.7387869
0
ARC
8
DEFAULT_255_1_388
10
19.5861536
20
126.6310719
40
0.3289892
50
149.4208441
51
163.628295
0
ARC
8
DEFAULT_255_1_388
10
19.8213766
20
126.5593345
40
0.5749004
50
163.3764549
51
172.141138
0
ARC
8
DEFAULT_255_1_388
10
20.1926487
20
126.5061582
40
0.9499585
50
172.0258462
51
178.0705453
0
ARC
8
DEFAULT_255_1_388
10
20.534804
20
126.4899682
40
1.2924734
50
177.8639301
51
179.5036263
0
ARC
8
DEFAULT_255_1_388
10
20.4129059
20
126.2296151
40
1.170534
50
179.7995545
51
185.246089
0
ARC
8
DEFAULT_255_1_388
10
19.9580652
20
126.1865404
40
0.7136613
50
185.1411911
51
193.0082205
0
ARC
8
DEFAULT_255_1_388
10
19.6606913
20
126.1162441
40
0.4080987
50
192.7897338
51
205.2507384
0
ARC
8
DEFAULT_255_1_388
10
19.5429123
20
126.0636538
40
0.2791522
50
205.8001921
51
211.2545876
0
ARC
8
DEFAULT_255_1_388
10
19.4840662
20
126.0242132
40
0.2084074
50
210.3789935
51
238.4007996
0
ARC
8
DEFAULT_255_1_388
10
19.4818748
20
126.0294786
40
0.2117943
50
239.6521916
51
265.9793852
0
ARC
8
DEFAULT_255_1_388
10
19.4914597
20
126.1051358
40
0.2879689
50
265.1324455
51
270.0603288
0
ARC
8
DEFAULT_255_1_388
10
19.4946974
20
126.0686418
40
0.2514919
50
269.3314378
51
287.2180039
0
ARC
8
DEFAULT_255_1_388
10
19.5102056
20
126.0120291
40
0.1928357
50
287.7957942
51
329.0808983
0
ARC
8
DEFAULT_255_1_388
10
19.4024813
20
126.0792651
40
0.319808
50
328.6635261
51
343.3325043
0
ARC
8
DEFAULT_255_1_388
10
19.1580272
20
126.1554195
40
0.5758408
50
343.0498092
51
351.9392499
0
ARC
8
DEFAULT_255_1_388
10
18.7679593
20
126.2129205
40
0.9701202
50
351.8071632
51
357.7957897
0
ARC
8
DEFAULT_255_1_388
10
18.404507
20
126.2317724
40
1.3340376
50
357.5870923
51
359.2682493
0
LINE
8
DEFAULT_255_1_388
10
20.9446945
20
126.476769
11
20.9446945
21
126.2599135
0
LINE
8
DEFAULT_255_1_388
10
20.1143188
20
126.2373244
11
20.1143188
21
126.4605048
0
LINE
8
DEFAULT_255_1_388
10
20.7775351
20
126.2147353
11
20.7775351
21
126.4885153
0
LINE
8
DEFAULT_255_1_388
10
20.2814782
20
126.5011652
11
20.2814782
21
126.2337102
0
ARC
8
DEFAULT_255_1_388
10
19.5669279
20
126.2544118
40
1.3777776
50
353.8440855
51
0.2287917
0
ARC
8
DEFAULT_255_1_388
10
20.0888297
20
126.1961414
40
0.852639
50
344.4934746
51
353.9763743
0
ARC
8
DEFAULT_255_1_388
10
20.4255104
20
126.1004191
40
0.5026273
50
329.2803599
51
344.7473406
0
ARC
8
DEFAULT_255_1_388
10
20.53706
20
126.0392038
40
0.3754848
50
324.9361395
51
328.6153007
0
ARC
8
DEFAULT_255_1_388
10
20.5796249
20
126.0094586
40
0.3235566
50
280.5801797
51
324.9173226
0
ARC
8
DEFAULT_255_1_388
10
20.5344878
20
126.1974236
40
0.5167077
50
269.5979457
51
281.6732777
0
ARC
8
DEFAULT_255_1_388
10
20.5263782
20
126.1839113
40
0.5032026
50
256.6228565
51
270.5105488
0
ARC
8
DEFAULT_255_1_388
10
20.4811524
20
126.0097345
40
0.3233092
50
215.8618351
51
257.2787793
0
ARC
8
DEFAULT_255_1_388
10
20.5960231
20
126.0868106
40
0.4615831
50
197.9695203
51
215.2622745
0
ARC
8
DEFAULT_255_1_388
10
20.8755907
20
126.1811641
40
0.7566307
50
187.8816486
51
198.2346584
0
ARC
8
DEFAULT_255_1_388
10
21.3209145
20
126.2454453
40
1.2065653
50
180.8977266
51
188.0054894
0
ARC
8
DEFAULT_255_1_388
10
21.6259359
20
126.25694
40
1.5117443
50
180.7434591
51
181.152202
0
ARC
8
DEFAULT_255_1_388
10
21.4584355
20
126.4659371
40
1.3441277
50
173.7674302
51
180.2315596
0
ARC
8
DEFAULT_255_1_388
10
20.9502224
20
126.5233779
40
0.8326847
50
164.3058537
51
173.9000553
0
ARC
8
DEFAULT_255_1_388
10
20.6226224
20
126.6177652
40
0.4917711
50
148.7922028
51
164.5682288
0
ARC
8
DEFAULT_255_1_388
10
20.5156961
20
126.6774457
40
0.3694204
50
144.5883979
51
148.1161588
0
ARC
8
DEFAULT_255_1_388
10
20.4769706
20
126.7044667
40
0.322202
50
101.6440149
51
144.5142619
0
ARC
8
DEFAULT_255_1_388
10
20.5247899
20
126.5144337
40
0.5180451
50
89.528284
51
102.5820197
0
ARC
8
DEFAULT_255_1_388
10
20.5336891
20
126.5100376
40
0.5224441
50
77.0437914
51
90.508231
0
ARC
8
DEFAULT_255_1_388
10
20.5789144
20
126.6948272
40
0.3322297
50
48.2777708
51
77.4996087
0
ARC
8
DEFAULT_255_1_388
10
20.5870884
20
126.7093557
40
0.315966
50
36.3141586
51
47.6307332
0
ARC
8
DEFAULT_255_1_388
10
20.4893606
20
126.6435159
40
0.4337313
50
18.2931065
51
35.6770203
0
ARC
8
DEFAULT_255_1_388
10
20.2032447
20
126.5453107
40
0.7362203
50
8.0246996
51
18.5605636
0
ARC
8
DEFAULT_255_1_388
10
19.7348803
20
126.4761432
40
1.2096583
50
1.127539
51
8.1718423
0
ARC
8
DEFAULT_255_1_388
10
19.3699936
20
126.4618374
40
1.5747719
50
0.5432713
51
1.38669
0
ARC
8
DEFAULT_255_1_388
10
19.5757315
20
126.4925163
40
1.2018103
50
359.8092569
51
4.9408001
0
ARC
8
DEFAULT_255_1_388
10
20.0493896
20
126.53479
40
0.7262727
50
4.8364937
51
12.2906017
0
ARC
8
DEFAULT_255_1_388
10
20.3593361
20
126.6038485
40
0.4087324
50
12.0806994
51
23.8171225
0
ARC
8
DEFAULT_255_1_388
10
20.4913757
20
126.6597508
40
0.2653719
50
24.2874621
51
31.3934353
0
ARC
8
DEFAULT_255_1_388
10
20.5504193
20
126.6983822
40
0.1948607
50
30.7407708
51
82.4658033
0
ARC
8
DEFAULT_255_1_388
10
20.5301854
20
126.5990017
40
0.2961198
50
81.1057101
51
90.2187368
0
ARC
8
DEFAULT_255_1_388
10
20.5261666
20
126.6280421
40
0.2670929
50
89.380395
51
105.6763916
0
ARC
8
DEFAULT_255_1_388
10
20.5055388
20
126.703032
40
0.1893189
50
105.7980655
51
149.7387869
0
ARC
8
DEFAULT_255_1_388
10
20.6252528
20
126.6310719
40
0.3289892
50
149.4208441
51
163.628295
0
ARC
8
DEFAULT_255_1_388
10
20.8604757
20
126.5593345
40
0.5749004
50
163.3764549
51
172.141138
0
ARC
8
DEFAULT_255_1_388
10
21.2317479
20
126.5061582
40
0.9499585
50
172.0258462
51
178.0705453
0
ARC
8
DEFAULT_255_1_388
10
21.5739031
20
126.4899682
40
1.2924734
50
177.8639301
51
179.5036263
0
ARC
8
DEFAULT_255_1_388
10
21.452005
20
126.2296151
40
1.170534
50
179.7995545
51
185.246089
0
ARC
8
DEFAULT_255_1_388
10
20.9971643
20
126.1865404
40
0.7136613
50
185.1411911
51
193.0082205
0
ARC
8
DEFAULT_255_1_388
10
20.6997904
20
126.1162441
40
0.4080987
50
192.7897338
51
205.2507384
0
ARC
8
DEFAULT_255_1_388
10
20.5820114
20
126.0636538
40
0.2791522
50
205.8001921
51
211.2545876
0
ARC
8
DEFAULT_255_1_388
10
20.5231653
20
126.0242132
40
0.2084074
50
210.3789935
51
238.4007996
0
ARC
8
DEFAULT_255_1_388
10
20.5209739
20
126.0294786
40
0.2117943
50
239.6521916
51
265.9793852
0
ARC
8
DEFAULT_255_1_388
10
20.5305588
20
126.1051358
40
0.2879689
50
265.1324455
51
270.0603288
0
ARC
8
DEFAULT_255_1_388
10
20.5337965
20
126.0686418
40
0.2514919
50
269.3314378
51
287.2180039
0
ARC
8
DEFAULT_255_1_388
10
20.5493047
20
126.0120291
40
0.1928357
50
287.7957942
51
329.0808983
0
ARC
8
DEFAULT_255_1_388
10
20.4415804
20
126.0792651
40
0.319808
50
328.6635261
51
343.3325043
0
ARC
8
DEFAULT_255_1_388
10
20.1971263
20
126.1554195
40
0.5758408
50
343.0498092
51
351.9392499
0
ARC
8
DEFAULT_255_1_388
10
19.8070584
20
126.2129205
40
0.9701202
50
351.8071632
51
357.7957897
0
ARC
8
DEFAULT_255_1_388
10
19.4436062
20
126.2317724
40
1.3340376
50
357.5870923
51
359.2682493
0
LINE
8
DEFAULT_255_2_778
10
11.0359959
20
128.6856531
11
10.9838959
21
129.0229531
0
LINE
8
DEFAULT_255_2_778
10
10.9838959
20
129.0229531
11
10.4068959
21
129.0229531
0
LINE
8
DEFAULT_255_2_778
10
10.4068959
20
129.0229531
11
10.2364959
21
128.6856531
0
LINE
8
DEFAULT_255_2_778
10
10.2364959
20
128.6856531
11
9.8694959
21
128.6856531
0
LINE
8
DEFAULT_255_2_778
10
9.8694959
20
128.6856531
11
10.7531959
21
130.3231531
0
LINE
8
DEFAULT_255_2_778
10
10.7531959
20
130.3231531
11
11.0608959
21
130.3231531
0
LINE
8
DEFAULT_255_2_778
10
11.0608959
20
130.3231531
11
11.3754959
21
128.6856531
0
LINE
8
DEFAULT_255_2_778
10
11.3754959
20
128.6856531
11
11.0357959
21
128.6856531
0
LINE
8
DEFAULT_255_2_778
10
11.0357959
20
128.6856531
11
11.0359959
21
128.6856531
0
LINE
8
DEFAULT_255_2_778
10
10.8486959
20
129.9059531
11
10.5430959
21
129.2963531
0
LINE
8
DEFAULT_255_2_778
10
10.5430959
20
129.2963531
11
10.9418959
21
129.2963531
0
LINE
8
DEFAULT_255_2_778
10
10.9418959
20
129.2963531
11
10.8486959
21
129.9059531
0
LINE
8
DEFAULT_255_2_778
10
10.8486959
20
129.9059531
11
10.8486959
21
129.9059531
0
LINE
8
DEFAULT_255_2_778
10
12.1615594
20
130.4131646
11
11.8593594
21
128.6854646
0
LINE
8
DEFAULT_255_2_778
10
11.8593594
20
128.6854646
11
11.5368594
21
128.6854646
0
LINE
8
DEFAULT_255_2_778
10
11.5368594
20
128.6854646
11
11.8400594
21
130.4131646
0
LINE
8
DEFAULT_255_2_778
10
11.8400594
20
130.4131646
11
12.1615594
21
130.4131646
0
LINE
8
DEFAULT_255_2_778
10
12.1615594
20
130.4131646
11
12.1615594
21
130.4131646
0
LINE
8
DEFAULT_255_2_778
10
12.7717594
20
130.4131646
11
12.4695594
21
128.6854646
0
LINE
8
DEFAULT_255_2_778
10
12.4695594
20
128.6854646
11
12.1470594
21
128.6854646
0
LINE
8
DEFAULT_255_2_778
10
12.1470594
20
128.6854646
11
12.4502594
21
130.4131646
0
LINE
8
DEFAULT_255_2_778
10
12.4502594
20
130.4131646
11
12.7717594
21
130.4131646
0
LINE
8
DEFAULT_255_2_778
10
12.7717594
20
130.4131646
11
12.7717594
21
130.4131646
0
ARC
8
DEFAULT_255_2_778
10
13.3180767
20
129.2012764
40
0.5383522
50
238.763891
51
270.7055166
0
ARC
8
DEFAULT_255_2_778
10
13.2867625
20
129.145952
40
0.4748131
50
204.061185
51
238.5328679
0
ARC
8
DEFAULT_255_2_778
10
13.3693681
20
129.1855331
40
0.5663841
50
179.4896096
51
204.3103027
0
ARC
8
DEFAULT_255_2_778
10
13.4933843
20
129.1900727
40
0.6903781
50
175.123126
51
179.9580366
0
ARC
8
DEFAULT_255_2_778
10
13.5850479
20
129.2250152
40
0.7790728
50
149.5392097
51
174.9446897
0
ARC
8
DEFAULT_255_2_778
10
13.459184
20
129.3085212
40
0.628301
50
120.7003982
51
150.2846053
0
ARC
8
DEFAULT_255_2_778
10
13.4196851
20
129.3682024
40
0.556829
50
89.4236852
51
120.3409826
0
ARC
8
DEFAULT_255_2_778
10
13.4252352
20
129.2694671
40
0.6555361
50
88.4553682
51
89.9955718
0
ARC
8
DEFAULT_255_2_778
10
13.4481363
20
129.4536369
40
0.4711572
50
58.4514404
51
90.636095
0
ARC
8
DEFAULT_255_2_778
10
13.4744403
20
129.5170423
40
0.403504
50
35.6058989
51
56.9235594
0
ARC
8
DEFAULT_255_2_778
10
13.3641882
20
129.4432058
40
0.5361477
50
0.6851965
51
35.1616077
0
ARC
8
DEFAULT_255_2_778
10
13.1616313
20
129.4228229
40
0.7391521
50
359.9888194
51
2.0774415
0
ARC
8
DEFAULT_255_2_778
10
13.0480025
20
129.4245249
40
0.852783
50
353.383538
51
359.8759623
0
ARC
8
DEFAULT_255_2_778
10
13.534221
20
129.1721119
40
0.4107176
50
177.8018731
51
179.9839782
0
ARC
8
DEFAULT_255_2_778
10
13.3756217
20
129.160624
40
0.2523852
50
177.3650374
51
219.8309448
0
ARC
8
DEFAULT_255_2_778
10
13.3462068
20
129.1473401
40
0.2214564
50
222.0668323
51
271.55222
0
ARC
8
DEFAULT_255_2_778
10
13.3632002
20
129.3521289
40
0.4263057
50
268.5221572
51
269.9980687
0
ARC
8
DEFAULT_255_2_778
10
13.3616001
20
129.3225217
40
0.3967017
50
270.2290309
51
318.5203973
0
ARC
8
DEFAULT_255_2_778
10
13.4310056
20
129.1392979
40
0.4555006
50
292.4982989
51
325.2807674
0
ARC
8
DEFAULT_255_2_778
10
13.3411907
20
129.3178545
40
0.6549996
50
269.6158853
51
293.7802026
0
ARC
8
DEFAULT_255_2_778
10
13.3368026
20
129.404733
40
0.7418635
50
269.0811303
51
269.9997673
0
ARC
8
DEFAULT_255_2_778
10
13.4205249
20
129.3976977
40
0.2651417
50
88.6426435
51
89.9971979
0
ARC
8
DEFAULT_255_2_778
10
13.4187009
20
129.4329788
40
0.2298681
50
89.5421073
51
130.5025885
0
ARC
8
DEFAULT_255_2_778
10
13.5174398
20
129.3328327
40
0.370282
50
132.0556576
51
154.4346079
0
ARC
8
DEFAULT_255_2_778
10
13.9187288
20
129.1152869
40
0.8264843
50
152.8348001
51
159.2008974
0
ARC
8
DEFAULT_255_2_778
10
13.283715
20
129.4862268
40
0.3137404
50
351.1327381
51
359.8552777
0
ARC
8
DEFAULT_255_2_778
10
13.3301744
20
129.4858274
40
0.2672803
50
359.9157472
51
8.073482
0
ARC
8
DEFAULT_255_2_778
10
13.4328726
20
129.5011276
40
0.1634528
50
7.8192239
51
49.4174523
0
ARC
8
DEFAULT_255_2_778
10
13.4309336
20
129.4879377
40
0.174876
50
51.746929
51
91.3525911
0
LINE
8
DEFAULT_255_2_778
10
12.8055056
20
129.248765
11
12.8090056
21
129.293665
0
LINE
8
DEFAULT_255_2_778
10
13.8951056
20
129.326265
11
13.8768056
21
129.187865
0
LINE
8
DEFAULT_255_2_778
10
13.8768056
20
129.187865
11
13.1238056
21
129.187865
0
LINE
8
DEFAULT_255_2_778
10
13.6588056
20
129.059765
11
13.8054056
21
128.879865
0
LINE
8
DEFAULT_255_2_778
10
13.3249056
20
128.662965
11
13.3247056
21
128.662965
0
LINE
8
DEFAULT_255_2_778
10
13.1461056
20
129.408765
11
13.5868056
21
129.408765
0
LINE
8
DEFAULT_255_2_778
10
13.5868056
20
129.408765
11
13.5937056
21
129.437865
0
LINE
8
DEFAULT_255_2_778
10
13.4268056
20
129.662765
11
13.4268056
21
129.662765
0
ARC
8
DEFAULT_255_2_778
10
14.7973588
20
129.4813783
40
0.4439397
50
89.8554796
51
141.1589213
0
ARC
8
DEFAULT_255_2_778
10
14.7984572
20
129.420443
40
0.5048737
50
88.7717605
51
89.9975792
0
ARC
8
DEFAULT_255_2_778
10
14.8178417
20
129.6093406
40
0.315976
50
50.4893295
51
91.5528058
0
ARC
8
DEFAULT_255_2_778
10
14.8339359
20
129.6437178
40
0.2793745
50
33.8414583
51
48.5499238
0
ARC
8
DEFAULT_255_2_778
10
14.731985
20
129.5848286
40
0.3969262
50
4.3932888
51
32.7062485
0
ARC
8
DEFAULT_255_2_778
10
14.4819065
20
129.5494301
40
0.6491822
50
359.8769204
51
5.8177478
0
ARC
8
DEFAULT_255_2_778
10
14.2701804
20
129.5503881
40
0.8609097
50
353.9399056
51
359.8434284
0
ARC
8
DEFAULT_255_2_778
10
14.4164047
20
129.5160967
40
0.3954956
50
352.2407688
51
359.7520116
0
ARC
8
DEFAULT_255_2_778
10
14.5201997
20
129.5149041
40
0.2916973
50
359.8980094
51
5.448398
0
ARC
8
DEFAULT_255_2_778
10
14.6814536
20
129.5320865
40
0.129553
50
4.6550554
51
97.2610773
0
ARC
8
DEFAULT_255_2_778
10
14.655996
20
129.4063531
40
0.2544097
50
87.9539208
51
89.9945997
0
ARC
8
DEFAULT_255_2_778
10
14.6629447
20
129.3907668
40
0.2700847
50
91.4691634
51
141.078713
0
ARC
8
DEFAULT_255_2_778
10
14.7966376
20
129.2489301
40
0.4639576
50
137.8219849
51
140.394746
0
ARC
8
DEFAULT_255_2_778
10
16.9661161
20
129.295711
40
1.026426
50
77.5141066
51
90.4821212
0
ARC
8
DEFAULT_255_2_778
10
17.0845798
20
129.8049611
40
0.5036389
50
52.814306
51
78.1469212
0
ARC
8
DEFAULT_255_2_778
10
17.1732245
20
129.9332438
40
0.3479303
50
357.5432245
51
51.6759047
0
ARC
8
DEFAULT_255_2_778
10
16.9814613
20
129.9186938
40
0.5393738
50
356.248244
51
359.9613012
0
ARC
8
DEFAULT_255_2_778
10
17.128092
20
129.9060882
40
0.3922439
50
295.0867564
51
356.6841236
0
ARC
8
DEFAULT_255_2_778
10
16.9599154
20
130.1688279
40
0.7026958
50
292.6018649
51
298.4245718
0
ARC
8
DEFAULT_255_2_778
10
17.1412835
20
129.256175
40
0.2784307
50
29.5992916
51
71.4243751
0
ARC
8
DEFAULT_255_2_778
10
17.0686219
20
129.2139727
40
0.3624559
50
358.8250622
51
29.7265593
0
ARC
8
DEFAULT_255_2_778
10
16.932071
20
129.2068262
40
0.4989307
50
356.3312443
51
359.9671937
0
ARC
8
DEFAULT_255_2_778
10
16.9581925
20
129.1880387
40
0.4719696
50
307.6792206
51
358.4048608
0
ARC
8
DEFAULT_255_2_778
10
16.8807048
20
129.3088643
40
0.6150877
50
279.1080464
51
306.5123219
0
ARC
8
DEFAULT_255_2_778
10
16.7961448
20
129.7309116
40
1.0453321
50
269.63465
51
280.0226117
0
ARC
8
DEFAULT_255_2_778
10
16.8094212
20
129.2960308
40
0.3407431
50
267.9747348
51
304.6141501
0
ARC
8
DEFAULT_255_2_778
10
16.8661516
20
129.2098067
40
0.2375665
50
305.166569
51
352.3059676
0
ARC
8
DEFAULT_255_2_778
10
16.775822
20
129.2308166
40
0.3300111
50
350.7906063
51
359.6837465
0
ARC
8
DEFAULT_255_2_778
10
16.9356152
20
129.2364465
40
0.170376
50
357.4933304
51
35.754963
0
ARC
8
DEFAULT_255_2_778
10
16.9423472
20
129.2221963
40
0.1739313
50
40.8670445
51
88.9145542
0
ARC
8
DEFAULT_255_2_778
10
16.9113357
20
129.0369792
40
0.360752
50
84.5431107
51
87.5464559
0
ARC
8
DEFAULT_255_2_778
10
16.8864523
20
130.0090688
40
0.3741259
50
268.9933192
51
299.9063201
0
ARC
8
DEFAULT_255_2_778
10
16.9296435
20
129.9162438
40
0.2722705
50
301.7671328
51
305.0688299
0
ARC
8
DEFAULT_255_2_778
10
16.9572403
20
129.8801463
40
0.2268776
50
304.6024496
51
352.3134516
0
ARC
8
DEFAULT_255_2_778
10
16.9035208
20
129.8908322
40
0.2815642
50
351.6205962
51
359.745937
0
ARC
8
DEFAULT_255_2_778
10
17.0391775
20
129.8969083
40
0.1460884
50
357.1260689
51
87.9509322
0
ARC
8
DEFAULT_255_2_778
10
16.9733166
20
129.6175677
40
0.4312349
50
80.5121161
51
90.1776895
0
ARC
8
DEFAULT_255_2_778
10
18.304359
20
128.9457308
40
0.6634375
50
79.3314563
51
88.7113465
0
ARC
8
DEFAULT_255_2_778
10
18.3079683
20
129.1791839
40
0.4299655
50
88.4925657
51
89.9946723
0
ARC
8
DEFAULT_255_2_778
10
18.2982438
20
129.2992608
40
0.3100425
50
88.1952228
51
143.885382
0
ARC
8
DEFAULT_255_2_778
10
18.4077805
20
129.5442129
40
0.3980768
50
117.0828142
51
147.9763761
0
ARC
8
DEFAULT_255_2_778
10
18.3544747
20
129.6275295
40
0.2997784
50
89.5977622
51
115.2613452
0
ARC
8
DEFAULT_255_2_778
10
18.3464621
20
129.4553482
40
0.4720608
50
75.0830674
51
88.7719532
0
ARC
8
DEFAULT_255_2_778
10
19.3883565
20
128.7725588
40
0.303463
50
178.9513385
51
196.6911244
0
ARC
8
DEFAULT_255_2_778
10
19.5567182
20
128.7779238
40
0.4717738
50
177.8405456
51
179.9770623
0
ARC
8
DEFAULT_255_2_778
10
18.7787325
20
129.0825947
40
0.4198561
50
270.5473861
51
316.8967404
0
ARC
8
DEFAULT_255_2_778
10
18.7827705
20
129.0929581
40
0.4302003
50
268.5226571
51
269.9964175
0
ARC
8
DEFAULT_255_2_778
10
18.7647216
20
129.0410252
40
0.3781887
50
226.455184
51
271.0541416
0
ARC
8
DEFAULT_255_2_778
10
18.7161161
20
128.9956869
40
0.311866
50
179.0506747
51
227.1894377
0
ARC
8
DEFAULT_255_2_778
10
18.7977006
20
129.0007683
40
0.3934079
50
177.4603384
51
179.9875271
0
ARC
8
DEFAULT_255_2_778
10
18.7677222
20
129.0167892
40
0.3630457
50
122.3464314
51
179.7772632
0
ARC
8
DEFAULT_255_2_778
10
18.9127921
20
128.7896577
40
0.6325515
50
98.6956815
51
122.4402135
0
ARC
8
DEFAULT_255_2_778
10
18.9977072
20
128.3346789
40
1.0952432
50
89.6404969
51
99.4883828
0
ARC
8
DEFAULT_255_2_778
10
18.91142
20
129.549956
40
0.2635833
50
349.2520325
51
359.7979352
0
ARC
8
DEFAULT_255_2_778
10
18.9485896
20
129.5491836
40
0.2264121
50
359.9602232
51
5.7075699
0
ARC
8
DEFAULT_255_2_778
10
19.0517084
20
129.5633244
40
0.1224577
50
3.9221136
51
47.9806675
0
ARC
8
DEFAULT_255_2_778
10
19.0461009
20
129.5459028
40
0.1393558
50
51.0640414
51
91.6537281
0
ARC
8
DEFAULT_255_2_778
10
19.0343864
20
129.4117856
40
0.2735232
50
88.3883484
51
89.9950272
0
ARC
8
DEFAULT_255_2_778
10
19.0289472
20
129.4896996
40
0.1956856
50
88.4002709
51
125.6558116
0
ARC
8
DEFAULT_255_2_778
10
19.0229477
20
129.5079867
40
0.1774238
50
127.5242925
51
170.6536699
0
ARC
8
DEFAULT_255_2_778
10
18.8789596
20
129.5217573
40
0.3527561
50
122.7014157
51
177.7346919
0
ARC
8
DEFAULT_255_2_778
10
19.030198
20
129.3167043
40
0.6072396
50
91.7146868
51
124.2570002
0
ARC
8
DEFAULT_255_2_778
10
19.05893
20
129.0598064
40
0.865138
50
89.9735854
51
93.1077226
0
ARC
8
DEFAULT_255_2_778
10
19.0592938
20
129.003256
40
0.9216883
50
89.4414218
51
89.9978259
0
ARC
8
DEFAULT_255_2_778
10
19.0704714
20
129.4047068
40
0.5201984
50
63.6868659
51
90.2414521
0
ARC
8
DEFAULT_255_2_778
10
19.1244671
20
129.5326249
40
0.3816898
50
44.805062
51
62.4405121
0
ARC
8
DEFAULT_255_2_778
10
19.1511934
20
129.5568957
40
0.3456276
50
358.4368244
51
45.0725574
0
ARC
8
DEFAULT_255_2_778
10
18.9988451
20
129.5482092
40
0.4978477
50
354.0151208
51
359.9146153
0
ARC
8
DEFAULT_255_2_778
10
19.916384
20
128.8259006
40
0.5223437
50
178.2666392
51
179.9853875
0
ARC
8
DEFAULT_255_2_778
10
19.7189724
20
128.8180635
40
0.3250299
50
178.5948625
51
200.018038
0
ARC
8
DEFAULT_255_2_778
10
18.8607749
20
129.2069835
40
0.2979407
50
268.1351457
51
269.9967975
0
ARC
8
DEFAULT_255_2_778
10
18.8555143
20
129.2044809
40
0.2954847
50
271.0168715
51
323.4470831
0
ARC
8
DEFAULT_255_2_778
10
19.0185177
20
128.8449003
40
0.3950093
50
89.6139406
51
115.9632081
0
ARC
8
DEFAULT_255_2_778
10
18.9568146
20
128.9860476
40
0.2411766
50
117.4642621
51
142.4598629
0
ARC
8
DEFAULT_255_2_778
10
18.9147894
20
129.0229762
40
0.1853888
50
143.595728
51
174.110017
0
ARC
8
DEFAULT_255_2_778
10
18.8922711
20
129.0174244
40
0.1637466
50
171.368069
51
179.7835889
0
ARC
8
DEFAULT_255_2_778
10
18.8267207
20
129.0143088
40
0.098266
50
177.8221965
51
224.0379617
0
ARC
8
DEFAULT_255_2_778
10
18.8464576
20
129.0393517
40
0.1299333
50
225.9269812
51
272.0384171
0
ARC
8
DEFAULT_255_2_778
10
20.216987
20
129.5744976
40
0.3515032
50
37.8132465
51
89.9360651
0
ARC
8
DEFAULT_255_2_778
10
20.0346749
20
129.0842418
40
0.4267183
50
285.291584
51
321.0175046
0
ARC
8
DEFAULT_255_2_778
10
20.0570669
20
129.0380225
40
0.3763475
50
269.8450062
51
283.8588709
0
ARC
8
DEFAULT_255_2_778
10
20.0560587
20
129.0707286
40
0.4090522
50
268.5880369
51
269.9986183
0
ARC
8
DEFAULT_255_2_778
10
20.0420305
20
129.0175487
40
0.3557701
50
236.3475668
51
270.6359501
0
ARC
8
DEFAULT_255_2_778
10
20.0598141
20
129.0290321
40
0.3752788
50
201.8435891
51
235.058908
0
ARC
8
DEFAULT_255_2_778
10
20.3322211
20
129.1480871
40
0.6724873
50
181.1917384
51
202.6233367
0
ARC
8
DEFAULT_255_2_778
10
20.6351677
20
129.1811339
40
0.9764219
50
180.0156472
51
182.7609519
0
ARC
8
DEFAULT_255_2_778
10
20.5470549
20
129.1817658
40
0.8883095
50
174.2087211
51
180.0579587
0
ARC
8
DEFAULT_255_2_778
10
20.6346038
20
129.1946468
40
0.9727968
50
152.6606942
51
172.4775279
0
ARC
8
DEFAULT_255_2_778
10
20.4685375
20
129.2691269
40
0.7911386
50
151.1967159
51
151.9287309
0
ARC
8
DEFAULT_255_2_778
10
20.2724416
20
129.3931657
40
0.559722
50
125.8155177
51
152.6517649
0
ARC
8
DEFAULT_255_2_778
10
20.1926864
20
129.4876789
40
0.4365104
50
121.2895022
51
124.5859333
0
ARC
8
DEFAULT_255_2_778
10
20.2005174
20
129.4733255
40
0.4528439
50
89.3885498
51
121.1930117
0
ARC
8
DEFAULT_255_2_778
10
20.205315
20
129.3915492
40
0.5345942
50
88.6747242
51
89.9962477
0
ARC
8
DEFAULT_255_2_778
10
21.0229427
20
129.1541181
40
1.044966
50
173.5557888
51
179.5636493
0
ARC
8
DEFAULT_255_2_778
10
20.5582157
20
129.161089
40
0.5802095
50
179.9025124
51
183.3187157
0
ARC
8
DEFAULT_255_2_778
10
20.270534
20
129.132149
40
0.2915917
50
180.9134286
51
207.6247443
0
ARC
8
DEFAULT_255_2_778
10
20.135005
20
129.0677881
40
0.1417894
50
209.9763709
51
272.172214
0
ARC
8
DEFAULT_255_2_778
10
20.1512082
20
129.1915383
40
0.2656585
50
267.6638236
51
269.9934853
0
ARC
8
DEFAULT_255_2_778
10
20.1452669
20
129.1953962
40
0.2695812
50
271.2564257
51
323.4819236
0
ARC
8
DEFAULT_255_2_778
10
20.0042443
20
129.3342425
40
0.4663623
50
320.0808185
51
322.7722781
0
ARC
8
DEFAULT_255_2_778
10
20.2905955
20
129.4805938
40
0.1811681
50
17.7085133
51
91.4917236
0
ARC
8
DEFAULT_255_2_778
10
20.2776466
20
129.3798302
40
0.2819906
50
88.3270304
51
89.9962875
0
ARC
8
DEFAULT_255_2_778
10
20.2751839
20
129.4279886
40
0.2338453
50
89.3920923
51
141.8934507
0
ARC
8
DEFAULT_255_2_778
10
20.4150372
20
129.3183724
40
0.411538
50
141.9009784
51
164.0634131
0
ARC
8
DEFAULT_255_2_778
10
20.9401614
20
129.1506385
40
0.9626867
50
163.0454941
51
172.7936709
0
LINE
8
DEFAULT_255_2_778
10
14.1790793
20
129.9027006
11
14.4788793
21
129.9038006
0
LINE
8
DEFAULT_255_2_778
10
14.4788793
20
129.9038006
11
14.4515793
21
129.7598006
0
LINE
8
DEFAULT_255_2_778
10
15.1262793
20
129.4595006
11
14.9968793
21
128.6856006
0
LINE
8
DEFAULT_255_2_778
10
14.9968793
20
128.6856006
11
14.6764793
21
128.6856006
0
LINE
8
DEFAULT_255_2_778
10
14.6764793
20
128.6856006
11
14.8082793
21
129.4627006
0
LINE
8
DEFAULT_255_2_778
10
14.4391793
20
129.5447006
11
14.2856793
21
128.6854006
0
LINE
8
DEFAULT_255_2_778
10
14.2856793
20
128.6854006
11
13.9652793
21
128.6854006
0
LINE
8
DEFAULT_255_2_778
10
13.9652793
20
128.6854006
11
14.1787793
21
129.9025006
0
LINE
8
DEFAULT_255_2_778
10
14.1787793
20
129.9025006
11
14.1790793
21
129.9027006
0
LINE
8
DEFAULT_255_2_778
10
16.0157793
20
129.5178006
11
15.9692793
21
129.2558006
0
LINE
8
DEFAULT_255_2_778
10
15.9692793
20
129.2558006
11
15.3466793
21
129.2558006
0
LINE
8
DEFAULT_255_2_778
10
15.3466793
20
129.2558006
11
15.3921793
21
129.5178006
0
LINE
8
DEFAULT_255_2_778
10
15.3921793
20
129.5178006
11
16.0157793
21
129.5178006
0
LINE
8
DEFAULT_255_2_778
10
16.0157793
20
129.5178006
11
16.0157793
21
129.5178006
0
LINE
8
DEFAULT_255_2_778
10
16.7894793
20
128.6856006
11
16.1544793
21
128.6856006
0
LINE
8
DEFAULT_255_2_778
10
16.1544793
20
128.6856006
11
16.4417793
21
130.3231006
0
LINE
8
DEFAULT_255_2_778
10
16.4417793
20
130.3231006
11
16.9574793
21
130.3221006
0
LINE
8
DEFAULT_255_2_778
10
16.7894793
20
128.6856006
11
16.7894793
21
128.6856006
0
LINE
8
DEFAULT_255_2_778
10
16.9267793
20
129.3976006
11
16.6131793
21
129.3987006
0
LINE
8
DEFAULT_255_2_778
10
16.6131793
20
129.3987006
11
16.5348793
21
128.9566006
0
LINE
8
DEFAULT_255_2_778
10
16.5348793
20
128.9566006
11
16.7973793
21
128.9555006
0
LINE
8
DEFAULT_255_2_778
10
16.9267793
20
129.3974006
11
16.9267793
21
129.3976006
0
LINE
8
DEFAULT_255_2_778
10
16.7267793
20
130.0501006
11
16.6539793
21
129.6373006
0
LINE
8
DEFAULT_255_2_778
10
16.6539793
20
129.6373006
11
16.8798793
21
129.6350006
0
LINE
8
DEFAULT_255_2_778
10
16.9719793
20
130.0488006
11
16.7267793
21
130.0498006
0
LINE
8
DEFAULT_255_2_778
10
16.7267793
20
130.0498006
11
16.7267793
21
130.0501006
0
LINE
8
DEFAULT_255_2_778
10
18.4681793
20
129.9115006
11
18.4271793
21
129.5977006
0
LINE
8
DEFAULT_255_2_778
10
18.0477793
20
129.4820006
11
17.9056793
21
128.6856006
0
LINE
8
DEFAULT_255_2_778
10
17.9056793
20
128.6856006
11
17.5852793
21
128.6856006
0
LINE
8
DEFAULT_255_2_778
10
17.5852793
20
128.6856006
11
17.7987793
21
129.9027006
0
LINE
8
DEFAULT_255_2_778
10
17.7987793
20
129.9027006
11
18.0998793
21
129.9038006
0
LINE
8
DEFAULT_255_2_778
10
18.0998793
20
129.9038006
11
18.0702793
21
129.7553006
0
LINE
8
DEFAULT_255_2_778
10
18.4679793
20
129.9115006
11
18.4681793
21
129.9115006
0
LINE
8
DEFAULT_255_2_778
10
19.4122793
20
128.6854006
11
19.0976793
21
128.6854006
0
LINE
8
DEFAULT_255_2_778
10
19.0045793
20
129.4299006
11
19.1545793
21
129.4278006
0
LINE
8
DEFAULT_255_2_778
10
19.1545793
20
129.4278006
11
19.1703793
21
129.5008006
0
LINE
8
DEFAULT_255_2_778
10
18.8478793
20
129.5368006
11
18.5264793
21
129.5357006
0
LINE
8
DEFAULT_255_2_778
10
19.4939793
20
129.4963006
11
19.3997793
21
128.9137006
0
LINE
8
DEFAULT_255_2_778
10
19.3997793
20
128.9137006
11
19.3942793
21
128.8417006
0
LINE
8
DEFAULT_255_2_778
10
19.4135793
20
128.7068006
11
19.4124793
21
128.6854006
0
LINE
8
DEFAULT_255_2_778
10
19.4124793
20
128.6854006
11
19.4122793
21
128.6854006
0
LINE
8
DEFAULT_255_2_778
10
19.0928793
20
129.0285006
11
19.1325793
21
129.2389006
0
LINE
8
DEFAULT_255_2_778
10
19.1325793
20
129.2389006
11
19.0211793
21
129.2399006
0
LINE
8
DEFAULT_255_2_778
10
18.8510793
20
128.9095006
11
18.8510793
21
128.9092006
0
LINE
8
DEFAULT_255_2_778
10
20.4946793
20
129.7900006
11
20.6150793
21
130.4131006
0
LINE
8
DEFAULT_255_2_778
10
20.6150793
20
130.4131006
11
20.9364793
21
130.4131006
0
LINE
8
DEFAULT_255_2_778
10
20.9364793
20
130.4131006
11
20.6343793
21
128.6854006
0
LINE
8
DEFAULT_255_2_778
10
20.6343793
20
128.6854006
11
20.3480793
21
128.6854006
0
LINE
8
DEFAULT_255_2_778
10
20.3480793
20
128.6854006
11
20.3663793
21
128.8158006
0
LINE
8
DEFAULT_255_2_778
10
19.6632793
20
129.2714006
11
19.6701793
21
129.3220006
0
LINE
8
DEFAULT_255_2_778
10
20.2176793
20
129.9260006
11
20.2173793
21
129.9260006
0
LINE
8
DEFAULT_255_2_778
10
20.3755793
20
129.0521006
11
20.4631793
21
129.5357006
0
LINE
8
DEFAULT_255_2_778
10
19.9850793
20
129.2714006
11
19.9845793
21
129.2714006
0
LINE
8
DEFAULT_255_2_778
10
21.5304594
20
130.4131646
11
21.2282594
21
128.6854646
0
LINE
8
DEFAULT_255_2_778
10
21.2282594
20
128.6854646
11
20.9057594
21
128.6854646
0
LINE
8
DEFAULT_255_2_778
10
20.9057594
20
128.6854646
11
21.2089594
21
130.4131646
0
LINE
8
DEFAULT_255_2_778
10
21.2089594
20
130.4131646
11
21.5304594
21
130.4131646
0
LINE
8
DEFAULT_255_2_778
10
21.5304594
20
130.4131646
11
21.5304594
21
130.4131646
0
ARC
8
DEFAULT_255_2_778
10
22.0768767
20
129.2012764
40
0.5383522
50
238.763891
51
270.7055166
0
ARC
8
DEFAULT_255_2_778
10
22.0455625
20
129.145952
40
0.4748131
50
204.061185
51
238.5328679
0
ARC
8
DEFAULT_255_2_778
10
22.1281681
20
129.1855331
40
0.5663841
50
179.4896096
51
204.3103027
0
ARC
8
DEFAULT_255_2_778
10
22.2521843
20
129.1900727
40
0.6903781
50
175.123126
51
179.9580366
0
ARC
8
DEFAULT_255_2_778
10
22.3438479
20
129.2250152
40
0.7790728
50
149.5392097
51
174.9446897
0
ARC
8
DEFAULT_255_2_778
10
22.217984
20
129.3085212
40
0.628301
50
120.7003982
51
150.2846053
0
ARC
8
DEFAULT_255_2_778
10
22.1784851
20
129.3682024
40
0.556829
50
89.4236852
51
120.3409826
0
ARC
8
DEFAULT_255_2_778
10
22.1840352
20
129.2694671
40
0.6555361
50
88.4553682
51
89.9955718
0
ARC
8
DEFAULT_255_2_778
10
22.2069363
20
129.4536369
40
0.4711572
50
58.4514404
51
90.636095
0
ARC
8
DEFAULT_255_2_778
10
22.2332403
20
129.5170423
40
0.403504
50
35.6058989
51
56.9235594
0
ARC
8
DEFAULT_255_2_778
10
22.1229882
20
129.4432058
40
0.5361477
50
0.6851965
51
35.1616077
0
ARC
8
DEFAULT_255_2_778
10
21.9204313
20
129.4228229
40
0.7391521
50
359.9888194
51
2.0774415
0
ARC
8
DEFAULT_255_2_778
10
21.8068025
20
129.4245249
40
0.852783
50
353.383538
51
359.8759623
0
ARC
8
DEFAULT_255_2_778
10
22.293021
20
129.1721119
40
0.4107176
50
177.8018731
51
179.9839782
0
ARC
8
DEFAULT_255_2_778
10
22.1344217
20
129.160624
40
0.2523852
50
177.3650374
51
219.8309448
0
ARC
8
DEFAULT_255_2_778
10
22.1050068
20
129.1473401
40
0.2214564
50
222.0668323
51
271.55222
0
ARC
8
DEFAULT_255_2_778
10
22.1220002
20
129.3521289
40
0.4263057
50
268.5221572
51
269.9980687
0
ARC
8
DEFAULT_255_2_778
10
22.1204001
20
129.3225217
40
0.3967017
50
270.2290309
51
318.5203973
0
ARC
8
DEFAULT_255_2_778
10
22.1898056
20
129.1392979
40
0.4555006
50
292.4982989
51
325.2807674
0
ARC
8
DEFAULT_255_2_778
10
22.0999907
20
129.3178545
40
0.6549996
50
269.6158853
51
293.7802026
0
ARC
8
DEFAULT_255_2_778
10
22.0956026
20
129.404733
40
0.7418635
50
269.0811303
51
269.9997673
0
ARC
8
DEFAULT_255_2_778
10
22.1793249
20
129.3976977
40
0.2651417
50
88.6426435
51
89.9971979
0
ARC
8
DEFAULT_255_2_778
10
22.1775009
20
129.4329788
40
0.2298681
50
89.5421073
51
130.5025885
0
ARC
8
DEFAULT_255_2_778
10
22.2762398
20
129.3328327
40
0.370282
50
132.0556576
51
154.4346079
0
ARC
8
DEFAULT_255_2_778
10
22.6775288
20
129.1152869
40
0.8264843
50
152.8348001
51
159.2008974
0
ARC
8
DEFAULT_255_2_778
10
22.042515
20
129.4862268
40
0.3137404
50
351.1327381
51
359.8552777
0
ARC
8
DEFAULT_255_2_778
10
22.0889744
20
129.4858274
40
0.2672803
50
359.9157472
51
8.073482
0
ARC
8
DEFAULT_255_2_778
10
22.1916726
20
129.5011276
40
0.1634528
50
7.8192239
51
49.4174523
0
ARC
8
DEFAULT_255_2_778
10
22.1897336
20
129.4879377
40
0.174876
50
51.746929
51
91.3525911
0
LINE
8
DEFAULT_255_2_778
10
21.5643056
20
129.248765
11
21.5678056
21
129.293665
0
LINE
8
DEFAULT_255_2_778
10
22.6539056
20
129.326265
11
22.6356056
21
129.187865
0
LINE
8
DEFAULT_255_2_778
10
22.6356056
20
129.187865
11
21.8826056
21
129.187865
0
LINE
8
DEFAULT_255_2_778
10
22.4176056
20
129.059765
11
22.5642056
21
128.879865
0
LINE
8
DEFAULT_255_2_778
10
22.0837056
20
128.662965
11
22.0835056
21
128.662965
0
LINE
8
DEFAULT_255_2_778
10
21.9049056
20
129.408765
11
22.3456056
21
129.408765
0
LINE
8
DEFAULT_255_2_778
10
22.3456056
20
129.408765
11
22.3525056
21
129.437865
0
LINE
8
DEFAULT_255_2_778
10
22.1856056
20
129.662765
11
22.1856056
21
129.662765
0
ARC
8
DEFAULT_255_2_778
10
22.5732251
20
128.8018848
40
0.7187609
50
318.1171527
51
335.3457065
0
ARC
8
DEFAULT_255_2_778
10
22.7861338
20
128.6197586
40
0.4387075
50
306.2044829
51
317.2623563
0
ARC
8
DEFAULT_255_2_778
10
22.8118587
20
128.5890063
40
0.3987066
50
269.0092455
51
305.8318035
0
ARC
8
DEFAULT_255_2_778
10
22.8209703
20
128.7536254
40
0.5634934
50
257.9736769
51
268.3723286
0
ARC
8
DEFAULT_255_2_778
10
22.976467
20
129.6078273
40
1.431581
50
256.8370098
51
259.0102636
0
ARC
8
DEFAULT_255_2_778
10
22.7299218
20
128.855881
40
0.396887
50
268.3457775
51
269.9906226
0
ARC
8
DEFAULT_255_2_778
10
22.744688
20
128.6964479
40
0.2379166
50
266.425992
51
328.6474802
0
LINE
8
DEFAULT_255_2_778
10
23.1491646
20
129.9024594
11
23.2378646
21
129.1489594
0
LINE
8
DEFAULT_255_2_778
10
23.2378646
20
129.1489594
11
23.5889646
21
129.9024594
0
LINE
8
DEFAULT_255_2_778
10
23.5889646
20
129.9024594
11
23.9453646
21
129.9024594
0
LINE
8
DEFAULT_255_2_778
10
23.9453646
20
129.9024594
11
23.2264646
21
128.5020594
0
LINE
8
DEFAULT_255_2_778
10
22.6504646
20
128.2138594
11
22.6742646
21
128.4612594
0
LINE
8
DEFAULT_255_2_778
10
22.6742646
20
128.4612594
11
22.7184646
21
128.4591594
0
LINE
8
DEFAULT_255_2_778
10
22.9478646
20
128.5726594
11
23.0182646
21
128.7020594
0
LINE
8
DEFAULT_255_2_778
10
23.0182646
20
128.7020594
11
22.8171646
21
129.9021594
0
LINE
8
DEFAULT_255_2_778
10
22.8171646
20
129.9021594
11
23.1489646
21
129.9021594
0
LINE
8
DEFAULT_255_2_778
10
23.1489646
20
129.9021594
11
23.1491646
21
129.9024594
0
LINE
8
DEFAULT_255_2_778
10
5.4244542
20
130.3019666
11
5.4244542
21
129.1166666
0
LINE
8
DEFAULT_255_2_778
10
5.4244542
20
129.1166666
11
8.3507542
21
129.0796666
0
LINE
8
DEFAULT_255_2_778
10
8.3507542
20
129.0796666
11
8.3507542
21
130.3019666
0
LINE
8
DEFAULT_255_2_778
10
8.3507542
20
130.3019666
11
7.4246542
21
131.1539666
0
LINE
8
DEFAULT_255_2_778
10
7.4246542
20
131.1539666
11
6.2764542
21
131.1539666
0
LINE
8
DEFAULT_255_2_778
10
6.2764542
20
131.1539666
11
5.4244542
21
130.3019666
0
LINE
8
DEFAULT_255_2_778
10
5.5726542
20
128.8944666
11
8.2025542
21
128.8944666
0
LINE
8
DEFAULT_255_2_778
10
8.2025542
20
128.8944666
11
7.4617542
21
128.1906666
0
LINE
8
DEFAULT_255_2_778
10
7.4617542
20
128.1906666
11
6.3504542
21
128.1906666
0
LINE
8
DEFAULT_255_2_778
10
6.3504542
20
128.1906666
11
5.5726542
21
128.8944666
0
ARC
8
DEFAULT_255_2_778
10
7.8458226
20
129.4435768
40
0.1423419
50
264.5115721
51
318.4176283
0
ARC
8
DEFAULT_255_2_778
10
7.8189879
20
129.4406225
40
0.1616977
50
325.5297452
51
3.3557414
0
ARC
8
DEFAULT_255_2_778
10
7.8389795
20
129.7971157
40
0.142084
50
354.4959081
51
48.5537602
0
ARC
8
DEFAULT_255_2_778
10
7.8416444
20
129.7699068
40
0.1619557
50
55.6500697
51
93.3401169
0
ARC
8
DEFAULT_255_2_778
10
7.8414709
20
129.996425
40
0.0654958
50
261.8698976
51
8.1301024
0
ARC
8
DEFAULT_255_2_778
10
7.7988672
20
130.3791455
40
0.1074847
50
358.3696885
51
95.9524071
0
ARC
8
DEFAULT_255_2_778
10
7.7588839
20
130.1507916
40
0.3364968
50
85.0838783
51
90.1320543
0
LINE
8
DEFAULT_255_2_778
10
5.6838084
20
129.3018875
11
6.1283084
21
130.5242875
0
LINE
8
DEFAULT_255_2_778
10
6.1283084
20
130.5242875
11
6.3876084
21
130.5242875
0
LINE
8
DEFAULT_255_2_778
10
6.3876084
20
130.5242875
11
6.8691084
21
129.3389875
0
LINE
8
DEFAULT_255_2_778
10
6.8691084
20
129.3389875
11
6.5358084
21
129.3389875
0
LINE
8
DEFAULT_255_2_778
10
6.5358084
20
129.3389875
11
6.4246084
21
129.5982875
0
LINE
8
DEFAULT_255_2_778
10
6.4246084
20
129.5982875
11
6.0913084
21
129.5982875
0
LINE
8
DEFAULT_255_2_778
10
6.0913084
20
129.5982875
11
6.0913084
21
129.7463875
0
LINE
8
DEFAULT_255_2_778
10
6.0913084
20
129.7463875
11
6.3876084
21
129.7463875
0
LINE
8
DEFAULT_255_2_778
10
6.3876084
20
129.7463875
11
6.2024084
21
130.1908875
0
LINE
8
DEFAULT_255_2_778
10
6.2024084
20
130.1908875
11
5.8690084
21
129.3018875
0
LINE
8
DEFAULT_255_2_778
10
5.8690084
20
129.3018875
11
5.6838084
21
129.3018875
0
LINE
8
DEFAULT_255_2_778
10
5.6838084
20
129.3018875
11
5.6838084
21
129.3018875
0
LINE
8
DEFAULT_255_2_778
10
6.7580084
20
129.9686875
11
6.9062084
21
129.9686875
0
LINE
8
DEFAULT_255_2_778
10
6.9062084
20
129.9686875
11
6.9062084
21
129.8204875
0
LINE
8
DEFAULT_255_2_778
10
6.9062084
20
129.8204875
11
6.7580084
21
129.8204875
0
LINE
8
DEFAULT_255_2_778
10
6.7580084
20
129.8204875
11
6.7580084
21
129.9686875
0
LINE
8
DEFAULT_255_2_778
10
7.2766084
20
130.3020875
11
7.6100084
21
130.3020875
0
LINE
8
DEFAULT_255_2_778
10
7.6100084
20
130.3020875
11
7.6100084
21
129.9315875
0
LINE
8
DEFAULT_255_2_778
10
7.6100084
20
129.9315875
11
7.3507084
21
129.9315875
0
LINE
8
DEFAULT_255_2_778
10
7.3507084
20
129.9315875
11
7.3507084
21
129.7834875
0
LINE
8
DEFAULT_255_2_778
10
7.3507084
20
129.7834875
11
7.6840084
21
129.7834875
0
LINE
8
DEFAULT_255_2_778
10
7.6840084
20
129.7834875
11
7.6840084
21
129.4500875
0
LINE
8
DEFAULT_255_2_778
10
7.6840084
20
129.4500875
11
7.2766084
21
129.4500875
0
LINE
8
DEFAULT_255_2_778
10
7.2766084
20
129.4500875
11
7.2766084
21
130.3020875
0
LINE
8
DEFAULT_255_2_778
10
7.2766084
20
130.3020875
11
7.2766084
21
130.3020875
0
LINE
8
DEFAULT_255_2_778
10
6.9803084
20
130.4872875
11
6.9803084
21
129.3018875
0
LINE
8
DEFAULT_255_2_778
10
6.9803084
20
129.3018875
11
7.8322084
21
129.3018875
0
LINE
8
DEFAULT_255_2_778
10
7.9804084
20
129.4500875
11
7.9804084
21
129.7834875
0
LINE
8
DEFAULT_255_2_778
10
7.9063084
20
130.0056875
11
7.9063084
21
130.3760875
0
LINE
8
DEFAULT_255_2_778
10
7.7581084
20
130.4872875
11
6.9803084
21
130.4872875
0
LINE
8
DEFAULT_255_2_778
10
6.9803084
20
130.4872875
11
6.9803084
21
130.4872875
0
LINE
8
DEFAULT_255_2_778
10
6.3394427
20
128.5115198
11
6.3367427
21
128.5115198
0
ARC
8
DEFAULT_255_2_778
10
6.3340483
20
128.6365854
40
0.1250946
50
247.1356448
51
271.2341787
0
ARC
8
DEFAULT_255_2_778
10
6.3160916
20
128.5942164
40
0.0790776
50
215.0349981
51
247.1960091
0
ARC
8
DEFAULT_255_2_778
10
6.3109464
20
128.5888964
40
0.0718243
50
178.625123
51
213.9163394
0
ARC
8
DEFAULT_255_2_778
10
6.3131693
20
128.7059391
40
0.0740421
50
147.0420611
51
181.175799
0
ARC
8
DEFAULT_255_2_778
10
6.3147919
20
128.7020628
40
0.0775487
50
112.4780918
51
145.2909011
0
ARC
8
DEFAULT_255_2_778
10
6.333917
20
128.6576534
40
0.1258981
50
88.7138988
51
112.7934617
0
ARC
8
DEFAULT_255_2_778
10
6.339481
20
128.6581878
40
0.1253619
50
67.159311
51
91.2516049
0
ARC
8
DEFAULT_255_2_778
10
6.3569794
20
128.7001852
40
0.0798654
50
35.1978461
51
67.0331611
0
ARC
8
DEFAULT_255_2_778
10
6.3626391
20
128.7061431
40
0.0718243
50
358.625123
51
33.9163394
0
ARC
8
DEFAULT_255_2_778
10
6.3604162
20
128.5891004
40
0.0740421
50
327.0420611
51
1.175799
0
ARC
8
DEFAULT_255_2_778
10
6.361381
20
128.5903218
40
0.0739133
50
291.6436853
51
325.8406333
0
ARC
8
DEFAULT_255_2_778
10
6.3401809
20
128.599374
40
0.0482768
50
265.9160158
51
308.3617549
0
ARC
8
DEFAULT_255_2_778
10
6.3451719
20
128.5883207
40
0.036631
50
312.9754563
51
3.2850623
0
ARC
8
DEFAULT_255_2_778
10
6.3448152
20
128.706002
40
0.0369754
50
357.082104
51
47.4006092
0
ARC
8
DEFAULT_255_2_778
10
6.339634
20
128.6958686
40
0.0480383
50
51.0349629
51
93.4505724
0
ARC
8
DEFAULT_255_2_778
10
6.3340455
20
128.695549
40
0.0483461
50
86.8017862
51
128.8135095
0
ARC
8
DEFAULT_255_2_778
10
6.3287702
20
128.706002
40
0.0369754
50
132.5993908
51
182.917896
0
ARC
8
DEFAULT_255_2_778
10
6.3284135
20
128.5883207
40
0.036631
50
176.7149377
51
227.0245437
0
ARC
8
DEFAULT_255_2_778
10
6.3334908
20
128.599686
40
0.0485752
50
231.7867693
51
273.8385805
0
ARC
8
DEFAULT_255_2_778
10
6.5570034
20
128.5880567
40
0.0766655
50
226.2029837
51
273.3195937
0
ARC
8
DEFAULT_255_2_778
10
6.5622798
20
128.5860746
40
0.0790566
50
176.8492311
51
222.4458356
0
ARC
8
DEFAULT_255_2_778
10
6.5699928
20
128.5879647
40
0.043631
50
176.5112098
51
217.639275
0
ARC
8
DEFAULT_255_2_778
10
6.5593879
20
128.5828664
40
0.0322122
50
221.9818643
51
273.6574471
0
ARC
8
DEFAULT_255_2_778
10
6.5632217
20
128.5833151
40
0.0326438
50
266.8760675
51
317.6392064
0
ARC
8
DEFAULT_255_2_778
10
6.5527926
20
128.5879647
40
0.043631
50
322.360725
51
3.4887902
0
ARC
8
DEFAULT_255_2_778
10
6.5605056
20
128.5860746
40
0.0790566
50
317.5541644
51
3.1507689
0
ARC
8
DEFAULT_255_2_778
10
6.5656687
20
128.5883223
40
0.0769357
50
266.6274163
51
313.7210327
0
LINE
8
DEFAULT_255_2_778
10
6.4394427
20
128.4499198
11
6.3828427
21
128.4499198
0
LINE
8
DEFAULT_255_2_778
10
6.3828427
20
128.4499198
11
6.3394427
21
128.5115198
0
LINE
8
DEFAULT_255_2_778
10
6.2391427
20
128.5906198
11
6.2391427
21
128.7044198
0
LINE
8
DEFAULT_255_2_778
10
6.4344427
20
128.7044198
11
6.4344427
21
128.5906198
0
LINE
8
DEFAULT_255_2_778
10
6.3886427
20
128.5216198
11
6.4394427
21
128.4501198
0
LINE
8
DEFAULT_255_2_778
10
6.4394427
20
128.4501198
11
6.4394427
21
128.4499198
0
LINE
8
DEFAULT_255_2_778
10
6.3817427
20
128.5904198
11
6.3817427
21
128.7041198
0
LINE
8
DEFAULT_255_2_778
10
6.2918427
20
128.7041198
11
6.2918427
21
128.5904198
0
LINE
8
DEFAULT_255_2_778
10
6.3367427
20
128.5512198
11
6.3367427
21
128.5512198
0
LINE
8
DEFAULT_255_2_778
10
6.4833427
20
128.5904198
11
6.4833427
21
128.7795198
0
LINE
8
DEFAULT_255_2_778
10
6.4833427
20
128.7795198
11
6.5264427
21
128.7795198
0
LINE
8
DEFAULT_255_2_778
10
6.5264427
20
128.7795198
11
6.5264427
21
128.5906198
0
LINE
8
DEFAULT_255_2_778
10
6.5963427
20
128.5906198
11
6.5963427
21
128.7795198
0
LINE
8
DEFAULT_255_2_778
10
6.5963427
20
128.7795198
11
6.6394427
21
128.7795198
0
LINE
8
DEFAULT_255_2_778
10
6.6394427
20
128.7795198
11
6.6394427
21
128.5904198
0
LINE
8
DEFAULT_255_2_778
10
6.5611427
20
128.5115198
11
6.5614427
21
128.5115198
0
ARC
8
DEFAULT_255_2_778
10
12.1641553
20
129.8146635
40
5.5033955
50
191.4837585
51
191.8239227
0
ARC
8
DEFAULT_255_2_778
10
8.3589245
20
129.0108972
40
1.6145995
50
189.6626565
51
190.4158531
0
ARC
8
DEFAULT_255_2_778
10
6.1197449
20
128.8437409
40
0.6557616
50
349.0334606
51
350.8880298
0
ARC
8
DEFAULT_255_2_778
10
6.0674183
20
128.8473866
40
0.7078549
50
346.9283592
51
349.5494987
0
ARC
8
DEFAULT_255_2_778
10
7.2958769
20
128.6165243
40
0.1856762
50
15.5793022
51
22.5708948
0
ARC
8
DEFAULT_255_2_778
10
7.3328007
20
128.6213058
40
0.1489195
50
11.1061152
51
17.6230497
0
ARC
8
DEFAULT_255_2_778
10
8.063214
20
128.5055593
40
0.6018696
50
164.5010167
51
166.1150622
0
ARC
8
DEFAULT_255_2_778
10
7.6620856
20
128.6165243
40
0.1856762
50
157.4291052
51
164.4206978
0
LINE
8
DEFAULT_255_2_778
10
6.7201313
20
128.5149917
11
6.6762313
21
128.5149917
0
LINE
8
DEFAULT_255_2_778
10
6.6762313
20
128.5149917
11
6.7392313
21
128.7795917
0
LINE
8
DEFAULT_255_2_778
10
6.7392313
20
128.7795917
11
6.7942313
21
128.7795917
0
LINE
8
DEFAULT_255_2_778
10
6.7942313
20
128.7795917
11
6.8577313
21
128.5149917
0
LINE
8
DEFAULT_255_2_778
10
6.8577313
20
128.5149917
11
6.8138313
21
128.5149917
0
LINE
8
DEFAULT_255_2_778
10
6.8138313
20
128.5149917
11
6.8000313
21
128.5789917
0
LINE
8
DEFAULT_255_2_778
10
6.8000313
20
128.5789917
11
6.7336313
21
128.5789917
0
LINE
8
DEFAULT_255_2_778
10
6.7336313
20
128.5789917
11
6.7199313
21
128.5149917
0
LINE
8
DEFAULT_255_2_778
10
6.7199313
20
128.5149917
11
6.7201313
21
128.5149917
0
LINE
8
DEFAULT_255_2_778
10
6.7569313
20
128.6874917
11
6.7418313
21
128.6160917
0
LINE
8
DEFAULT_255_2_778
10
6.7418313
20
128.6160917
11
6.7926313
21
128.6160917
0
LINE
8
DEFAULT_255_2_778
10
6.7926313
20
128.6160917
11
6.7775313
21
128.6869917
0
LINE
8
DEFAULT_255_2_778
10
6.7569313
20
128.6872917
11
6.7569313
21
128.6874917
0
LINE
8
DEFAULT_255_2_778
10
7.0231313
20
128.5149917
11
6.8741313
21
128.5149917
0
LINE
8
DEFAULT_255_2_778
10
6.8741313
20
128.5149917
11
6.8741313
21
128.7795917
0
LINE
8
DEFAULT_255_2_778
10
6.8741313
20
128.7795917
11
6.9170313
21
128.7795917
0
LINE
8
DEFAULT_255_2_778
10
6.9170313
20
128.7795917
11
6.9170313
21
128.5559917
0
LINE
8
DEFAULT_255_2_778
10
6.9170313
20
128.5559917
11
7.0231313
21
128.5559917
0
LINE
8
DEFAULT_255_2_778
10
7.0231313
20
128.5559917
11
7.0231313
21
128.5149917
0
LINE
8
DEFAULT_255_2_778
10
7.0231313
20
128.5149917
11
7.0231313
21
128.5149917
0
LINE
8
DEFAULT_255_2_778
10
7.1760313
20
128.5149917
11
7.0321313
21
128.5149917
0
LINE
8
DEFAULT_255_2_778
10
7.0321313
20
128.5149917
11
7.0321313
21
128.5559917
0
LINE
8
DEFAULT_255_2_778
10
7.0321313
20
128.5559917
11
7.0823313
21
128.5559917
0
LINE
8
DEFAULT_255_2_778
10
7.0823313
20
128.5559917
11
7.0823313
21
128.7385917
0
LINE
8
DEFAULT_255_2_778
10
7.0823313
20
128.7385917
11
7.0321313
21
128.7385917
0
LINE
8
DEFAULT_255_2_778
10
7.0321313
20
128.7385917
11
7.0321313
21
128.7795917
0
LINE
8
DEFAULT_255_2_778
10
7.0321313
20
128.7795917
11
7.1760313
21
128.7795917
0
LINE
8
DEFAULT_255_2_778
10
7.1760313
20
128.7795917
11
7.1760313
21
128.7385917
0
LINE
8
DEFAULT_255_2_778
10
7.1760313
20
128.7385917
11
7.1257313
21
128.7385917
0
LINE
8
DEFAULT_255_2_778
10
7.1257313
20
128.7385917
11
7.1257313
21
128.5559917
0
LINE
8
DEFAULT_255_2_778
10
7.1257313
20
128.5559917
11
7.1760313
21
128.5559917
0
LINE
8
DEFAULT_255_2_778
10
7.1760313
20
128.5559917
11
7.1760313
21
128.5149917
0
LINE
8
DEFAULT_255_2_778
10
7.1760313
20
128.5149917
11
7.1760313
21
128.5149917
0
LINE
8
DEFAULT_255_2_778
10
7.2940313
20
128.5149917
11
7.2509313
21
128.5149917
0
LINE
8
DEFAULT_255_2_778
10
7.2509313
20
128.5149917
11
7.2509313
21
128.7385917
0
LINE
8
DEFAULT_255_2_778
10
7.2509313
20
128.7385917
11
7.1855313
21
128.7385917
0
LINE
8
DEFAULT_255_2_778
10
7.1855313
20
128.7385917
11
7.1855313
21
128.7795917
0
LINE
8
DEFAULT_255_2_778
10
7.1855313
20
128.7795917
11
7.3596313
21
128.7795917
0
LINE
8
DEFAULT_255_2_778
10
7.3596313
20
128.7795917
11
7.3596313
21
128.7385917
0
LINE
8
DEFAULT_255_2_778
10
7.3596313
20
128.7385917
11
7.2943313
21
128.7385917
0
LINE
8
DEFAULT_255_2_778
10
7.2943313
20
128.7385917
11
7.2943313
21
128.5149917
0
LINE
8
DEFAULT_255_2_778
10
7.2943313
20
128.5149917
11
7.2940313
21
128.5149917
0
LINE
8
DEFAULT_255_2_778
10
7.4996313
20
128.5149917
11
7.4565313
21
128.5149917
0
LINE
8
DEFAULT_255_2_778
10
7.4565313
20
128.5149917
11
7.4565313
21
128.6110917
0
LINE
8
DEFAULT_255_2_778
10
7.4565313
20
128.6110917
11
7.3832313
21
128.7795917
0
LINE
8
DEFAULT_255_2_778
10
7.3832313
20
128.7795917
11
7.4281313
21
128.7795917
0
LINE
8
DEFAULT_255_2_778
10
7.4281313
20
128.7795917
11
7.4673313
21
128.6877917
0
LINE
8
DEFAULT_255_2_778
10
7.4906313
20
128.6877917
11
7.5287313
21
128.7795917
0
LINE
8
DEFAULT_255_2_778
10
7.5287313
20
128.7795917
11
7.5731313
21
128.7795917
0
LINE
8
DEFAULT_255_2_778
10
7.5731313
20
128.7795917
11
7.4998313
21
128.6110917
0
LINE
8
DEFAULT_255_2_778
10
7.4998313
20
128.6110917
11
7.4998313
21
128.5149917
0
LINE
8
DEFAULT_255_2_778
10
7.4998313
20
128.5149917
11
7.4996313
21
128.5149917
0
LINE
8
DEFAULT_255_2_778
10
9.3932417
20
116.2843985
11
10.7161417
21
116.2843985
0
LINE
8
DEFAULT_255_2_778
10
10.7161417
20
116.2843985
11
10.7161417
21
63.3676985
0
LINE
8
DEFAULT_255_2_778
10
10.7161417
20
58.0760985
11
10.7161417
21
5.1593985
0
LINE
8
DEFAULT_255_2_778
10
10.7161417
20
5.1593985
11
9.3932417
21
5.1593985
0
LINE
8
DEFAULT_255_2_778
10
9.3932834
20
63.3677333
11
12.0390834
21
63.3677333
0
LINE
8
DEFAULT_255_2_778
10
12.0390834
20
63.3677333
11
12.0390834
21
58.0760333
0
LINE
8
DEFAULT_255_2_778
10
12.0390834
20
58.0760333
11
9.3932834
21
58.0760333
0
LINE
8
DEFAULT_255_2_778
10
9.3932834
20
58.0760333
11
9.3932834
21
63.3677333
0
LINE
8
DEFAULT_255_2_778
10
10.187
20
58.6052666
11
10.187
21
62.8385666
0
LINE
8
DEFAULT_255_2_778
10
9.9224167
20
62.044875
11
10.1870167
21
62.838575
0
LINE
8
DEFAULT_255_2_778
10
10.1870167
20
62.838575
11
10.4516167
21
62.044875
0
LINE
8
DEFAULT_255_2_778
10
10.4516167
20
62.044875
11
9.9224167
21
62.044875
0
LINE
8
DEFAULT_255_2_778
10
11.2453
20
62.8385666
11
11.2453
21
58.6052666
0
LINE
8
DEFAULT_255_2_778
10
10.9807167
20
59.398975
11
11.2453167
21
58.605275
0
LINE
8
DEFAULT_255_2_778
10
11.2453167
20
58.605275
11
11.5099167
21
59.398975
0
LINE
8
DEFAULT_255_2_778
10
11.5099167
20
59.398975
11
10.9807167
21
59.398975
0
LINE
8
DEFAULT_255_2_778
10
19.9765417
20
116.2843486
11
18.6536417
21
116.2843486
0
LINE
8
DEFAULT_255_2_778
10
18.6536417
20
116.2843486
11
18.6536417
21
67.3364486
0
LINE
8
DEFAULT_255_2_778
10
18.6536417
20
62.0447486
11
18.6536417
21
13.0968486
0
LINE
8
DEFAULT_255_2_778
10
18.6536417
20
13.0968486
11
19.9765417
21
13.0968486
0
LINE
8
DEFAULT_255_2_778
10
17.3307834
20
67.3364333
11
19.9765834
21
67.3364333
0
LINE
8
DEFAULT_255_2_778
10
19.9765834
20
67.3364333
11
19.9765834
21
62.0447333
0
LINE
8
DEFAULT_255_2_778
10
19.9765834
20
62.0447333
11
17.3307834
21
62.0447333
0
LINE
8
DEFAULT_255_2_778
10
17.3307834
20
62.0447333
11
17.3307834
21
67.3364333
0
LINE
8
DEFAULT_255_2_778
10
18.1245
20
62.5739666
11
18.1245
21
66.8072666
0
LINE
8
DEFAULT_255_2_778
10
17.8599167
20
66.013575
11
18.1245167
21
66.807275
0
LINE
8
DEFAULT_255_2_778
10
18.1245167
20
66.807275
11
18.3891167
21
66.013575
0
LINE
8
DEFAULT_255_2_778
10
18.3891167
20
66.013575
11
17.8599167
21
66.013575
0
LINE
8
DEFAULT_255_2_778
10
19.1828
20
66.8072666
11
19.1828
21
62.5739666
0
LINE
8
DEFAULT_255_2_778
10
18.9182167
20
63.367675
11
19.1828167
21
62.573975
0
LINE
8
DEFAULT_255_2_778
10
19.1828167
20
62.573975
11
19.4474167
21
63.367675
0
LINE
8
DEFAULT_255_2_778
10
19.4474167
20
63.367675
11
18.9182167
21
63.367675
0
LINE
8
DEFAULT_255_1_388
10
4.1657903
20
125.0299898
11
4.1657903
21
123.8562596
0
LINE
8
DEFAULT_255_1_388
10
4.1657903
20
123.8562596
11
4.7892498
21
123.8562596
0
LINE
8
DEFAULT_255_1_388
10
4.7892498
20
123.8562596
11
4.7892498
21
123.7144
0
LINE
8
DEFAULT_255_1_388
10
4.7892498
20
123.7144
11
3.9914024
21
123.7144
0
LINE
8
DEFAULT_255_1_388
10
3.9914024
20
123.7144
11
3.9914024
21
125.0299898
0
LINE
8
DEFAULT_255_1_388
10
3.9914024
20
125.0299898
11
4.1657903
21
125.0299898
0
LINE
8
DEFAULT_255_1_388
10
5.4931265
20
125.0363148
11
5.4931265
21
123.7144
0
LINE
8
DEFAULT_255_1_388
10
5.4931265
20
123.7144
11
5.3250635
21
123.7144
0
LINE
8
DEFAULT_255_1_388
10
5.3250635
20
123.7144
11
5.3250635
21
124.828495
0
LINE
8
DEFAULT_255_1_388
10
5.3250635
20
124.828495
11
4.988034
21
124.7047066
0
LINE
8
DEFAULT_255_1_388
10
4.988034
20
124.7047066
11
4.988034
21
124.8565055
0
LINE
8
DEFAULT_255_1_388
10
4.988034
20
124.8565055
11
5.4669231
21
125.0363148
0
LINE
8
DEFAULT_255_1_388
10
5.4669231
20
125.0363148
11
5.4931265
21
125.0363148
0
LINE
8
DEFAULT_255_1_388
10
4.1841367
20
5.9674898
11
4.1841367
21
4.6519
0
LINE
8
DEFAULT_255_1_388
10
4.1841367
20
4.6519
11
4.0106523
21
4.6519
0
LINE
8
DEFAULT_255_1_388
10
4.0106523
20
4.6519
11
4.0106523
21
5.9674898
0
LINE
8
DEFAULT_255_1_388
10
4.0106523
20
5.9674898
11
4.1841367
21
5.9674898
0
LINE
8
DEFAULT_255_1_388
10
4.5627302
20
5.9674898
11
4.9368059
21
4.8823089
0
LINE
8
DEFAULT_255_1_388
10
4.9368059
20
4.8823089
11
5.3126887
21
5.9674898
0
LINE
8
DEFAULT_255_1_388
10
5.3126887
20
5.9674898
11
5.5024372
21
5.9674898
0
LINE
8
DEFAULT_255_1_388
10
5.5024372
20
5.9674898
11
5.0145124
21
4.6519
0
LINE
8
DEFAULT_255_1_388
10
5.0145124
20
4.6519
11
4.8609064
21
4.6519
0
LINE
8
DEFAULT_255_1_388
10
4.8609064
20
4.6519
11
4.3738852
21
5.9674898
0
LINE
8
DEFAULT_255_1_388
10
4.3738852
20
5.9674898
11
4.5627302
21
5.9674898
0
LINE
8
DEFAULT_255_1_388
10
6.4972617
20
4.7883382
11
6.4972617
21
4.6519
0
LINE
8
DEFAULT_255_1_388
10
6.4972617
20
4.6519
11
5.6352612
21
4.6519
0
LINE
8
DEFAULT_255_1_388
10
5.6352612
20
4.6519
11
5.6352612
21
4.7720741
0
LINE
8
DEFAULT_255_1_388
10
5.6352612
20
4.7720741
11
6.0906577
21
5.2780702
0
LINE
8
DEFAULT_255_1_388
10
5.7771208
20
5.5798607
11
5.6099614
21
5.5798607
0
LINE
8
DEFAULT_255_1_388
10
6.1891462
20
5.170546
11
5.8367561
21
4.7883382
0
LINE
8
DEFAULT_255_1_388
10
5.8367561
20
4.7883382
11
6.4972617
21
4.7883382
0
ARC
8
DEFAULT_255_1_388
10
4.5730636
20
6.6200983
40
2.0258655
50
318.5132526
51
320.7829045
0
ARC
8
DEFAULT_255_1_388
10
5.1678593
20
6.1359929
40
1.2589638
50
320.7372878
51
323.9739031
0
ARC
8
DEFAULT_255_1_388
10
5.6087525
20
5.8165554
40
0.7145141
50
323.8962701
51
328.64194
0
ARC
8
DEFAULT_255_1_388
10
5.8389782
20
5.6745545
40
0.4440242
50
328.8294576
51
331.7891185
0
ARC
8
DEFAULT_255_1_388
10
5.9512103
20
5.6166374
40
0.3177517
50
331.4254512
51
352.9365785
0
ARC
8
DEFAULT_255_1_388
10
5.9665102
20
5.613205
40
0.3021496
50
353.2257659
51
0.0166158
0
ARC
8
DEFAULT_255_1_388
10
5.9901863
20
5.6157894
40
0.2784847
50
359.486299
51
15.9343185
0
ARC
8
DEFAULT_255_1_388
10
6.047213
20
5.6311269
40
0.2194403
50
16.1712913
51
43.5286088
0
ARC
8
DEFAULT_255_1_388
10
6.0559074
20
5.6398191
40
0.2071504
50
43.4417391
51
83.1661095
0
ARC
8
DEFAULT_255_1_388
10
6.0408235
20
5.5569316
40
0.2912888
50
82.160179
51
90.1505708
0
ARC
8
DEFAULT_255_1_388
10
6.0372717
20
5.4965279
40
0.3517025
50
89.5460741
51
102.5418361
0
ARC
8
DEFAULT_255_1_388
10
6.0099437
20
5.6124933
40
0.2325748
50
102.1738499
51
129.206123
0
ARC
8
DEFAULT_255_1_388
10
6.001089
20
5.6264664
40
0.2161591
50
129.72865
51
135.753947
0
ARC
8
DEFAULT_255_1_388
10
6.0147373
20
5.6155728
40
0.2335433
50
136.1757367
51
166.3673339
0
ARC
8
DEFAULT_255_1_388
10
6.1280061
20
5.5852148
40
0.3507873
50
165.9090694
51
178.8684636
0
ARC
8
DEFAULT_255_1_388
10
6.2255833
20
5.5799263
40
0.4484624
50
178.4391136
51
180.0083808
0
ARC
8
DEFAULT_255_1_388
10
6.0676534
20
5.5843197
40
0.4577138
50
163.2878482
51
180.5581842
0
ARC
8
DEFAULT_255_1_388
10
5.9774575
20
5.6091393
40
0.3641968
50
133.4540601
51
162.947111
0
ARC
8
DEFAULT_255_1_388
10
5.9975457
20
5.5877789
40
0.3935189
50
100.7869829
51
133.4382499
0
ARC
8
DEFAULT_255_1_388
10
6.0366702
20
5.4135399
40
0.5720313
50
89.660664
51
101.3702276
0
ARC
8
DEFAULT_255_1_388
10
6.0441311
20
5.4204263
40
0.5651495
50
78.2172678
51
90.412935
0
ARC
8
DEFAULT_255_1_388
10
6.0840777
20
5.6031511
40
0.378122
50
55.9269121
51
78.4888449
0
ARC
8
DEFAULT_255_1_388
10
6.1061492
20
5.6412187
40
0.3342379
50
47.929771
51
55.4049217
0
ARC
8
DEFAULT_255_1_388
10
6.1176022
20
5.6528618
40
0.3179217
50
4.334829
51
48.0560205
0
ARC
8
DEFAULT_255_1_388
10
5.9943824
20
5.6337487
40
0.442341
50
359.9251713
51
5.5971671
0
ARC
8
DEFAULT_255_1_388
10
6.0425979
20
5.6400728
40
0.3941854
50
337.8914027
51
358.9967534
0
ARC
8
DEFAULT_255_1_388
10
5.7373549
20
5.7578295
40
0.7213271
50
326.9132501
51
338.3508308
0
ARC
8
DEFAULT_255_1_388
10
5.2889661
20
6.0452105
40
1.2538973
50
319.6471833
51
327.0959558
0
ARC
8
DEFAULT_255_1_388
10
4.8576319
20
6.401005
40
1.8129975
50
317.2588228
51
319.9045804
0
LINE
8
DEFAULT_255_1_388
10
4.1761367
20
13.9049898
11
4.1761367
21
12.5894
0
LINE
8
DEFAULT_255_1_388
10
4.1761367
20
12.5894
11
4.0026523
21
12.5894
0
LINE
8
DEFAULT_255_1_388
10
4.0026523
20
12.5894
11
4.0026523
21
13.9049898
0
LINE
8
DEFAULT_255_1_388
10
4.0026523
20
13.9049898
11
4.1761367
21
13.9049898
0
LINE
8
DEFAULT_255_1_388
10
4.5547302
20
13.9049898
11
4.9288059
21
12.8198089
0
LINE
8
DEFAULT_255_1_388
10
4.9288059
20
12.8198089
11
5.3046887
21
13.9049898
0
LINE
8
DEFAULT_255_1_388
10
5.3046887
20
13.9049898
11
5.4944372
21
13.9049898
0
LINE
8
DEFAULT_255_1_388
10
5.4944372
20
13.9049898
11
5.0065124
21
12.5894
0
LINE
8
DEFAULT_255_1_388
10
5.0065124
20
12.5894
11
4.8529064
21
12.5894
0
LINE
8
DEFAULT_255_1_388
10
4.8529064
20
12.5894
11
4.3658852
21
13.9049898
0
LINE
8
DEFAULT_255_1_388
10
4.3658852
20
13.9049898
11
4.5547302
21
13.9049898
0
LINE
8
DEFAULT_255_1_388
10
6.1766284
20
13.9113148
11
6.1766284
21
12.5894
0
LINE
8
DEFAULT_255_1_388
10
6.1766284
20
12.5894
11
6.0085654
21
12.5894
0
LINE
8
DEFAULT_255_1_388
10
6.0085654
20
12.5894
11
6.0085654
21
13.703495
0
LINE
8
DEFAULT_255_1_388
10
6.0085654
20
13.703495
11
5.6715358
21
13.5797066
0
LINE
8
DEFAULT_255_1_388
10
5.6715358
20
13.5797066
11
5.6715358
21
13.7315055
0
LINE
8
DEFAULT_255_1_388
10
5.6715358
20
13.7315055
11
6.150425
21
13.9113148
0
LINE
8
DEFAULT_255_1_388
10
6.150425
20
13.9113148
11
6.1766284
21
13.9113148
0
LINE
8
DEFAULT_255_1_388
10
4.784032
20
20.9443468
11
4.9584199
21
20.9443468
0
LINE
8
DEFAULT_255_1_388
10
3.9455242
20
21.1232525
11
3.9455242
21
21.2497516
0
LINE
8
DEFAULT_255_1_388
10
4.9584199
20
21.4196217
11
4.784032
21
21.4196217
0
LINE
8
DEFAULT_255_1_388
10
4.1199121
20
21.2452337
11
4.1199121
21
21.1178312
0
ARC
8
DEFAULT_255_1_388
10
4.3418433
20
21.0115329
40
0.6202263
50
340.1774904
51
353.7812217
0
ARC
8
DEFAULT_255_1_388
10
4.5186286
20
20.9456893
40
0.4315926
50
311.4560052
51
340.4420756
0
ARC
8
DEFAULT_255_1_388
10
4.5148826
20
20.9581665
40
0.4434573
50
282.4332229
51
310.7514507
0
ARC
8
DEFAULT_255_1_388
10
4.4654644
20
21.1623703
40
0.6535262
50
269.9358869
51
282.8096729
0
ARC
8
DEFAULT_255_1_388
10
4.4596583
20
21.3136329
40
0.8048043
50
269.9995752
51
270.3612856
0
ARC
8
DEFAULT_255_1_388
10
4.4537073
20
21.0337781
40
0.5249831
50
250.7885263
51
270.6488451
0
ARC
8
DEFAULT_255_1_388
10
4.4347898
20
20.9620853
40
0.4510942
50
219.3628377
51
250.0611024
0
ARC
8
DEFAULT_255_1_388
10
4.5280772
20
21.0413653
40
0.5735046
50
193.5480293
51
219.5755675
0
ARC
8
DEFAULT_255_1_388
10
4.7948981
20
21.110652
40
0.849146
50
181.1220183
51
193.8754971
0
ARC
8
DEFAULT_255_1_388
10
5.0272214
20
21.1230914
40
1.0816971
50
179.9914644
51
181.5398227
0
ARC
8
DEFAULT_255_1_388
10
4.8195525
20
21.2539586
40
0.8740384
50
169.5837606
51
180.275782
0
ARC
8
DEFAULT_255_1_388
10
4.6128873
20
21.2921439
40
0.6638751
50
155.0367033
51
169.6002779
0
ARC
8
DEFAULT_255_1_388
10
4.4851331
20
21.3537336
40
0.5220662
50
136.7831557
51
155.2472983
0
ARC
8
DEFAULT_255_1_388
10
4.4413122
20
21.3909577
40
0.4646502
50
121.7633063
51
136.4281161
0
ARC
8
DEFAULT_255_1_388
10
4.4564962
20
21.3629049
40
0.4964979
50
95.6460018
51
121.5489589
0
ARC
8
DEFAULT_255_1_388
10
4.4741936
20
21.2381704
40
0.6223912
50
89.9245727
51
96.1375919
0
ARC
8
DEFAULT_255_1_388
10
4.4798641
20
21.2515721
40
0.6090084
50
76.6779212
51
90.456405
0
ARC
8
DEFAULT_255_1_388
10
4.5241454
20
21.430506
40
0.42469
50
47.4858803
51
76.9287069
0
ARC
8
DEFAULT_255_1_388
10
4.5076068
20
21.4192623
40
0.4441778
50
16.5424081
51
46.8934505
0
ARC
8
DEFAULT_255_1_388
10
4.3267118
20
21.3598265
40
0.6345318
50
5.4072971
51
17.0363711
0
ARC
8
DEFAULT_255_1_388
10
4.1648843
20
21.3338304
40
0.6250632
50
7.8888693
51
15.9242022
0
ARC
8
DEFAULT_255_1_388
10
4.3883828
20
21.3987309
40
0.3923364
50
15.7650676
51
27.9410069
0
ARC
8
DEFAULT_255_1_388
10
4.5125997
20
21.4652317
40
0.2514401
50
27.8167196
51
46.4007942
0
ARC
8
DEFAULT_255_1_388
10
4.5181839
20
21.4645882
40
0.2480958
50
47.4372362
51
75.0695672
0
ARC
8
DEFAULT_255_1_388
10
4.4834675
20
21.3437277
40
0.3738281
50
74.7009379
51
87.8124314
0
ARC
8
DEFAULT_255_1_388
10
4.4752292
20
21.2253659
40
0.4924321
50
87.3802571
51
90.0251599
0
ARC
8
DEFAULT_255_1_388
10
4.4708939
20
21.3573997
40
0.3604218
50
89.3451886
51
108.5744412
0
ARC
8
DEFAULT_255_1_388
10
4.4554931
20
21.4151836
40
0.3007661
50
109.2998307
51
143.3037387
0
ARC
8
DEFAULT_255_1_388
10
4.5412221
20
21.3492584
40
0.4089031
50
143.075267
51
163.1918576
0
ARC
8
DEFAULT_255_1_388
10
4.7608055
20
21.2799652
40
0.6391492
50
162.9375929
51
174.6208776
0
ARC
8
DEFAULT_255_1_388
10
5.0562437
20
21.2475711
40
0.9363344
50
174.342123
51
180.1430283
0
ARC
8
DEFAULT_255_1_388
10
4.9514978
20
21.1132117
40
0.8315986
50
179.6817261
51
189.150555
0
ARC
8
DEFAULT_255_1_388
10
4.6701727
20
21.0663559
40
0.5464044
50
188.9911061
51
203.5772363
0
ARC
8
DEFAULT_255_1_388
10
4.5487019
20
21.0159539
40
0.4149206
50
203.9075402
51
215.1312435
0
ARC
8
DEFAULT_255_1_388
10
4.4448817
20
20.9354907
40
0.2837747
50
213.9071511
51
263.8848919
0
ARC
8
DEFAULT_255_1_388
10
4.458981
20
21.0237519
40
0.3730641
50
263.1757928
51
270.1031044
0
ARC
8
DEFAULT_255_1_388
10
4.462589
20
21.1640511
40
0.5133712
50
269.6722503
51
279.0606936
0
ARC
8
DEFAULT_255_1_388
10
4.4926045
20
20.982615
40
0.3294739
50
278.8749101
51
293.6349581
0
ARC
8
DEFAULT_255_1_388
10
4.5286249
20
20.8980251
40
0.2375405
50
293.8553806
51
310.0518171
0
ARC
8
DEFAULT_255_1_388
10
4.5291758
20
20.8910021
40
0.2318463
50
311.0644687
51
332.0111037
0
ARC
8
DEFAULT_255_1_388
10
4.3950431
20
20.9649702
40
0.3850112
50
331.6586806
51
343.2877423
0
ARC
8
DEFAULT_255_1_388
10
4.1629896
20
21.0362806
40
0.6277712
50
343.1446576
51
351.0103568
0
ARC
8
DEFAULT_255_1_388
10
3.999722
20
21.0662873
40
0.7937327
50
350.71248
51
351.1626997
0
LINE
8
DEFAULT_255_1_388
10
6.207146
20
21.2253553
11
6.207146
21
21.1422274
0
LINE
8
DEFAULT_255_1_388
10
5.149072
20
21.1304811
11
5.149072
21
21.2253553
0
LINE
8
DEFAULT_255_1_388
10
6.0345652
20
21.1295775
11
6.0345652
21
21.2271625
0
LINE
8
DEFAULT_255_1_388
10
5.3216528
20
21.2389088
11
5.3216528
21
21.1422274
0
ARC
8
DEFAULT_255_1_388
10
5.2349198
20
21.1377726
40
0.9722364
50
350.4878118
51
0.2625322
0
ARC
8
DEFAULT_255_1_388
10
5.4929158
20
21.0933994
40
0.7104556
50
336.0277991
51
350.5787241
0
ARC
8
DEFAULT_255_1_388
10
5.6442265
20
21.0250243
40
0.544417
50
319.887443
51
336.1331163
0
ARC
8
DEFAULT_255_1_388
10
5.7120077
20
20.9707733
40
0.4576311
50
302.4806296
51
319.6144102
0
ARC
8
DEFAULT_255_1_388
10
5.6990699
20
20.9957067
40
0.4856183
50
275.8196423
51
302.1885521
0
ARC
8
DEFAULT_255_1_388
10
5.680356
20
21.1242466
40
0.6154183
50
269.9169897
51
276.339506
0
ARC
8
DEFAULT_255_1_388
10
5.6753161
20
21.047068
40
0.5382553
50
252.5221437
51
270.441579
0
ARC
8
DEFAULT_255_1_388
10
5.6591411
20
20.9864046
40
0.4755426
50
237.5349961
51
252.1858334
0
ARC
8
DEFAULT_255_1_388
10
5.6691787
20
20.999212
40
0.4917393
50
209.0632754
51
237.3492577
0
ARC
8
DEFAULT_255_1_388
10
5.7671113
20
21.0607104
40
0.6072464
50
205.118533
51
209.6465345
0
ARC
8
DEFAULT_255_1_388
10
5.8567115
20
21.0987174
40
0.7045164
50
188.7216633
51
204.8239753
0
ARC
8
DEFAULT_255_1_388
10
6.0813891
20
21.1365387
40
0.9323368
50
180.3722704
51
188.9253909
0
ARC
8
DEFAULT_255_1_388
10
6.0783452
20
21.2298416
40
0.929284
50
169.5253055
51
180.2766048
0
ARC
8
DEFAULT_255_1_388
10
5.8643251
20
21.2692024
40
0.7116745
50
155.8314601
51
169.5088611
0
ARC
8
DEFAULT_255_1_388
10
5.7202714
20
21.3360312
40
0.5528904
50
139.6259579
51
156.0379072
0
ARC
8
DEFAULT_255_1_388
10
5.6539248
20
21.3894143
40
0.4677708
50
122.6414784
51
139.3431662
0
ARC
8
DEFAULT_255_1_388
10
5.6652503
20
21.3687787
40
0.4912586
50
93.0224537
51
122.4556091
0
ARC
8
DEFAULT_255_1_388
10
5.6774023
20
21.2601776
40
0.6003837
50
89.9756766
51
93.6340839
0
ARC
8
DEFAULT_255_1_388
10
5.6817621
20
21.3050879
40
0.5554884
50
73.7463329
51
90.4234008
0
ARC
8
DEFAULT_255_1_388
10
5.7015094
20
21.3815772
40
0.4765353
50
57.663051
51
73.4516911
0
ARC
8
DEFAULT_255_1_388
10
5.7006132
20
21.3840108
40
0.4749629
50
29.1441355
51
57.4146687
0
ARC
8
DEFAULT_255_1_388
10
5.5953943
20
21.3183046
40
0.5988917
50
24.0985653
51
29.732054
0
ARC
8
DEFAULT_255_1_388
10
5.4791575
20
21.2701154
40
0.7246823
50
8.6654943
51
23.8241215
0
ARC
8
DEFAULT_255_1_388
10
5.2277994
20
21.2291037
40
0.9793537
50
359.7807044
51
8.8218476
0
ARC
8
DEFAULT_255_1_388
10
5.0987698
20
21.2319731
40
0.9358078
50
359.7054632
51
8.0359751
0
ARC
8
DEFAULT_255_1_388
10
5.4362749
20
21.2811252
40
0.5947474
50
7.8926278
51
20.2962188
0
ARC
8
DEFAULT_255_1_388
10
5.61936
20
21.3486367
40
0.3996117
50
20.3231056
51
36.4990255
0
ARC
8
DEFAULT_255_1_388
10
5.6964897
20
21.4080399
40
0.3022818
50
36.1436715
51
85.6627846
0
ARC
8
DEFAULT_255_1_388
10
5.6782152
20
21.2910881
40
0.4203853
50
84.3845912
51
90.076054
0
ARC
8
DEFAULT_255_1_388
10
5.6734507
20
21.3653416
40
0.346157
50
89.3037228
51
109.9046209
0
ARC
8
DEFAULT_255_1_388
10
5.663034
20
21.4083379
40
0.3022217
50
110.8229774
51
143.917961
0
ARC
8
DEFAULT_255_1_388
10
5.76807
20
21.3281455
40
0.434348
50
143.5289166
51
163.2980252
0
ARC
8
DEFAULT_255_1_388
10
5.9826987
20
21.2606685
40
0.659321
50
163.0418884
51
174.3139873
0
ARC
8
DEFAULT_255_1_388
10
6.2531951
20
21.2294378
40
0.9315905
50
174.050934
51
179.4174954
0
ARC
8
DEFAULT_255_1_388
10
6.1963895
20
21.1375382
40
0.8747493
50
179.6928582
51
188.7908948
0
ARC
8
DEFAULT_255_1_388
10
5.8967695
20
21.0896086
40
0.5713262
50
188.6328449
51
202.5630732
0
ARC
8
DEFAULT_255_1_388
10
5.7556532
20
21.0329142
40
0.4192612
50
202.8078931
51
216.1195888
0
ARC
8
DEFAULT_255_1_388
10
5.6646049
20
20.9596479
40
0.3025752
50
215.0755613
51
264.6379773
0
ARC
8
DEFAULT_255_1_388
10
5.6788887
20
21.0531376
40
0.3970284
50
263.8464302
51
270.0830805
0
ARC
8
DEFAULT_255_1_388
10
5.6835431
20
21.0240808
40
0.3679937
50
269.3649295
51
287.5149684
0
ARC
8
DEFAULT_255_1_388
10
5.7035872
20
20.9512714
40
0.2925408
50
288.0629019
51
323.8115617
0
ARC
8
DEFAULT_255_1_388
10
5.6055848
20
21.0243754
40
0.4148018
50
323.6546541
51
342.6591359
0
ARC
8
DEFAULT_255_1_388
10
5.3770506
20
21.098728
40
0.6551163
50
342.4092446
51
353.6451501
0
ARC
8
DEFAULT_255_1_388
10
5.05853
20
21.1383565
40
0.9760748
50
353.4027553
51
359.4846611
0
LINE
8
DEFAULT_255_1_388
10
6.4673726
20
21.8424898
11
6.6914565
21
21.8424898
0
LINE
8
DEFAULT_255_1_388
10
6.6914565
20
21.8424898
11
7.1215532
21
20.7690553
0
LINE
8
DEFAULT_255_1_388
10
7.1215532
20
20.7690553
11
7.5516499
21
21.8424898
0
LINE
8
DEFAULT_255_1_388
10
7.5516499
20
21.8424898
11
7.7766375
21
21.8424898
0
LINE
8
DEFAULT_255_1_388
10
7.7766375
20
21.8424898
11
7.7766375
21
20.5269
0
LINE
8
DEFAULT_255_1_388
10
7.7766375
20
20.5269
11
7.6031531
21
20.5269
0
LINE
8
DEFAULT_255_1_388
10
7.6031531
20
20.5269
11
7.6031531
21
21.039221
0
LINE
8
DEFAULT_255_1_388
10
7.6031531
20
21.039221
11
7.6194172
21
21.5922025
0
LINE
8
DEFAULT_255_1_388
10
7.6194172
20
21.5922025
11
7.1875134
21
20.5269
0
LINE
8
DEFAULT_255_1_388
10
7.1875134
20
20.5269
11
7.0546895
21
20.5269
0
LINE
8
DEFAULT_255_1_388
10
7.0546895
20
20.5269
11
6.6236892
21
21.5894918
0
LINE
8
DEFAULT_255_1_388
10
6.6236892
20
21.5894918
11
6.6408569
21
21.039221
0
LINE
8
DEFAULT_255_1_388
10
6.6408569
20
21.039221
11
6.6408569
21
20.5269
0
LINE
8
DEFAULT_255_1_388
10
6.6408569
20
20.5269
11
6.4673726
21
20.5269
0
LINE
8
DEFAULT_255_1_388
10
6.4673726
20
20.5269
11
6.4673726
21
21.8424898
0
LINE
8
DEFAULT_255_1_388
10
4.1833367
20
29.7799898
11
4.1833367
21
28.4644
0
LINE
8
DEFAULT_255_1_388
10
4.1833367
20
28.4644
11
4.0098523
21
28.4644
0
LINE
8
DEFAULT_255_1_388
10
4.0098523
20
28.4644
11
4.0098523
21
29.7799898
0
LINE
8
DEFAULT_255_1_388
10
4.0098523
20
29.7799898
11
4.1833367
21
29.7799898
0
LINE
8
DEFAULT_255_1_388
10
5.0561799
20
29.7799898
11
4.5077163
21
28.3514544
0
LINE
8
DEFAULT_255_1_388
10
4.5077163
20
28.3514544
11
4.3640496
21
28.3514544
0
LINE
8
DEFAULT_255_1_388
10
4.3640496
20
28.3514544
11
4.9134167
21
29.7799898
0
LINE
8
DEFAULT_255_1_388
10
4.9134167
20
29.7799898
11
5.0561799
21
29.7799898
0
LINE
8
DEFAULT_255_1_388
10
6.0284153
20
29.2541153
11
6.0284153
21
29.2053229
0
LINE
8
DEFAULT_255_1_388
10
5.4185093
20
28.4634964
11
5.385981
21
28.4634964
0
LINE
8
DEFAULT_255_1_388
10
5.385981
20
28.4634964
11
5.385981
21
28.6044525
0
LINE
8
DEFAULT_255_1_388
10
5.385981
20
28.6044525
11
5.42122
21
28.6044525
0
LINE
8
DEFAULT_255_1_388
10
5.8612559
20
29.221587
11
5.8612559
21
29.2884508
0
ARC
8
DEFAULT_255_1_388
10
5.546965
20
29.3054877
40
0.4089973
50
297.4036461
51
320.0168133
0
ARC
8
DEFAULT_255_1_388
10
5.579583
20
29.2428072
40
0.3383378
50
270.2631886
51
297.3852322
0
ARC
8
DEFAULT_255_1_388
10
5.5757507
20
29.2965343
40
0.3920983
50
269.9969069
51
270.7871389
0
ARC
8
DEFAULT_255_1_388
10
5.572883
20
29.2947737
40
0.3903482
50
254.5997295
51
270.4178147
0
ARC
8
DEFAULT_255_1_388
10
5.5568362
20
29.2312693
40
0.3248657
50
236.4717231
51
254.3539376
0
ARC
8
DEFAULT_255_1_388
10
5.5744093
20
29.2548999
40
0.3542746
50
208.4727261
51
236.2134628
0
ARC
8
DEFAULT_255_1_388
10
5.6462857
20
29.2988676
40
0.4384402
50
204.3450776
51
209.0455365
0
ARC
8
DEFAULT_255_1_388
10
5.7227233
20
29.33128
40
0.5214459
50
183.9375459
51
204.1275509
0
ARC
8
DEFAULT_255_1_388
10
5.8249539
20
29.3422863
40
0.6242037
50
179.9652726
51
184.3010611
0
ARC
8
DEFAULT_255_1_388
10
5.7979084
20
29.3460004
40
0.5971675
50
166.7585952
51
180.3200491
0
ARC
8
DEFAULT_255_1_388
10
5.7026892
20
29.3666979
40
0.4997418
50
154.6954866
51
166.5679151
0
ARC
8
DEFAULT_255_1_388
10
5.6067132
20
29.4150411
40
0.3923208
50
136.3325251
51
155.0871367
0
ARC
8
DEFAULT_255_1_388
10
5.5751052
20
29.4421271
40
0.3507618
50
121.2365985
51
135.9680081
0
ARC
8
DEFAULT_255_1_388
10
5.5909116
20
29.4128541
40
0.3839917
50
96.8454764
51
120.9881329
0
ARC
8
DEFAULT_255_1_388
10
5.6072922
20
29.3075942
40
0.4904679
50
89.887204
51
97.2797758
0
ARC
8
DEFAULT_255_1_388
10
5.6131895
20
29.3793652
40
0.418725
50
70.6505767
51
90.6748382
0
ARC
8
DEFAULT_255_1_388
10
5.6279592
20
29.4371091
40
0.3593866
50
36.7493297
51
69.8220487
0
ARC
8
DEFAULT_255_1_388
10
5.5155939
20
29.3495446
40
0.5018201
50
15.3958155
51
37.0841102
0
ARC
8
DEFAULT_255_1_388
10
5.2760224
20
29.2797111
40
0.7513436
50
3.9487796
51
15.6798517
0
ARC
8
DEFAULT_255_1_388
10
5.0058866
20
29.255381
40
1.0225293
50
359.9290791
51
4.266464
0
ARC
8
DEFAULT_255_1_388
10
4.4877783
20
29.1978372
40
1.5406551
50
352.8365702
51
0.2783851
0
ARC
8
DEFAULT_255_1_388
10
5.0826014
20
29.1205664
40
0.9408425
50
341.8359339
51
352.9884057
0
ARC
8
DEFAULT_255_1_388
10
5.4447001
20
28.9985144
40
0.5587481
50
322.8579243
51
342.1527461
0
ARC
8
DEFAULT_255_1_388
10
5.5418693
20
28.932235
40
0.4413099
50
319.3348471
51
322.100194
0
ARC
8
DEFAULT_255_1_388
10
5.5070625
20
28.9671814
40
0.4904992
50
285.954114
51
318.8878716
0
ARC
8
DEFAULT_255_1_388
10
5.4253062
20
29.2270865
40
0.7628991
50
272.9280841
51
286.4924389
0
ARC
8
DEFAULT_255_1_388
10
5.4039366
20
29.480524
40
1.017132
50
270.8209173
51
273.4010121
0
ARC
8
DEFAULT_255_1_388
10
5.4139389
20
29.2757073
40
0.6712943
50
270.6214576
51
281.4062333
0
ARC
8
DEFAULT_255_1_388
10
5.4623114
20
29.044425
40
0.4350167
50
281.1852583
51
299.0622058
0
ARC
8
DEFAULT_255_1_388
10
5.5043359
20
28.9633138
40
0.3437146
50
299.5068171
51
313.1200142
0
ARC
8
DEFAULT_255_1_388
10
5.5068096
20
28.9543959
40
0.3355418
50
313.8525725
51
338.5989631
0
ARC
8
DEFAULT_255_1_388
10
5.3241224
20
29.0294576
40
0.5330317
50
338.2523315
51
351.2431701
0
ARC
8
DEFAULT_255_1_388
10
5.0528975
20
29.0755494
40
0.8081235
50
350.940933
51
357.6690137
0
ARC
8
DEFAULT_255_1_388
10
5.6030855
20
29.3008048
40
0.2581236
50
269.9447107
51
306.8249644
0
ARC
8
DEFAULT_255_1_388
10
5.5764157
20
29.348406
40
0.3122948
50
305.5071046
51
327.0773808
0
ARC
8
DEFAULT_255_1_388
10
5.5897209
20
29.3377445
40
0.2953369
50
327.4106457
51
336.8396801
0
ARC
8
DEFAULT_255_1_388
10
5.2416922
20
29.2920932
40
0.6195743
50
359.663158
51
10.1176387
0
ARC
8
DEFAULT_255_1_388
10
5.4389685
20
29.3285922
40
0.4189561
50
9.9431549
51
26.7699242
0
ARC
8
DEFAULT_255_1_388
10
5.5061671
20
29.3595796
40
0.3450125
50
27.2018067
51
34.6833639
0
ARC
8
DEFAULT_255_1_388
10
5.5612284
20
29.400956
40
0.2762035
50
34.124913
51
50.30709
0
ARC
8
DEFAULT_255_1_388
10
5.6114767
20
29.4610741
40
0.1978518
50
50.3850304
51
90.6705051
0
ARC
8
DEFAULT_255_1_388
10
5.6062161
20
29.4268074
40
0.2321235
50
89.2729817
51
111.9140267
0
ARC
8
DEFAULT_255_1_388
10
5.6040248
20
29.4426308
40
0.2166604
50
112.9381864
51
142.5320936
0
ARC
8
DEFAULT_255_1_388
10
5.6654737
20
29.3927392
40
0.2957902
50
142.1024021
51
166.3835244
0
ARC
8
DEFAULT_255_1_388
10
5.7983707
20
29.3584213
40
0.4330361
50
166.1100968
51
178.6653563
0
ARC
8
DEFAULT_255_1_388
10
5.9165633
20
29.3518061
40
0.5513642
50
178.2641888
51
180.010994
0
ARC
8
DEFAULT_255_1_388
10
5.8260134
20
29.3486136
40
0.4608248
50
179.6162225
51
191.8786013
0
ARC
8
DEFAULT_255_1_388
10
5.6887444
20
29.318259
40
0.3202502
50
191.6192934
51
215.2970746
0
ARC
8
DEFAULT_255_1_388
10
5.6648099
20
29.3039963
40
0.2924827
50
215.7258926
51
216.5355437
0
ARC
8
DEFAULT_255_1_388
10
5.605972
20
29.2566919
40
0.2170661
50
215.7486606
51
239.9728403
0
ARC
8
DEFAULT_255_1_388
10
5.5980885
20
29.2509838
40
0.208217
50
241.065081
51
269.280972
0
ARC
8
DEFAULT_255_1_388
10
5.6028044
20
29.3065327
40
0.2638514
50
268.4083352
51
270.0069622
0
LINE
8
DEFAULT_255_1_388
10
4.1833367
20
37.7174898
11
4.1833367
21
36.4019
0
LINE
8
DEFAULT_255_1_388
10
4.1833367
20
36.4019
11
4.0098523
21
36.4019
0
LINE
8
DEFAULT_255_1_388
10
4.0098523
20
36.4019
11
4.0098523
21
37.7174898
0
LINE
8
DEFAULT_255_1_388
10
4.0098523
20
37.7174898
11
4.1833367
21
37.7174898
0
LINE
8
DEFAULT_255_1_388
10
5.0561799
20
37.7174898
11
4.5077163
21
36.2889544
0
LINE
8
DEFAULT_255_1_388
10
4.5077163
20
36.2889544
11
4.3640496
21
36.2889544
0
LINE
8
DEFAULT_255_1_388
10
4.3640496
20
36.2889544
11
4.9134167
21
37.7174898
0
LINE
8
DEFAULT_255_1_388
10
4.9134167
20
37.7174898
11
5.0561799
21
37.7174898
0
ARC
8
DEFAULT_255_1_388
10
5.7000756
20
37.371272
40
0.3175098
50
338.8762533
51
0.5167111
0
ARC
8
DEFAULT_255_1_388
10
5.719035
20
37.36616
40
0.2979894
50
325.8415285
51
338.4793574
0
ARC
8
DEFAULT_255_1_388
10
5.6750984
20
37.3966242
40
0.351452
50
296.7587686
51
325.7536481
0
ARC
8
DEFAULT_255_1_388
10
5.6422611
20
37.4520363
40
0.4157374
50
296.0927901
51
297.3613472
0
ARC
8
DEFAULT_255_1_388
10
5.6716807
20
36.7137593
40
0.395855
50
47.9007294
51
67.1948823
0
ARC
8
DEFAULT_255_1_388
10
5.6937449
20
36.7414599
40
0.360516
50
35.2363914
51
47.551141
0
ARC
8
DEFAULT_255_1_388
10
5.7231853
20
36.7611093
40
0.3251343
50
359.2759765
51
35.4014143
0
ARC
8
DEFAULT_255_1_388
10
5.6393779
20
36.7528787
40
0.4089365
50
343.1293083
51
0.5775513
0
ARC
8
DEFAULT_255_1_388
10
5.7208893
20
36.7304336
40
0.3244269
50
310.8496669
51
342.7449331
0
ARC
8
DEFAULT_255_1_388
10
5.6738767
20
36.7840913
40
0.3957651
50
281.5472888
51
310.9170406
0
ARC
8
DEFAULT_255_1_388
10
5.6337642
20
36.9587814
40
0.5749654
50
269.619248
51
281.9789564
0
ARC
8
DEFAULT_255_1_388
10
5.6256419
20
36.9588776
40
0.5750649
50
257.4585678
51
270.4285689
0
ARC
8
DEFAULT_255_1_388
10
5.582794
20
36.7784741
40
0.389671
50
228.7554326
51
257.8484789
0
ARC
8
DEFAULT_255_1_388
10
5.5479425
20
36.7365228
40
0.335154
50
184.0104975
51
228.5071184
0
ARC
8
DEFAULT_255_1_388
10
5.6787818
20
36.756443
40
0.4671891
50
179.9315832
51
185.3253753
0
ARC
8
DEFAULT_255_1_388
10
5.546433
20
36.7606592
40
0.33486
50
145.6796023
51
180.6259786
0
ARC
8
DEFAULT_255_1_388
10
5.5648096
20
36.7478271
40
0.3572723
50
115.5537685
51
145.6415986
0
ARC
8
DEFAULT_255_1_388
10
5.603114
20
36.6792087
40
0.4357296
50
113.243307
51
116.2057839
0
ARC
8
DEFAULT_255_1_388
10
5.5859792
20
37.3989379
40
0.3549126
50
222.9549744
51
244.1370481
0
ARC
8
DEFAULT_255_1_388
10
5.5722435
20
37.3835378
40
0.3343711
50
213.3436887
51
222.6274467
0
ARC
8
DEFAULT_255_1_388
10
5.5506504
20
37.3688653
40
0.3082678
50
180.431584
51
213.271499
0
ARC
8
DEFAULT_255_1_388
10
5.6141503
20
37.3741296
40
0.3718363
50
179.9991191
51
181.1690594
0
ARC
8
DEFAULT_255_1_388
10
5.6613959
20
37.3780072
40
0.4190996
50
164.6186169
51
180.529336
0
ARC
8
DEFAULT_255_1_388
10
5.5603608
20
37.405178
40
0.3144772
50
132.2455553
51
164.5090724
0
ARC
8
DEFAULT_255_1_388
10
5.5926587
20
37.368607
40
0.3632644
50
100.7053914
51
132.1386381
0
ARC
8
DEFAULT_255_1_388
10
5.6269648
20
37.2136118
40
0.5219578
50
89.6730358
51
101.2451698
0
ARC
8
DEFAULT_255_1_388
10
5.6339639
20
37.2332648
40
0.5023124
50
76.287748
51
90.4586006
0
ARC
8
DEFAULT_255_1_388
10
5.6684141
20
37.3707671
40
0.3605639
50
47.8240511
51
76.4266241
0
ARC
8
DEFAULT_255_1_388
10
5.6934525
20
37.4000599
40
0.3220463
50
6.9168387
51
47.6262497
0
ARC
8
DEFAULT_255_1_388
10
5.5599978
20
37.3754004
40
0.4575765
50
359.8415968
51
7.9697453
0
ARC
8
DEFAULT_255_1_388
10
5.5984248
20
36.7633519
40
0.2827228
50
359.445363
51
16.9256873
0
ARC
8
DEFAULT_255_1_388
10
5.6511682
20
36.7778781
40
0.2280396
50
17.2920767
51
45.4630727
0
ARC
8
DEFAULT_255_1_388
10
5.6450817
20
36.7726324
40
0.2360485
50
45.30305
51
83.1920945
0
ARC
8
DEFAULT_255_1_388
10
5.6289562
20
36.6824473
40
0.3275527
50
82.2612665
51
90.1434275
0
ARC
8
DEFAULT_255_1_388
10
5.6254838
20
36.7086869
40
0.3013237
50
89.4956434
51
104.8580688
0
ARC
8
DEFAULT_255_1_388
10
5.6056028
20
36.7840455
40
0.2233867
50
104.8856641
51
135.244616
0
ARC
8
DEFAULT_255_1_388
10
5.6112017
20
36.7790352
40
0.2308906
50
135.3399546
51
172.1044062
0
ARC
8
DEFAULT_255_1_388
10
5.7019541
20
36.7616667
40
0.3232034
50
171.2645637
51
180.186429
0
ARC
8
DEFAULT_255_1_388
10
5.6829546
20
36.7580426
40
0.304213
50
179.5154935
51
193.6464289
0
ARC
8
DEFAULT_255_1_388
10
5.5911222
20
36.7346473
40
0.209456
50
193.3540274
51
225.8258581
0
ARC
8
DEFAULT_255_1_388
10
5.5957094
20
36.7426076
40
0.2183738
50
226.4180634
51
255.8552336
0
ARC
8
DEFAULT_255_1_388
10
5.6245561
20
36.8479521
40
0.3275812
50
255.4654104
51
268.7987425
0
ARC
8
DEFAULT_255_1_388
10
5.6298737
20
36.9421545
40
0.4218877
50
268.3449238
51
270.0094605
0
ARC
8
DEFAULT_255_1_388
10
5.632497
20
36.8653094
40
0.3450519
50
269.5759586
51
282.0820163
0
ARC
8
DEFAULT_255_1_388
10
5.6578007
20
36.7534363
40
0.2303642
50
281.752014
51
306.6056188
0
ARC
8
DEFAULT_255_1_388
10
5.6688815
20
36.7352802
40
0.2091906
50
307.1346085
51
314.027845
0
ARC
8
DEFAULT_255_1_388
10
5.6648327
20
36.7382459
40
0.2141385
50
314.2552483
51
350.1694025
0
ARC
8
DEFAULT_255_1_388
10
5.5690564
20
36.7590175
40
0.312082
50
349.4140529
51
0.2933014
0
ARC
8
DEFAULT_255_1_388
10
5.6275841
20
37.3393924
40
0.2588377
50
89.477747
51
105.729729
0
ARC
8
DEFAULT_255_1_388
10
5.6122761
20
37.3962367
40
0.1999733
50
105.9233417
51
135.1660906
0
ARC
8
DEFAULT_255_1_388
10
5.6145792
20
37.3946412
40
0.2027322
50
135.3052302
51
168.9883645
0
ARC
8
DEFAULT_255_1_388
10
5.7076808
20
37.3732996
40
0.2982129
50
168.3801673
51
180.3602268
0
ARC
8
DEFAULT_255_1_388
10
5.6819925
20
37.3690622
40
0.2725291
50
179.5033122
51
194.9125571
0
ARC
8
DEFAULT_255_1_388
10
5.6161332
20
37.3517427
40
0.204431
50
194.9720816
51
224.194444
0
ARC
8
DEFAULT_255_1_388
10
5.6129697
20
37.3491635
40
0.2003651
50
224.2962453
51
262.015664
0
ARC
8
DEFAULT_255_1_388
10
5.6289701
20
37.4314315
40
0.2840925
50
261.1245923
51
270.1962896
0
ARC
8
DEFAULT_255_1_388
10
5.6323182
20
37.4103859
40
0.2630559
50
269.4827276
51
285.0987215
0
ARC
8
DEFAULT_255_1_388
10
5.6496618
20
37.3453175
40
0.1957162
50
285.1585357
51
315.9484501
0
ARC
8
DEFAULT_255_1_388
10
5.6396492
20
37.3545315
40
0.2093195
50
316.0413965
51
351.916092
0
ARC
8
DEFAULT_255_1_388
10
5.5571866
20
37.3704323
40
0.2932279
50
351.105835
51
0.1939062
0
ARC
8
DEFAULT_255_1_388
10
5.58675
20
37.3738224
40
0.2636739
50
359.4789618
51
16.0678224
0
ARC
8
DEFAULT_255_1_388
10
5.6402972
20
37.3882721
40
0.2082215
50
16.3252067
51
44.7913869
0
ARC
8
DEFAULT_255_1_388
10
5.6383034
20
37.388332
40
0.2095992
50
44.3957814
51
88.2499162
0
ARC
8
DEFAULT_255_1_388
10
5.6300369
20
37.3195006
40
0.2787189
50
86.9833854
51
90.0192215
0
LINE
8
DEFAULT_255_1_388
10
4.1833367
20
45.6549898
11
4.1833367
21
44.3394
0
LINE
8
DEFAULT_255_1_388
10
4.1833367
20
44.3394
11
4.0098523
21
44.3394
0
LINE
8
DEFAULT_255_1_388
10
4.0098523
20
44.3394
11
4.0098523
21
45.6549898
0
LINE
8
DEFAULT_255_1_388
10
4.0098523
20
45.6549898
11
4.1833367
21
45.6549898
0
LINE
8
DEFAULT_255_1_388
10
5.0561799
20
45.6549898
11
4.5077163
21
44.2264544
0
LINE
8
DEFAULT_255_1_388
10
4.5077163
20
44.2264544
11
4.3640496
21
44.2264544
0
LINE
8
DEFAULT_255_1_388
10
4.3640496
20
44.2264544
11
4.9134167
21
45.6549898
0
LINE
8
DEFAULT_255_1_388
10
4.9134167
20
45.6549898
11
5.0561799
21
45.6549898
0
LINE
8
DEFAULT_255_1_388
10
6.0690757
20
45.6549898
11
6.0690757
21
45.5610191
0
LINE
8
DEFAULT_255_1_388
10
6.0690757
20
45.5610191
11
5.5242263
21
44.3394
0
LINE
8
DEFAULT_255_1_388
10
5.5242263
20
44.3394
11
5.3489348
21
44.3394
0
LINE
8
DEFAULT_255_1_388
10
5.3489348
20
44.3394
11
5.8919771
21
45.517648
0
LINE
8
DEFAULT_255_1_388
10
5.8919771
20
45.517648
11
5.1799683
21
45.517648
0
LINE
8
DEFAULT_255_1_388
10
5.1799683
20
45.517648
11
5.1799683
21
45.6549898
0
LINE
8
DEFAULT_255_1_388
10
5.1799683
20
45.6549898
11
6.0690757
21
45.6549898
0
LINE
8
DEFAULT_255_1_388
10
4.1833367
20
53.5924898
11
4.1833367
21
52.2769
0
LINE
8
DEFAULT_255_1_388
10
4.1833367
20
52.2769
11
4.0098523
21
52.2769
0
LINE
8
DEFAULT_255_1_388
10
4.0098523
20
52.2769
11
4.0098523
21
53.5924898
0
LINE
8
DEFAULT_255_1_388
10
4.0098523
20
53.5924898
11
4.1833367
21
53.5924898
0
LINE
8
DEFAULT_255_1_388
10
5.0561799
20
53.5924898
11
4.5077163
21
52.1639544
0
LINE
8
DEFAULT_255_1_388
10
4.5077163
20
52.1639544
11
4.3640496
21
52.1639544
0
LINE
8
DEFAULT_255_1_388
10
4.3640496
20
52.1639544
11
4.9134167
21
53.5924898
0
LINE
8
DEFAULT_255_1_388
10
4.9134167
20
53.5924898
11
5.0561799
21
53.5924898
0
LINE
8
DEFAULT_255_1_388
10
5.8458953
20
53.5933934
11
5.8757129
21
53.5933934
0
LINE
8
DEFAULT_255_1_388
10
5.8757129
20
53.5933934
11
5.8757129
21
53.4515338
0
LINE
8
DEFAULT_255_1_388
10
5.8757129
20
53.4515338
11
5.8449917
21
53.4515338
0
LINE
8
DEFAULT_255_1_388
10
5.2296643
20
52.7774747
11
5.2296643
21
52.8416278
0
LINE
8
DEFAULT_255_1_388
10
5.3977273
20
52.8199422
11
5.3977273
21
52.7584999
0
ARC
8
DEFAULT_255_1_388
10
5.8508809
20
52.8892826
40
0.562282
50
90.6001079
51
104.5146616
0
ARC
8
DEFAULT_255_1_388
10
5.8071768
20
53.05181
40
0.3939917
50
104.2855758
51
133.8630124
0
ARC
8
DEFAULT_255_1_388
10
5.8256021
20
53.0396243
40
0.4155734
50
134.5304124
51
161.6210222
0
ARC
8
DEFAULT_255_1_388
10
6.0115953
20
52.9740421
40
0.6127682
50
161.2850533
51
174.2074364
0
ARC
8
DEFAULT_255_1_388
10
6.170552
20
52.9521437
40
0.7731446
50
173.7817938
51
174.9251711
0
ARC
8
DEFAULT_255_1_388
10
5.6579713
20
52.796627
40
0.3412588
50
95.8332067
51
138.995412
0
ARC
8
DEFAULT_255_1_388
10
5.6830994
20
52.6527695
40
0.4870358
50
89.8755506
51
97.0540979
0
ARC
8
DEFAULT_255_1_388
10
5.6884383
20
52.7467841
40
0.3930432
50
71.6407016
51
90.6240821
0
ARC
8
DEFAULT_255_1_388
10
5.7053776
20
52.8091433
40
0.3285421
50
39.6368051
51
71.0190743
0
ARC
8
DEFAULT_255_1_388
10
5.6337684
20
52.7472586
40
0.4231706
50
10.6588054
51
39.9044509
0
ARC
8
DEFAULT_255_1_388
10
5.4596229
20
52.7094223
40
0.60133
50
359.6827842
51
11.1326896
0
ARC
8
DEFAULT_255_1_388
10
5.4551565
20
52.7014715
40
0.6058047
50
347.2485908
51
0.4371098
0
ARC
8
DEFAULT_255_1_388
10
5.6427351
20
52.6563379
40
0.4128987
50
318.1408565
51
347.6118497
0
ARC
8
DEFAULT_255_1_388
10
5.6792947
20
52.6262903
40
0.3656244
50
275.6342406
51
317.824739
0
ARC
8
DEFAULT_255_1_388
10
5.6544468
20
52.7724827
40
0.513655
50
269.8872513
51
276.7916069
0
ARC
8
DEFAULT_255_1_388
10
5.6482661
20
52.6571181
40
0.398323
50
246.9139443
51
270.7436787
0
ARC
8
DEFAULT_255_1_388
10
5.6489857
20
52.6411044
40
0.3839368
50
218.1665534
51
245.8780431
0
ARC
8
DEFAULT_255_1_388
10
5.7479229
20
52.7238903
40
0.5128958
50
191.4115343
51
218.6077624
0
ARC
8
DEFAULT_255_1_388
10
5.9659545
20
52.7727777
40
0.7363054
50
179.6344971
51
191.7836758
0
ARC
8
DEFAULT_255_1_388
10
6.593942
20
52.8491495
40
1.3642984
50
171.4523743
51
180.3158856
0
ARC
8
DEFAULT_255_1_388
10
6.0995147
20
52.9260895
40
0.8639311
50
157.9802296
51
171.6246761
0
ARC
8
DEFAULT_255_1_388
10
5.8504497
20
53.0254038
40
0.5958004
50
141.4299236
51
157.8541251
0
ARC
8
DEFAULT_255_1_388
10
5.7782581
20
53.0764746
40
0.5075416
50
102.871586
51
140.8564533
0
ARC
8
DEFAULT_255_1_388
10
5.8511133
20
52.8019943
40
0.7914163
50
90.377773
51
103.5868422
0
ARC
8
DEFAULT_255_1_388
10
5.6555655
20
52.7339543
40
0.2667015
50
89.8751238
51
126.2072139
0
ARC
8
DEFAULT_255_1_388
10
5.6607126
20
52.7165847
40
0.2838229
50
124.9742447
51
144.8960197
0
ARC
8
DEFAULT_255_1_388
10
5.6409371
20
52.7326981
40
0.2583845
50
145.2974778
51
160.2660922
0
ARC
8
DEFAULT_255_1_388
10
5.9865859
20
52.7549151
40
0.5888695
50
179.6512124
51
190.285571
0
ARC
8
DEFAULT_255_1_388
10
5.7960339
20
52.7189968
40
0.3949683
50
190.0944895
51
207.5099647
0
ARC
8
DEFAULT_255_1_388
10
5.732392
20
52.6887177
40
0.3245464
50
207.9585471
51
216.325377
0
ARC
8
DEFAULT_255_1_388
10
5.6941557
20
52.6572712
40
0.2751259
50
215.7661336
51
232.5457193
0
ARC
8
DEFAULT_255_1_388
10
5.6510673
20
52.6025273
40
0.2054668
50
232.8005815
51
270.6605497
0
ARC
8
DEFAULT_255_1_388
10
5.6562098
20
52.6434853
40
0.2464268
50
269.3550767
51
288.474612
0
ARC
8
DEFAULT_255_1_388
10
5.6666605
20
52.6041721
40
0.2058436
50
289.1831976
51
322.9685307
0
ARC
8
DEFAULT_255_1_388
10
5.5978706
20
52.6584279
40
0.2934408
50
322.6007085
51
346.5183319
0
ARC
8
DEFAULT_255_1_388
10
5.4676462
20
52.6916434
40
0.4278249
50
346.2584622
51
358.7739592
0
ARC
8
DEFAULT_255_1_388
10
5.3525038
20
52.6978829
40
0.5430876
50
358.3757628
51
0.0082477
0
ARC
8
DEFAULT_255_1_388
10
5.4381856
20
52.7009856
40
0.4574157
50
359.6211417
51
11.28403
0
ARC
8
DEFAULT_255_1_388
10
5.5818462
20
52.7309535
40
0.3106708
50
11.0483152
51
31.8145585
0
ARC
8
DEFAULT_255_1_388
10
5.6166167
20
52.7498045
40
0.2711963
50
32.3028554
51
38.0820598
0
ARC
8
DEFAULT_255_1_388
10
5.66394
20
52.7926717
40
0.2075566
50
36.8249851
51
85.741667
0
ARC
8
DEFAULT_255_1_388
10
5.6563813
20
52.7363065
40
0.2643487
50
85.0150021
51
90.050843
0
LINE
8
DEFAULT_255_1_388
10
4.1833367
20
61.5299898
11
4.1833367
21
60.2144
0
LINE
8
DEFAULT_255_1_388
10
4.1833367
20
60.2144
11
4.0098523
21
60.2144
0
LINE
8
DEFAULT_255_1_388
10
4.0098523
20
60.2144
11
4.0098523
21
61.5299898
0
LINE
8
DEFAULT_255_1_388
10
4.0098523
20
61.5299898
11
4.1833367
21
61.5299898
0
LINE
8
DEFAULT_255_1_388
10
5.0561799
20
61.5299898
11
4.5077163
21
60.1014544
0
LINE
8
DEFAULT_255_1_388
10
4.5077163
20
60.1014544
11
4.3640496
21
60.1014544
0
LINE
8
DEFAULT_255_1_388
10
4.3640496
20
60.1014544
11
4.9134167
21
61.5299898
0
LINE
8
DEFAULT_255_1_388
10
4.9134167
20
61.5299898
11
5.0561799
21
61.5299898
0
LINE
8
DEFAULT_255_1_388
10
5.4302556
20
60.8396666
11
5.2965281
21
60.8740021
0
LINE
8
DEFAULT_255_1_388
10
5.2965281
20
60.8740021
11
5.3633918
21
61.5299898
0
LINE
8
DEFAULT_255_1_388
10
5.3633918
20
61.5299898
11
6.0374509
21
61.5299898
0
LINE
8
DEFAULT_255_1_388
10
6.0374509
20
61.5299898
11
6.0374509
21
61.3754803
0
LINE
8
DEFAULT_255_1_388
10
6.0374509
20
61.3754803
11
5.5052515
21
61.3754803
0
LINE
8
DEFAULT_255_1_388
10
5.5052515
20
61.3754803
11
5.4654946
21
61.0167652
0
LINE
8
DEFAULT_255_1_388
10
5.2495427
20
60.5604652
11
5.4076665
21
60.5604652
0
LINE
8
DEFAULT_255_1_388
10
5.4745303
20
60.8758092
11
5.4302556
21
60.8396666
0
ARC
8
DEFAULT_255_1_388
10
5.674156
20
60.6590241
40
0.4141476
50
93.7181681
51
120.253934
0
ARC
8
DEFAULT_255_1_388
10
5.6847612
20
60.5681284
40
0.5055616
50
89.9660471
51
94.2495185
0
ARC
8
DEFAULT_255_1_388
10
5.6893434
20
60.6344154
40
0.4392953
50
73.8045384
51
90.5585736
0
ARC
8
DEFAULT_255_1_388
10
5.7157692
20
60.730952
40
0.3392225
50
41.3071072
51
73.543002
0
ARC
8
DEFAULT_255_1_388
10
5.6689512
20
60.6906461
40
0.4009977
50
13.5075837
51
41.2174839
0
ARC
8
DEFAULT_255_1_388
10
5.4842609
20
60.6422907
40
0.5918864
50
1.1330171
51
13.8830737
0
ARC
8
DEFAULT_255_1_388
10
5.3246255
20
60.6337522
40
0.7516787
50
359.9925091
51
1.5431298
0
ARC
8
DEFAULT_255_1_388
10
5.469087
20
60.6291027
40
0.6072343
50
347.8572712
51
0.4294349
0
ARC
8
DEFAULT_255_1_388
10
5.6660004
20
60.5844898
40
0.4053482
50
323.6727442
51
348.1674594
0
ARC
8
DEFAULT_255_1_388
10
5.6990969
20
60.5643175
40
0.3667495
50
316.8171818
51
323.1486802
0
ARC
8
DEFAULT_255_1_388
10
5.7060093
20
60.5601612
40
0.358869
50
281.839603
51
316.5458142
0
ARC
8
DEFAULT_255_1_388
10
5.663738
20
60.7351363
40
0.5388223
50
269.5770964
51
282.4214641
0
ARC
8
DEFAULT_255_1_388
10
5.6557301
20
60.711093
40
0.5147801
50
256.2425863
51
270.4486481
0
ARC
8
DEFAULT_255_1_388
10
5.6220829
20
60.5761124
40
0.3756708
50
228.9024379
51
256.33135
0
ARC
8
DEFAULT_255_1_388
10
5.6137809
20
60.5630054
40
0.360344
50
193.7536029
51
228.5272638
0
ARC
8
DEFAULT_255_1_388
10
5.7530374
20
60.6038463
40
0.5053599
50
184.9244437
51
194.4976052
0
ARC
8
DEFAULT_255_1_388
10
5.7747015
20
60.6078722
40
0.3700839
50
187.3596909
51
198.6733728
0
ARC
8
DEFAULT_255_1_388
10
5.6566259
20
60.5669373
40
0.2451195
50
198.4453795
51
217.7945479
0
ARC
8
DEFAULT_255_1_388
10
5.6233431
20
60.5433563
40
0.2043754
50
218.2887146
51
228.5613203
0
ARC
8
DEFAULT_255_1_388
10
5.6343438
20
60.5581902
40
0.2227819
50
228.9652423
51
258.1237049
0
ARC
8
DEFAULT_255_1_388
10
5.6574875
20
60.6572964
40
0.3245374
50
257.7260585
51
270.4013717
0
ARC
8
DEFAULT_255_1_388
10
5.6625373
20
60.6072255
40
0.2744726
50
269.4204315
51
286.420998
0
ARC
8
DEFAULT_255_1_388
10
5.6792429
20
60.5465705
40
0.2115721
50
286.7250065
51
320.6004665
0
ARC
8
DEFAULT_255_1_388
10
5.6361345
20
60.5815527
40
0.2670878
50
320.6712228
51
344.5440474
0
ARC
8
DEFAULT_255_1_388
10
5.5060058
20
60.6197394
40
0.4026927
50
344.241448
51
356.735803
0
ARC
8
DEFAULT_255_1_388
10
5.3656366
20
60.6313656
40
0.5435085
50
356.3547471
51
0.0507222
0
ARC
8
DEFAULT_255_1_388
10
5.5158631
20
60.6348812
40
0.3932934
50
359.5579289
51
12.9534322
0
ARC
8
DEFAULT_255_1_388
10
5.6345471
20
60.6636586
40
0.2711827
50
12.6489751
51
41.608121
0
ARC
8
DEFAULT_255_1_388
10
5.6604631
20
60.6856946
40
0.2371737
50
41.7851122
51
85.9892156
0
ARC
8
DEFAULT_255_1_388
10
5.6465941
20
60.5941738
40
0.3295244
50
84.6965848
51
90.0672125
0
ARC
8
DEFAULT_255_1_388
10
5.6439508
20
60.5190118
40
0.4046926
50
89.6804991
51
99.161352
0
ARC
8
DEFAULT_255_1_388
10
5.6208517
20
60.6570848
40
0.2647044
50
98.9836248
51
113.8905702
0
ARC
8
DEFAULT_255_1_388
10
5.5950192
20
60.7180118
40
0.1985386
50
114.195234
51
127.3641866
0
LINE
8
DEFAULT_255_1_388
10
4.3156367
20
69.4674898
11
4.3156367
21
68.1519
0
LINE
8
DEFAULT_255_1_388
10
4.3156367
20
68.1519
11
4.1421523
21
68.1519
0
LINE
8
DEFAULT_255_1_388
10
4.1421523
20
68.1519
11
4.1421523
21
69.4674898
0
LINE
8
DEFAULT_255_1_388
10
4.1421523
20
69.4674898
11
4.3156367
21
69.4674898
0
LINE
8
DEFAULT_255_1_388
10
5.1884799
20
69.4674898
11
4.6400163
21
68.0389544
0
LINE
8
DEFAULT_255_1_388
10
4.6400163
20
68.0389544
11
4.4963496
21
68.0389544
0
LINE
8
DEFAULT_255_1_388
10
4.4963496
20
68.0389544
11
5.0457167
21
69.4674898
0
LINE
8
DEFAULT_255_1_388
10
5.0457167
20
69.4674898
11
5.1884799
21
69.4674898
0
LINE
8
DEFAULT_255_1_388
10
6.0577089
20
69.4674898
11
6.0577089
21
68.593743
0
LINE
8
DEFAULT_255_1_388
10
6.0577089
20
68.593743
11
6.240229
21
68.593743
0
LINE
8
DEFAULT_255_1_388
10
6.240229
20
68.593743
11
6.240229
21
68.4573048
0
LINE
8
DEFAULT_255_1_388
10
6.240229
20
68.4573048
11
6.0577089
21
68.4573048
0
LINE
8
DEFAULT_255_1_388
10
6.0577089
20
68.4573048
11
6.0577089
21
68.1519
0
LINE
8
DEFAULT_255_1_388
10
6.0577089
20
68.1519
11
5.8896459
21
68.1519
0
LINE
8
DEFAULT_255_1_388
10
5.8896459
20
68.1519
11
5.8896459
21
68.4573048
0
LINE
8
DEFAULT_255_1_388
10
5.8896459
20
68.4573048
11
5.2905827
21
68.4573048
0
LINE
8
DEFAULT_255_1_388
10
5.2905827
20
68.4573048
11
5.2905827
21
68.5557933
0
LINE
8
DEFAULT_255_1_388
10
5.2905827
20
68.5557933
11
5.8797067
21
69.4674898
0
LINE
8
DEFAULT_255_1_388
10
5.8797067
20
69.4674898
11
6.0577089
21
69.4674898
0
LINE
8
DEFAULT_255_1_388
10
5.8697675
20
69.2027455
11
5.4803313
21
68.593743
0
LINE
8
DEFAULT_255_1_388
10
5.4803313
20
68.593743
11
5.8896459
21
68.593743
0
LINE
8
DEFAULT_255_1_388
10
5.8896459
20
68.593743
11
5.8896459
21
69.238888
0
LINE
8
DEFAULT_255_1_388
10
5.8896459
20
69.238888
11
5.8697675
21
69.2027455
0
LINE
8
DEFAULT_255_1_388
10
4.784032
20
76.5068468
11
4.9584199
21
76.5068468
0
LINE
8
DEFAULT_255_1_388
10
3.9455242
20
76.6857525
11
3.9455242
21
76.8122516
0
LINE
8
DEFAULT_255_1_388
10
4.9584199
20
76.9821217
11
4.784032
21
76.9821217
0
LINE
8
DEFAULT_255_1_388
10
4.1199121
20
76.8077337
11
4.1199121
21
76.6803312
0
ARC
8
DEFAULT_255_1_388
10
4.3418433
20
76.5740329
40
0.6202263
50
340.1774904
51
353.7812217
0
ARC
8
DEFAULT_255_1_388
10
4.5186286
20
76.5081893
40
0.4315926
50
311.4560052
51
340.4420756
0
ARC
8
DEFAULT_255_1_388
10
4.5148826
20
76.5206665
40
0.4434573
50
282.4332229
51
310.7514507
0
ARC
8
DEFAULT_255_1_388
10
4.4654644
20
76.7248703
40
0.6535262
50
269.9358869
51
282.8096729
0
ARC
8
DEFAULT_255_1_388
10
4.4596583
20
76.8761329
40
0.8048043
50
269.9995752
51
270.3612856
0
ARC
8
DEFAULT_255_1_388
10
4.4537073
20
76.5962781
40
0.5249831
50
250.7885263
51
270.6488451
0
ARC
8
DEFAULT_255_1_388
10
4.4347898
20
76.5245853
40
0.4510942
50
219.3628377
51
250.0611024
0
ARC
8
DEFAULT_255_1_388
10
4.5280772
20
76.6038653
40
0.5735046
50
193.5480293
51
219.5755675
0
ARC
8
DEFAULT_255_1_388
10
4.7948981
20
76.673152
40
0.849146
50
181.1220183
51
193.8754971
0
ARC
8
DEFAULT_255_1_388
10
5.0272214
20
76.6855914
40
1.0816971
50
179.9914644
51
181.5398227
0
ARC
8
DEFAULT_255_1_388
10
4.8195525
20
76.8164586
40
0.8740384
50
169.5837606
51
180.275782
0
ARC
8
DEFAULT_255_1_388
10
4.6128873
20
76.8546439
40
0.6638751
50
155.0367033
51
169.6002779
0
ARC
8
DEFAULT_255_1_388
10
4.4851331
20
76.9162336
40
0.5220662
50
136.7831557
51
155.2472983
0
ARC
8
DEFAULT_255_1_388
10
4.4413122
20
76.9534577
40
0.4646502
50
121.7633063
51
136.4281161
0
ARC
8
DEFAULT_255_1_388
10
4.4564962
20
76.9254049
40
0.4964979
50
95.6460018
51
121.5489589
0
ARC
8
DEFAULT_255_1_388
10
4.4741936
20
76.8006704
40
0.6223912
50
89.9245727
51
96.1375919
0
ARC
8
DEFAULT_255_1_388
10
4.4798641
20
76.8140721
40
0.6090084
50
76.6779212
51
90.456405
0
ARC
8
DEFAULT_255_1_388
10
4.5241454
20
76.993006
40
0.42469
50
47.4858803
51
76.9287069
0
ARC
8
DEFAULT_255_1_388
10
4.5076068
20
76.9817623
40
0.4441778
50
16.5424081
51
46.8934505
0
ARC
8
DEFAULT_255_1_388
10
4.3267118
20
76.9223265
40
0.6345318
50
5.4072971
51
17.0363711
0
ARC
8
DEFAULT_255_1_388
10
4.1648843
20
76.8963304
40
0.6250632
50
7.8888693
51
15.9242022
0
ARC
8
DEFAULT_255_1_388
10
4.3883828
20
76.9612309
40
0.3923364
50
15.7650676
51
27.9410069
0
ARC
8
DEFAULT_255_1_388
10
4.5125997
20
77.0277317
40
0.2514401
50
27.8167196
51
46.4007942
0
ARC
8
DEFAULT_255_1_388
10
4.5181839
20
77.0270882
40
0.2480958
50
47.4372362
51
75.0695672
0
ARC
8
DEFAULT_255_1_388
10
4.4834675
20
76.9062277
40
0.3738281
50
74.7009379
51
87.8124314
0
ARC
8
DEFAULT_255_1_388
10
4.4752292
20
76.7878659
40
0.4924321
50
87.3802571
51
90.0251599
0
ARC
8
DEFAULT_255_1_388
10
4.4708939
20
76.9198997
40
0.3604218
50
89.3451886
51
108.5744412
0
ARC
8
DEFAULT_255_1_388
10
4.4554931
20
76.9776836
40
0.3007661
50
109.2998307
51
143.3037387
0
ARC
8
DEFAULT_255_1_388
10
4.5412221
20
76.9117584
40
0.4089031
50
143.075267
51
163.1918576
0
ARC
8
DEFAULT_255_1_388
10
4.7608055
20
76.8424652
40
0.6391492
50
162.9375929
51
174.6208776
0
ARC
8
DEFAULT_255_1_388
10
5.0562437
20
76.8100711
40
0.9363344
50
174.342123
51
180.1430283
0
ARC
8
DEFAULT_255_1_388
10
4.9514978
20
76.6757117
40
0.8315986
50
179.6817261
51
189.150555
0
ARC
8
DEFAULT_255_1_388
10
4.6701727
20
76.6288559
40
0.5464044
50
188.9911061
51
203.5772363
0
ARC
8
DEFAULT_255_1_388
10
4.5487019
20
76.5784539
40
0.4149206
50
203.9075402
51
215.1312435
0
ARC
8
DEFAULT_255_1_388
10
4.4448817
20
76.4979907
40
0.2837747
50
213.9071511
51
263.8848919
0
ARC
8
DEFAULT_255_1_388
10
4.458981
20
76.5862519
40
0.3730641
50
263.1757928
51
270.1031044
0
ARC
8
DEFAULT_255_1_388
10
4.462589
20
76.7265511
40
0.5133712
50
269.6722503
51
279.0606936
0
ARC
8
DEFAULT_255_1_388
10
4.4926045
20
76.545115
40
0.3294739
50
278.8749101
51
293.6349581
0
ARC
8
DEFAULT_255_1_388
10
4.5286249
20
76.4605251
40
0.2375405
50
293.8553806
51
310.0518171
0
ARC
8
DEFAULT_255_1_388
10
4.5291758
20
76.4535021
40
0.2318463
50
311.0644687
51
332.0111037
0
ARC
8
DEFAULT_255_1_388
10
4.3950431
20
76.5274702
40
0.3850112
50
331.6586806
51
343.2877423
0
ARC
8
DEFAULT_255_1_388
10
4.1629896
20
76.5987806
40
0.6277712
50
343.1446576
51
351.0103568
0
ARC
8
DEFAULT_255_1_388
10
3.999722
20
76.6287873
40
0.7937327
50
350.71248
51
351.1626997
0
LINE
8
DEFAULT_255_1_388
10
6.207146
20
76.7878553
11
6.207146
21
76.7047274
0
LINE
8
DEFAULT_255_1_388
10
5.149072
20
76.6929811
11
5.149072
21
76.7878553
0
LINE
8
DEFAULT_255_1_388
10
6.0345652
20
76.6920775
11
6.0345652
21
76.7896625
0
LINE
8
DEFAULT_255_1_388
10
5.3216528
20
76.8014088
11
5.3216528
21
76.7047274
0
ARC
8
DEFAULT_255_1_388
10
5.2349198
20
76.7002726
40
0.9722364
50
350.4878118
51
0.2625322
0
ARC
8
DEFAULT_255_1_388
10
5.4929158
20
76.6558994
40
0.7104556
50
336.0277991
51
350.5787241
0
ARC
8
DEFAULT_255_1_388
10
5.6442265
20
76.5875243
40
0.544417
50
319.887443
51
336.1331163
0
ARC
8
DEFAULT_255_1_388
10
5.7120077
20
76.5332733
40
0.4576311
50
302.4806296
51
319.6144102
0
ARC
8
DEFAULT_255_1_388
10
5.6990699
20
76.5582067
40
0.4856183
50
275.8196423
51
302.1885521
0
ARC
8
DEFAULT_255_1_388
10
5.680356
20
76.6867466
40
0.6154183
50
269.9169897
51
276.339506
0
ARC
8
DEFAULT_255_1_388
10
5.6753161
20
76.609568
40
0.5382553
50
252.5221437
51
270.441579
0
ARC
8
DEFAULT_255_1_388
10
5.6591411
20
76.5489046
40
0.4755426
50
237.5349961
51
252.1858334
0
ARC
8
DEFAULT_255_1_388
10
5.6691787
20
76.561712
40
0.4917393
50
209.0632754
51
237.3492577
0
ARC
8
DEFAULT_255_1_388
10
5.7671113
20
76.6232104
40
0.6072464
50
205.118533
51
209.6465345
0
ARC
8
DEFAULT_255_1_388
10
5.8567115
20
76.6612174
40
0.7045164
50
188.7216633
51
204.8239753
0
ARC
8
DEFAULT_255_1_388
10
6.0813891
20
76.6990387
40
0.9323368
50
180.3722704
51
188.9253909
0
ARC
8
DEFAULT_255_1_388
10
6.0783452
20
76.7923416
40
0.929284
50
169.5253055
51
180.2766048
0
ARC
8
DEFAULT_255_1_388
10
5.8643251
20
76.8317024
40
0.7116745
50
155.8314601
51
169.5088611
0
ARC
8
DEFAULT_255_1_388
10
5.7202714
20
76.8985312
40
0.5528904
50
139.6259579
51
156.0379072
0
ARC
8
DEFAULT_255_1_388
10
5.6539248
20
76.9519143
40
0.4677708
50
122.6414784
51
139.3431662
0
ARC
8
DEFAULT_255_1_388
10
5.6652503
20
76.9312787
40
0.4912586
50
93.0224537
51
122.4556091
0
ARC
8
DEFAULT_255_1_388
10
5.6774023
20
76.8226776
40
0.6003837
50
89.9756766
51
93.6340839
0
ARC
8
DEFAULT_255_1_388
10
5.6817621
20
76.8675879
40
0.5554884
50
73.7463329
51
90.4234008
0
ARC
8
DEFAULT_255_1_388
10
5.7015094
20
76.9440772
40
0.4765353
50
57.663051
51
73.4516911
0
ARC
8
DEFAULT_255_1_388
10
5.7006132
20
76.9465108
40
0.4749629
50
29.1441355
51
57.4146687
0
ARC
8
DEFAULT_255_1_388
10
5.5953943
20
76.8808046
40
0.5988917
50
24.0985653
51
29.732054
0
ARC
8
DEFAULT_255_1_388
10
5.4791575
20
76.8326154
40
0.7246823
50
8.6654943
51
23.8241215
0
ARC
8
DEFAULT_255_1_388
10
5.2277994
20
76.7916037
40
0.9793537
50
359.7807044
51
8.8218476
0
ARC
8
DEFAULT_255_1_388
10
5.0987698
20
76.7944731
40
0.9358078
50
359.7054632
51
8.0359751
0
ARC
8
DEFAULT_255_1_388
10
5.4362749
20
76.8436252
40
0.5947474
50
7.8926278
51
20.2962188
0
ARC
8
DEFAULT_255_1_388
10
5.61936
20
76.9111367
40
0.3996117
50
20.3231056
51
36.4990255
0
ARC
8
DEFAULT_255_1_388
10
5.6964897
20
76.9705399
40
0.3022818
50
36.1436715
51
85.6627846
0
ARC
8
DEFAULT_255_1_388
10
5.6782152
20
76.8535881
40
0.4203853
50
84.3845912
51
90.076054
0
ARC
8
DEFAULT_255_1_388
10
5.6734507
20
76.9278416
40
0.346157
50
89.3037228
51
109.9046209
0
ARC
8
DEFAULT_255_1_388
10
5.663034
20
76.9708379
40
0.3022217
50
110.8229774
51
143.917961
0
ARC
8
DEFAULT_255_1_388
10
5.76807
20
76.8906455
40
0.434348
50
143.5289166
51
163.2980252
0
ARC
8
DEFAULT_255_1_388
10
5.9826987
20
76.8231685
40
0.659321
50
163.0418884
51
174.3139873
0
ARC
8
DEFAULT_255_1_388
10
6.2531951
20
76.7919378
40
0.9315905
50
174.050934
51
179.4174954
0
ARC
8
DEFAULT_255_1_388
10
6.1963895
20
76.7000382
40
0.8747493
50
179.6928582
51
188.7908948
0
ARC
8
DEFAULT_255_1_388
10
5.8967695
20
76.6521086
40
0.5713262
50
188.6328449
51
202.5630732
0
ARC
8
DEFAULT_255_1_388
10
5.7556532
20
76.5954142
40
0.4192612
50
202.8078931
51
216.1195888
0
ARC
8
DEFAULT_255_1_388
10
5.6646049
20
76.5221479
40
0.3025752
50
215.0755613
51
264.6379773
0
ARC
8
DEFAULT_255_1_388
10
5.6788887
20
76.6156376
40
0.3970284
50
263.8464302
51
270.0830805
0
ARC
8
DEFAULT_255_1_388
10
5.6835431
20
76.5865808
40
0.3679937
50
269.3649295
51
287.5149684
0
ARC
8
DEFAULT_255_1_388
10
5.7035872
20
76.5137714
40
0.2925408
50
288.0629019
51
323.8115617
0
ARC
8
DEFAULT_255_1_388
10
5.6055848
20
76.5868754
40
0.4148018
50
323.6546541
51
342.6591359
0
ARC
8
DEFAULT_255_1_388
10
5.3770506
20
76.661228
40
0.6551163
50
342.4092446
51
353.6451501
0
ARC
8
DEFAULT_255_1_388
10
5.05853
20
76.7008565
40
0.9760748
50
353.4027553
51
359.4846611
0
LINE
8
DEFAULT_255_1_388
10
6.4673726
20
77.4049898
11
6.6914565
21
77.4049898
0
LINE
8
DEFAULT_255_1_388
10
6.6914565
20
77.4049898
11
7.1215532
21
76.3315553
0
LINE
8
DEFAULT_255_1_388
10
7.1215532
20
76.3315553
11
7.5516499
21
77.4049898
0
LINE
8
DEFAULT_255_1_388
10
7.5516499
20
77.4049898
11
7.7766375
21
77.4049898
0
LINE
8
DEFAULT_255_1_388
10
7.7766375
20
77.4049898
11
7.7766375
21
76.0894
0
LINE
8
DEFAULT_255_1_388
10
7.7766375
20
76.0894
11
7.6031531
21
76.0894
0
LINE
8
DEFAULT_255_1_388
10
7.6031531
20
76.0894
11
7.6031531
21
76.601721
0
LINE
8
DEFAULT_255_1_388
10
7.6031531
20
76.601721
11
7.6194172
21
77.1547025
0
LINE
8
DEFAULT_255_1_388
10
7.6194172
20
77.1547025
11
7.1875134
21
76.0894
0
LINE
8
DEFAULT_255_1_388
10
7.1875134
20
76.0894
11
7.0546895
21
76.0894
0
LINE
8
DEFAULT_255_1_388
10
7.0546895
20
76.0894
11
6.6236892
21
77.1519918
0
LINE
8
DEFAULT_255_1_388
10
6.6236892
20
77.1519918
11
6.6408569
21
76.601721
0
LINE
8
DEFAULT_255_1_388
10
6.6408569
20
76.601721
11
6.6408569
21
76.0894
0
LINE
8
DEFAULT_255_1_388
10
6.6408569
20
76.0894
11
6.4673726
21
76.0894
0
LINE
8
DEFAULT_255_1_388
10
6.4673726
20
76.0894
11
6.4673726
21
77.4049898
0
LINE
8
DEFAULT_255_1_388
10
4.1833367
20
85.3424898
11
4.1833367
21
84.0269
0
LINE
8
DEFAULT_255_1_388
10
4.1833367
20
84.0269
11
4.0098523
21
84.0269
0
LINE
8
DEFAULT_255_1_388
10
4.0098523
20
84.0269
11
4.0098523
21
85.3424898
0
LINE
8
DEFAULT_255_1_388
10
4.0098523
20
85.3424898
11
4.1833367
21
85.3424898
0
LINE
8
DEFAULT_255_1_388
10
5.0561799
20
85.3424898
11
4.5077163
21
83.9139544
0
LINE
8
DEFAULT_255_1_388
10
4.5077163
20
83.9139544
11
4.3640496
21
83.9139544
0
LINE
8
DEFAULT_255_1_388
10
4.3640496
20
83.9139544
11
4.9134167
21
85.3424898
0
LINE
8
DEFAULT_255_1_388
10
4.9134167
20
85.3424898
11
5.0561799
21
85.3424898
0
LINE
8
DEFAULT_255_1_388
10
5.4627839
20
84.6295775
11
5.4627839
21
84.7660157
0
LINE
8
DEFAULT_255_1_388
10
5.4627839
20
84.7660157
11
5.5883794
21
84.7660157
0
LINE
8
DEFAULT_255_1_388
10
5.3742346
20
84.9973282
11
5.2070752
21
84.9973282
0
LINE
8
DEFAULT_255_1_388
10
5.1953289
20
84.3738688
11
5.3633918
21
84.3738688
0
LINE
8
DEFAULT_255_1_388
10
5.5883794
20
84.6295775
11
5.4627839
21
84.6295775
0
ARC
8
DEFAULT_255_1_388
10
5.585102
20
85.1476922
40
0.3816905
50
270.491971
51
281.8953028
0
ARC
8
DEFAULT_255_1_388
10
5.6122447
20
85.0237199
40
0.2547877
50
281.6690378
51
301.2943765
0
ARC
8
DEFAULT_255_1_388
10
5.6313899
20
84.9886926
40
0.2149197
50
301.7834992
51
311.754567
0
ARC
8
DEFAULT_255_1_388
10
5.641694
20
84.977265
40
0.1995326
50
311.7325027
51
354.2803031
0
ARC
8
DEFAULT_255_1_388
10
5.5599356
20
84.991328
40
0.2823461
50
353.0941646
51
0.1174696
0
ARC
8
DEFAULT_255_1_388
10
5.5080914
20
84.9966874
40
0.3342238
50
359.1804452
51
15.0452323
0
ARC
8
DEFAULT_255_1_388
10
5.6594972
20
85.0408546
40
0.1765747
50
13.957816
51
77.6713812
0
ARC
8
DEFAULT_255_1_388
10
5.6160208
20
84.8850464
40
0.3381982
50
76.111571
51
90.7028736
0
ARC
8
DEFAULT_255_1_388
10
5.609362
20
84.915825
40
0.3074046
50
89.5321574
51
103.5319393
0
ARC
8
DEFAULT_255_1_388
10
5.5868004
20
85.0057443
40
0.2147041
50
103.2930114
51
133.5619756
0
ARC
8
DEFAULT_255_1_388
10
5.5817945
20
85.0124351
40
0.2064084
50
133.8349761
51
173.5343225
0
ARC
8
DEFAULT_255_1_388
10
5.6631603
20
84.9980144
40
0.2889266
50
172.5097183
51
180.1360699
0
ARC
8
DEFAULT_255_1_388
10
5.5561367
20
85.001888
40
0.3490913
50
155.3483706
51
180.7484035
0
ARC
8
DEFAULT_255_1_388
10
5.5506342
20
84.9986519
40
0.3454798
50
131.5745177
51
154.4799474
0
ARC
8
DEFAULT_255_1_388
10
5.5858625
20
84.9630422
40
0.3955058
50
96.9874487
51
131.9690874
0
ARC
8
DEFAULT_255_1_388
10
5.6105518
20
84.8229407
40
0.537622
50
89.8592909
51
97.7827481
0
ARC
8
DEFAULT_255_1_388
10
5.6159627
20
84.793436
40
0.5671399
50
78.3654493
51
90.4132586
0
ARC
8
DEFAULT_255_1_388
10
5.6562268
20
84.9800918
40
0.3762034
50
56.6229818
51
78.6387103
0
ARC
8
DEFAULT_255_1_388
10
5.6804097
20
85.0223846
40
0.3275964
50
47.0254604
51
56.085558
0
ARC
8
DEFAULT_255_1_388
10
5.6826348
20
85.0268189
40
0.3228382
50
10.9207523
51
46.777927
0
ARC
8
DEFAULT_255_1_388
10
5.5291942
20
84.9913401
40
0.4802559
50
359.6364235
51
11.6087615
0
ARC
8
DEFAULT_255_1_388
10
5.7356108
20
84.9896404
40
0.273833
50
332.3549969
51
359.7179765
0
ARC
8
DEFAULT_255_1_388
10
5.6624508
20
85.0243285
40
0.3547505
50
325.2332381
51
332.8746682
0
ARC
8
DEFAULT_255_1_388
10
5.6796091
20
85.0123763
40
0.3338396
50
292.9803892
51
325.2391113
0
ARC
8
DEFAULT_255_1_388
10
5.6485287
20
85.0728679
40
0.4016959
50
292.542178
51
293.6931461
0
ARC
8
DEFAULT_255_1_388
10
5.6928859
20
84.3463036
40
0.372079
50
57.643292
51
72.8626085
0
ARC
8
DEFAULT_255_1_388
10
5.7327693
20
84.4109273
40
0.2961455
50
36.7246661
51
57.4701329
0
ARC
8
DEFAULT_255_1_388
10
5.731485
20
84.412347
40
0.2963321
50
8.054535
51
36.3561529
0
ARC
8
DEFAULT_255_1_388
10
5.6344523
20
84.3949073
40
0.3948682
50
359.8316595
51
8.5873361
0
ARC
8
DEFAULT_255_1_388
10
5.5921997
20
84.389497
40
0.4371398
50
343.9831631
51
0.557075
0
ARC
8
DEFAULT_255_1_388
10
5.6919046
20
84.3621963
40
0.3337749
50
311.6358204
51
343.7652116
0
ARC
8
DEFAULT_255_1_388
10
5.64933
20
84.4101955
40
0.3979351
50
279.7829743
51
311.625622
0
ARC
8
DEFAULT_255_1_388
10
5.6154435
20
84.5718642
40
0.5630417
50
269.7285092
51
280.3857694
0
ARC
8
DEFAULT_255_1_388
10
5.6084748
20
84.5672241
40
0.5584119
50
256.6827433
51
270.4412869
0
ARC
8
DEFAULT_255_1_388
10
5.5703735
20
84.4114698
40
0.3980715
50
229.4223821
51
256.8554507
0
ARC
8
DEFAULT_255_1_388
10
5.5237288
20
84.3589683
40
0.3278564
50
181.8183354
51
229.6455015
0
ARC
8
DEFAULT_255_1_388
10
5.6406898
20
84.3736825
40
0.4453611
50
179.9760419
51
183.2330638
0
ARC
8
DEFAULT_255_1_388
10
5.621345
20
84.3713781
40
0.2579652
50
179.4467996
51
196.2871626
0
ARC
8
DEFAULT_255_1_388
10
5.5664904
20
84.3563709
40
0.2011057
50
196.5661293
51
227.7059371
0
ARC
8
DEFAULT_255_1_388
10
5.5849511
20
84.3770155
40
0.2287994
50
227.7653015
51
257.8763321
0
ARC
8
DEFAULT_255_1_388
10
5.6102594
20
84.4830961
40
0.3378385
50
257.4583525
51
270.4267406
0
ARC
8
DEFAULT_255_1_388
10
5.6153844
20
84.515723
40
0.3704652
50
269.5965319
51
280.8788143
0
ARC
8
DEFAULT_255_1_388
10
5.6412072
20
84.3867529
40
0.2389415
50
280.6347277
51
299.8594068
0
ARC
8
DEFAULT_255_1_388
10
5.6626841
20
84.3459736
40
0.19289
50
300.3575552
51
314.5515667
0
ARC
8
DEFAULT_255_1_388
10
5.6533517
20
84.3528025
40
0.204312
50
315.0730962
51
345.0429362
0
ARC
8
DEFAULT_255_1_388
10
5.5495025
20
84.3830539
40
0.31246
50
344.598526
51
357.9270698
0
ARC
8
DEFAULT_255_1_388
10
5.4485329
20
84.3899705
40
0.4136265
50
357.4755098
51
0.0224936
0
ARC
8
DEFAULT_255_1_388
10
5.5638207
20
84.3927099
40
0.2983498
50
359.5051035
51
13.4236939
0
ARC
8
DEFAULT_255_1_388
10
5.6613297
20
84.4176637
40
0.1977186
50
12.9497905
51
48.7550905
0
ARC
8
DEFAULT_255_1_388
10
5.6408219
20
84.3896373
40
0.2323321
50
49.509109
51
72.1832965
0
ARC
8
DEFAULT_255_1_388
10
5.6005687
20
84.2701632
40
0.358397
50
71.9008458
51
84.3555134
0
ARC
8
DEFAULT_255_1_388
10
5.5824082
20
84.1169712
40
0.512641
50
84.019632
51
89.3326067
0
LINE
8
DEFAULT_255_1_388
10
4.1833367
20
93.2799898
11
4.1833367
21
91.9644
0
LINE
8
DEFAULT_255_1_388
10
4.1833367
20
91.9644
11
4.0098523
21
91.9644
0
LINE
8
DEFAULT_255_1_388
10
4.0098523
20
91.9644
11
4.0098523
21
93.2799898
0
LINE
8
DEFAULT_255_1_388
10
4.0098523
20
93.2799898
11
4.1833367
21
93.2799898
0
LINE
8
DEFAULT_255_1_388
10
5.0561799
20
93.2799898
11
4.5077163
21
91.8514544
0
LINE
8
DEFAULT_255_1_388
10
4.5077163
20
91.8514544
11
4.3640496
21
91.8514544
0
LINE
8
DEFAULT_255_1_388
10
4.3640496
20
91.8514544
11
4.9134167
21
93.2799898
0
LINE
8
DEFAULT_255_1_388
10
4.9134167
20
93.2799898
11
5.0561799
21
93.2799898
0
LINE
8
DEFAULT_255_1_388
10
6.0817256
20
92.1008382
11
6.0817256
21
91.9644
0
LINE
8
DEFAULT_255_1_388
10
6.0817256
20
91.9644
11
5.2197251
21
91.9644
0
LINE
8
DEFAULT_255_1_388
10
5.2197251
20
91.9644
11
5.2197251
21
92.0845741
0
LINE
8
DEFAULT_255_1_388
10
5.2197251
20
92.0845741
11
5.6751216
21
92.5905702
0
LINE
8
DEFAULT_255_1_388
10
5.3615847
20
92.8923607
11
5.1944253
21
92.8923607
0
LINE
8
DEFAULT_255_1_388
10
5.7736101
20
92.483046
11
5.42122
21
92.1008382
0
LINE
8
DEFAULT_255_1_388
10
5.42122
20
92.1008382
11
6.0817256
21
92.1008382
0
ARC
8
DEFAULT_255_1_388
10
4.1575275
20
93.9325983
40
2.0258655
50
318.5132526
51
320.7829045
0
ARC
8
DEFAULT_255_1_388
10
4.7523232
20
93.4484929
40
1.2589638
50
320.7372878
51
323.9739031
0
ARC
8
DEFAULT_255_1_388
10
5.1932164
20
93.1290554
40
0.7145141
50
323.8962701
51
328.64194
0
ARC
8
DEFAULT_255_1_388
10
5.4234422
20
92.9870545
40
0.4440242
50
328.8294576
51
331.7891185
0
ARC
8
DEFAULT_255_1_388
10
5.5356742
20
92.9291374
40
0.3177517
50
331.4254512
51
352.9365785
0
ARC
8
DEFAULT_255_1_388
10
5.5509742
20
92.925705
40
0.3021496
50
353.2257659
51
0.0166158
0
ARC
8
DEFAULT_255_1_388
10
5.5746502
20
92.9282894
40
0.2784847
50
359.486299
51
15.9343185
0
ARC
8
DEFAULT_255_1_388
10
5.6316769
20
92.9436269
40
0.2194403
50
16.1712913
51
43.5286088
0
ARC
8
DEFAULT_255_1_388
10
5.6403714
20
92.9523191
40
0.2071504
50
43.4417391
51
83.1661095
0
ARC
8
DEFAULT_255_1_388
10
5.6252875
20
92.8694316
40
0.2912888
50
82.160179
51
90.1505708
0
ARC
8
DEFAULT_255_1_388
10
5.6217356
20
92.8090279
40
0.3517025
50
89.5460741
51
102.5418361
0
ARC
8
DEFAULT_255_1_388
10
5.5944076
20
92.9249933
40
0.2325748
50
102.1738499
51
129.206123
0
ARC
8
DEFAULT_255_1_388
10
5.585553
20
92.9389664
40
0.2161591
50
129.72865
51
135.753947
0
ARC
8
DEFAULT_255_1_388
10
5.5992012
20
92.9280728
40
0.2335433
50
136.1757367
51
166.3673339
0
ARC
8
DEFAULT_255_1_388
10
5.71247
20
92.8977148
40
0.3507873
50
165.9090694
51
178.8684636
0
ARC
8
DEFAULT_255_1_388
10
5.8100472
20
92.8924263
40
0.4484624
50
178.4391136
51
180.0083808
0
ARC
8
DEFAULT_255_1_388
10
5.6521173
20
92.8968197
40
0.4577138
50
163.2878482
51
180.5581842
0
ARC
8
DEFAULT_255_1_388
10
5.5619214
20
92.9216393
40
0.3641968
50
133.4540601
51
162.947111
0
ARC
8
DEFAULT_255_1_388
10
5.5820096
20
92.9002789
40
0.3935189
50
100.7869829
51
133.4382499
0
ARC
8
DEFAULT_255_1_388
10
5.6211341
20
92.7260399
40
0.5720313
50
89.660664
51
101.3702276
0
ARC
8
DEFAULT_255_1_388
10
5.628595
20
92.7329263
40
0.5651495
50
78.2172678
51
90.412935
0
ARC
8
DEFAULT_255_1_388
10
5.6685416
20
92.9156511
40
0.378122
50
55.9269121
51
78.4888449
0
ARC
8
DEFAULT_255_1_388
10
5.6906131
20
92.9537187
40
0.3342379
50
47.929771
51
55.4049217
0
ARC
8
DEFAULT_255_1_388
10
5.7020661
20
92.9653618
40
0.3179217
50
4.334829
51
48.0560205
0
ARC
8
DEFAULT_255_1_388
10
5.5788463
20
92.9462487
40
0.442341
50
359.9251713
51
5.5971671
0
ARC
8
DEFAULT_255_1_388
10
5.6270618
20
92.9525728
40
0.3941854
50
337.8914027
51
358.9967534
0
ARC
8
DEFAULT_255_1_388
10
5.3218188
20
93.0703295
40
0.7213271
50
326.9132501
51
338.3508308
0
ARC
8
DEFAULT_255_1_388
10
4.87343
20
93.3577105
40
1.2538973
50
319.6471833
51
327.0959558
0
ARC
8
DEFAULT_255_1_388
10
4.4420958
20
93.713505
40
1.8129975
50
317.2588228
51
319.9045804
0
LINE
8
DEFAULT_255_1_388
10
4.1761367
20
101.2174898
11
4.1761367
21
99.9019
0
LINE
8
DEFAULT_255_1_388
10
4.1761367
20
99.9019
11
4.0026523
21
99.9019
0
LINE
8
DEFAULT_255_1_388
10
4.0026523
20
99.9019
11
4.0026523
21
101.2174898
0
LINE
8
DEFAULT_255_1_388
10
4.0026523
20
101.2174898
11
4.1761367
21
101.2174898
0
LINE
8
DEFAULT_255_1_388
10
5.0489799
20
101.2174898
11
4.5005163
21
99.7889544
0
LINE
8
DEFAULT_255_1_388
10
4.5005163
20
99.7889544
11
4.3568496
21
99.7889544
0
LINE
8
DEFAULT_255_1_388
10
4.3568496
20
99.7889544
11
4.9062167
21
101.2174898
0
LINE
8
DEFAULT_255_1_388
10
4.9062167
20
101.2174898
11
5.0489799
21
101.2174898
0
LINE
8
DEFAULT_255_1_388
10
5.7618923
20
101.2238148
11
5.7618923
21
99.9019
0
LINE
8
DEFAULT_255_1_388
10
5.7618923
20
99.9019
11
5.5938293
21
99.9019
0
LINE
8
DEFAULT_255_1_388
10
5.5938293
20
99.9019
11
5.5938293
21
101.015995
0
LINE
8
DEFAULT_255_1_388
10
5.5938293
20
101.015995
11
5.2567998
21
100.8922066
0
LINE
8
DEFAULT_255_1_388
10
5.2567998
20
100.8922066
11
5.2567998
21
101.0440055
0
LINE
8
DEFAULT_255_1_388
10
5.2567998
20
101.0440055
11
5.7356889
21
101.2238148
0
LINE
8
DEFAULT_255_1_388
10
5.7356889
20
101.2238148
11
5.7618923
21
101.2238148
0
LINE
8
DEFAULT_255_1_388
10
4.1833367
20
109.1549898
11
4.1833367
21
107.8394
0
LINE
8
DEFAULT_255_1_388
10
4.1833367
20
107.8394
11
4.0098523
21
107.8394
0
LINE
8
DEFAULT_255_1_388
10
4.0098523
20
107.8394
11
4.0098523
21
109.1549898
0
LINE
8
DEFAULT_255_1_388
10
4.0098523
20
109.1549898
11
4.1833367
21
109.1549898
0
LINE
8
DEFAULT_255_1_388
10
5.0561799
20
109.1549898
11
4.5077163
21
107.7264544
0
LINE
8
DEFAULT_255_1_388
10
4.5077163
20
107.7264544
11
4.3640496
21
107.7264544
0
LINE
8
DEFAULT_255_1_388
10
4.3640496
20
107.7264544
11
4.9134167
21
109.1549898
0
LINE
8
DEFAULT_255_1_388
10
4.9134167
20
109.1549898
11
5.0561799
21
109.1549898
0
LINE
8
DEFAULT_255_1_388
10
6.0446794
20
108.617369
11
6.0446794
21
108.4005135
0
LINE
8
DEFAULT_255_1_388
10
5.2143037
20
108.3779244
11
5.2143037
21
108.6011048
0
LINE
8
DEFAULT_255_1_388
10
5.87752
20
108.3553353
11
5.87752
21
108.6291153
0
LINE
8
DEFAULT_255_1_388
10
5.3814631
20
108.6417652
11
5.3814631
21
108.3743102
0
ARC
8
DEFAULT_255_1_388
10
4.6669128
20
108.3950118
40
1.3777776
50
353.8440855
51
0.2287917
0
ARC
8
DEFAULT_255_1_388
10
5.1888146
20
108.3367414
40
0.852639
50
344.4934746
51
353.9763743
0
ARC
8
DEFAULT_255_1_388
10
5.5254953
20
108.2410191
40
0.5026273
50
329.2803599
51
344.7473406
0
ARC
8
DEFAULT_255_1_388
10
5.6370449
20
108.1798038
40
0.3754848
50
324.9361395
51
328.6153007
0
ARC
8
DEFAULT_255_1_388
10
5.6796098
20
108.1500586
40
0.3235566
50
280.5801797
51
324.9173226
0
ARC
8
DEFAULT_255_1_388
10
5.6344727
20
108.3380236
40
0.5167077
50
269.5979457
51
281.6732777
0
ARC
8
DEFAULT_255_1_388
10
5.6263631
20
108.3245113
40
0.5032026
50
256.6228565
51
270.5105488
0
ARC
8
DEFAULT_255_1_388
10
5.5811373
20
108.1503345
40
0.3233092
50
215.8618351
51
257.2787793
0
ARC
8
DEFAULT_255_1_388
10
5.696008
20
108.2274106
40
0.4615831
50
197.9695203
51
215.2622745
0
ARC
8
DEFAULT_255_1_388
10
5.9755756
20
108.3217641
40
0.7566307
50
187.8816486
51
198.2346584
0
ARC
8
DEFAULT_255_1_388
10
6.4208994
20
108.3860453
40
1.2065653
50
180.8977266
51
188.0054894
0
ARC
8
DEFAULT_255_1_388
10
6.7259208
20
108.39754
40
1.5117443
50
180.7434591
51
181.152202
0
ARC
8
DEFAULT_255_1_388
10
6.5584204
20
108.6065371
40
1.3441277
50
173.7674302
51
180.2315596
0
ARC
8
DEFAULT_255_1_388
10
6.0502073
20
108.6639779
40
0.8326847
50
164.3058537
51
173.9000553
0
ARC
8
DEFAULT_255_1_388
10
5.7226073
20
108.7583652
40
0.4917711
50
148.7922028
51
164.5682288
0
ARC
8
DEFAULT_255_1_388
10
5.615681
20
108.8180457
40
0.3694204
50
144.5883979
51
148.1161588
0
ARC
8
DEFAULT_255_1_388
10
5.5769556
20
108.8450667
40
0.322202
50
101.6440149
51
144.5142619
0
ARC
8
DEFAULT_255_1_388
10
5.6247748
20
108.6550337
40
0.5180451
50
89.528284
51
102.5820197
0
ARC
8
DEFAULT_255_1_388
10
5.633674
20
108.6506376
40
0.5224441
50
77.0437914
51
90.508231
0
ARC
8
DEFAULT_255_1_388
10
5.6788993
20
108.8354272
40
0.3322297
50
48.2777708
51
77.4996087
0
ARC
8
DEFAULT_255_1_388
10
5.6870733
20
108.8499557
40
0.315966
50
36.3141586
51
47.6307332
0
ARC
8
DEFAULT_255_1_388
10
5.5893456
20
108.7841159
40
0.4337313
50
18.2931065
51
35.6770203
0
ARC
8
DEFAULT_255_1_388
10
5.3032296
20
108.6859107
40
0.7362203
50
8.0246996
51
18.5605636
0
ARC
8
DEFAULT_255_1_388
10
4.8348652
20
108.6167432
40
1.2096583
50
1.127539
51
8.1718423
0
ARC
8
DEFAULT_255_1_388
10
4.4699785
20
108.6024374
40
1.5747719
50
0.5432713
51
1.38669
0
ARC
8
DEFAULT_255_1_388
10
4.6757164
20
108.6331163
40
1.2018103
50
359.8092569
51
4.9408001
0
ARC
8
DEFAULT_255_1_388
10
5.1493745
20
108.67539
40
0.7262727
50
4.8364937
51
12.2906017
0
ARC
8
DEFAULT_255_1_388
10
5.459321
20
108.7444485
40
0.4087324
50
12.0806994
51
23.8171225
0
ARC
8
DEFAULT_255_1_388
10
5.5913606
20
108.8003508
40
0.2653719
50
24.2874621
51
31.3934353
0
ARC
8
DEFAULT_255_1_388
10
5.6504042
20
108.8389822
40
0.1948607
50
30.7407708
51
82.4658033
0
ARC
8
DEFAULT_255_1_388
10
5.6301703
20
108.7396017
40
0.2961198
50
81.1057101
51
90.2187368
0
ARC
8
DEFAULT_255_1_388
10
5.6261515
20
108.7686421
40
0.2670929
50
89.380395
51
105.6763916
0
ARC
8
DEFAULT_255_1_388
10
5.6055237
20
108.843632
40
0.1893189
50
105.7980655
51
149.7387869
0
ARC
8
DEFAULT_255_1_388
10
5.7252377
20
108.7716719
40
0.3289892
50
149.4208441
51
163.628295
0
ARC
8
DEFAULT_255_1_388
10
5.9604606
20
108.6999345
40
0.5749004
50
163.3764549
51
172.141138
0
ARC
8
DEFAULT_255_1_388
10
6.3317328
20
108.6467582
40
0.9499585
50
172.0258462
51
178.0705453
0
ARC
8
DEFAULT_255_1_388
10
6.6738881
20
108.6305682
40
1.2924734
50
177.8639301
51
179.5036263
0
ARC
8
DEFAULT_255_1_388
10
6.5519899
20
108.3702151
40
1.170534
50
179.7995545
51
185.246089
0
ARC
8
DEFAULT_255_1_388
10
6.0971492
20
108.3271404
40
0.7136613
50
185.1411911
51
193.0082205
0
ARC
8
DEFAULT_255_1_388
10
5.7997753
20
108.2568441
40
0.4080987
50
192.7897338
51
205.2507384
0
ARC
8
DEFAULT_255_1_388
10
5.6819963
20
108.2042538
40
0.2791522
50
205.8001921
51
211.2545876
0
ARC
8
DEFAULT_255_1_388
10
5.6231502
20
108.1648132
40
0.2084074
50
210.3789935
51
238.4007996
0
ARC
8
DEFAULT_255_1_388
10
5.6209588
20
108.1700786
40
0.2117943
50
239.6521916
51
265.9793852
0
ARC
8
DEFAULT_255_1_388
10
5.6305437
20
108.2457358
40
0.2879689
50
265.1324455
51
270.0603288
0
ARC
8
DEFAULT_255_1_388
10
5.6337814
20
108.2092418
40
0.2514919
50
269.3314378
51
287.2180039
0
ARC
8
DEFAULT_255_1_388
10
5.6492896
20
108.1526291
40
0.1928357
50
287.7957942
51
329.0808983
0
ARC
8
DEFAULT_255_1_388
10
5.5415653
20
108.2198651
40
0.319808
50
328.6635261
51
343.3325043
0
ARC
8
DEFAULT_255_1_388
10
5.2971112
20
108.2960195
40
0.5758408
50
343.0498092
51
351.9392499
0
ARC
8
DEFAULT_255_1_388
10
4.9070434
20
108.3535205
40
0.9701202
50
351.8071632
51
357.7957897
0
ARC
8
DEFAULT_255_1_388
10
4.5435911
20
108.3723724
40
1.3340376
50
357.5870923
51
359.2682493
0
LINE
8
DEFAULT_255_1_388
10
4.784032
20
116.1943468
11
4.9584199
21
116.1943468
0
LINE
8
DEFAULT_255_1_388
10
3.9455242
20
116.3732525
11
3.9455242
21
116.4997516
0
LINE
8
DEFAULT_255_1_388
10
4.9584199
20
116.6696217
11
4.784032
21
116.6696217
0
LINE
8
DEFAULT_255_1_388
10
4.1199121
20
116.4952337
11
4.1199121
21
116.3678312
0
ARC
8
DEFAULT_255_1_388
10
4.3418433
20
116.2615329
40
0.6202263
50
340.1774904
51
353.7812217
0
ARC
8
DEFAULT_255_1_388
10
4.5186286
20
116.1956893
40
0.4315926
50
311.4560052
51
340.4420756
0
ARC
8
DEFAULT_255_1_388
10
4.5148826
20
116.2081665
40
0.4434573
50
282.4332229
51
310.7514507
0
ARC
8
DEFAULT_255_1_388
10
4.4654644
20
116.4123703
40
0.6535262
50
269.9358869
51
282.8096729
0
ARC
8
DEFAULT_255_1_388
10
4.4596583
20
116.5636329
40
0.8048043
50
269.9995752
51
270.3612856
0
ARC
8
DEFAULT_255_1_388
10
4.4537073
20
116.2837781
40
0.5249831
50
250.7885263
51
270.6488451
0
ARC
8
DEFAULT_255_1_388
10
4.4347898
20
116.2120853
40
0.4510942
50
219.3628377
51
250.0611024
0
ARC
8
DEFAULT_255_1_388
10
4.5280772
20
116.2913653
40
0.5735046
50
193.5480293
51
219.5755675
0
ARC
8
DEFAULT_255_1_388
10
4.7948981
20
116.360652
40
0.849146
50
181.1220183
51
193.8754971
0
ARC
8
DEFAULT_255_1_388
10
5.0272214
20
116.3730914
40
1.0816971
50
179.9914644
51
181.5398227
0
ARC
8
DEFAULT_255_1_388
10
4.8195525
20
116.5039586
40
0.8740384
50
169.5837606
51
180.275782
0
ARC
8
DEFAULT_255_1_388
10
4.6128873
20
116.5421439
40
0.6638751
50
155.0367033
51
169.6002779
0
ARC
8
DEFAULT_255_1_388
10
4.4851331
20
116.6037336
40
0.5220662
50
136.7831557
51
155.2472983
0
ARC
8
DEFAULT_255_1_388
10
4.4413122
20
116.6409577
40
0.4646502
50
121.7633063
51
136.4281161
0
ARC
8
DEFAULT_255_1_388
10
4.4564962
20
116.6129049
40
0.4964979
50
95.6460018
51
121.5489589
0
ARC
8
DEFAULT_255_1_388
10
4.4741936
20
116.4881704
40
0.6223912
50
89.9245727
51
96.1375919
0
ARC
8
DEFAULT_255_1_388
10
4.4798641
20
116.5015721
40
0.6090084
50
76.6779212
51
90.456405
0
ARC
8
DEFAULT_255_1_388
10
4.5241454
20
116.680506
40
0.42469
50
47.4858803
51
76.9287069
0
ARC
8
DEFAULT_255_1_388
10
4.5076068
20
116.6692623
40
0.4441778
50
16.5424081
51
46.8934505
0
ARC
8
DEFAULT_255_1_388
10
4.3267118
20
116.6098265
40
0.6345318
50
5.4072971
51
17.0363711
0
ARC
8
DEFAULT_255_1_388
10
4.1648843
20
116.5838304
40
0.6250632
50
7.8888693
51
15.9242022
0
ARC
8
DEFAULT_255_1_388
10
4.3883828
20
116.6487309
40
0.3923364
50
15.7650676
51
27.9410069
0
ARC
8
DEFAULT_255_1_388
10
4.5125997
20
116.7152317
40
0.2514401
50
27.8167196
51
46.4007942
0
ARC
8
DEFAULT_255_1_388
10
4.5181839
20
116.7145882
40
0.2480958
50
47.4372362
51
75.0695672
0
ARC
8
DEFAULT_255_1_388
10
4.4834675
20
116.5937277
40
0.3738281
50
74.7009379
51
87.8124314
0
ARC
8
DEFAULT_255_1_388
10
4.4752292
20
116.4753659
40
0.4924321
50
87.3802571
51
90.0251599
0
ARC
8
DEFAULT_255_1_388
10
4.4708939
20
116.6073997
40
0.3604218
50
89.3451886
51
108.5744412
0
ARC
8
DEFAULT_255_1_388
10
4.4554931
20
116.6651836
40
0.3007661
50
109.2998307
51
143.3037387
0
ARC
8
DEFAULT_255_1_388
10
4.5412221
20
116.5992584
40
0.4089031
50
143.075267
51
163.1918576
0
ARC
8
DEFAULT_255_1_388
10
4.7608055
20
116.5299652
40
0.6391492
50
162.9375929
51
174.6208776
0
ARC
8
DEFAULT_255_1_388
10
5.0562437
20
116.4975711
40
0.9363344
50
174.342123
51
180.1430283
0
ARC
8
DEFAULT_255_1_388
10
4.9514978
20
116.3632117
40
0.8315986
50
179.6817261
51
189.150555
0
ARC
8
DEFAULT_255_1_388
10
4.6701727
20
116.3163559
40
0.5464044
50
188.9911061
51
203.5772363
0
ARC
8
DEFAULT_255_1_388
10
4.5487019
20
116.2659539
40
0.4149206
50
203.9075402
51
215.1312435
0
ARC
8
DEFAULT_255_1_388
10
4.4448817
20
116.1854907
40
0.2837747
50
213.9071511
51
263.8848919
0
ARC
8
DEFAULT_255_1_388
10
4.458981
20
116.2737519
40
0.3730641
50
263.1757928
51
270.1031044
0
ARC
8
DEFAULT_255_1_388
10
4.462589
20
116.4140511
40
0.5133712
50
269.6722503
51
279.0606936
0
ARC
8
DEFAULT_255_1_388
10
4.4926045
20
116.232615
40
0.3294739
50
278.8749101
51
293.6349581
0
ARC
8
DEFAULT_255_1_388
10
4.5286249
20
116.1480251
40
0.2375405
50
293.8553806
51
310.0518171
0
ARC
8
DEFAULT_255_1_388
10
4.5291758
20
116.1410021
40
0.2318463
50
311.0644687
51
332.0111037
0
ARC
8
DEFAULT_255_1_388
10
4.3950431
20
116.2149702
40
0.3850112
50
331.6586806
51
343.2877423
0
ARC
8
DEFAULT_255_1_388
10
4.1629896
20
116.2862806
40
0.6277712
50
343.1446576
51
351.0103568
0
ARC
8
DEFAULT_255_1_388
10
3.999722
20
116.3162873
40
0.7937327
50
350.71248
51
351.1626997
0
LINE
8
DEFAULT_255_1_388
10
6.207146
20
116.4753553
11
6.207146
21
116.3922274
0
LINE
8
DEFAULT_255_1_388
10
5.149072
20
116.3804811
11
5.149072
21
116.4753553
0
LINE
8
DEFAULT_255_1_388
10
6.0345652
20
116.3795775
11
6.0345652
21
116.4771625
0
LINE
8
DEFAULT_255_1_388
10
5.3216528
20
116.4889088
11
5.3216528
21
116.3922274
0
ARC
8
DEFAULT_255_1_388
10
5.2349198
20
116.3877726
40
0.9722364
50
350.4878118
51
0.2625322
0
ARC
8
DEFAULT_255_1_388
10
5.4929158
20
116.3433994
40
0.7104556
50
336.0277991
51
350.5787241
0
ARC
8
DEFAULT_255_1_388
10
5.6442265
20
116.2750243
40
0.544417
50
319.887443
51
336.1331163
0
ARC
8
DEFAULT_255_1_388
10
5.7120077
20
116.2207733
40
0.4576311
50
302.4806296
51
319.6144102
0
ARC
8
DEFAULT_255_1_388
10
5.6990699
20
116.2457067
40
0.4856183
50
275.8196423
51
302.1885521
0
ARC
8
DEFAULT_255_1_388
10
5.680356
20
116.3742466
40
0.6154183
50
269.9169897
51
276.339506
0
ARC
8
DEFAULT_255_1_388
10
5.6753161
20
116.297068
40
0.5382553
50
252.5221437
51
270.441579
0
ARC
8
DEFAULT_255_1_388
10
5.6591411
20
116.2364046
40
0.4755426
50
237.5349961
51
252.1858334
0
ARC
8
DEFAULT_255_1_388
10
5.6691787
20
116.249212
40
0.4917393
50
209.0632754
51
237.3492577
0
ARC
8
DEFAULT_255_1_388
10
5.7671113
20
116.3107104
40
0.6072464
50
205.118533
51
209.6465345
0
ARC
8
DEFAULT_255_1_388
10
5.8567115
20
116.3487174
40
0.7045164
50
188.7216633
51
204.8239753
0
ARC
8
DEFAULT_255_1_388
10
6.0813891
20
116.3865387
40
0.9323368
50
180.3722704
51
188.9253909
0
ARC
8
DEFAULT_255_1_388
10
6.0783452
20
116.4798416
40
0.929284
50
169.5253055
51
180.2766048
0
ARC
8
DEFAULT_255_1_388
10
5.8643251
20
116.5192024
40
0.7116745
50
155.8314601
51
169.5088611
0
ARC
8
DEFAULT_255_1_388
10
5.7202714
20
116.5860312
40
0.5528904
50
139.6259579
51
156.0379072
0
ARC
8
DEFAULT_255_1_388
10
5.6539248
20
116.6394143
40
0.4677708
50
122.6414784
51
139.3431662
0
ARC
8
DEFAULT_255_1_388
10
5.6652503
20
116.6187787
40
0.4912586
50
93.0224537
51
122.4556091
0
ARC
8
DEFAULT_255_1_388
10
5.6774023
20
116.5101776
40
0.6003837
50
89.9756766
51
93.6340839
0
ARC
8
DEFAULT_255_1_388
10
5.6817621
20
116.5550879
40
0.5554884
50
73.7463329
51
90.4234008
0
ARC
8
DEFAULT_255_1_388
10
5.7015094
20
116.6315772
40
0.4765353
50
57.663051
51
73.4516911
0
ARC
8
DEFAULT_255_1_388
10
5.7006132
20
116.6340108
40
0.4749629
50
29.1441355
51
57.4146687
0
ARC
8
DEFAULT_255_1_388
10
5.5953943
20
116.5683046
40
0.5988917
50
24.0985653
51
29.732054
0
ARC
8
DEFAULT_255_1_388
10
5.4791575
20
116.5201154
40
0.7246823
50
8.6654943
51
23.8241215
0
ARC
8
DEFAULT_255_1_388
10
5.2277994
20
116.4791037
40
0.9793537
50
359.7807044
51
8.8218476
0
ARC
8
DEFAULT_255_1_388
10
5.0987698
20
116.4819731
40
0.9358078
50
359.7054632
51
8.0359751
0
ARC
8
DEFAULT_255_1_388
10
5.4362749
20
116.5311252
40
0.5947474
50
7.8926278
51
20.2962188
0
ARC
8
DEFAULT_255_1_388
10
5.61936
20
116.5986367
40
0.3996117
50
20.3231056
51
36.4990255
0
ARC
8
DEFAULT_255_1_388
10
5.6964897
20
116.6580399
40
0.3022818
50
36.1436715
51
85.6627846
0
ARC
8
DEFAULT_255_1_388
10
5.6782152
20
116.5410881
40
0.4203853
50
84.3845912
51
90.076054
0
ARC
8
DEFAULT_255_1_388
10
5.6734507
20
116.6153416
40
0.346157
50
89.3037228
51
109.9046209
0
ARC
8
DEFAULT_255_1_388
10
5.663034
20
116.6583379
40
0.3022217
50
110.8229774
51
143.917961
0
ARC
8
DEFAULT_255_1_388
10
5.76807
20
116.5781455
40
0.434348
50
143.5289166
51
163.2980252
0
ARC
8
DEFAULT_255_1_388
10
5.9826987
20
116.5106685
40
0.659321
50
163.0418884
51
174.3139873
0
ARC
8
DEFAULT_255_1_388
10
6.2531951
20
116.4794378
40
0.9315905
50
174.050934
51
179.4174954
0
ARC
8
DEFAULT_255_1_388
10
6.1963895
20
116.3875382
40
0.8747493
50
179.6928582
51
188.7908948
0
ARC
8
DEFAULT_255_1_388
10
5.8967695
20
116.3396086
40
0.5713262
50
188.6328449
51
202.5630732
0
ARC
8
DEFAULT_255_1_388
10
5.7556532
20
116.2829142
40
0.4192612
50
202.8078931
51
216.1195888
0
ARC
8
DEFAULT_255_1_388
10
5.6646049
20
116.2096479
40
0.3025752
50
215.0755613
51
264.6379773
0
ARC
8
DEFAULT_255_1_388
10
5.6788887
20
116.3031376
40
0.3970284
50
263.8464302
51
270.0830805
0
ARC
8
DEFAULT_255_1_388
10
5.6835431
20
116.2740808
40
0.3679937
50
269.3649295
51
287.5149684
0
ARC
8
DEFAULT_255_1_388
10
5.7035872
20
116.2012714
40
0.2925408
50
288.0629019
51
323.8115617
0
ARC
8
DEFAULT_255_1_388
10
5.6055848
20
116.2743754
40
0.4148018
50
323.6546541
51
342.6591359
0
ARC
8
DEFAULT_255_1_388
10
5.3770506
20
116.348728
40
0.6551163
50
342.4092446
51
353.6451501
0
ARC
8
DEFAULT_255_1_388
10
5.05853
20
116.3883565
40
0.9760748
50
353.4027553
51
359.4846611
0
LINE
8
DEFAULT_255_1_388
10
6.4673726
20
117.0924898
11
6.6914565
21
117.0924898
0
LINE
8
DEFAULT_255_1_388
10
6.6914565
20
117.0924898
11
7.1215532
21
116.0190553
0
LINE
8
DEFAULT_255_1_388
10
7.1215532
20
116.0190553
11
7.5516499
21
117.0924898
0
LINE
8
DEFAULT_255_1_388
10
7.5516499
20
117.0924898
11
7.7766375
21
117.0924898
0
LINE
8
DEFAULT_255_1_388
10
7.7766375
20
117.0924898
11
7.7766375
21
115.7769
0
LINE
8
DEFAULT_255_1_388
10
7.7766375
20
115.7769
11
7.6031531
21
115.7769
0
LINE
8
DEFAULT_255_1_388
10
7.6031531
20
115.7769
11
7.6031531
21
116.289221
0
LINE
8
DEFAULT_255_1_388
10
7.6031531
20
116.289221
11
7.6194172
21
116.8422025
0
LINE
8
DEFAULT_255_1_388
10
7.6194172
20
116.8422025
11
7.1875134
21
115.7769
0
LINE
8
DEFAULT_255_1_388
10
7.1875134
20
115.7769
11
7.0546895
21
115.7769
0
LINE
8
DEFAULT_255_1_388
10
7.0546895
20
115.7769
11
6.6236892
21
116.8394918
0
LINE
8
DEFAULT_255_1_388
10
6.6236892
20
116.8394918
11
6.6408569
21
116.289221
0
LINE
8
DEFAULT_255_1_388
10
6.6408569
20
116.289221
11
6.6408569
21
115.7769
0
LINE
8
DEFAULT_255_1_388
10
6.6408569
20
115.7769
11
6.4673726
21
115.7769
0
LINE
8
DEFAULT_255_1_388
10
6.4673726
20
115.7769
11
6.4673726
21
117.0924898
0
LINE
8
DEFAULT_255_1_388
10
20.6845903
20
125.0299898
11
20.6845903
21
123.8562596
0
LINE
8
DEFAULT_255_1_388
10
20.6845903
20
123.8562596
11
21.3080498
21
123.8562596
0
LINE
8
DEFAULT_255_1_388
10
21.3080498
20
123.8562596
11
21.3080498
21
123.7144
0
LINE
8
DEFAULT_255_1_388
10
21.3080498
20
123.7144
11
20.5102024
21
123.7144
0
LINE
8
DEFAULT_255_1_388
10
20.5102024
20
123.7144
11
20.5102024
21
125.0299898
0
LINE
8
DEFAULT_255_1_388
10
20.5102024
20
125.0299898
11
20.6845903
21
125.0299898
0
LINE
8
DEFAULT_255_1_388
10
22.3245598
20
123.8508382
11
22.3245598
21
123.7144
0
LINE
8
DEFAULT_255_1_388
10
22.3245598
20
123.7144
11
21.4625593
21
123.7144
0
LINE
8
DEFAULT_255_1_388
10
21.4625593
20
123.7144
11
21.4625593
21
123.8345741
0
LINE
8
DEFAULT_255_1_388
10
21.4625593
20
123.8345741
11
21.9179558
21
124.3405702
0
LINE
8
DEFAULT_255_1_388
10
21.6044189
20
124.6423607
11
21.4372595
21
124.6423607
0
LINE
8
DEFAULT_255_1_388
10
22.0164443
20
124.233046
11
21.6640542
21
123.8508382
0
LINE
8
DEFAULT_255_1_388
10
21.6640542
20
123.8508382
11
22.3245598
21
123.8508382
0
ARC
8
DEFAULT_255_1_388
10
20.4003618
20
125.6825983
40
2.0258655
50
318.5132526
51
320.7829045
0
ARC
8
DEFAULT_255_1_388
10
20.9951575
20
125.1984929
40
1.2589638
50
320.7372878
51
323.9739031
0
ARC
8
DEFAULT_255_1_388
10
21.4360506
20
124.8790554
40
0.7145141
50
323.8962701
51
328.64194
0
ARC
8
DEFAULT_255_1_388
10
21.6662764
20
124.7370545
40
0.4440242
50
328.8294576
51
331.7891185
0
ARC
8
DEFAULT_255_1_388
10
21.7785084
20
124.6791374
40
0.3177517
50
331.4254512
51
352.9365785
0
ARC
8
DEFAULT_255_1_388
10
21.7938084
20
124.675705
40
0.3021496
50
353.2257659
51
0.0166158
0
ARC
8
DEFAULT_255_1_388
10
21.8174845
20
124.6782894
40
0.2784847
50
359.486299
51
15.9343185
0
ARC
8
DEFAULT_255_1_388
10
21.8745111
20
124.6936269
40
0.2194403
50
16.1712913
51
43.5286088
0
ARC
8
DEFAULT_255_1_388
10
21.8832056
20
124.7023191
40
0.2071504
50
43.4417391
51
83.1661095
0
ARC
8
DEFAULT_255_1_388
10
21.8681217
20
124.6194316
40
0.2912888
50
82.160179
51
90.1505708
0
ARC
8
DEFAULT_255_1_388
10
21.8645699
20
124.5590279
40
0.3517025
50
89.5460741
51
102.5418361
0
ARC
8
DEFAULT_255_1_388
10
21.8372419
20
124.6749933
40
0.2325748
50
102.1738499
51
129.206123
0
ARC
8
DEFAULT_255_1_388
10
21.8283872
20
124.6889664
40
0.2161591
50
129.72865
51
135.753947
0
ARC
8
DEFAULT_255_1_388
10
21.8420354
20
124.6780728
40
0.2335433
50
136.1757367
51
166.3673339
0
ARC
8
DEFAULT_255_1_388
10
21.9553043
20
124.6477148
40
0.3507873
50
165.9090694
51
178.8684636
0
ARC
8
DEFAULT_255_1_388
10
22.0528814
20
124.6424263
40
0.4484624
50
178.4391136
51
180.0083808
0
ARC
8
DEFAULT_255_1_388
10
21.8949516
20
124.6468197
40
0.4577138
50
163.2878482
51
180.5581842
0
ARC
8
DEFAULT_255_1_388
10
21.8047557
20
124.6716393
40
0.3641968
50
133.4540601
51
162.947111
0
ARC
8
DEFAULT_255_1_388
10
21.8248438
20
124.6502789
40
0.3935189
50
100.7869829
51
133.4382499
0
ARC
8
DEFAULT_255_1_388
10
21.8639683
20
124.4760399
40
0.5720313
50
89.660664
51
101.3702276
0
ARC
8
DEFAULT_255_1_388
10
21.8714292
20
124.4829263
40
0.5651495
50
78.2172678
51
90.412935
0
ARC
8
DEFAULT_255_1_388
10
21.9113758
20
124.6656511
40
0.378122
50
55.9269121
51
78.4888449
0
ARC
8
DEFAULT_255_1_388
10
21.9334473
20
124.7037187
40
0.3342379
50
47.929771
51
55.4049217
0
ARC
8
DEFAULT_255_1_388
10
21.9449004
20
124.7153618
40
0.3179217
50
4.334829
51
48.0560205
0
ARC
8
DEFAULT_255_1_388
10
21.8216805
20
124.6962487
40
0.442341
50
359.9251713
51
5.5971671
0
ARC
8
DEFAULT_255_1_388
10
21.869896
20
124.7025728
40
0.3941854
50
337.8914027
51
358.9967534
0
ARC
8
DEFAULT_255_1_388
10
21.564653
20
124.8203295
40
0.7213271
50
326.9132501
51
338.3508308
0
ARC
8
DEFAULT_255_1_388
10
21.1162642
20
125.1077105
40
1.2538973
50
319.6471833
51
327.0959558
0
ARC
8
DEFAULT_255_1_388
10
20.68493
20
125.463505
40
1.8129975
50
317.2588228
51
319.9045804
0
LINE
8
DEFAULT_255_1_388
10
23.1007217
20
125.0299898
11
22.5522581
21
123.6014544
0
LINE
8
DEFAULT_255_1_388
10
22.5522581
20
123.6014544
11
22.4085913
21
123.6014544
0
LINE
8
DEFAULT_255_1_388
10
22.4085913
20
123.6014544
11
22.9579585
21
125.0299898
0
LINE
8
DEFAULT_255_1_388
10
22.9579585
20
125.0299898
11
23.1007217
21
125.0299898
0
LINE
8
DEFAULT_255_1_388
10
24.3187266
20
125.0299898
11
24.3187266
21
123.7144
0
LINE
8
DEFAULT_255_1_388
10
24.3187266
20
123.7144
11
24.1443386
21
123.7144
0
LINE
8
DEFAULT_255_1_388
10
24.1443386
20
123.7144
11
23.4820259
21
124.7281993
0
LINE
8
DEFAULT_255_1_388
10
23.4820259
20
124.7281993
11
23.4820259
21
123.7144
0
LINE
8
DEFAULT_255_1_388
10
23.4820259
20
123.7144
11
23.3076379
21
123.7144
0
LINE
8
DEFAULT_255_1_388
10
23.3076379
20
123.7144
11
23.3076379
21
125.0299898
0
LINE
8
DEFAULT_255_1_388
10
23.3076379
20
125.0299898
11
23.4820259
21
125.0299898
0
LINE
8
DEFAULT_255_1_388
10
23.4820259
20
125.0299898
11
24.1461458
21
124.0116727
0
LINE
8
DEFAULT_255_1_388
10
24.1461458
20
124.0116727
11
24.1461458
21
125.0299898
0
LINE
8
DEFAULT_255_1_388
10
24.1461458
20
125.0299898
11
24.3187266
21
125.0299898
0
LINE
8
DEFAULT_255_1_388
10
22.5562946
20
13.2878553
11
22.5562946
21
13.2047274
0
LINE
8
DEFAULT_255_1_388
10
21.4982206
20
13.1929811
11
21.4982206
21
13.2878553
0
LINE
8
DEFAULT_255_1_388
10
22.3837138
20
13.1920775
11
22.3837138
21
13.2896625
0
LINE
8
DEFAULT_255_1_388
10
21.6708014
20
13.3014088
11
21.6708014
21
13.2047274
0
ARC
8
DEFAULT_255_1_388
10
21.5840684
20
13.2002726
40
0.9722364
50
350.4878118
51
0.2625322
0
ARC
8
DEFAULT_255_1_388
10
21.8420644
20
13.1558994
40
0.7104556
50
336.0277991
51
350.5787241
0
ARC
8
DEFAULT_255_1_388
10
21.9933751
20
13.0875243
40
0.544417
50
319.887443
51
336.1331163
0
ARC
8
DEFAULT_255_1_388
10
22.0611563
20
13.0332733
40
0.4576311
50
302.4806296
51
319.6144102
0
ARC
8
DEFAULT_255_1_388
10
22.0482184
20
13.0582067
40
0.4856183
50
275.8196423
51
302.1885521
0
ARC
8
DEFAULT_255_1_388
10
22.0295046
20
13.1867466
40
0.6154183
50
269.9169897
51
276.339506
0
ARC
8
DEFAULT_255_1_388
10
22.0244646
20
13.109568
40
0.5382553
50
252.5221437
51
270.441579
0
ARC
8
DEFAULT_255_1_388
10
22.0082897
20
13.0489046
40
0.4755426
50
237.5349961
51
252.1858334
0
ARC
8
DEFAULT_255_1_388
10
22.0183273
20
13.061712
40
0.4917393
50
209.0632754
51
237.3492577
0
ARC
8
DEFAULT_255_1_388
10
22.1162599
20
13.1232104
40
0.6072464
50
205.118533
51
209.6465345
0
ARC
8
DEFAULT_255_1_388
10
22.2058601
20
13.1612174
40
0.7045164
50
188.7216633
51
204.8239753
0
ARC
8
DEFAULT_255_1_388
10
22.4305376
20
13.1990387
40
0.9323368
50
180.3722704
51
188.9253909
0
ARC
8
DEFAULT_255_1_388
10
22.4274938
20
13.2923416
40
0.929284
50
169.5253055
51
180.2766048
0
ARC
8
DEFAULT_255_1_388
10
22.2134737
20
13.3317024
40
0.7116745
50
155.8314601
51
169.5088611
0
ARC
8
DEFAULT_255_1_388
10
22.06942
20
13.3985312
40
0.5528904
50
139.6259579
51
156.0379072
0
ARC
8
DEFAULT_255_1_388
10
22.0030733
20
13.4519143
40
0.4677708
50
122.6414784
51
139.3431662
0
ARC
8
DEFAULT_255_1_388
10
22.0143988
20
13.4312787
40
0.4912586
50
93.0224537
51
122.4556091
0
ARC
8
DEFAULT_255_1_388
10
22.0265509
20
13.3226776
40
0.6003837
50
89.9756766
51
93.6340839
0
ARC
8
DEFAULT_255_1_388
10
22.0309107
20
13.3675879
40
0.5554884
50
73.7463329
51
90.4234008
0
ARC
8
DEFAULT_255_1_388
10
22.050658
20
13.4440772
40
0.4765353
50
57.663051
51
73.4516911
0
ARC
8
DEFAULT_255_1_388
10
22.0497618
20
13.4465108
40
0.4749629
50
29.1441355
51
57.4146687
0
ARC
8
DEFAULT_255_1_388
10
21.9445429
20
13.3808046
40
0.5988917
50
24.0985653
51
29.732054
0
ARC
8
DEFAULT_255_1_388
10
21.8283061
20
13.3326154
40
0.7246823
50
8.6654943
51
23.8241215
0
ARC
8
DEFAULT_255_1_388
10
21.5769479
20
13.2916037
40
0.9793537
50
359.7807044
51
8.8218476
0
ARC
8
DEFAULT_255_1_388
10
21.4479184
20
13.2944731
40
0.9358078
50
359.7054632
51
8.0359751
0
ARC
8
DEFAULT_255_1_388
10
21.7854235
20
13.3436252
40
0.5947474
50
7.8926278
51
20.2962188
0
ARC
8
DEFAULT_255_1_388
10
21.9685085
20
13.4111367
40
0.3996117
50
20.3231056
51
36.4990255
0
ARC
8
DEFAULT_255_1_388
10
22.0456383
20
13.4705399
40
0.3022818
50
36.1436715
51
85.6627846
0
ARC
8
DEFAULT_255_1_388
10
22.0273638
20
13.3535881
40
0.4203853
50
84.3845912
51
90.076054
0
ARC
8
DEFAULT_255_1_388
10
22.0225993
20
13.4278416
40
0.346157
50
89.3037228
51
109.9046209
0
ARC
8
DEFAULT_255_1_388
10
22.0121826
20
13.4708379
40
0.3022217
50
110.8229774
51
143.917961
0
ARC
8
DEFAULT_255_1_388
10
22.1172185
20
13.3906455
40
0.434348
50
143.5289166
51
163.2980252
0
ARC
8
DEFAULT_255_1_388
10
22.3318472
20
13.3231685
40
0.659321
50
163.0418884
51
174.3139873
0
ARC
8
DEFAULT_255_1_388
10
22.6023437
20
13.2919378
40
0.9315905
50
174.050934
51
179.4174954
0
ARC
8
DEFAULT_255_1_388
10
22.5455381
20
13.2000382
40
0.8747493
50
179.6928582
51
188.7908948
0
ARC
8
DEFAULT_255_1_388
10
22.2459181
20
13.1521086
40
0.5713262
50
188.6328449
51
202.5630732
0
ARC
8
DEFAULT_255_1_388
10
22.1048018
20
13.0954142
40
0.4192612
50
202.8078931
51
216.1195888
0
ARC
8
DEFAULT_255_1_388
10
22.0137535
20
13.0221479
40
0.3025752
50
215.0755613
51
264.6379773
0
ARC
8
DEFAULT_255_1_388
10
22.0280372
20
13.1156376
40
0.3970284
50
263.8464302
51
270.0830805
0
ARC
8
DEFAULT_255_1_388
10
22.0326917
20
13.0865808
40
0.3679937
50
269.3649295
51
287.5149684
0
ARC
8
DEFAULT_255_1_388
10
22.0527358
20
13.0137714
40
0.2925408
50
288.0629019
51
323.8115617
0
ARC
8
DEFAULT_255_1_388
10
21.9547334
20
13.0868754
40
0.4148018
50
323.6546541
51
342.6591359
0
ARC
8
DEFAULT_255_1_388
10
21.7261992
20
13.161228
40
0.6551163
50
342.4092446
51
353.6451501
0
ARC
8
DEFAULT_255_1_388
10
21.4076785
20
13.2008565
40
0.9760748
50
353.4027553
51
359.4846611
0
LINE
8
DEFAULT_255_1_388
10
23.3722133
20
13.9049898
11
22.8237497
21
12.4764544
0
LINE
8
DEFAULT_255_1_388
10
22.8237497
20
12.4764544
11
22.6800829
21
12.4764544
0
LINE
8
DEFAULT_255_1_388
10
22.6800829
20
12.4764544
11
23.2294501
21
13.9049898
0
LINE
8
DEFAULT_255_1_388
10
23.2294501
20
13.9049898
11
23.3722133
21
13.9049898
0
LINE
8
DEFAULT_255_1_388
10
23.746289
20
13.2146666
11
23.6125614
21
13.2490021
0
LINE
8
DEFAULT_255_1_388
10
23.6125614
20
13.2490021
11
23.6794252
21
13.9049898
0
LINE
8
DEFAULT_255_1_388
10
23.6794252
20
13.9049898
11
24.3534843
21
13.9049898
0
LINE
8
DEFAULT_255_1_388
10
24.3534843
20
13.9049898
11
24.3534843
21
13.7504803
0
LINE
8
DEFAULT_255_1_388
10
24.3534843
20
13.7504803
11
23.8212848
21
13.7504803
0
LINE
8
DEFAULT_255_1_388
10
23.8212848
20
13.7504803
11
23.781528
21
13.3917652
0
LINE
8
DEFAULT_255_1_388
10
23.5655761
20
12.9354652
11
23.7236999
21
12.9354652
0
LINE
8
DEFAULT_255_1_388
10
23.7905636
20
13.2508092
11
23.746289
21
13.2146666
0
ARC
8
DEFAULT_255_1_388
10
23.9901893
20
13.0340241
40
0.4141476
50
93.7181681
51
120.253934
0
ARC
8
DEFAULT_255_1_388
10
24.0007945
20
12.9431284
40
0.5055616
50
89.9660471
51
94.2495185
0
ARC
8
DEFAULT_255_1_388
10
24.0053767
20
13.0094154
40
0.4392953
50
73.8045384
51
90.5585736
0
ARC
8
DEFAULT_255_1_388
10
24.0318025
20
13.105952
40
0.3392225
50
41.3071072
51
73.543002
0
ARC
8
DEFAULT_255_1_388
10
23.9849845
20
13.0656461
40
0.4009977
50
13.5075837
51
41.2174839
0
ARC
8
DEFAULT_255_1_388
10
23.8002942
20
13.0172907
40
0.5918864
50
1.1330171
51
13.8830737
0
ARC
8
DEFAULT_255_1_388
10
23.6406588
20
13.0087522
40
0.7516787
50
359.9925091
51
1.5431298
0
ARC
8
DEFAULT_255_1_388
10
23.7851203
20
13.0041027
40
0.6072343
50
347.8572712
51
0.4294349
0
ARC
8
DEFAULT_255_1_388
10
23.9820338
20
12.9594898
40
0.4053482
50
323.6727442
51
348.1674594
0
ARC
8
DEFAULT_255_1_388
10
24.0151303
20
12.9393175
40
0.3667495
50
316.8171818
51
323.1486802
0
ARC
8
DEFAULT_255_1_388
10
24.0220426
20
12.9351612
40
0.358869
50
281.839603
51
316.5458142
0
ARC
8
DEFAULT_255_1_388
10
23.9797714
20
13.1101363
40
0.5388223
50
269.5770964
51
282.4214641
0
ARC
8
DEFAULT_255_1_388
10
23.9717635
20
13.086093
40
0.5147801
50
256.2425863
51
270.4486481
0
ARC
8
DEFAULT_255_1_388
10
23.9381162
20
12.9511124
40
0.3756708
50
228.9024379
51
256.33135
0
ARC
8
DEFAULT_255_1_388
10
23.9298142
20
12.9380054
40
0.360344
50
193.7536029
51
228.5272638
0
ARC
8
DEFAULT_255_1_388
10
24.0690707
20
12.9788463
40
0.5053599
50
184.9244437
51
194.4976052
0
ARC
8
DEFAULT_255_1_388
10
24.0907349
20
12.9828722
40
0.3700839
50
187.3596909
51
198.6733728
0
ARC
8
DEFAULT_255_1_388
10
23.9726592
20
12.9419373
40
0.2451195
50
198.4453795
51
217.7945479
0
ARC
8
DEFAULT_255_1_388
10
23.9393765
20
12.9183563
40
0.2043754
50
218.2887146
51
228.5613203
0
ARC
8
DEFAULT_255_1_388
10
23.9503772
20
12.9331902
40
0.2227819
50
228.9652423
51
258.1237049
0
ARC
8
DEFAULT_255_1_388
10
23.9735209
20
13.0322964
40
0.3245374
50
257.7260585
51
270.4013717
0
ARC
8
DEFAULT_255_1_388
10
23.9785707
20
12.9822255
40
0.2744726
50
269.4204315
51
286.420998
0
ARC
8
DEFAULT_255_1_388
10
23.9952763
20
12.9215705
40
0.2115721
50
286.7250065
51
320.6004665
0
ARC
8
DEFAULT_255_1_388
10
23.9521678
20
12.9565527
40
0.2670878
50
320.6712228
51
344.5440474
0
ARC
8
DEFAULT_255_1_388
10
23.8220392
20
12.9947394
40
0.4026927
50
344.241448
51
356.735803
0
ARC
8
DEFAULT_255_1_388
10
23.6816699
20
13.0063656
40
0.5435085
50
356.3547471
51
0.0507222
0
ARC
8
DEFAULT_255_1_388
10
23.8318964
20
13.0098812
40
0.3932934
50
359.5579289
51
12.9534322
0
ARC
8
DEFAULT_255_1_388
10
23.9505804
20
13.0386586
40
0.2711827
50
12.6489751
51
41.608121
0
ARC
8
DEFAULT_255_1_388
10
23.9764964
20
13.0606946
40
0.2371737
50
41.7851122
51
85.9892156
0
ARC
8
DEFAULT_255_1_388
10
23.9626274
20
12.9691738
40
0.3295244
50
84.6965848
51
90.0672125
0
ARC
8
DEFAULT_255_1_388
10
23.9599842
20
12.8940118
40
0.4046926
50
89.6804991
51
99.161352
0
ARC
8
DEFAULT_255_1_388
10
23.9368851
20
13.0320848
40
0.2647044
50
98.9836248
51
113.8905702
0
ARC
8
DEFAULT_255_1_388
10
23.9110526
20
13.0930118
40
0.1985386
50
114.195234
51
127.3641866
0
LINE
8
DEFAULT_255_1_388
10
23.3068448
20
21.8424898
11
23.6809205
21
20.7573089
0
LINE
8
DEFAULT_255_1_388
10
23.6809205
20
20.7573089
11
24.0568033
21
21.8424898
0
LINE
8
DEFAULT_255_1_388
10
24.0568033
20
21.8424898
11
24.2465518
21
21.8424898
0
LINE
8
DEFAULT_255_1_388
10
24.2465518
20
21.8424898
11
23.758627
21
20.5269
0
LINE
8
DEFAULT_255_1_388
10
23.758627
20
20.5269
11
23.605021
21
20.5269
0
LINE
8
DEFAULT_255_1_388
10
23.605021
20
20.5269
11
23.1179998
21
21.8424898
0
LINE
8
DEFAULT_255_1_388
10
23.1179998
20
21.8424898
11
23.3068448
21
21.8424898
0
LINE
8
DEFAULT_255_1_388
10
22.4239946
20
29.1628553
11
22.4239946
21
29.0797274
0
LINE
8
DEFAULT_255_1_388
10
21.3659206
20
29.0679811
11
21.3659206
21
29.1628553
0
LINE
8
DEFAULT_255_1_388
10
22.2514138
20
29.0670775
11
22.2514138
21
29.1646625
0
LINE
8
DEFAULT_255_1_388
10
21.5385014
20
29.1764088
11
21.5385014
21
29.0797274
0
ARC
8
DEFAULT_255_1_388
10
21.4517684
20
29.0752726
40
0.9722364
50
350.4878118
51
0.2625322
0
ARC
8
DEFAULT_255_1_388
10
21.7097644
20
29.0308994
40
0.7104556
50
336.0277991
51
350.5787241
0
ARC
8
DEFAULT_255_1_388
10
21.8610751
20
28.9625243
40
0.544417
50
319.887443
51
336.1331163
0
ARC
8
DEFAULT_255_1_388
10
21.9288563
20
28.9082733
40
0.4576311
50
302.4806296
51
319.6144102
0
ARC
8
DEFAULT_255_1_388
10
21.9159184
20
28.9332067
40
0.4856183
50
275.8196423
51
302.1885521
0
ARC
8
DEFAULT_255_1_388
10
21.8972046
20
29.0617466
40
0.6154183
50
269.9169897
51
276.339506
0
ARC
8
DEFAULT_255_1_388
10
21.8921646
20
28.984568
40
0.5382553
50
252.5221437
51
270.441579
0
ARC
8
DEFAULT_255_1_388
10
21.8759897
20
28.9239046
40
0.4755426
50
237.5349961
51
252.1858334
0
ARC
8
DEFAULT_255_1_388
10
21.8860273
20
28.936712
40
0.4917393
50
209.0632754
51
237.3492577
0
ARC
8
DEFAULT_255_1_388
10
21.9839599
20
28.9982104
40
0.6072464
50
205.118533
51
209.6465345
0
ARC
8
DEFAULT_255_1_388
10
22.0735601
20
29.0362174
40
0.7045164
50
188.7216633
51
204.8239753
0
ARC
8
DEFAULT_255_1_388
10
22.2982376
20
29.0740387
40
0.9323368
50
180.3722704
51
188.9253909
0
ARC
8
DEFAULT_255_1_388
10
22.2951938
20
29.1673416
40
0.929284
50
169.5253055
51
180.2766048
0
ARC
8
DEFAULT_255_1_388
10
22.0811737
20
29.2067024
40
0.7116745
50
155.8314601
51
169.5088611
0
ARC
8
DEFAULT_255_1_388
10
21.93712
20
29.2735312
40
0.5528904
50
139.6259579
51
156.0379072
0
ARC
8
DEFAULT_255_1_388
10
21.8707733
20
29.3269143
40
0.4677708
50
122.6414784
51
139.3431662
0
ARC
8
DEFAULT_255_1_388
10
21.8820988
20
29.3062787
40
0.4912586
50
93.0224537
51
122.4556091
0
ARC
8
DEFAULT_255_1_388
10
21.8942509
20
29.1976776
40
0.6003837
50
89.9756766
51
93.6340839
0
ARC
8
DEFAULT_255_1_388
10
21.8986107
20
29.2425879
40
0.5554884
50
73.7463329
51
90.4234008
0
ARC
8
DEFAULT_255_1_388
10
21.918358
20
29.3190772
40
0.4765353
50
57.663051
51
73.4516911
0
ARC
8
DEFAULT_255_1_388
10
21.9174618
20
29.3215108
40
0.4749629
50
29.1441355
51
57.4146687
0
ARC
8
DEFAULT_255_1_388
10
21.8122429
20
29.2558046
40
0.5988917
50
24.0985653
51
29.732054
0
ARC
8
DEFAULT_255_1_388
10
21.6960061
20
29.2076154
40
0.7246823
50
8.6654943
51
23.8241215
0
ARC
8
DEFAULT_255_1_388
10
21.4446479
20
29.1666037
40
0.9793537
50
359.7807044
51
8.8218476
0
ARC
8
DEFAULT_255_1_388
10
21.3156184
20
29.1694731
40
0.9358078
50
359.7054632
51
8.0359751
0
ARC
8
DEFAULT_255_1_388
10
21.6531235
20
29.2186252
40
0.5947474
50
7.8926278
51
20.2962188
0
ARC
8
DEFAULT_255_1_388
10
21.8362085
20
29.2861367
40
0.3996117
50
20.3231056
51
36.4990255
0
ARC
8
DEFAULT_255_1_388
10
21.9133383
20
29.3455399
40
0.3022818
50
36.1436715
51
85.6627846
0
ARC
8
DEFAULT_255_1_388
10
21.8950638
20
29.2285881
40
0.4203853
50
84.3845912
51
90.076054
0
ARC
8
DEFAULT_255_1_388
10
21.8902993
20
29.3028416
40
0.346157
50
89.3037228
51
109.9046209
0
ARC
8
DEFAULT_255_1_388
10
21.8798826
20
29.3458379
40
0.3022217
50
110.8229774
51
143.917961
0
ARC
8
DEFAULT_255_1_388
10
21.9849185
20
29.2656455
40
0.434348
50
143.5289166
51
163.2980252
0
ARC
8
DEFAULT_255_1_388
10
22.1995472
20
29.1981685
40
0.659321
50
163.0418884
51
174.3139873
0
ARC
8
DEFAULT_255_1_388
10
22.4700437
20
29.1669378
40
0.9315905
50
174.050934
51
179.4174954
0
ARC
8
DEFAULT_255_1_388
10
22.4132381
20
29.0750382
40
0.8747493
50
179.6928582
51
188.7908948
0
ARC
8
DEFAULT_255_1_388
10
22.1136181
20
29.0271086
40
0.5713262
50
188.6328449
51
202.5630732
0
ARC
8
DEFAULT_255_1_388
10
21.9725018
20
28.9704142
40
0.4192612
50
202.8078931
51
216.1195888
0
ARC
8
DEFAULT_255_1_388
10
21.8814535
20
28.8971479
40
0.3025752
50
215.0755613
51
264.6379773
0
ARC
8
DEFAULT_255_1_388
10
21.8957372
20
28.9906376
40
0.3970284
50
263.8464302
51
270.0830805
0
ARC
8
DEFAULT_255_1_388
10
21.9003917
20
28.9615808
40
0.3679937
50
269.3649295
51
287.5149684
0
ARC
8
DEFAULT_255_1_388
10
21.9204358
20
28.8887714
40
0.2925408
50
288.0629019
51
323.8115617
0
ARC
8
DEFAULT_255_1_388
10
21.8224334
20
28.9618754
40
0.4148018
50
323.6546541
51
342.6591359
0
ARC
8
DEFAULT_255_1_388
10
21.5938992
20
29.036228
40
0.6551163
50
342.4092446
51
353.6451501
0
ARC
8
DEFAULT_255_1_388
10
21.2753785
20
29.0758565
40
0.9760748
50
353.4027553
51
359.4846611
0
LINE
8
DEFAULT_255_1_388
10
23.2399133
20
29.7799898
11
22.6914497
21
28.3514544
0
LINE
8
DEFAULT_255_1_388
10
22.6914497
20
28.3514544
11
22.5477829
21
28.3514544
0
LINE
8
DEFAULT_255_1_388
10
22.5477829
20
28.3514544
11
23.0971501
21
29.7799898
0
LINE
8
DEFAULT_255_1_388
10
23.0971501
20
29.7799898
11
23.2399133
21
29.7799898
0
LINE
8
DEFAULT_255_1_388
10
24.1091423
20
29.7799898
11
24.1091423
21
28.906243
0
LINE
8
DEFAULT_255_1_388
10
24.1091423
20
28.906243
11
24.2916623
21
28.906243
0
LINE
8
DEFAULT_255_1_388
10
24.2916623
20
28.906243
11
24.2916623
21
28.7698048
0
LINE
8
DEFAULT_255_1_388
10
24.2916623
20
28.7698048
11
24.1091423
21
28.7698048
0
LINE
8
DEFAULT_255_1_388
10
24.1091423
20
28.7698048
11
24.1091423
21
28.4644
0
LINE
8
DEFAULT_255_1_388
10
24.1091423
20
28.4644
11
23.9410793
21
28.4644
0
LINE
8
DEFAULT_255_1_388
10
23.9410793
20
28.4644
11
23.9410793
21
28.7698048
0
LINE
8
DEFAULT_255_1_388
10
23.9410793
20
28.7698048
11
23.3420161
21
28.7698048
0
LINE
8
DEFAULT_255_1_388
10
23.3420161
20
28.7698048
11
23.3420161
21
28.8682933
0
LINE
8
DEFAULT_255_1_388
10
23.3420161
20
28.8682933
11
23.9311401
21
29.7799898
0
LINE
8
DEFAULT_255_1_388
10
23.9311401
20
29.7799898
11
24.1091423
21
29.7799898
0
LINE
8
DEFAULT_255_1_388
10
23.9212009
20
29.5152455
11
23.5317646
21
28.906243
0
LINE
8
DEFAULT_255_1_388
10
23.5317646
20
28.906243
11
23.9410793
21
28.906243
0
LINE
8
DEFAULT_255_1_388
10
23.9410793
20
28.906243
11
23.9410793
21
29.551388
0
LINE
8
DEFAULT_255_1_388
10
23.9410793
20
29.551388
11
23.9212009
21
29.5152455
0
LINE
8
DEFAULT_255_1_388
10
23.3068448
20
37.7174898
11
23.6809205
21
36.6323089
0
LINE
8
DEFAULT_255_1_388
10
23.6809205
20
36.6323089
11
24.0568033
21
37.7174898
0
LINE
8
DEFAULT_255_1_388
10
24.0568033
20
37.7174898
11
24.2465518
21
37.7174898
0
LINE
8
DEFAULT_255_1_388
10
24.2465518
20
37.7174898
11
23.758627
21
36.4019
0
LINE
8
DEFAULT_255_1_388
10
23.758627
20
36.4019
11
23.605021
21
36.4019
0
LINE
8
DEFAULT_255_1_388
10
23.605021
20
36.4019
11
23.1179998
21
37.7174898
0
LINE
8
DEFAULT_255_1_388
10
23.1179998
20
37.7174898
11
23.3068448
21
37.7174898
0
LINE
8
DEFAULT_255_1_388
10
22.5562946
20
45.0378553
11
22.5562946
21
44.9547274
0
LINE
8
DEFAULT_255_1_388
10
21.4982206
20
44.9429811
11
21.4982206
21
45.0378553
0
LINE
8
DEFAULT_255_1_388
10
22.3837138
20
44.9420775
11
22.3837138
21
45.0396625
0
LINE
8
DEFAULT_255_1_388
10
21.6708014
20
45.0514088
11
21.6708014
21
44.9547274
0
ARC
8
DEFAULT_255_1_388
10
21.5840684
20
44.9502726
40
0.9722364
50
350.4878118
51
0.2625322
0
ARC
8
DEFAULT_255_1_388
10
21.8420644
20
44.9058994
40
0.7104556
50
336.0277991
51
350.5787241
0
ARC
8
DEFAULT_255_1_388
10
21.9933751
20
44.8375243
40
0.544417
50
319.887443
51
336.1331163
0
ARC
8
DEFAULT_255_1_388
10
22.0611563
20
44.7832733
40
0.4576311
50
302.4806296
51
319.6144102
0
ARC
8
DEFAULT_255_1_388
10
22.0482184
20
44.8082067
40
0.4856183
50
275.8196423
51
302.1885521
0
ARC
8
DEFAULT_255_1_388
10
22.0295046
20
44.9367466
40
0.6154183
50
269.9169897
51
276.339506
0
ARC
8
DEFAULT_255_1_388
10
22.0244646
20
44.859568
40
0.5382553
50
252.5221437
51
270.441579
0
ARC
8
DEFAULT_255_1_388
10
22.0082897
20
44.7989046
40
0.4755426
50
237.5349961
51
252.1858334
0
ARC
8
DEFAULT_255_1_388
10
22.0183273
20
44.811712
40
0.4917393
50
209.0632754
51
237.3492577
0
ARC
8
DEFAULT_255_1_388
10
22.1162599
20
44.8732104
40
0.6072464
50
205.118533
51
209.6465345
0
ARC
8
DEFAULT_255_1_388
10
22.2058601
20
44.9112174
40
0.7045164
50
188.7216633
51
204.8239753
0
ARC
8
DEFAULT_255_1_388
10
22.4305376
20
44.9490387
40
0.9323368
50
180.3722704
51
188.9253909
0
ARC
8
DEFAULT_255_1_388
10
22.4274938
20
45.0423416
40
0.929284
50
169.5253055
51
180.2766048
0
ARC
8
DEFAULT_255_1_388
10
22.2134737
20
45.0817024
40
0.7116745
50
155.8314601
51
169.5088611
0
ARC
8
DEFAULT_255_1_388
10
22.06942
20
45.1485312
40
0.5528904
50
139.6259579
51
156.0379072
0
ARC
8
DEFAULT_255_1_388
10
22.0030733
20
45.2019143
40
0.4677708
50
122.6414784
51
139.3431662
0
ARC
8
DEFAULT_255_1_388
10
22.0143988
20
45.1812787
40
0.4912586
50
93.0224537
51
122.4556091
0
ARC
8
DEFAULT_255_1_388
10
22.0265509
20
45.0726776
40
0.6003837
50
89.9756766
51
93.6340839
0
ARC
8
DEFAULT_255_1_388
10
22.0309107
20
45.1175879
40
0.5554884
50
73.7463329
51
90.4234008
0
ARC
8
DEFAULT_255_1_388
10
22.050658
20
45.1940772
40
0.4765353
50
57.663051
51
73.4516911
0
ARC
8
DEFAULT_255_1_388
10
22.0497618
20
45.1965108
40
0.4749629
50
29.1441355
51
57.4146687
0
ARC
8
DEFAULT_255_1_388
10
21.9445429
20
45.1308046
40
0.5988917
50
24.0985653
51
29.732054
0
ARC
8
DEFAULT_255_1_388
10
21.8283061
20
45.0826154
40
0.7246823
50
8.6654943
51
23.8241215
0
ARC
8
DEFAULT_255_1_388
10
21.5769479
20
45.0416037
40
0.9793537
50
359.7807044
51
8.8218476
0
ARC
8
DEFAULT_255_1_388
10
21.4479184
20
45.0444731
40
0.9358078
50
359.7054632
51
8.0359751
0
ARC
8
DEFAULT_255_1_388
10
21.7854235
20
45.0936252
40
0.5947474
50
7.8926278
51
20.2962188
0
ARC
8
DEFAULT_255_1_388
10
21.9685085
20
45.1611367
40
0.3996117
50
20.3231056
51
36.4990255
0
ARC
8
DEFAULT_255_1_388
10
22.0456383
20
45.2205399
40
0.3022818
50
36.1436715
51
85.6627846
0
ARC
8
DEFAULT_255_1_388
10
22.0273638
20
45.1035881
40
0.4203853
50
84.3845912
51
90.076054
0
ARC
8
DEFAULT_255_1_388
10
22.0225993
20
45.1778416
40
0.346157
50
89.3037228
51
109.9046209
0
ARC
8
DEFAULT_255_1_388
10
22.0121826
20
45.2208379
40
0.3022217
50
110.8229774
51
143.917961
0
ARC
8
DEFAULT_255_1_388
10
22.1172185
20
45.1406455
40
0.434348
50
143.5289166
51
163.2980252
0
ARC
8
DEFAULT_255_1_388
10
22.3318472
20
45.0731685
40
0.659321
50
163.0418884
51
174.3139873
0
ARC
8
DEFAULT_255_1_388
10
22.6023437
20
45.0419378
40
0.9315905
50
174.050934
51
179.4174954
0
ARC
8
DEFAULT_255_1_388
10
22.5455381
20
44.9500382
40
0.8747493
50
179.6928582
51
188.7908948
0
ARC
8
DEFAULT_255_1_388
10
22.2459181
20
44.9021086
40
0.5713262
50
188.6328449
51
202.5630732
0
ARC
8
DEFAULT_255_1_388
10
22.1048018
20
44.8454142
40
0.4192612
50
202.8078931
51
216.1195888
0
ARC
8
DEFAULT_255_1_388
10
22.0137535
20
44.7721479
40
0.3025752
50
215.0755613
51
264.6379773
0
ARC
8
DEFAULT_255_1_388
10
22.0280372
20
44.8656376
40
0.3970284
50
263.8464302
51
270.0830805
0
ARC
8
DEFAULT_255_1_388
10
22.0326917
20
44.8365808
40
0.3679937
50
269.3649295
51
287.5149684
0
ARC
8
DEFAULT_255_1_388
10
22.0527358
20
44.7637714
40
0.2925408
50
288.0629019
51
323.8115617
0
ARC
8
DEFAULT_255_1_388
10
21.9547334
20
44.8368754
40
0.4148018
50
323.6546541
51
342.6591359
0
ARC
8
DEFAULT_255_1_388
10
21.7261992
20
44.911228
40
0.6551163
50
342.4092446
51
353.6451501
0
ARC
8
DEFAULT_255_1_388
10
21.4076785
20
44.9508565
40
0.9760748
50
353.4027553
51
359.4846611
0
LINE
8
DEFAULT_255_1_388
10
23.3722133
20
45.6549898
11
22.8237497
21
44.2264544
0
LINE
8
DEFAULT_255_1_388
10
22.8237497
20
44.2264544
11
22.6800829
21
44.2264544
0
LINE
8
DEFAULT_255_1_388
10
22.6800829
20
44.2264544
11
23.2294501
21
45.6549898
0
LINE
8
DEFAULT_255_1_388
10
23.2294501
20
45.6549898
11
23.3722133
21
45.6549898
0
LINE
8
DEFAULT_255_1_388
10
23.7788173
20
44.9420775
11
23.7788173
21
45.0785157
0
LINE
8
DEFAULT_255_1_388
10
23.7788173
20
45.0785157
11
23.9044127
21
45.0785157
0
LINE
8
DEFAULT_255_1_388
10
23.690268
20
45.3098282
11
23.5231085
21
45.3098282
0
LINE
8
DEFAULT_255_1_388
10
23.5113622
20
44.6863688
11
23.6794252
21
44.6863688
0
LINE
8
DEFAULT_255_1_388
10
23.9044127
20
44.9420775
11
23.7788173
21
44.9420775
0
ARC
8
DEFAULT_255_1_388
10
23.9011354
20
45.4601922
40
0.3816905
50
270.491971
51
281.8953028
0
ARC
8
DEFAULT_255_1_388
10
23.9282781
20
45.3362199
40
0.2547877
50
281.6690378
51
301.2943765
0
ARC
8
DEFAULT_255_1_388
10
23.9474232
20
45.3011926
40
0.2149197
50
301.7834992
51
311.754567
0
ARC
8
DEFAULT_255_1_388
10
23.9577274
20
45.289765
40
0.1995326
50
311.7325027
51
354.2803031
0
ARC
8
DEFAULT_255_1_388
10
23.875969
20
45.303828
40
0.2823461
50
353.0941646
51
0.1174696
0
ARC
8
DEFAULT_255_1_388
10
23.8241247
20
45.3091874
40
0.3342238
50
359.1804452
51
15.0452323
0
ARC
8
DEFAULT_255_1_388
10
23.9755306
20
45.3533546
40
0.1765747
50
13.957816
51
77.6713812
0
ARC
8
DEFAULT_255_1_388
10
23.9320542
20
45.1975464
40
0.3381982
50
76.111571
51
90.7028736
0
ARC
8
DEFAULT_255_1_388
10
23.9253954
20
45.228325
40
0.3074046
50
89.5321574
51
103.5319393
0
ARC
8
DEFAULT_255_1_388
10
23.9028337
20
45.3182443
40
0.2147041
50
103.2930114
51
133.5619756
0
ARC
8
DEFAULT_255_1_388
10
23.8978279
20
45.3249351
40
0.2064084
50
133.8349761
51
173.5343225
0
ARC
8
DEFAULT_255_1_388
10
23.9791936
20
45.3105144
40
0.2889266
50
172.5097183
51
180.1360699
0
ARC
8
DEFAULT_255_1_388
10
23.87217
20
45.314388
40
0.3490913
50
155.3483706
51
180.7484035
0
ARC
8
DEFAULT_255_1_388
10
23.8666676
20
45.3111519
40
0.3454798
50
131.5745177
51
154.4799474
0
ARC
8
DEFAULT_255_1_388
10
23.9018958
20
45.2755422
40
0.3955058
50
96.9874487
51
131.9690874
0
ARC
8
DEFAULT_255_1_388
10
23.9265851
20
45.1354407
40
0.537622
50
89.8592909
51
97.7827481
0
ARC
8
DEFAULT_255_1_388
10
23.931996
20
45.105936
40
0.5671399
50
78.3654493
51
90.4132586
0
ARC
8
DEFAULT_255_1_388
10
23.9722601
20
45.2925918
40
0.3762034
50
56.6229818
51
78.6387103
0
ARC
8
DEFAULT_255_1_388
10
23.9964431
20
45.3348846
40
0.3275964
50
47.0254604
51
56.085558
0
ARC
8
DEFAULT_255_1_388
10
23.9986682
20
45.3393189
40
0.3228382
50
10.9207523
51
46.777927
0
ARC
8
DEFAULT_255_1_388
10
23.8452275
20
45.3038401
40
0.4802559
50
359.6364235
51
11.6087615
0
ARC
8
DEFAULT_255_1_388
10
24.0516441
20
45.3021404
40
0.273833
50
332.3549969
51
359.7179765
0
ARC
8
DEFAULT_255_1_388
10
23.9784842
20
45.3368285
40
0.3547505
50
325.2332381
51
332.8746682
0
ARC
8
DEFAULT_255_1_388
10
23.9956425
20
45.3248763
40
0.3338396
50
292.9803892
51
325.2391113
0
ARC
8
DEFAULT_255_1_388
10
23.964562
20
45.3853679
40
0.4016959
50
292.542178
51
293.6931461
0
ARC
8
DEFAULT_255_1_388
10
24.0089192
20
44.6588036
40
0.372079
50
57.643292
51
72.8626085
0
ARC
8
DEFAULT_255_1_388
10
24.0488027
20
44.7234273
40
0.2961455
50
36.7246661
51
57.4701329
0
ARC
8
DEFAULT_255_1_388
10
24.0475184
20
44.724847
40
0.2963321
50
8.054535
51
36.3561529
0
ARC
8
DEFAULT_255_1_388
10
23.9504856
20
44.7074073
40
0.3948682
50
359.8316595
51
8.5873361
0
ARC
8
DEFAULT_255_1_388
10
23.908233
20
44.701997
40
0.4371398
50
343.9831631
51
0.557075
0
ARC
8
DEFAULT_255_1_388
10
24.007938
20
44.6746963
40
0.3337749
50
311.6358204
51
343.7652116
0
ARC
8
DEFAULT_255_1_388
10
23.9653634
20
44.7226955
40
0.3979351
50
279.7829743
51
311.625622
0
ARC
8
DEFAULT_255_1_388
10
23.9314769
20
44.8843642
40
0.5630417
50
269.7285092
51
280.3857694
0
ARC
8
DEFAULT_255_1_388
10
23.9245082
20
44.8797241
40
0.5584119
50
256.6827433
51
270.4412869
0
ARC
8
DEFAULT_255_1_388
10
23.8864068
20
44.7239698
40
0.3980715
50
229.4223821
51
256.8554507
0
ARC
8
DEFAULT_255_1_388
10
23.8397622
20
44.6714683
40
0.3278564
50
181.8183354
51
229.6455015
0
ARC
8
DEFAULT_255_1_388
10
23.9567231
20
44.6861825
40
0.4453611
50
179.9760419
51
183.2330638
0
ARC
8
DEFAULT_255_1_388
10
23.9373784
20
44.6838781
40
0.2579652
50
179.4467996
51
196.2871626
0
ARC
8
DEFAULT_255_1_388
10
23.8825237
20
44.6688709
40
0.2011057
50
196.5661293
51
227.7059371
0
ARC
8
DEFAULT_255_1_388
10
23.9009844
20
44.6895155
40
0.2287994
50
227.7653015
51
257.8763321
0
ARC
8
DEFAULT_255_1_388
10
23.9262928
20
44.7955961
40
0.3378385
50
257.4583525
51
270.4267406
0
ARC
8
DEFAULT_255_1_388
10
23.9314177
20
44.828223
40
0.3704652
50
269.5965319
51
280.8788143
0
ARC
8
DEFAULT_255_1_388
10
23.9572405
20
44.6992529
40
0.2389415
50
280.6347277
51
299.8594068
0
ARC
8
DEFAULT_255_1_388
10
23.9787175
20
44.6584736
40
0.19289
50
300.3575552
51
314.5515667
0
ARC
8
DEFAULT_255_1_388
10
23.9693851
20
44.6653025
40
0.204312
50
315.0730962
51
345.0429362
0
ARC
8
DEFAULT_255_1_388
10
23.8655358
20
44.6955539
40
0.31246
50
344.598526
51
357.9270698
0
ARC
8
DEFAULT_255_1_388
10
23.7645663
20
44.7024705
40
0.4136265
50
357.4755098
51
0.0224936
0
ARC
8
DEFAULT_255_1_388
10
23.8798541
20
44.7052099
40
0.2983498
50
359.5051035
51
13.4236939
0
ARC
8
DEFAULT_255_1_388
10
23.977363
20
44.7301637
40
0.1977186
50
12.9497905
51
48.7550905
0
ARC
8
DEFAULT_255_1_388
10
23.9568552
20
44.7021373
40
0.2323321
50
49.509109
51
72.1832965
0
ARC
8
DEFAULT_255_1_388
10
23.9166021
20
44.5826632
40
0.358397
50
71.9008458
51
84.3555134
0
ARC
8
DEFAULT_255_1_388
10
23.8984415
20
44.4294712
40
0.512641
50
84.019632
51
89.3326067
0
LINE
8
DEFAULT_255_1_388
10
23.3068448
20
53.5924898
11
23.6809205
21
52.5073089
0
LINE
8
DEFAULT_255_1_388
10
23.6809205
20
52.5073089
11
24.0568033
21
53.5924898
0
LINE
8
DEFAULT_255_1_388
10
24.0568033
20
53.5924898
11
24.2465518
21
53.5924898
0
LINE
8
DEFAULT_255_1_388
10
24.2465518
20
53.5924898
11
23.758627
21
52.2769
0
LINE
8
DEFAULT_255_1_388
10
23.758627
20
52.2769
11
23.605021
21
52.2769
0
LINE
8
DEFAULT_255_1_388
10
23.605021
20
52.2769
11
23.1179998
21
53.5924898
0
LINE
8
DEFAULT_255_1_388
10
23.1179998
20
53.5924898
11
23.3068448
21
53.5924898
0
LINE
8
DEFAULT_255_1_388
10
22.5562946
20
60.9128553
11
22.5562946
21
60.8297274
0
LINE
8
DEFAULT_255_1_388
10
21.4982206
20
60.8179811
11
21.4982206
21
60.9128553
0
LINE
8
DEFAULT_255_1_388
10
22.3837138
20
60.8170775
11
22.3837138
21
60.9146625
0
LINE
8
DEFAULT_255_1_388
10
21.6708014
20
60.9264088
11
21.6708014
21
60.8297274
0
ARC
8
DEFAULT_255_1_388
10
21.5840684
20
60.8252726
40
0.9722364
50
350.4878118
51
0.2625322
0
ARC
8
DEFAULT_255_1_388
10
21.8420644
20
60.7808994
40
0.7104556
50
336.0277991
51
350.5787241
0
ARC
8
DEFAULT_255_1_388
10
21.9933751
20
60.7125243
40
0.544417
50
319.887443
51
336.1331163
0
ARC
8
DEFAULT_255_1_388
10
22.0611563
20
60.6582733
40
0.4576311
50
302.4806296
51
319.6144102
0
ARC
8
DEFAULT_255_1_388
10
22.0482184
20
60.6832067
40
0.4856183
50
275.8196423
51
302.1885521
0
ARC
8
DEFAULT_255_1_388
10
22.0295046
20
60.8117466
40
0.6154183
50
269.9169897
51
276.339506
0
ARC
8
DEFAULT_255_1_388
10
22.0244646
20
60.734568
40
0.5382553
50
252.5221437
51
270.441579
0
ARC
8
DEFAULT_255_1_388
10
22.0082897
20
60.6739046
40
0.4755426
50
237.5349961
51
252.1858334
0
ARC
8
DEFAULT_255_1_388
10
22.0183273
20
60.686712
40
0.4917393
50
209.0632754
51
237.3492577
0
ARC
8
DEFAULT_255_1_388
10
22.1162599
20
60.7482104
40
0.6072464
50
205.118533
51
209.6465345
0
ARC
8
DEFAULT_255_1_388
10
22.2058601
20
60.7862174
40
0.7045164
50
188.7216633
51
204.8239753
0
ARC
8
DEFAULT_255_1_388
10
22.4305376
20
60.8240387
40
0.9323368
50
180.3722704
51
188.9253909
0
ARC
8
DEFAULT_255_1_388
10
22.4274938
20
60.9173416
40
0.929284
50
169.5253055
51
180.2766048
0
ARC
8
DEFAULT_255_1_388
10
22.2134737
20
60.9567024
40
0.7116745
50
155.8314601
51
169.5088611
0
ARC
8
DEFAULT_255_1_388
10
22.06942
20
61.0235312
40
0.5528904
50
139.6259579
51
156.0379072
0
ARC
8
DEFAULT_255_1_388
10
22.0030733
20
61.0769143
40
0.4677708
50
122.6414784
51
139.3431662
0
ARC
8
DEFAULT_255_1_388
10
22.0143988
20
61.0562787
40
0.4912586
50
93.0224537
51
122.4556091
0
ARC
8
DEFAULT_255_1_388
10
22.0265509
20
60.9476776
40
0.6003837
50
89.9756766
51
93.6340839
0
ARC
8
DEFAULT_255_1_388
10
22.0309107
20
60.9925879
40
0.5554884
50
73.7463329
51
90.4234008
0
ARC
8
DEFAULT_255_1_388
10
22.050658
20
61.0690772
40
0.4765353
50
57.663051
51
73.4516911
0
ARC
8
DEFAULT_255_1_388
10
22.0497618
20
61.0715108
40
0.4749629
50
29.1441355
51
57.4146687
0
ARC
8
DEFAULT_255_1_388
10
21.9445429
20
61.0058046
40
0.5988917
50
24.0985653
51
29.732054
0
ARC
8
DEFAULT_255_1_388
10
21.8283061
20
60.9576154
40
0.7246823
50
8.6654943
51
23.8241215
0
ARC
8
DEFAULT_255_1_388
10
21.5769479
20
60.9166037
40
0.9793537
50
359.7807044
51
8.8218476
0
ARC
8
DEFAULT_255_1_388
10
21.4479184
20
60.9194731
40
0.9358078
50
359.7054632
51
8.0359751
0
ARC
8
DEFAULT_255_1_388
10
21.7854235
20
60.9686252
40
0.5947474
50
7.8926278
51
20.2962188
0
ARC
8
DEFAULT_255_1_388
10
21.9685085
20
61.0361367
40
0.3996117
50
20.3231056
51
36.4990255
0
ARC
8
DEFAULT_255_1_388
10
22.0456383
20
61.0955399
40
0.3022818
50
36.1436715
51
85.6627846
0
ARC
8
DEFAULT_255_1_388
10
22.0273638
20
60.9785881
40
0.4203853
50
84.3845912
51
90.076054
0
ARC
8
DEFAULT_255_1_388
10
22.0225993
20
61.0528416
40
0.346157
50
89.3037228
51
109.9046209
0
ARC
8
DEFAULT_255_1_388
10
22.0121826
20
61.0958379
40
0.3022217
50
110.8229774
51
143.917961
0
ARC
8
DEFAULT_255_1_388
10
22.1172185
20
61.0156455
40
0.434348
50
143.5289166
51
163.2980252
0
ARC
8
DEFAULT_255_1_388
10
22.3318472
20
60.9481685
40
0.659321
50
163.0418884
51
174.3139873
0
ARC
8
DEFAULT_255_1_388
10
22.6023437
20
60.9169378
40
0.9315905
50
174.050934
51
179.4174954
0
ARC
8
DEFAULT_255_1_388
10
22.5455381
20
60.8250382
40
0.8747493
50
179.6928582
51
188.7908948
0
ARC
8
DEFAULT_255_1_388
10
22.2459181
20
60.7771086
40
0.5713262
50
188.6328449
51
202.5630732
0
ARC
8
DEFAULT_255_1_388
10
22.1048018
20
60.7204142
40
0.4192612
50
202.8078931
51
216.1195888
0
ARC
8
DEFAULT_255_1_388
10
22.0137535
20
60.6471479
40
0.3025752
50
215.0755613
51
264.6379773
0
ARC
8
DEFAULT_255_1_388
10
22.0280372
20
60.7406376
40
0.3970284
50
263.8464302
51
270.0830805
0
ARC
8
DEFAULT_255_1_388
10
22.0326917
20
60.7115808
40
0.3679937
50
269.3649295
51
287.5149684
0
ARC
8
DEFAULT_255_1_388
10
22.0527358
20
60.6387714
40
0.2925408
50
288.0629019
51
323.8115617
0
ARC
8
DEFAULT_255_1_388
10
21.9547334
20
60.7118754
40
0.4148018
50
323.6546541
51
342.6591359
0
ARC
8
DEFAULT_255_1_388
10
21.7261992
20
60.786228
40
0.6551163
50
342.4092446
51
353.6451501
0
ARC
8
DEFAULT_255_1_388
10
21.4076785
20
60.8258565
40
0.9760748
50
353.4027553
51
359.4846611
0
LINE
8
DEFAULT_255_1_388
10
23.3722133
20
61.5299898
11
22.8237497
21
60.1014544
0
LINE
8
DEFAULT_255_1_388
10
22.8237497
20
60.1014544
11
22.6800829
21
60.1014544
0
LINE
8
DEFAULT_255_1_388
10
22.6800829
20
60.1014544
11
23.2294501
21
61.5299898
0
LINE
8
DEFAULT_255_1_388
10
23.2294501
20
61.5299898
11
23.3722133
21
61.5299898
0
LINE
8
DEFAULT_255_1_388
10
24.3977589
20
60.3508382
11
24.3977589
21
60.2144
0
LINE
8
DEFAULT_255_1_388
10
24.3977589
20
60.2144
11
23.5357584
21
60.2144
0
LINE
8
DEFAULT_255_1_388
10
23.5357584
20
60.2144
11
23.5357584
21
60.3345741
0
LINE
8
DEFAULT_255_1_388
10
23.5357584
20
60.3345741
11
23.9911549
21
60.8405702
0
LINE
8
DEFAULT_255_1_388
10
23.6776181
20
61.1423607
11
23.5104586
21
61.1423607
0
LINE
8
DEFAULT_255_1_388
10
24.0896435
20
60.733046
11
23.7372533
21
60.3508382
0
LINE
8
DEFAULT_255_1_388
10
23.7372533
20
60.3508382
11
24.3977589
21
60.3508382
0
ARC
8
DEFAULT_255_1_388
10
22.4735609
20
62.1825983
40
2.0258655
50
318.5132526
51
320.7829045
0
ARC
8
DEFAULT_255_1_388
10
23.0683566
20
61.6984929
40
1.2589638
50
320.7372878
51
323.9739031
0
ARC
8
DEFAULT_255_1_388
10
23.5092497
20
61.3790554
40
0.7145141
50
323.8962701
51
328.64194
0
ARC
8
DEFAULT_255_1_388
10
23.7394755
20
61.2370545
40
0.4440242
50
328.8294576
51
331.7891185
0
ARC
8
DEFAULT_255_1_388
10
23.8517075
20
61.1791374
40
0.3177517
50
331.4254512
51
352.9365785
0
ARC
8
DEFAULT_255_1_388
10
23.8670075
20
61.175705
40
0.3021496
50
353.2257659
51
0.0166158
0
ARC
8
DEFAULT_255_1_388
10
23.8906836
20
61.1782894
40
0.2784847
50
359.486299
51
15.9343185
0
ARC
8
DEFAULT_255_1_388
10
23.9477102
20
61.1936269
40
0.2194403
50
16.1712913
51
43.5286088
0
ARC
8
DEFAULT_255_1_388
10
23.9564047
20
61.2023191
40
0.2071504
50
43.4417391
51
83.1661095
0
ARC
8
DEFAULT_255_1_388
10
23.9413208
20
61.1194316
40
0.2912888
50
82.160179
51
90.1505708
0
ARC
8
DEFAULT_255_1_388
10
23.937769
20
61.0590279
40
0.3517025
50
89.5460741
51
102.5418361
0
ARC
8
DEFAULT_255_1_388
10
23.910441
20
61.1749933
40
0.2325748
50
102.1738499
51
129.206123
0
ARC
8
DEFAULT_255_1_388
10
23.9015863
20
61.1889664
40
0.2161591
50
129.72865
51
135.753947
0
ARC
8
DEFAULT_255_1_388
10
23.9152345
20
61.1780728
40
0.2335433
50
136.1757367
51
166.3673339
0
ARC
8
DEFAULT_255_1_388
10
24.0285034
20
61.1477148
40
0.3507873
50
165.9090694
51
178.8684636
0
ARC
8
DEFAULT_255_1_388
10
24.1260805
20
61.1424263
40
0.4484624
50
178.4391136
51
180.0083808
0
ARC
8
DEFAULT_255_1_388
10
23.9681507
20
61.1468197
40
0.4577138
50
163.2878482
51
180.5581842
0
ARC
8
DEFAULT_255_1_388
10
23.8779548
20
61.1716393
40
0.3641968
50
133.4540601
51
162.947111
0
ARC
8
DEFAULT_255_1_388
10
23.898043
20
61.1502789
40
0.3935189
50
100.7869829
51
133.4382499
0
ARC
8
DEFAULT_255_1_388
10
23.9371675
20
60.9760399
40
0.5720313
50
89.660664
51
101.3702276
0
ARC
8
DEFAULT_255_1_388
10
23.9446284
20
60.9829263
40
0.5651495
50
78.2172678
51
90.412935
0
ARC
8
DEFAULT_255_1_388
10
23.9845749
20
61.1656511
40
0.378122
50
55.9269121
51
78.4888449
0
ARC
8
DEFAULT_255_1_388
10
24.0066464
20
61.2037187
40
0.3342379
50
47.929771
51
55.4049217
0
ARC
8
DEFAULT_255_1_388
10
24.0180995
20
61.2153618
40
0.3179217
50
4.334829
51
48.0560205
0
ARC
8
DEFAULT_255_1_388
10
23.8948797
20
61.1962487
40
0.442341
50
359.9251713
51
5.5971671
0
ARC
8
DEFAULT_255_1_388
10
23.9430951
20
61.2025728
40
0.3941854
50
337.8914027
51
358.9967534
0
ARC
8
DEFAULT_255_1_388
10
23.6378521
20
61.3203295
40
0.7213271
50
326.9132501
51
338.3508308
0
ARC
8
DEFAULT_255_1_388
10
23.1894633
20
61.6077105
40
1.2538973
50
319.6471833
51
327.0959558
0
ARC
8
DEFAULT_255_1_388
10
22.7581291
20
61.963505
40
1.8129975
50
317.2588228
51
319.9045804
0
LINE
8
DEFAULT_255_1_388
10
23.3068448
20
69.4674898
11
23.6809205
21
68.3823089
0
LINE
8
DEFAULT_255_1_388
10
23.6809205
20
68.3823089
11
24.0568033
21
69.4674898
0
LINE
8
DEFAULT_255_1_388
10
24.0568033
20
69.4674898
11
24.2465518
21
69.4674898
0
LINE
8
DEFAULT_255_1_388
10
24.2465518
20
69.4674898
11
23.758627
21
68.1519
0
LINE
8
DEFAULT_255_1_388
10
23.758627
20
68.1519
11
23.605021
21
68.1519
0
LINE
8
DEFAULT_255_1_388
10
23.605021
20
68.1519
11
23.1179998
21
69.4674898
0
LINE
8
DEFAULT_255_1_388
10
23.1179998
20
69.4674898
11
23.3068448
21
69.4674898
0
LINE
8
DEFAULT_255_1_388
10
22.5637946
20
76.7878553
11
22.5637946
21
76.7047274
0
LINE
8
DEFAULT_255_1_388
10
21.5057206
20
76.6929811
11
21.5057206
21
76.7878553
0
LINE
8
DEFAULT_255_1_388
10
22.3912138
20
76.6920775
11
22.3912138
21
76.7896625
0
LINE
8
DEFAULT_255_1_388
10
21.6783014
20
76.8014088
11
21.6783014
21
76.7047274
0
ARC
8
DEFAULT_255_1_388
10
21.5915684
20
76.7002726
40
0.9722364
50
350.4878118
51
0.2625322
0
ARC
8
DEFAULT_255_1_388
10
21.8495644
20
76.6558994
40
0.7104556
50
336.0277991
51
350.5787241
0
ARC
8
DEFAULT_255_1_388
10
22.0008751
20
76.5875243
40
0.544417
50
319.887443
51
336.1331163
0
ARC
8
DEFAULT_255_1_388
10
22.0686563
20
76.5332733
40
0.4576311
50
302.4806296
51
319.6144102
0
ARC
8
DEFAULT_255_1_388
10
22.0557184
20
76.5582067
40
0.4856183
50
275.8196423
51
302.1885521
0
ARC
8
DEFAULT_255_1_388
10
22.0370046
20
76.6867466
40
0.6154183
50
269.9169897
51
276.339506
0
ARC
8
DEFAULT_255_1_388
10
22.0319646
20
76.609568
40
0.5382553
50
252.5221437
51
270.441579
0
ARC
8
DEFAULT_255_1_388
10
22.0157897
20
76.5489046
40
0.4755426
50
237.5349961
51
252.1858334
0
ARC
8
DEFAULT_255_1_388
10
22.0258273
20
76.561712
40
0.4917393
50
209.0632754
51
237.3492577
0
ARC
8
DEFAULT_255_1_388
10
22.1237599
20
76.6232104
40
0.6072464
50
205.118533
51
209.6465345
0
ARC
8
DEFAULT_255_1_388
10
22.2133601
20
76.6612174
40
0.7045164
50
188.7216633
51
204.8239753
0
ARC
8
DEFAULT_255_1_388
10
22.4380376
20
76.6990387
40
0.9323368
50
180.3722704
51
188.9253909
0
ARC
8
DEFAULT_255_1_388
10
22.4349938
20
76.7923416
40
0.929284
50
169.5253055
51
180.2766048
0
ARC
8
DEFAULT_255_1_388
10
22.2209737
20
76.8317024
40
0.7116745
50
155.8314601
51
169.5088611
0
ARC
8
DEFAULT_255_1_388
10
22.07692
20
76.8985312
40
0.5528904
50
139.6259579
51
156.0379072
0
ARC
8
DEFAULT_255_1_388
10
22.0105733
20
76.9519143
40
0.4677708
50
122.6414784
51
139.3431662
0
ARC
8
DEFAULT_255_1_388
10
22.0218988
20
76.9312787
40
0.4912586
50
93.0224537
51
122.4556091
0
ARC
8
DEFAULT_255_1_388
10
22.0340509
20
76.8226776
40
0.6003837
50
89.9756766
51
93.6340839
0
ARC
8
DEFAULT_255_1_388
10
22.0384107
20
76.8675879
40
0.5554884
50
73.7463329
51
90.4234008
0
ARC
8
DEFAULT_255_1_388
10
22.058158
20
76.9440772
40
0.4765353
50
57.663051
51
73.4516911
0
ARC
8
DEFAULT_255_1_388
10
22.0572618
20
76.9465108
40
0.4749629
50
29.1441355
51
57.4146687
0
ARC
8
DEFAULT_255_1_388
10
21.9520429
20
76.8808046
40
0.5988917
50
24.0985653
51
29.732054
0
ARC
8
DEFAULT_255_1_388
10
21.8358061
20
76.8326154
40
0.7246823
50
8.6654943
51
23.8241215
0
ARC
8
DEFAULT_255_1_388
10
21.5844479
20
76.7916037
40
0.9793537
50
359.7807044
51
8.8218476
0
ARC
8
DEFAULT_255_1_388
10
21.4554184
20
76.7944731
40
0.9358078
50
359.7054632
51
8.0359751
0
ARC
8
DEFAULT_255_1_388
10
21.7929235
20
76.8436252
40
0.5947474
50
7.8926278
51
20.2962188
0
ARC
8
DEFAULT_255_1_388
10
21.9760085
20
76.9111367
40
0.3996117
50
20.3231056
51
36.4990255
0
ARC
8
DEFAULT_255_1_388
10
22.0531383
20
76.9705399
40
0.3022818
50
36.1436715
51
85.6627846
0
ARC
8
DEFAULT_255_1_388
10
22.0348638
20
76.8535881
40
0.4203853
50
84.3845912
51
90.076054
0
ARC
8
DEFAULT_255_1_388
10
22.0300993
20
76.9278416
40
0.346157
50
89.3037228
51
109.9046209
0
ARC
8
DEFAULT_255_1_388
10
22.0196826
20
76.9708379
40
0.3022217
50
110.8229774
51
143.917961
0
ARC
8
DEFAULT_255_1_388
10
22.1247185
20
76.8906455
40
0.434348
50
143.5289166
51
163.2980252
0
ARC
8
DEFAULT_255_1_388
10
22.3393472
20
76.8231685
40
0.659321
50
163.0418884
51
174.3139873
0
ARC
8
DEFAULT_255_1_388
10
22.6098437
20
76.7919378
40
0.9315905
50
174.050934
51
179.4174954
0
ARC
8
DEFAULT_255_1_388
10
22.5530381
20
76.7000382
40
0.8747493
50
179.6928582
51
188.7908948
0
ARC
8
DEFAULT_255_1_388
10
22.2534181
20
76.6521086
40
0.5713262
50
188.6328449
51
202.5630732
0
ARC
8
DEFAULT_255_1_388
10
22.1123018
20
76.5954142
40
0.4192612
50
202.8078931
51
216.1195888
0
ARC
8
DEFAULT_255_1_388
10
22.0212535
20
76.5221479
40
0.3025752
50
215.0755613
51
264.6379773
0
ARC
8
DEFAULT_255_1_388
10
22.0355372
20
76.6156376
40
0.3970284
50
263.8464302
51
270.0830805
0
ARC
8
DEFAULT_255_1_388
10
22.0401917
20
76.5865808
40
0.3679937
50
269.3649295
51
287.5149684
0
ARC
8
DEFAULT_255_1_388
10
22.0602358
20
76.5137714
40
0.2925408
50
288.0629019
51
323.8115617
0
ARC
8
DEFAULT_255_1_388
10
21.9622334
20
76.5868754
40
0.4148018
50
323.6546541
51
342.6591359
0
ARC
8
DEFAULT_255_1_388
10
21.7336992
20
76.661228
40
0.6551163
50
342.4092446
51
353.6451501
0
ARC
8
DEFAULT_255_1_388
10
21.4151785
20
76.7008565
40
0.9760748
50
353.4027553
51
359.4846611
0
LINE
8
DEFAULT_255_1_388
10
23.3797133
20
77.4049898
11
22.8312497
21
75.9764544
0
LINE
8
DEFAULT_255_1_388
10
22.8312497
20
75.9764544
11
22.6875829
21
75.9764544
0
LINE
8
DEFAULT_255_1_388
10
22.6875829
20
75.9764544
11
23.2369501
21
77.4049898
0
LINE
8
DEFAULT_255_1_388
10
23.2369501
20
77.4049898
11
23.3797133
21
77.4049898
0
LINE
8
DEFAULT_255_1_388
10
24.0926256
20
77.4113148
11
24.0926256
21
76.0894
0
LINE
8
DEFAULT_255_1_388
10
24.0926256
20
76.0894
11
23.9245626
21
76.0894
0
LINE
8
DEFAULT_255_1_388
10
23.9245626
20
76.0894
11
23.9245626
21
77.203495
0
LINE
8
DEFAULT_255_1_388
10
23.9245626
20
77.203495
11
23.5875331
21
77.0797066
0
LINE
8
DEFAULT_255_1_388
10
23.5875331
20
77.0797066
11
23.5875331
21
77.2315055
0
LINE
8
DEFAULT_255_1_388
10
23.5875331
20
77.2315055
11
24.0664223
21
77.4113148
0
LINE
8
DEFAULT_255_1_388
10
24.0664223
20
77.4113148
11
24.0926256
21
77.4113148
0
LINE
8
DEFAULT_255_1_388
10
23.3068448
20
85.3424898
11
23.6809205
21
84.2573089
0
LINE
8
DEFAULT_255_1_388
10
23.6809205
20
84.2573089
11
24.0568033
21
85.3424898
0
LINE
8
DEFAULT_255_1_388
10
24.0568033
20
85.3424898
11
24.2465518
21
85.3424898
0
LINE
8
DEFAULT_255_1_388
10
24.2465518
20
85.3424898
11
23.758627
21
84.0269
0
LINE
8
DEFAULT_255_1_388
10
23.758627
20
84.0269
11
23.605021
21
84.0269
0
LINE
8
DEFAULT_255_1_388
10
23.605021
20
84.0269
11
23.1179998
21
85.3424898
0
LINE
8
DEFAULT_255_1_388
10
23.1179998
20
85.3424898
11
23.3068448
21
85.3424898
0
LINE
8
DEFAULT_255_1_388
10
22.5637946
20
92.6628553
11
22.5637946
21
92.5797274
0
LINE
8
DEFAULT_255_1_388
10
21.5057206
20
92.5679811
11
21.5057206
21
92.6628553
0
LINE
8
DEFAULT_255_1_388
10
22.3912138
20
92.5670775
11
22.3912138
21
92.6646625
0
LINE
8
DEFAULT_255_1_388
10
21.6783014
20
92.6764088
11
21.6783014
21
92.5797274
0
ARC
8
DEFAULT_255_1_388
10
21.5915684
20
92.5752726
40
0.9722364
50
350.4878118
51
0.2625322
0
ARC
8
DEFAULT_255_1_388
10
21.8495644
20
92.5308994
40
0.7104556
50
336.0277991
51
350.5787241
0
ARC
8
DEFAULT_255_1_388
10
22.0008751
20
92.4625243
40
0.544417
50
319.887443
51
336.1331163
0
ARC
8
DEFAULT_255_1_388
10
22.0686563
20
92.4082733
40
0.4576311
50
302.4806296
51
319.6144102
0
ARC
8
DEFAULT_255_1_388
10
22.0557184
20
92.4332067
40
0.4856183
50
275.8196423
51
302.1885521
0
ARC
8
DEFAULT_255_1_388
10
22.0370046
20
92.5617466
40
0.6154183
50
269.9169897
51
276.339506
0
ARC
8
DEFAULT_255_1_388
10
22.0319646
20
92.484568
40
0.5382553
50
252.5221437
51
270.441579
0
ARC
8
DEFAULT_255_1_388
10
22.0157897
20
92.4239046
40
0.4755426
50
237.5349961
51
252.1858334
0
ARC
8
DEFAULT_255_1_388
10
22.0258273
20
92.436712
40
0.4917393
50
209.0632754
51
237.3492577
0
ARC
8
DEFAULT_255_1_388
10
22.1237599
20
92.4982104
40
0.6072464
50
205.118533
51
209.6465345
0
ARC
8
DEFAULT_255_1_388
10
22.2133601
20
92.5362174
40
0.7045164
50
188.7216633
51
204.8239753
0
ARC
8
DEFAULT_255_1_388
10
22.4380376
20
92.5740387
40
0.9323368
50
180.3722704
51
188.9253909
0
ARC
8
DEFAULT_255_1_388
10
22.4349938
20
92.6673416
40
0.929284
50
169.5253055
51
180.2766048
0
ARC
8
DEFAULT_255_1_388
10
22.2209737
20
92.7067024
40
0.7116745
50
155.8314601
51
169.5088611
0
ARC
8
DEFAULT_255_1_388
10
22.07692
20
92.7735312
40
0.5528904
50
139.6259579
51
156.0379072
0
ARC
8
DEFAULT_255_1_388
10
22.0105733
20
92.8269143
40
0.4677708
50
122.6414784
51
139.3431662
0
ARC
8
DEFAULT_255_1_388
10
22.0218988
20
92.8062787
40
0.4912586
50
93.0224537
51
122.4556091
0
ARC
8
DEFAULT_255_1_388
10
22.0340509
20
92.6976776
40
0.6003837
50
89.9756766
51
93.6340839
0
ARC
8
DEFAULT_255_1_388
10
22.0384107
20
92.7425879
40
0.5554884
50
73.7463329
51
90.4234008
0
ARC
8
DEFAULT_255_1_388
10
22.058158
20
92.8190772
40
0.4765353
50
57.663051
51
73.4516911
0
ARC
8
DEFAULT_255_1_388
10
22.0572618
20
92.8215108
40
0.4749629
50
29.1441355
51
57.4146687
0
ARC
8
DEFAULT_255_1_388
10
21.9520429
20
92.7558046
40
0.5988917
50
24.0985653
51
29.732054
0
ARC
8
DEFAULT_255_1_388
10
21.8358061
20
92.7076154
40
0.7246823
50
8.6654943
51
23.8241215
0
ARC
8
DEFAULT_255_1_388
10
21.5844479
20
92.6666037
40
0.9793537
50
359.7807044
51
8.8218476
0
ARC
8
DEFAULT_255_1_388
10
21.4554184
20
92.6694731
40
0.9358078
50
359.7054632
51
8.0359751
0
ARC
8
DEFAULT_255_1_388
10
21.7929235
20
92.7186252
40
0.5947474
50
7.8926278
51
20.2962188
0
ARC
8
DEFAULT_255_1_388
10
21.9760085
20
92.7861367
40
0.3996117
50
20.3231056
51
36.4990255
0
ARC
8
DEFAULT_255_1_388
10
22.0531383
20
92.8455399
40
0.3022818
50
36.1436715
51
85.6627846
0
ARC
8
DEFAULT_255_1_388
10
22.0348638
20
92.7285881
40
0.4203853
50
84.3845912
51
90.076054
0
ARC
8
DEFAULT_255_1_388
10
22.0300993
20
92.8028416
40
0.346157
50
89.3037228
51
109.9046209
0
ARC
8
DEFAULT_255_1_388
10
22.0196826
20
92.8458379
40
0.3022217
50
110.8229774
51
143.917961
0
ARC
8
DEFAULT_255_1_388
10
22.1247185
20
92.7656455
40
0.434348
50
143.5289166
51
163.2980252
0
ARC
8
DEFAULT_255_1_388
10
22.3393472
20
92.6981685
40
0.659321
50
163.0418884
51
174.3139873
0
ARC
8
DEFAULT_255_1_388
10
22.6098437
20
92.6669378
40
0.9315905
50
174.050934
51
179.4174954
0
ARC
8
DEFAULT_255_1_388
10
22.5530381
20
92.5750382
40
0.8747493
50
179.6928582
51
188.7908948
0
ARC
8
DEFAULT_255_1_388
10
22.2534181
20
92.5271086
40
0.5713262
50
188.6328449
51
202.5630732
0
ARC
8
DEFAULT_255_1_388
10
22.1123018
20
92.4704142
40
0.4192612
50
202.8078931
51
216.1195888
0
ARC
8
DEFAULT_255_1_388
10
22.0212535
20
92.3971479
40
0.3025752
50
215.0755613
51
264.6379773
0
ARC
8
DEFAULT_255_1_388
10
22.0355372
20
92.4906376
40
0.3970284
50
263.8464302
51
270.0830805
0
ARC
8
DEFAULT_255_1_388
10
22.0401917
20
92.4615808
40
0.3679937
50
269.3649295
51
287.5149684
0
ARC
8
DEFAULT_255_1_388
10
22.0602358
20
92.3887714
40
0.2925408
50
288.0629019
51
323.8115617
0
ARC
8
DEFAULT_255_1_388
10
21.9622334
20
92.4618754
40
0.4148018
50
323.6546541
51
342.6591359
0
ARC
8
DEFAULT_255_1_388
10
21.7336992
20
92.536228
40
0.6551163
50
342.4092446
51
353.6451501
0
ARC
8
DEFAULT_255_1_388
10
21.4151785
20
92.5758565
40
0.9760748
50
353.4027553
51
359.4846611
0
LINE
8
DEFAULT_255_1_388
10
23.3797133
20
93.2799898
11
22.8312497
21
91.8514544
0
LINE
8
DEFAULT_255_1_388
10
22.8312497
20
91.8514544
11
22.6875829
21
91.8514544
0
LINE
8
DEFAULT_255_1_388
10
22.6875829
20
91.8514544
11
23.2369501
21
93.2799898
0
LINE
8
DEFAULT_255_1_388
10
23.2369501
20
93.2799898
11
23.3797133
21
93.2799898
0
LINE
8
DEFAULT_255_1_388
10
24.0926256
20
93.2863148
11
24.0926256
21
91.9644
0
LINE
8
DEFAULT_255_1_388
10
24.0926256
20
91.9644
11
23.9245626
21
91.9644
0
LINE
8
DEFAULT_255_1_388
10
23.9245626
20
91.9644
11
23.9245626
21
93.078495
0
LINE
8
DEFAULT_255_1_388
10
23.9245626
20
93.078495
11
23.5875331
21
92.9547066
0
LINE
8
DEFAULT_255_1_388
10
23.5875331
20
92.9547066
11
23.5875331
21
93.1065055
0
LINE
8
DEFAULT_255_1_388
10
23.5875331
20
93.1065055
11
24.0664223
21
93.2863148
0
LINE
8
DEFAULT_255_1_388
10
24.0664223
20
93.2863148
11
24.0926256
21
93.2863148
0
LINE
8
DEFAULT_255_1_388
10
23.3068448
20
101.2174898
11
23.6809205
21
100.1323089
0
LINE
8
DEFAULT_255_1_388
10
23.6809205
20
100.1323089
11
24.0568033
21
101.2174898
0
LINE
8
DEFAULT_255_1_388
10
24.0568033
20
101.2174898
11
24.2465518
21
101.2174898
0
LINE
8
DEFAULT_255_1_388
10
24.2465518
20
101.2174898
11
23.758627
21
99.9019
0
LINE
8
DEFAULT_255_1_388
10
23.758627
20
99.9019
11
23.605021
21
99.9019
0
LINE
8
DEFAULT_255_1_388
10
23.605021
20
99.9019
11
23.1179998
21
101.2174898
0
LINE
8
DEFAULT_255_1_388
10
23.1179998
20
101.2174898
11
23.3068448
21
101.2174898
0
LINE
8
DEFAULT_255_1_388
10
22.5562946
20
108.5378553
11
22.5562946
21
108.4547274
0
LINE
8
DEFAULT_255_1_388
10
21.4982206
20
108.4429811
11
21.4982206
21
108.5378553
0
LINE
8
DEFAULT_255_1_388
10
22.3837138
20
108.4420775
11
22.3837138
21
108.5396625
0
LINE
8
DEFAULT_255_1_388
10
21.6708014
20
108.5514088
11
21.6708014
21
108.4547274
0
ARC
8
DEFAULT_255_1_388
10
21.5840684
20
108.4502726
40
0.9722364
50
350.4878118
51
0.2625322
0
ARC
8
DEFAULT_255_1_388
10
21.8420644
20
108.4058994
40
0.7104556
50
336.0277991
51
350.5787241
0
ARC
8
DEFAULT_255_1_388
10
21.9933751
20
108.3375243
40
0.544417
50
319.887443
51
336.1331163
0
ARC
8
DEFAULT_255_1_388
10
22.0611563
20
108.2832733
40
0.4576311
50
302.4806296
51
319.6144102
0
ARC
8
DEFAULT_255_1_388
10
22.0482184
20
108.3082067
40
0.4856183
50
275.8196423
51
302.1885521
0
ARC
8
DEFAULT_255_1_388
10
22.0295046
20
108.4367466
40
0.6154183
50
269.9169897
51
276.339506
0
ARC
8
DEFAULT_255_1_388
10
22.0244646
20
108.359568
40
0.5382553
50
252.5221437
51
270.441579
0
ARC
8
DEFAULT_255_1_388
10
22.0082897
20
108.2989046
40
0.4755426
50
237.5349961
51
252.1858334
0
ARC
8
DEFAULT_255_1_388
10
22.0183273
20
108.311712
40
0.4917393
50
209.0632754
51
237.3492577
0
ARC
8
DEFAULT_255_1_388
10
22.1162599
20
108.3732104
40
0.6072464
50
205.118533
51
209.6465345
0
ARC
8
DEFAULT_255_1_388
10
22.2058601
20
108.4112174
40
0.7045164
50
188.7216633
51
204.8239753
0
ARC
8
DEFAULT_255_1_388
10
22.4305376
20
108.4490387
40
0.9323368
50
180.3722704
51
188.9253909
0
ARC
8
DEFAULT_255_1_388
10
22.4274938
20
108.5423416
40
0.929284
50
169.5253055
51
180.2766048
0
ARC
8
DEFAULT_255_1_388
10
22.2134737
20
108.5817024
40
0.7116745
50
155.8314601
51
169.5088611
0
ARC
8
DEFAULT_255_1_388
10
22.06942
20
108.6485312
40
0.5528904
50
139.6259579
51
156.0379072
0
ARC
8
DEFAULT_255_1_388
10
22.0030733
20
108.7019143
40
0.4677708
50
122.6414784
51
139.3431662
0
ARC
8
DEFAULT_255_1_388
10
22.0143988
20
108.6812787
40
0.4912586
50
93.0224537
51
122.4556091
0
ARC
8
DEFAULT_255_1_388
10
22.0265509
20
108.5726776
40
0.6003837
50
89.9756766
51
93.6340839
0
ARC
8
DEFAULT_255_1_388
10
22.0309107
20
108.6175879
40
0.5554884
50
73.7463329
51
90.4234008
0
ARC
8
DEFAULT_255_1_388
10
22.050658
20
108.6940772
40
0.4765353
50
57.663051
51
73.4516911
0
ARC
8
DEFAULT_255_1_388
10
22.0497618
20
108.6965108
40
0.4749629
50
29.1441355
51
57.4146687
0
ARC
8
DEFAULT_255_1_388
10
21.9445429
20
108.6308046
40
0.5988917
50
24.0985653
51
29.732054
0
ARC
8
DEFAULT_255_1_388
10
21.8283061
20
108.5826154
40
0.7246823
50
8.6654943
51
23.8241215
0
ARC
8
DEFAULT_255_1_388
10
21.5769479
20
108.5416037
40
0.9793537
50
359.7807044
51
8.8218476
0
ARC
8
DEFAULT_255_1_388
10
21.4479184
20
108.5444731
40
0.9358078
50
359.7054632
51
8.0359751
0
ARC
8
DEFAULT_255_1_388
10
21.7854235
20
108.5936252
40
0.5947474
50
7.8926278
51
20.2962188
0
ARC
8
DEFAULT_255_1_388
10
21.9685085
20
108.6611367
40
0.3996117
50
20.3231056
51
36.4990255
0
ARC
8
DEFAULT_255_1_388
10
22.0456383
20
108.7205399
40
0.3022818
50
36.1436715
51
85.6627846
0
ARC
8
DEFAULT_255_1_388
10
22.0273638
20
108.6035881
40
0.4203853
50
84.3845912
51
90.076054
0
ARC
8
DEFAULT_255_1_388
10
22.0225993
20
108.6778416
40
0.346157
50
89.3037228
51
109.9046209
0
ARC
8
DEFAULT_255_1_388
10
22.0121826
20
108.7208379
40
0.3022217
50
110.8229774
51
143.917961
0
ARC
8
DEFAULT_255_1_388
10
22.1172185
20
108.6406455
40
0.434348
50
143.5289166
51
163.2980252
0
ARC
8
DEFAULT_255_1_388
10
22.3318472
20
108.5731685
40
0.659321
50
163.0418884
51
174.3139873
0
ARC
8
DEFAULT_255_1_388
10
22.6023437
20
108.5419378
40
0.9315905
50
174.050934
51
179.4174954
0
ARC
8
DEFAULT_255_1_388
10
22.5455381
20
108.4500382
40
0.8747493
50
179.6928582
51
188.7908948
0
ARC
8
DEFAULT_255_1_388
10
22.2459181
20
108.4021086
40
0.5713262
50
188.6328449
51
202.5630732
0
ARC
8
DEFAULT_255_1_388
10
22.1048018
20
108.3454142
40
0.4192612
50
202.8078931
51
216.1195888
0
ARC
8
DEFAULT_255_1_388
10
22.0137535
20
108.2721479
40
0.3025752
50
215.0755613
51
264.6379773
0
ARC
8
DEFAULT_255_1_388
10
22.0280372
20
108.3656376
40
0.3970284
50
263.8464302
51
270.0830805
0
ARC
8
DEFAULT_255_1_388
10
22.0326917
20
108.3365808
40
0.3679937
50
269.3649295
51
287.5149684
0
ARC
8
DEFAULT_255_1_388
10
22.0527358
20
108.2637714
40
0.2925408
50
288.0629019
51
323.8115617
0
ARC
8
DEFAULT_255_1_388
10
21.9547334
20
108.3368754
40
0.4148018
50
323.6546541
51
342.6591359
0
ARC
8
DEFAULT_255_1_388
10
21.7261992
20
108.411228
40
0.6551163
50
342.4092446
51
353.6451501
0
ARC
8
DEFAULT_255_1_388
10
21.4076785
20
108.4508565
40
0.9760748
50
353.4027553
51
359.4846611
0
LINE
8
DEFAULT_255_1_388
10
23.3722133
20
109.1549898
11
22.8237497
21
107.7264544
0
LINE
8
DEFAULT_255_1_388
10
22.8237497
20
107.7264544
11
22.6800829
21
107.7264544
0
LINE
8
DEFAULT_255_1_388
10
22.6800829
20
107.7264544
11
23.2294501
21
109.1549898
0
LINE
8
DEFAULT_255_1_388
10
23.2294501
20
109.1549898
11
23.3722133
21
109.1549898
0
LINE
8
DEFAULT_255_1_388
10
24.3607128
20
108.617369
11
24.3607128
21
108.4005135
0
LINE
8
DEFAULT_255_1_388
10
23.5303371
20
108.3779244
11
23.5303371
21
108.6011048
0
LINE
8
DEFAULT_255_1_388
10
24.1935534
20
108.3553353
11
24.1935534
21
108.6291153
0
LINE
8
DEFAULT_255_1_388
10
23.6974965
20
108.6417652
11
23.6974965
21
108.3743102
0
ARC
8
DEFAULT_255_1_388
10
22.9829462
20
108.3950118
40
1.3777776
50
353.8440855
51
0.2287917
0
ARC
8
DEFAULT_255_1_388
10
23.5048479
20
108.3367414
40
0.852639
50
344.4934746
51
353.9763743
0
ARC
8
DEFAULT_255_1_388
10
23.8415286
20
108.2410191
40
0.5026273
50
329.2803599
51
344.7473406
0
ARC
8
DEFAULT_255_1_388
10
23.9530782
20
108.1798038
40
0.3754848
50
324.9361395
51
328.6153007
0
ARC
8
DEFAULT_255_1_388
10
23.9956432
20
108.1500586
40
0.3235566
50
280.5801797
51
324.9173226
0
ARC
8
DEFAULT_255_1_388
10
23.9505061
20
108.3380236
40
0.5167077
50
269.5979457
51
281.6732777
0
ARC
8
DEFAULT_255_1_388
10
23.9423964
20
108.3245113
40
0.5032026
50
256.6228565
51
270.5105488
0
ARC
8
DEFAULT_255_1_388
10
23.8971707
20
108.1503345
40
0.3233092
50
215.8618351
51
257.2787793
0
ARC
8
DEFAULT_255_1_388
10
24.0120414
20
108.2274106
40
0.4615831
50
197.9695203
51
215.2622745
0
ARC
8
DEFAULT_255_1_388
10
24.291609
20
108.3217641
40
0.7566307
50
187.8816486
51
198.2346584
0
ARC
8
DEFAULT_255_1_388
10
24.7369328
20
108.3860453
40
1.2065653
50
180.8977266
51
188.0054894
0
ARC
8
DEFAULT_255_1_388
10
25.0419542
20
108.39754
40
1.5117443
50
180.7434591
51
181.152202
0
ARC
8
DEFAULT_255_1_388
10
24.8744537
20
108.6065371
40
1.3441277
50
173.7674302
51
180.2315596
0
ARC
8
DEFAULT_255_1_388
10
24.3662406
20
108.6639779
40
0.8326847
50
164.3058537
51
173.9000553
0
ARC
8
DEFAULT_255_1_388
10
24.0386406
20
108.7583652
40
0.4917711
50
148.7922028
51
164.5682288
0
ARC
8
DEFAULT_255_1_388
10
23.9317144
20
108.8180457
40
0.3694204
50
144.5883979
51
148.1161588
0
ARC
8
DEFAULT_255_1_388
10
23.8929889
20
108.8450667
40
0.322202
50
101.6440149
51
144.5142619
0
ARC
8
DEFAULT_255_1_388
10
23.9408081
20
108.6550337
40
0.5180451
50
89.528284
51
102.5820197
0
ARC
8
DEFAULT_255_1_388
10
23.9497073
20
108.6506376
40
0.5224441
50
77.0437914
51
90.508231
0
ARC
8
DEFAULT_255_1_388
10
23.9949327
20
108.8354272
40
0.3322297
50
48.2777708
51
77.4996087
0
ARC
8
DEFAULT_255_1_388
10
24.0031067
20
108.8499557
40
0.315966
50
36.3141586
51
47.6307332
0
ARC
8
DEFAULT_255_1_388
10
23.9053789
20
108.7841159
40
0.4337313
50
18.2931065
51
35.6770203
0
ARC
8
DEFAULT_255_1_388
10
23.619263
20
108.6859107
40
0.7362203
50
8.0246996
51
18.5605636
0
ARC
8
DEFAULT_255_1_388
10
23.1508985
20
108.6167432
40
1.2096583
50
1.127539
51
8.1718423
0
ARC
8
DEFAULT_255_1_388
10
22.7860119
20
108.6024374
40
1.5747719
50
0.5432713
51
1.38669
0
ARC
8
DEFAULT_255_1_388
10
22.9917498
20
108.6331163
40
1.2018103
50
359.8092569
51
4.9408001
0
ARC
8
DEFAULT_255_1_388
10
23.4654079
20
108.67539
40
0.7262727
50
4.8364937
51
12.2906017
0
ARC
8
DEFAULT_255_1_388
10
23.7753544
20
108.7444485
40
0.4087324
50
12.0806994
51
23.8171225
0
ARC
8
DEFAULT_255_1_388
10
23.907394
20
108.8003508
40
0.2653719
50
24.2874621
51
31.3934353
0
ARC
8
DEFAULT_255_1_388
10
23.9664375
20
108.8389822
40
0.1948607
50
30.7407708
51
82.4658033
0
ARC
8
DEFAULT_255_1_388
10
23.9462036
20
108.7396017
40
0.2961198
50
81.1057101
51
90.2187368
0
ARC
8
DEFAULT_255_1_388
10
23.9421848
20
108.7686421
40
0.2670929
50
89.380395
51
105.6763916
0
ARC
8
DEFAULT_255_1_388
10
23.921557
20
108.843632
40
0.1893189
50
105.7980655
51
149.7387869
0
ARC
8
DEFAULT_255_1_388
10
24.041271
20
108.7716719
40
0.3289892
50
149.4208441
51
163.628295
0
ARC
8
DEFAULT_255_1_388
10
24.276494
20
108.6999345
40
0.5749004
50
163.3764549
51
172.141138
0
ARC
8
DEFAULT_255_1_388
10
24.6477661
20
108.6467582
40
0.9499585
50
172.0258462
51
178.0705453
0
ARC
8
DEFAULT_255_1_388
10
24.9899214
20
108.6305682
40
1.2924734
50
177.8639301
51
179.5036263
0
ARC
8
DEFAULT_255_1_388
10
24.8680233
20
108.3702151
40
1.170534
50
179.7995545
51
185.246089
0
ARC
8
DEFAULT_255_1_388
10
24.4131826
20
108.3271404
40
0.7136613
50
185.1411911
51
193.0082205
0
ARC
8
DEFAULT_255_1_388
10
24.1158087
20
108.2568441
40
0.4080987
50
192.7897338
51
205.2507384
0
ARC
8
DEFAULT_255_1_388
10
23.9980297
20
108.2042538
40
0.2791522
50
205.8001921
51
211.2545876
0
ARC
8
DEFAULT_255_1_388
10
23.9391836
20
108.1648132
40
0.2084074
50
210.3789935
51
238.4007996
0
ARC
8
DEFAULT_255_1_388
10
23.9369922
20
108.1700786
40
0.2117943
50
239.6521916
51
265.9793852
0
ARC
8
DEFAULT_255_1_388
10
23.9465771
20
108.2457358
40
0.2879689
50
265.1324455
51
270.0603288
0
ARC
8
DEFAULT_255_1_388
10
23.9498148
20
108.2092418
40
0.2514919
50
269.3314378
51
287.2180039
0
ARC
8
DEFAULT_255_1_388
10
23.965323
20
108.1526291
40
0.1928357
50
287.7957942
51
329.0808983
0
ARC
8
DEFAULT_255_1_388
10
23.8575987
20
108.2198651
40
0.319808
50
328.6635261
51
343.3325043
0
ARC
8
DEFAULT_255_1_388
10
23.6131446
20
108.2960195
40
0.5758408
50
343.0498092
51
351.9392499
0
ARC
8
DEFAULT_255_1_388
10
23.2230767
20
108.3535205
40
0.9701202
50
351.8071632
51
357.7957897
0
ARC
8
DEFAULT_255_1_388
10
22.8596244
20
108.3723724
40
1.3340376
50
357.5870923
51
359.2682493
0
LINE
8
DEFAULT_255_1_388
10
23.3068448
20
117.0924898
11
23.6809205
21
116.0073089
0
LINE
8
DEFAULT_255_1_388
10
23.6809205
20
116.0073089
11
24.0568033
21
117.0924898
0
LINE
8
DEFAULT_255_1_388
10
24.0568033
20
117.0924898
11
24.2465518
21
117.0924898
0
LINE
8
DEFAULT_255_1_388
10
24.2465518
20
117.0924898
11
23.758627
21
115.7769
0
LINE
8
DEFAULT_255_1_388
10
23.758627
20
115.7769
11
23.605021
21
115.7769
0
LINE
8
DEFAULT_255_1_388
10
23.605021
20
115.7769
11
23.1179998
21
117.0924898
0
LINE
8
DEFAULT_255_1_388
10
23.1179998
20
117.0924898
11
23.3068448
21
117.0924898
0
ENDSEC
0
EOF