0
SECTION
2
HEADER
9
$MEASUREMENT
70
1
0
ENDSEC
0
SECTION
2
TABLES
0
TABLE
2
LTYPE
0
LTYPE
72
65
70
64
2
CONTINUOUS
3
______
73
0
40
0
0
LTYPE
72
65
70
64
2
DASH_DEFAULT_255_2_778_1
3
______
73
1
40
1
49
-0.5292
0
ENDTAB
0
TABLE
2
LAYER
0
LAYER
2
DEFAULT_255_2_778
70
0
62
255
6
CONTINUOUS
0
LAYER
2
DEFAULT_255_1_388
70
0
62
255
6
CONTINUOUS
0
LAYER
2
DEFAULT_255_2_778_1
70
0
62
255
6
DASH_DEFAULT_255_2_778_1
0
ENDTAB
0
ENDSEC
0
SECTION
2
ENTITIES
0
ARC
8
DEFAULT_255_2_778
10
3.5700693
20
107.5552026
40
0.7914215
50
129.1312896
51
180.1450914
0
ARC
8
DEFAULT_255_2_778
10
3.5703345
20
107.5556897
40
0.7912112
50
89.854026
51
129.1684493
0
ARC
8
DEFAULT_255_2_778
10
25.7993937
20
107.5553762
40
0.7915249
50
39.4792447
51
90.147911
0
ARC
8
DEFAULT_255_2_778
10
25.7999935
20
107.5552229
40
0.7911595
50
359.8533901
51
39.5154338
0
ARC
8
DEFAULT_255_2_778
10
25.7996693
20
-1.9863497
40
0.7914836
50
309.4761667
51
0.1482649
0
ARC
8
DEFAULT_255_2_778
10
25.799398
20
-1.9867808
40
0.7913235
50
269.8517415
51
309.511178
0
ARC
8
DEFAULT_255_2_778
10
3.570342
20
-1.9867226
40
0.7913815
50
219.1282118
51
270.1454017
0
ARC
8
DEFAULT_255_2_778
10
3.5700247
20
-1.9863401
40
0.7913769
50
179.8524075
51
219.1641908
0
LINE
8
DEFAULT_255_2_778
10
3.5723503
20
108.3468985
11
25.7973503
21
108.3468985
0
LINE
8
DEFAULT_255_2_778
10
26.5911503
20
107.5531985
11
26.5911503
21
-1.9843015
0
LINE
8
DEFAULT_255_2_778
10
25.7973503
20
-2.7781015
11
3.5723503
21
-2.7781015
0
LINE
8
DEFAULT_255_2_778
10
2.7786503
20
-1.9843015
11
2.7786503
21
107.5531985
0
LINE
8
DEFAULT_255_1_388
10
11.1299318
20
-0.5033618
11
11.1299318
21
-0.6398
0
LINE
8
DEFAULT_255_1_388
10
11.1299318
20
-0.6398
11
10.2679313
21
-0.6398
0
LINE
8
DEFAULT_255_1_388
10
10.2679313
20
-0.6398
11
10.2679313
21
-0.5196259
0
LINE
8
DEFAULT_255_1_388
10
10.2679313
20
-0.5196259
11
10.7233278
21
-0.0136298
0
LINE
8
DEFAULT_255_1_388
10
10.4097909
20
0.2881607
11
10.2426315
21
0.2881607
0
LINE
8
DEFAULT_255_1_388
10
10.8218163
20
-0.121154
11
10.4694262
21
-0.5033618
0
LINE
8
DEFAULT_255_1_388
10
10.4694262
20
-0.5033618
11
11.1299318
21
-0.5033618
0
ARC
8
DEFAULT_255_1_388
10
9.2057337
20
1.3283983
40
2.0258655
50
318.5132526
51
320.7829045
0
ARC
8
DEFAULT_255_1_388
10
9.8005294
20
0.8442929
40
1.2589638
50
320.7372878
51
323.9739031
0
ARC
8
DEFAULT_255_1_388
10
10.2414226
20
0.5248554
40
0.7145141
50
323.8962701
51
328.64194
0
ARC
8
DEFAULT_255_1_388
10
10.4716484
20
0.3828545
40
0.4440242
50
328.8294576
51
331.7891185
0
ARC
8
DEFAULT_255_1_388
10
10.5838804
20
0.3249374
40
0.3177517
50
331.4254512
51
352.9365785
0
ARC
8
DEFAULT_255_1_388
10
10.5991804
20
0.321505
40
0.3021496
50
353.2257659
51
0.0166158
0
ARC
8
DEFAULT_255_1_388
10
10.6228564
20
0.3240894
40
0.2784847
50
359.486299
51
15.9343185
0
ARC
8
DEFAULT_255_1_388
10
10.6798831
20
0.3394269
40
0.2194403
50
16.1712913
51
43.5286088
0
ARC
8
DEFAULT_255_1_388
10
10.6885776
20
0.3481191
40
0.2071504
50
43.4417391
51
83.1661095
0
ARC
8
DEFAULT_255_1_388
10
10.6734937
20
0.2652316
40
0.2912888
50
82.160179
51
90.1505708
0
ARC
8
DEFAULT_255_1_388
10
10.6699418
20
0.2048279
40
0.3517025
50
89.5460741
51
102.5418361
0
ARC
8
DEFAULT_255_1_388
10
10.6426138
20
0.3207933
40
0.2325748
50
102.1738499
51
129.206123
0
ARC
8
DEFAULT_255_1_388
10
10.6337592
20
0.3347664
40
0.2161591
50
129.72865
51
135.753947
0
ARC
8
DEFAULT_255_1_388
10
10.6474074
20
0.3238728
40
0.2335433
50
136.1757367
51
166.3673339
0
ARC
8
DEFAULT_255_1_388
10
10.7606762
20
0.2935148
40
0.3507873
50
165.9090694
51
178.8684636
0
ARC
8
DEFAULT_255_1_388
10
10.8582534
20
0.2882263
40
0.4484624
50
178.4391136
51
180.0083808
0
ARC
8
DEFAULT_255_1_388
10
10.7003235
20
0.2926197
40
0.4577138
50
163.2878482
51
180.5581842
0
ARC
8
DEFAULT_255_1_388
10
10.6101276
20
0.3174393
40
0.3641968
50
133.4540601
51
162.947111
0
ARC
8
DEFAULT_255_1_388
10
10.6302158
20
0.2960789
40
0.3935189
50
100.7869829
51
133.4382499
0
ARC
8
DEFAULT_255_1_388
10
10.6693403
20
0.1218399
40
0.5720313
50
89.660664
51
101.3702276
0
ARC
8
DEFAULT_255_1_388
10
10.6768012
20
0.1287263
40
0.5651495
50
78.2172678
51
90.412935
0
ARC
8
DEFAULT_255_1_388
10
10.7167478
20
0.3114511
40
0.378122
50
55.9269121
51
78.4888449
0
ARC
8
DEFAULT_255_1_388
10
10.7388193
20
0.3495187
40
0.3342379
50
47.929771
51
55.4049217
0
ARC
8
DEFAULT_255_1_388
10
10.7502723
20
0.3611618
40
0.3179217
50
4.334829
51
48.0560205
0
ARC
8
DEFAULT_255_1_388
10
10.6270525
20
0.3420487
40
0.442341
50
359.9251713
51
5.5971671
0
ARC
8
DEFAULT_255_1_388
10
10.675268
20
0.3483728
40
0.3941854
50
337.8914027
51
358.9967534
0
ARC
8
DEFAULT_255_1_388
10
10.370025
20
0.4661295
40
0.7213271
50
326.9132501
51
338.3508308
0
ARC
8
DEFAULT_255_1_388
10
9.9216362
20
0.7535105
40
1.2538973
50
319.6471833
51
327.0959558
0
ARC
8
DEFAULT_255_1_388
10
9.490302
20
1.109305
40
1.8129975
50
317.2588228
51
319.9045804
0
LINE
8
DEFAULT_255_1_388
10
12.1319848
20
0.138169
11
12.1319848
21
-0.0786865
0
LINE
8
DEFAULT_255_1_388
10
11.301609
20
-0.1012756
11
11.301609
21
0.1219048
0
LINE
8
DEFAULT_255_1_388
10
11.9648253
20
-0.1238647
11
11.9648253
21
0.1499153
0
LINE
8
DEFAULT_255_1_388
10
11.4687685
20
0.1625652
11
11.4687685
21
-0.1048898
0
ARC
8
DEFAULT_255_1_388
10
10.7542182
20
-0.0841882
40
1.3777776
50
353.8440855
51
0.2287917
0
ARC
8
DEFAULT_255_1_388
10
11.2761199
20
-0.1424586
40
0.852639
50
344.4934746
51
353.9763743
0
ARC
8
DEFAULT_255_1_388
10
11.6128006
20
-0.2381809
40
0.5026273
50
329.2803599
51
344.7473406
0
ARC
8
DEFAULT_255_1_388
10
11.7243502
20
-0.2993962
40
0.3754848
50
324.9361395
51
328.6153007
0
ARC
8
DEFAULT_255_1_388
10
11.7669152
20
-0.3291414
40
0.3235566
50
280.5801797
51
324.9173226
0
ARC
8
DEFAULT_255_1_388
10
11.721778
20
-0.1411764
40
0.5167077
50
269.5979457
51
281.6732777
0
ARC
8
DEFAULT_255_1_388
10
11.7136684
20
-0.1546887
40
0.5032026
50
256.6228565
51
270.5105488
0
ARC
8
DEFAULT_255_1_388
10
11.6684427
20
-0.3288655
40
0.3233092
50
215.8618351
51
257.2787793
0
ARC
8
DEFAULT_255_1_388
10
11.7833134
20
-0.2517894
40
0.4615831
50
197.9695203
51
215.2622745
0
ARC
8
DEFAULT_255_1_388
10
12.0628809
20
-0.1574359
40
0.7566307
50
187.8816486
51
198.2346584
0
ARC
8
DEFAULT_255_1_388
10
12.5082048
20
-0.0931547
40
1.2065653
50
180.8977266
51
188.0054894
0
ARC
8
DEFAULT_255_1_388
10
12.8132261
20
-0.08166
40
1.5117443
50
180.7434591
51
181.152202
0
ARC
8
DEFAULT_255_1_388
10
12.6457257
20
0.1273371
40
1.3441277
50
173.7674302
51
180.2315596
0
ARC
8
DEFAULT_255_1_388
10
12.1375126
20
0.1847779
40
0.8326847
50
164.3058537
51
173.9000553
0
ARC
8
DEFAULT_255_1_388
10
11.8099126
20
0.2791652
40
0.4917711
50
148.7922028
51
164.5682288
0
ARC
8
DEFAULT_255_1_388
10
11.7029864
20
0.3388457
40
0.3694204
50
144.5883979
51
148.1161588
0
ARC
8
DEFAULT_255_1_388
10
11.6642609
20
0.3658667
40
0.322202
50
101.6440149
51
144.5142619
0
ARC
8
DEFAULT_255_1_388
10
11.7120801
20
0.1758337
40
0.5180451
50
89.528284
51
102.5820197
0
ARC
8
DEFAULT_255_1_388
10
11.7209793
20
0.1714376
40
0.5224441
50
77.0437914
51
90.508231
0
ARC
8
DEFAULT_255_1_388
10
11.7662047
20
0.3562272
40
0.3322297
50
48.2777708
51
77.4996087
0
ARC
8
DEFAULT_255_1_388
10
11.7743787
20
0.3707557
40
0.315966
50
36.3141586
51
47.6307332
0
ARC
8
DEFAULT_255_1_388
10
11.6766509
20
0.3049159
40
0.4337313
50
18.2931065
51
35.6770203
0
ARC
8
DEFAULT_255_1_388
10
11.390535
20
0.2067107
40
0.7362203
50
8.0246996
51
18.5605636
0
ARC
8
DEFAULT_255_1_388
10
10.9221705
20
0.1375432
40
1.2096583
50
1.127539
51
8.1718423
0
ARC
8
DEFAULT_255_1_388
10
10.5572839
20
0.1232374
40
1.5747719
50
0.5432713
51
1.38669
0
ARC
8
DEFAULT_255_1_388
10
10.7630217
20
0.1539163
40
1.2018103
50
359.8092569
51
4.9408001
0
ARC
8
DEFAULT_255_1_388
10
11.2366799
20
0.19619
40
0.7262727
50
4.8364937
51
12.2906017
0
ARC
8
DEFAULT_255_1_388
10
11.5466263
20
0.2652485
40
0.4087324
50
12.0806994
51
23.8171225
0
ARC
8
DEFAULT_255_1_388
10
11.6786659
20
0.3211508
40
0.2653719
50
24.2874621
51
31.3934353
0
ARC
8
DEFAULT_255_1_388
10
11.7377095
20
0.3597822
40
0.1948607
50
30.7407708
51
82.4658033
0
ARC
8
DEFAULT_255_1_388
10
11.7174756
20
0.2604017
40
0.2961198
50
81.1057101
51
90.2187368
0
ARC
8
DEFAULT_255_1_388
10
11.7134568
20
0.2894421
40
0.2670929
50
89.380395
51
105.6763916
0
ARC
8
DEFAULT_255_1_388
10
11.692829
20
0.364432
40
0.1893189
50
105.7980655
51
149.7387869
0
ARC
8
DEFAULT_255_1_388
10
11.812543
20
0.2924719
40
0.3289892
50
149.4208441
51
163.628295
0
ARC
8
DEFAULT_255_1_388
10
12.047766
20
0.2207345
40
0.5749004
50
163.3764549
51
172.141138
0
ARC
8
DEFAULT_255_1_388
10
12.4190381
20
0.1675582
40
0.9499585
50
172.0258462
51
178.0705453
0
ARC
8
DEFAULT_255_1_388
10
12.7611934
20
0.1513682
40
1.2924734
50
177.8639301
51
179.5036263
0
ARC
8
DEFAULT_255_1_388
10
12.6392953
20
-0.1089849
40
1.170534
50
179.7995545
51
185.246089
0
ARC
8
DEFAULT_255_1_388
10
12.1844546
20
-0.1520596
40
0.7136613
50
185.1411911
51
193.0082205
0
ARC
8
DEFAULT_255_1_388
10
11.8870806
20
-0.2223559
40
0.4080987
50
192.7897338
51
205.2507384
0
ARC
8
DEFAULT_255_1_388
10
11.7693016
20
-0.2749462
40
0.2791522
50
205.8001921
51
211.2545876
0
ARC
8
DEFAULT_255_1_388
10
11.7104555
20
-0.3143868
40
0.2084074
50
210.3789935
51
238.4007996
0
ARC
8
DEFAULT_255_1_388
10
11.7082641
20
-0.3091214
40
0.2117943
50
239.6521916
51
265.9793852
0
ARC
8
DEFAULT_255_1_388
10
11.717849
20
-0.2334642
40
0.2879689
50
265.1324455
51
270.0603288
0
ARC
8
DEFAULT_255_1_388
10
11.7210867
20
-0.2699582
40
0.2514919
50
269.3314378
51
287.2180039
0
ARC
8
DEFAULT_255_1_388
10
11.736595
20
-0.3265709
40
0.1928357
50
287.7957942
51
329.0808983
0
ARC
8
DEFAULT_255_1_388
10
11.6288707
20
-0.2593349
40
0.319808
50
328.6635261
51
343.3325043
0
ARC
8
DEFAULT_255_1_388
10
11.3844165
20
-0.1831805
40
0.5758408
50
343.0498092
51
351.9392499
0
ARC
8
DEFAULT_255_1_388
10
10.9943487
20
-0.1256795
40
0.9701202
50
351.8071632
51
357.7957897
0
ARC
8
DEFAULT_255_1_388
10
10.6308964
20
-0.1068276
40
1.3340376
50
357.5870923
51
359.2682493
0
ARC
8
DEFAULT_255_1_388
10
12.8264801
20
0.329572
40
0.3175098
50
338.8762533
51
0.5167111
0
ARC
8
DEFAULT_255_1_388
10
12.8454394
20
0.32446
40
0.2979894
50
325.8415285
51
338.4793574
0
ARC
8
DEFAULT_255_1_388
10
12.8015028
20
0.3549242
40
0.351452
50
296.7587686
51
325.7536481
0
ARC
8
DEFAULT_255_1_388
10
12.7686656
20
0.4103363
40
0.4157374
50
296.0927901
51
297.3613472
0
ARC
8
DEFAULT_255_1_388
10
12.7980851
20
-0.3279407
40
0.395855
50
47.9007294
51
67.1948823
0
ARC
8
DEFAULT_255_1_388
10
12.8201493
20
-0.3002401
40
0.360516
50
35.2363914
51
47.551141
0
ARC
8
DEFAULT_255_1_388
10
12.8495897
20
-0.2805907
40
0.3251343
50
359.2759765
51
35.4014143
0
ARC
8
DEFAULT_255_1_388
10
12.7657824
20
-0.2888213
40
0.4089365
50
343.1293083
51
0.5775513
0
ARC
8
DEFAULT_255_1_388
10
12.8472937
20
-0.3112664
40
0.3244269
50
310.8496669
51
342.7449331
0
ARC
8
DEFAULT_255_1_388
10
12.8002812
20
-0.2576087
40
0.3957651
50
281.5472888
51
310.9170406
0
ARC
8
DEFAULT_255_1_388
10
12.7601686
20
-0.0829186
40
0.5749654
50
269.619248
51
281.9789564
0
ARC
8
DEFAULT_255_1_388
10
12.7520464
20
-0.0828224
40
0.5750649
50
257.4585678
51
270.4285689
0
ARC
8
DEFAULT_255_1_388
10
12.7091984
20
-0.2632259
40
0.389671
50
228.7554326
51
257.8484789
0
ARC
8
DEFAULT_255_1_388
10
12.674347
20
-0.3051772
40
0.335154
50
184.0104975
51
228.5071184
0
ARC
8
DEFAULT_255_1_388
10
12.8051862
20
-0.285257
40
0.4671891
50
179.9315832
51
185.3253753
0
ARC
8
DEFAULT_255_1_388
10
12.6728375
20
-0.2810408
40
0.33486
50
145.6796023
51
180.6259786
0
ARC
8
DEFAULT_255_1_388
10
12.6912141
20
-0.2938729
40
0.3572723
50
115.5537685
51
145.6415986
0
ARC
8
DEFAULT_255_1_388
10
12.7295184
20
-0.3624913
40
0.4357296
50
113.243307
51
116.2057839
0
ARC
8
DEFAULT_255_1_388
10
12.7123836
20
0.3572379
40
0.3549126
50
222.9549744
51
244.1370481
0
ARC
8
DEFAULT_255_1_388
10
12.698648
20
0.3418378
40
0.3343711
50
213.3436887
51
222.6274467
0
ARC
8
DEFAULT_255_1_388
10
12.6770549
20
0.3271653
40
0.3082678
50
180.431584
51
213.271499
0
ARC
8
DEFAULT_255_1_388
10
12.7405548
20
0.3324296
40
0.3718363
50
179.9991191
51
181.1690594
0
ARC
8
DEFAULT_255_1_388
10
12.7878004
20
0.3363072
40
0.4190996
50
164.6186169
51
180.529336
0
ARC
8
DEFAULT_255_1_388
10
12.6867653
20
0.363478
40
0.3144772
50
132.2455553
51
164.5090724
0
ARC
8
DEFAULT_255_1_388
10
12.7190631
20
0.326907
40
0.3632644
50
100.7053914
51
132.1386381
0
ARC
8
DEFAULT_255_1_388
10
12.7533692
20
0.1719118
40
0.5219578
50
89.6730358
51
101.2451698
0
ARC
8
DEFAULT_255_1_388
10
12.7603683
20
0.1915648
40
0.5023124
50
76.287748
51
90.4586006
0
ARC
8
DEFAULT_255_1_388
10
12.7948185
20
0.3290671
40
0.3605639
50
47.8240511
51
76.4266241
0
ARC
8
DEFAULT_255_1_388
10
12.8198569
20
0.3583599
40
0.3220463
50
6.9168387
51
47.6262497
0
ARC
8
DEFAULT_255_1_388
10
12.6864022
20
0.3337004
40
0.4575765
50
359.8415968
51
7.9697453
0
ARC
8
DEFAULT_255_1_388
10
12.7248292
20
-0.2783481
40
0.2827228
50
359.445363
51
16.9256873
0
ARC
8
DEFAULT_255_1_388
10
12.7775726
20
-0.2638219
40
0.2280396
50
17.2920767
51
45.4630727
0
ARC
8
DEFAULT_255_1_388
10
12.7714861
20
-0.2690676
40
0.2360485
50
45.30305
51
83.1920945
0
ARC
8
DEFAULT_255_1_388
10
12.7553606
20
-0.3592527
40
0.3275527
50
82.2612665
51
90.1434275
0
ARC
8
DEFAULT_255_1_388
10
12.7518883
20
-0.3330131
40
0.3013237
50
89.4956434
51
104.8580688
0
ARC
8
DEFAULT_255_1_388
10
12.7320072
20
-0.2576545
40
0.2233867
50
104.8856641
51
135.244616
0
ARC
8
DEFAULT_255_1_388
10
12.7376061
20
-0.2626648
40
0.2308906
50
135.3399546
51
172.1044062
0
ARC
8
DEFAULT_255_1_388
10
12.8283586
20
-0.2800333
40
0.3232034
50
171.2645637
51
180.186429
0
ARC
8
DEFAULT_255_1_388
10
12.809359
20
-0.2836574
40
0.304213
50
179.5154935
51
193.6464289
0
ARC
8
DEFAULT_255_1_388
10
12.7175266
20
-0.3070527
40
0.209456
50
193.3540274
51
225.8258581
0
ARC
8
DEFAULT_255_1_388
10
12.7221138
20
-0.2990924
40
0.2183738
50
226.4180634
51
255.8552336
0
ARC
8
DEFAULT_255_1_388
10
12.7509605
20
-0.1937479
40
0.3275812
50
255.4654104
51
268.7987425
0
ARC
8
DEFAULT_255_1_388
10
12.7562781
20
-0.0995455
40
0.4218877
50
268.3449238
51
270.0094605
0
ARC
8
DEFAULT_255_1_388
10
12.7589015
20
-0.1763906
40
0.3450519
50
269.5759586
51
282.0820163
0
ARC
8
DEFAULT_255_1_388
10
12.7842051
20
-0.2882637
40
0.2303642
50
281.752014
51
306.6056188
0
ARC
8
DEFAULT_255_1_388
10
12.7952859
20
-0.3064198
40
0.2091906
50
307.1346085
51
314.027845
0
ARC
8
DEFAULT_255_1_388
10
12.7912371
20
-0.3034541
40
0.2141385
50
314.2552483
51
350.1694025
0
ARC
8
DEFAULT_255_1_388
10
12.6954608
20
-0.2826825
40
0.312082
50
349.4140529
51
0.2933014
0
ARC
8
DEFAULT_255_1_388
10
12.7539885
20
0.2976924
40
0.2588377
50
89.477747
51
105.729729
0
ARC
8
DEFAULT_255_1_388
10
12.7386805
20
0.3545367
40
0.1999733
50
105.9233417
51
135.1660906
0
ARC
8
DEFAULT_255_1_388
10
12.7409836
20
0.3529412
40
0.2027322
50
135.3052302
51
168.9883645
0
ARC
8
DEFAULT_255_1_388
10
12.8340852
20
0.3315996
40
0.2982129
50
168.3801673
51
180.3602268
0
ARC
8
DEFAULT_255_1_388
10
12.8083969
20
0.3273622
40
0.2725291
50
179.5033122
51
194.9125571
0
ARC
8
DEFAULT_255_1_388
10
12.7425376
20
0.3100427
40
0.204431
50
194.9720816
51
224.194444
0
ARC
8
DEFAULT_255_1_388
10
12.7393741
20
0.3074635
40
0.2003651
50
224.2962453
51
262.015664
0
ARC
8
DEFAULT_255_1_388
10
12.7553745
20
0.3897315
40
0.2840925
50
261.1245923
51
270.1962896
0
ARC
8
DEFAULT_255_1_388
10
12.7587227
20
0.3686859
40
0.2630559
50
269.4827276
51
285.0987215
0
ARC
8
DEFAULT_255_1_388
10
12.7760663
20
0.3036175
40
0.1957162
50
285.1585357
51
315.9484501
0
ARC
8
DEFAULT_255_1_388
10
12.7660536
20
0.3128315
40
0.2093195
50
316.0413965
51
351.916092
0
ARC
8
DEFAULT_255_1_388
10
12.6835911
20
0.3287323
40
0.2932279
50
351.105835
51
0.1939062
0
ARC
8
DEFAULT_255_1_388
10
12.7131545
20
0.3321224
40
0.2636739
50
359.4789618
51
16.0678224
0
ARC
8
DEFAULT_255_1_388
10
12.7667017
20
0.3465721
40
0.2082215
50
16.3252067
51
44.7913869
0
ARC
8
DEFAULT_255_1_388
10
12.7647079
20
0.346632
40
0.2095992
50
44.3957814
51
88.2499162
0
ARC
8
DEFAULT_255_1_388
10
12.7564413
20
0.2778006
40
0.2787189
50
86.9833854
51
90.0192215
0
LINE
8
DEFAULT_255_1_388
10
13.5957592
20
-0.0145334
11
13.4620316
21
0.0198021
0
LINE
8
DEFAULT_255_1_388
10
13.4620316
20
0.0198021
11
13.5288954
21
0.6757898
0
LINE
8
DEFAULT_255_1_388
10
13.5288954
20
0.6757898
11
14.2029545
21
0.6757898
0
LINE
8
DEFAULT_255_1_388
10
14.2029545
20
0.6757898
11
14.2029545
21
0.5212803
0
LINE
8
DEFAULT_255_1_388
10
14.2029545
20
0.5212803
11
13.670755
21
0.5212803
0
LINE
8
DEFAULT_255_1_388
10
13.670755
20
0.5212803
11
13.6309982
21
0.1625652
0
LINE
8
DEFAULT_255_1_388
10
13.4150463
20
-0.2937348
11
13.5731701
21
-0.2937348
0
LINE
8
DEFAULT_255_1_388
10
13.6400338
20
0.0216092
11
13.5957592
21
-0.0145334
0
ARC
8
DEFAULT_255_1_388
10
13.8396595
20
-0.1951759
40
0.4141476
50
93.7181681
51
120.253934
0
ARC
8
DEFAULT_255_1_388
10
13.8502648
20
-0.2860716
40
0.5055616
50
89.9660471
51
94.2495185
0
ARC
8
DEFAULT_255_1_388
10
13.854847
20
-0.2197846
40
0.4392953
50
73.8045384
51
90.5585736
0
ARC
8
DEFAULT_255_1_388
10
13.8812727
20
-0.123248
40
0.3392225
50
41.3071072
51
73.543002
0
ARC
8
DEFAULT_255_1_388
10
13.8344547
20
-0.1635539
40
0.4009977
50
13.5075837
51
41.2174839
0
ARC
8
DEFAULT_255_1_388
10
13.6497645
20
-0.2119093
40
0.5918864
50
1.1330171
51
13.8830737
0
ARC
8
DEFAULT_255_1_388
10
13.490129
20
-0.2204478
40
0.7516787
50
359.9925091
51
1.5431298
0
ARC
8
DEFAULT_255_1_388
10
13.6345905
20
-0.2250973
40
0.6072343
50
347.8572712
51
0.4294349
0
ARC
8
DEFAULT_255_1_388
10
13.831504
20
-0.2697102
40
0.4053482
50
323.6727442
51
348.1674594
0
ARC
8
DEFAULT_255_1_388
10
13.8646005
20
-0.2898825
40
0.3667495
50
316.8171818
51
323.1486802
0
ARC
8
DEFAULT_255_1_388
10
13.8715128
20
-0.2940388
40
0.358869
50
281.839603
51
316.5458142
0
ARC
8
DEFAULT_255_1_388
10
13.8292416
20
-0.1190637
40
0.5388223
50
269.5770964
51
282.4214641
0
ARC
8
DEFAULT_255_1_388
10
13.8212337
20
-0.143107
40
0.5147801
50
256.2425863
51
270.4486481
0
ARC
8
DEFAULT_255_1_388
10
13.7875864
20
-0.2780876
40
0.3756708
50
228.9024379
51
256.33135
0
ARC
8
DEFAULT_255_1_388
10
13.7792845
20
-0.2911946
40
0.360344
50
193.7536029
51
228.5272638
0
ARC
8
DEFAULT_255_1_388
10
13.918541
20
-0.2503537
40
0.5053599
50
184.9244437
51
194.4976052
0
ARC
8
DEFAULT_255_1_388
10
13.9402051
20
-0.2463278
40
0.3700839
50
187.3596909
51
198.6733728
0
ARC
8
DEFAULT_255_1_388
10
13.8221294
20
-0.2872627
40
0.2451195
50
198.4453795
51
217.7945479
0
ARC
8
DEFAULT_255_1_388
10
13.7888467
20
-0.3108437
40
0.2043754
50
218.2887146
51
228.5613203
0
ARC
8
DEFAULT_255_1_388
10
13.7998474
20
-0.2960098
40
0.2227819
50
228.9652423
51
258.1237049
0
ARC
8
DEFAULT_255_1_388
10
13.8229911
20
-0.1969036
40
0.3245374
50
257.7260585
51
270.4013717
0
ARC
8
DEFAULT_255_1_388
10
13.8280409
20
-0.2469745
40
0.2744726
50
269.4204315
51
286.420998
0
ARC
8
DEFAULT_255_1_388
10
13.8447465
20
-0.3076295
40
0.2115721
50
286.7250065
51
320.6004665
0
ARC
8
DEFAULT_255_1_388
10
13.801638
20
-0.2726473
40
0.2670878
50
320.6712228
51
344.5440474
0
ARC
8
DEFAULT_255_1_388
10
13.6715094
20
-0.2344606
40
0.4026927
50
344.241448
51
356.735803
0
ARC
8
DEFAULT_255_1_388
10
13.5311401
20
-0.2228344
40
0.5435085
50
356.3547471
51
0.0507222
0
ARC
8
DEFAULT_255_1_388
10
13.6813666
20
-0.2193188
40
0.3932934
50
359.5579289
51
12.9534322
0
ARC
8
DEFAULT_255_1_388
10
13.8000506
20
-0.1905414
40
0.2711827
50
12.6489751
51
41.608121
0
ARC
8
DEFAULT_255_1_388
10
13.8259666
20
-0.1685054
40
0.2371737
50
41.7851122
51
85.9892156
0
ARC
8
DEFAULT_255_1_388
10
13.8120976
20
-0.2600262
40
0.3295244
50
84.6965848
51
90.0672125
0
ARC
8
DEFAULT_255_1_388
10
13.8094544
20
-0.3351882
40
0.4046926
50
89.6804991
51
99.161352
0
ARC
8
DEFAULT_255_1_388
10
13.7863553
20
-0.1971152
40
0.2647044
50
98.9836248
51
113.8905702
0
ARC
8
DEFAULT_255_1_388
10
13.7605228
20
-0.1361882
40
0.1985386
50
114.195234
51
127.3641866
0
LINE
8
DEFAULT_255_1_388
10
14.7893678
20
-0.0127263
11
14.7893678
21
-0.1491645
0
LINE
8
DEFAULT_255_1_388
10
14.7893678
20
-0.1491645
11
14.3484284
21
-0.1491645
0
LINE
8
DEFAULT_255_1_388
10
14.3484284
20
-0.1491645
11
14.3484284
21
-0.0127263
0
LINE
8
DEFAULT_255_1_388
10
14.3484284
20
-0.0127263
11
14.7893678
21
-0.0127263
0
LINE
8
DEFAULT_255_1_388
10
15.990205
20
0.0586553
11
15.990205
21
-0.0244726
0
LINE
8
DEFAULT_255_1_388
10
14.932131
20
-0.0362189
11
14.932131
21
0.0586553
0
LINE
8
DEFAULT_255_1_388
10
15.8176242
20
-0.0371225
11
15.8176242
21
0.0604625
0
LINE
8
DEFAULT_255_1_388
10
15.1047118
20
0.0722088
11
15.1047118
21
-0.0244726
0
ARC
8
DEFAULT_255_1_388
10
15.0179788
20
-0.0289274
40
0.9722364
50
350.4878118
51
0.2625322
0
ARC
8
DEFAULT_255_1_388
10
15.2759748
20
-0.0733006
40
0.7104556
50
336.0277991
51
350.5787241
0
ARC
8
DEFAULT_255_1_388
10
15.4272855
20
-0.1416757
40
0.544417
50
319.887443
51
336.1331163
0
ARC
8
DEFAULT_255_1_388
10
15.4950667
20
-0.1959267
40
0.4576311
50
302.4806296
51
319.6144102
0
ARC
8
DEFAULT_255_1_388
10
15.4821288
20
-0.1709933
40
0.4856183
50
275.8196423
51
302.1885521
0
ARC
8
DEFAULT_255_1_388
10
15.463415
20
-0.0424534
40
0.6154183
50
269.9169897
51
276.339506
0
ARC
8
DEFAULT_255_1_388
10
15.458375
20
-0.119632
40
0.5382553
50
252.5221437
51
270.441579
0
ARC
8
DEFAULT_255_1_388
10
15.4422001
20
-0.1802954
40
0.4755426
50
237.5349961
51
252.1858334
0
ARC
8
DEFAULT_255_1_388
10
15.4522377
20
-0.167488
40
0.4917393
50
209.0632754
51
237.3492577
0
ARC
8
DEFAULT_255_1_388
10
15.5501703
20
-0.1059896
40
0.6072464
50
205.118533
51
209.6465345
0
ARC
8
DEFAULT_255_1_388
10
15.6397705
20
-0.0679826
40
0.7045164
50
188.7216633
51
204.8239753
0
ARC
8
DEFAULT_255_1_388
10
15.864448
20
-0.0301613
40
0.9323368
50
180.3722704
51
188.9253909
0
ARC
8
DEFAULT_255_1_388
10
15.8614042
20
0.0631416
40
0.929284
50
169.5253055
51
180.2766048
0
ARC
8
DEFAULT_255_1_388
10
15.6473841
20
0.1025024
40
0.7116745
50
155.8314601
51
169.5088611
0
ARC
8
DEFAULT_255_1_388
10
15.5033304
20
0.1693312
40
0.5528904
50
139.6259579
51
156.0379072
0
ARC
8
DEFAULT_255_1_388
10
15.4369838
20
0.2227143
40
0.4677708
50
122.6414784
51
139.3431662
0
ARC
8
DEFAULT_255_1_388
10
15.4483092
20
0.2020787
40
0.4912586
50
93.0224537
51
122.4556091
0
ARC
8
DEFAULT_255_1_388
10
15.4604613
20
0.0934776
40
0.6003837
50
89.9756766
51
93.6340839
0
ARC
8
DEFAULT_255_1_388
10
15.4648211
20
0.1383879
40
0.5554884
50
73.7463329
51
90.4234008
0
ARC
8
DEFAULT_255_1_388
10
15.4845684
20
0.2148772
40
0.4765353
50
57.663051
51
73.4516911
0
ARC
8
DEFAULT_255_1_388
10
15.4836722
20
0.2173108
40
0.4749629
50
29.1441355
51
57.4146687
0
ARC
8
DEFAULT_255_1_388
10
15.3784533
20
0.1516046
40
0.5988917
50
24.0985653
51
29.732054
0
ARC
8
DEFAULT_255_1_388
10
15.2622165
20
0.1034154
40
0.7246823
50
8.6654943
51
23.8241215
0
ARC
8
DEFAULT_255_1_388
10
15.0108583
20
0.0624037
40
0.9793537
50
359.7807044
51
8.8218476
0
ARC
8
DEFAULT_255_1_388
10
14.8818288
20
0.0652731
40
0.9358078
50
359.7054632
51
8.0359751
0
ARC
8
DEFAULT_255_1_388
10
15.2193339
20
0.1144252
40
0.5947474
50
7.8926278
51
20.2962188
0
ARC
8
DEFAULT_255_1_388
10
15.4024189
20
0.1819367
40
0.3996117
50
20.3231056
51
36.4990255
0
ARC
8
DEFAULT_255_1_388
10
15.4795487
20
0.2413399
40
0.3022818
50
36.1436715
51
85.6627846
0
ARC
8
DEFAULT_255_1_388
10
15.4612742
20
0.1243881
40
0.4203853
50
84.3845912
51
90.076054
0
ARC
8
DEFAULT_255_1_388
10
15.4565097
20
0.1986416
40
0.346157
50
89.3037228
51
109.9046209
0
ARC
8
DEFAULT_255_1_388
10
15.446093
20
0.2416379
40
0.3022217
50
110.8229774
51
143.917961
0
ARC
8
DEFAULT_255_1_388
10
15.5511289
20
0.1614455
40
0.434348
50
143.5289166
51
163.2980252
0
ARC
8
DEFAULT_255_1_388
10
15.7657576
20
0.0939685
40
0.659321
50
163.0418884
51
174.3139873
0
ARC
8
DEFAULT_255_1_388
10
16.0362541
20
0.0627378
40
0.9315905
50
174.050934
51
179.4174954
0
ARC
8
DEFAULT_255_1_388
10
15.9794485
20
-0.0291618
40
0.8747493
50
179.6928582
51
188.7908948
0
ARC
8
DEFAULT_255_1_388
10
15.6798285
20
-0.0770914
40
0.5713262
50
188.6328449
51
202.5630732
0
ARC
8
DEFAULT_255_1_388
10
15.5387122
20
-0.1337858
40
0.4192612
50
202.8078931
51
216.1195888
0
ARC
8
DEFAULT_255_1_388
10
15.4476639
20
-0.2070521
40
0.3025752
50
215.0755613
51
264.6379773
0
ARC
8
DEFAULT_255_1_388
10
15.4619476
20
-0.1135624
40
0.3970284
50
263.8464302
51
270.0830805
0
ARC
8
DEFAULT_255_1_388
10
15.4666021
20
-0.1426192
40
0.3679937
50
269.3649295
51
287.5149684
0
ARC
8
DEFAULT_255_1_388
10
15.4866462
20
-0.2154286
40
0.2925408
50
288.0629019
51
323.8115617
0
ARC
8
DEFAULT_255_1_388
10
15.3886438
20
-0.1423246
40
0.4148018
50
323.6546541
51
342.6591359
0
ARC
8
DEFAULT_255_1_388
10
15.1601096
20
-0.067972
40
0.6551163
50
342.4092446
51
353.6451501
0
ARC
8
DEFAULT_255_1_388
10
14.8415889
20
-0.0283435
40
0.9760748
50
353.4027553
51
359.4846611
0
LINE
8
DEFAULT_255_1_388
10
16.9759938
20
0.0830516
11
16.9759938
21
-0.0588081
0
LINE
8
DEFAULT_255_1_388
10
16.9759938
20
-0.0588081
11
16.4239159
21
-0.0588081
0
LINE
8
DEFAULT_255_1_388
10
16.4239159
20
-0.0588081
11
16.4239159
21
-0.6398
0
LINE
8
DEFAULT_255_1_388
10
16.4239159
20
-0.6398
11
16.2504315
21
-0.6398
0
LINE
8
DEFAULT_255_1_388
10
16.2504315
20
-0.6398
11
16.2504315
21
0.6757898
0
LINE
8
DEFAULT_255_1_388
10
16.2504315
20
0.6757898
11
17.0654467
21
0.6757898
0
LINE
8
DEFAULT_255_1_388
10
17.0654467
20
0.6757898
11
17.0654467
21
0.5330267
0
LINE
8
DEFAULT_255_1_388
10
17.0654467
20
0.5330267
11
16.4239159
21
0.5330267
0
LINE
8
DEFAULT_255_1_388
10
16.4239159
20
0.5330267
11
16.4239159
21
0.0830516
0
LINE
8
DEFAULT_255_1_388
10
16.4239159
20
0.0830516
11
16.9759938
21
0.0830516
0
LINE
8
DEFAULT_255_1_388
10
17.9355792
20
0.6757898
11
17.9355792
21
-0.197957
0
LINE
8
DEFAULT_255_1_388
10
17.9355792
20
-0.197957
11
18.1180993
21
-0.197957
0
LINE
8
DEFAULT_255_1_388
10
18.1180993
20
-0.197957
11
18.1180993
21
-0.3343952
0
LINE
8
DEFAULT_255_1_388
10
18.1180993
20
-0.3343952
11
17.9355792
21
-0.3343952
0
LINE
8
DEFAULT_255_1_388
10
17.9355792
20
-0.3343952
11
17.9355792
21
-0.6398
0
LINE
8
DEFAULT_255_1_388
10
17.9355792
20
-0.6398
11
17.7675163
21
-0.6398
0
LINE
8
DEFAULT_255_1_388
10
17.7675163
20
-0.6398
11
17.7675163
21
-0.3343952
0
LINE
8
DEFAULT_255_1_388
10
17.7675163
20
-0.3343952
11
17.168453
21
-0.3343952
0
LINE
8
DEFAULT_255_1_388
10
17.168453
20
-0.3343952
11
17.168453
21
-0.2359067
0
LINE
8
DEFAULT_255_1_388
10
17.168453
20
-0.2359067
11
17.7575771
21
0.6757898
0
LINE
8
DEFAULT_255_1_388
10
17.7575771
20
0.6757898
11
17.9355792
21
0.6757898
0
LINE
8
DEFAULT_255_1_388
10
17.7476378
20
0.4110455
11
17.3582016
21
-0.197957
0
LINE
8
DEFAULT_255_1_388
10
17.3582016
20
-0.197957
11
17.7675163
21
-0.197957
0
LINE
8
DEFAULT_255_1_388
10
17.7675163
20
-0.197957
11
17.7675163
21
0.447188
0
LINE
8
DEFAULT_255_1_388
10
17.7675163
20
0.447188
11
17.7476378
21
0.4110455
0
LINE
8
DEFAULT_255_2_778
10
11.0359959
20
104.8731531
11
10.9838959
21
105.2104531
0
LINE
8
DEFAULT_255_2_778
10
10.9838959
20
105.2104531
11
10.4068959
21
105.2104531
0
LINE
8
DEFAULT_255_2_778
10
10.4068959
20
105.2104531
11
10.2364959
21
104.8731531
0
LINE
8
DEFAULT_255_2_778
10
10.2364959
20
104.8731531
11
9.8694959
21
104.8731531
0
LINE
8
DEFAULT_255_2_778
10
9.8694959
20
104.8731531
11
10.7531959
21
106.5106531
0
LINE
8
DEFAULT_255_2_778
10
10.7531959
20
106.5106531
11
11.0608959
21
106.5106531
0
LINE
8
DEFAULT_255_2_778
10
11.0608959
20
106.5106531
11
11.3754959
21
104.8731531
0
LINE
8
DEFAULT_255_2_778
10
11.3754959
20
104.8731531
11
11.0357959
21
104.8731531
0
LINE
8
DEFAULT_255_2_778
10
11.0357959
20
104.8731531
11
11.0359959
21
104.8731531
0
LINE
8
DEFAULT_255_2_778
10
10.8486959
20
106.0934531
11
10.5430959
21
105.4838531
0
LINE
8
DEFAULT_255_2_778
10
10.5430959
20
105.4838531
11
10.9418959
21
105.4838531
0
LINE
8
DEFAULT_255_2_778
10
10.9418959
20
105.4838531
11
10.8486959
21
106.0934531
0
LINE
8
DEFAULT_255_2_778
10
10.8486959
20
106.0934531
11
10.8486959
21
106.0934531
0
LINE
8
DEFAULT_255_2_778
10
12.1615594
20
106.6006646
11
11.8593594
21
104.8729646
0
LINE
8
DEFAULT_255_2_778
10
11.8593594
20
104.8729646
11
11.5368594
21
104.8729646
0
LINE
8
DEFAULT_255_2_778
10
11.5368594
20
104.8729646
11
11.8400594
21
106.6006646
0
LINE
8
DEFAULT_255_2_778
10
11.8400594
20
106.6006646
11
12.1615594
21
106.6006646
0
LINE
8
DEFAULT_255_2_778
10
12.1615594
20
106.6006646
11
12.1615594
21
106.6006646
0
LINE
8
DEFAULT_255_2_778
10
12.7717594
20
106.6006646
11
12.4695594
21
104.8729646
0
LINE
8
DEFAULT_255_2_778
10
12.4695594
20
104.8729646
11
12.1470594
21
104.8729646
0
LINE
8
DEFAULT_255_2_778
10
12.1470594
20
104.8729646
11
12.4502594
21
106.6006646
0
LINE
8
DEFAULT_255_2_778
10
12.4502594
20
106.6006646
11
12.7717594
21
106.6006646
0
LINE
8
DEFAULT_255_2_778
10
12.7717594
20
106.6006646
11
12.7717594
21
106.6006646
0
ARC
8
DEFAULT_255_2_778
10
13.3180767
20
105.3887764
40
0.5383522
50
238.763891
51
270.7055166
0
ARC
8
DEFAULT_255_2_778
10
13.2867625
20
105.333452
40
0.4748131
50
204.061185
51
238.5328679
0
ARC
8
DEFAULT_255_2_778
10
13.3693681
20
105.3730331
40
0.5663841
50
179.4896096
51
204.3103027
0
ARC
8
DEFAULT_255_2_778
10
13.4933843
20
105.3775727
40
0.6903781
50
175.123126
51
179.9580366
0
ARC
8
DEFAULT_255_2_778
10
13.5850479
20
105.4125152
40
0.7790728
50
149.5392097
51
174.9446897
0
ARC
8
DEFAULT_255_2_778
10
13.459184
20
105.4960212
40
0.628301
50
120.7003982
51
150.2846053
0
ARC
8
DEFAULT_255_2_778
10
13.4196851
20
105.5557024
40
0.556829
50
89.4236852
51
120.3409826
0
ARC
8
DEFAULT_255_2_778
10
13.4252352
20
105.4569671
40
0.6555361
50
88.4553682
51
89.9955718
0
ARC
8
DEFAULT_255_2_778
10
13.4481363
20
105.6411369
40
0.4711572
50
58.4514404
51
90.636095
0
ARC
8
DEFAULT_255_2_778
10
13.4744403
20
105.7045423
40
0.403504
50
35.6058989
51
56.9235594
0
ARC
8
DEFAULT_255_2_778
10
13.3641882
20
105.6307058
40
0.5361477
50
0.6851965
51
35.1616077
0
ARC
8
DEFAULT_255_2_778
10
13.1616313
20
105.6103229
40
0.7391521
50
359.9888194
51
2.0774415
0
ARC
8
DEFAULT_255_2_778
10
13.0480025
20
105.6120249
40
0.852783
50
353.383538
51
359.8759623
0
ARC
8
DEFAULT_255_2_778
10
13.534221
20
105.3596119
40
0.4107176
50
177.8018731
51
179.9839782
0
ARC
8
DEFAULT_255_2_778
10
13.3756217
20
105.348124
40
0.2523852
50
177.3650374
51
219.8309448
0
ARC
8
DEFAULT_255_2_778
10
13.3462068
20
105.3348401
40
0.2214564
50
222.0668323
51
271.55222
0
ARC
8
DEFAULT_255_2_778
10
13.3632002
20
105.5396289
40
0.4263057
50
268.5221572
51
269.9980687
0
ARC
8
DEFAULT_255_2_778
10
13.3616001
20
105.5100217
40
0.3967017
50
270.2290309
51
318.5203973
0
ARC
8
DEFAULT_255_2_778
10
13.4310056
20
105.3267979
40
0.4555006
50
292.4982989
51
325.2807674
0
ARC
8
DEFAULT_255_2_778
10
13.3411907
20
105.5053545
40
0.6549996
50
269.6158853
51
293.7802026
0
ARC
8
DEFAULT_255_2_778
10
13.3368026
20
105.592233
40
0.7418635
50
269.0811303
51
269.9997673
0
ARC
8
DEFAULT_255_2_778
10
13.4205249
20
105.5851977
40
0.2651417
50
88.6426435
51
89.9971979
0
ARC
8
DEFAULT_255_2_778
10
13.4187009
20
105.6204788
40
0.2298681
50
89.5421073
51
130.5025885
0
ARC
8
DEFAULT_255_2_778
10
13.5174398
20
105.5203327
40
0.370282
50
132.0556576
51
154.4346079
0
ARC
8
DEFAULT_255_2_778
10
13.9187288
20
105.3027869
40
0.8264843
50
152.8348001
51
159.2008974
0
ARC
8
DEFAULT_255_2_778
10
13.283715
20
105.6737268
40
0.3137404
50
351.1327381
51
359.8552777
0
ARC
8
DEFAULT_255_2_778
10
13.3301744
20
105.6733274
40
0.2672803
50
359.9157472
51
8.073482
0
ARC
8
DEFAULT_255_2_778
10
13.4328726
20
105.6886276
40
0.1634528
50
7.8192239
51
49.4174523
0
ARC
8
DEFAULT_255_2_778
10
13.4309336
20
105.6754377
40
0.174876
50
51.746929
51
91.3525911
0
LINE
8
DEFAULT_255_2_778
10
12.8055056
20
105.436265
11
12.8090056
21
105.481165
0
LINE
8
DEFAULT_255_2_778
10
13.8951056
20
105.513765
11
13.8768056
21
105.375365
0
LINE
8
DEFAULT_255_2_778
10
13.8768056
20
105.375365
11
13.1238056
21
105.375365
0
LINE
8
DEFAULT_255_2_778
10
13.6588056
20
105.247265
11
13.8054056
21
105.067365
0
LINE
8
DEFAULT_255_2_778
10
13.3249056
20
104.850465
11
13.3247056
21
104.850465
0
LINE
8
DEFAULT_255_2_778
10
13.1461056
20
105.596265
11
13.5868056
21
105.596265
0
LINE
8
DEFAULT_255_2_778
10
13.5868056
20
105.596265
11
13.5937056
21
105.625365
0
LINE
8
DEFAULT_255_2_778
10
13.4268056
20
105.850265
11
13.4268056
21
105.850265
0
ARC
8
DEFAULT_255_2_778
10
14.7973588
20
105.6688783
40
0.4439397
50
89.8554796
51
141.1589213
0
ARC
8
DEFAULT_255_2_778
10
14.7984572
20
105.607943
40
0.5048737
50
88.7717605
51
89.9975792
0
ARC
8
DEFAULT_255_2_778
10
14.8178417
20
105.7968406
40
0.315976
50
50.4893295
51
91.5528058
0
ARC
8
DEFAULT_255_2_778
10
14.8339359
20
105.8312178
40
0.2793745
50
33.8414583
51
48.5499238
0
ARC
8
DEFAULT_255_2_778
10
14.731985
20
105.7723286
40
0.3969262
50
4.3932888
51
32.7062485
0
ARC
8
DEFAULT_255_2_778
10
14.4819065
20
105.7369301
40
0.6491822
50
359.8769204
51
5.8177478
0
ARC
8
DEFAULT_255_2_778
10
14.2701804
20
105.7378881
40
0.8609097
50
353.9399056
51
359.8434284
0
ARC
8
DEFAULT_255_2_778
10
14.4164047
20
105.7035967
40
0.3954956
50
352.2407688
51
359.7520116
0
ARC
8
DEFAULT_255_2_778
10
14.5201997
20
105.7024041
40
0.2916973
50
359.8980094
51
5.448398
0
ARC
8
DEFAULT_255_2_778
10
14.6814536
20
105.7195865
40
0.129553
50
4.6550554
51
97.2610773
0
ARC
8
DEFAULT_255_2_778
10
14.655996
20
105.5938531
40
0.2544097
50
87.9539208
51
89.9945997
0
ARC
8
DEFAULT_255_2_778
10
14.6629447
20
105.5782668
40
0.2700847
50
91.4691634
51
141.078713
0
ARC
8
DEFAULT_255_2_778
10
14.7966376
20
105.4364301
40
0.4639576
50
137.8219849
51
140.394746
0
ARC
8
DEFAULT_255_2_778
10
16.9661161
20
105.483211
40
1.026426
50
77.5141066
51
90.4821212
0
ARC
8
DEFAULT_255_2_778
10
17.0845798
20
105.9924611
40
0.5036389
50
52.814306
51
78.1469212
0
ARC
8
DEFAULT_255_2_778
10
17.1732245
20
106.1207438
40
0.3479303
50
357.5432245
51
51.6759047
0
ARC
8
DEFAULT_255_2_778
10
16.9814613
20
106.1061938
40
0.5393738
50
356.248244
51
359.9613012
0
ARC
8
DEFAULT_255_2_778
10
17.128092
20
106.0935882
40
0.3922439
50
295.0867564
51
356.6841236
0
ARC
8
DEFAULT_255_2_778
10
16.9599154
20
106.3563279
40
0.7026958
50
292.6018649
51
298.4245718
0
ARC
8
DEFAULT_255_2_778
10
17.1412835
20
105.443675
40
0.2784307
50
29.5992916
51
71.4243751
0
ARC
8
DEFAULT_255_2_778
10
17.0686219
20
105.4014727
40
0.3624559
50
358.8250622
51
29.7265593
0
ARC
8
DEFAULT_255_2_778
10
16.932071
20
105.3943262
40
0.4989307
50
356.3312443
51
359.9671937
0
ARC
8
DEFAULT_255_2_778
10
16.9581925
20
105.3755387
40
0.4719696
50
307.6792206
51
358.4048608
0
ARC
8
DEFAULT_255_2_778
10
16.8807048
20
105.4963643
40
0.6150877
50
279.1080464
51
306.5123219
0
ARC
8
DEFAULT_255_2_778
10
16.7961448
20
105.9184116
40
1.0453321
50
269.63465
51
280.0226117
0
ARC
8
DEFAULT_255_2_778
10
16.8094212
20
105.4835308
40
0.3407431
50
267.9747348
51
304.6141501
0
ARC
8
DEFAULT_255_2_778
10
16.8661516
20
105.3973067
40
0.2375665
50
305.166569
51
352.3059676
0
ARC
8
DEFAULT_255_2_778
10
16.775822
20
105.4183166
40
0.3300111
50
350.7906063
51
359.6837465
0
ARC
8
DEFAULT_255_2_778
10
16.9356152
20
105.4239465
40
0.170376
50
357.4933304
51
35.754963
0
ARC
8
DEFAULT_255_2_778
10
16.9423472
20
105.4096963
40
0.1739313
50
40.8670445
51
88.9145542
0
ARC
8
DEFAULT_255_2_778
10
16.9113357
20
105.2244792
40
0.360752
50
84.5431107
51
87.5464559
0
ARC
8
DEFAULT_255_2_778
10
16.8864523
20
106.1965688
40
0.3741259
50
268.9933192
51
299.9063201
0
ARC
8
DEFAULT_255_2_778
10
16.9296435
20
106.1037438
40
0.2722705
50
301.7671328
51
305.0688299
0
ARC
8
DEFAULT_255_2_778
10
16.9572403
20
106.0676463
40
0.2268776
50
304.6024496
51
352.3134516
0
ARC
8
DEFAULT_255_2_778
10
16.9035208
20
106.0783322
40
0.2815642
50
351.6205962
51
359.745937
0
ARC
8
DEFAULT_255_2_778
10
17.0391775
20
106.0844083
40
0.1460884
50
357.1260689
51
87.9509322
0
ARC
8
DEFAULT_255_2_778
10
16.9733166
20
105.8050677
40
0.4312349
50
80.5121161
51
90.1776895
0
ARC
8
DEFAULT_255_2_778
10
18.304359
20
105.1332308
40
0.6634375
50
79.3314563
51
88.7113465
0
ARC
8
DEFAULT_255_2_778
10
18.3079683
20
105.3666839
40
0.4299655
50
88.4925657
51
89.9946723
0
ARC
8
DEFAULT_255_2_778
10
18.2982438
20
105.4867608
40
0.3100425
50
88.1952228
51
143.885382
0
ARC
8
DEFAULT_255_2_778
10
18.4077805
20
105.7317129
40
0.3980768
50
117.0828142
51
147.9763761
0
ARC
8
DEFAULT_255_2_778
10
18.3544747
20
105.8150295
40
0.2997784
50
89.5977622
51
115.2613452
0
ARC
8
DEFAULT_255_2_778
10
18.3464621
20
105.6428482
40
0.4720608
50
75.0830674
51
88.7719532
0
ARC
8
DEFAULT_255_2_778
10
19.3883565
20
104.9600588
40
0.303463
50
178.9513385
51
196.6911244
0
ARC
8
DEFAULT_255_2_778
10
19.5567182
20
104.9654238
40
0.4717738
50
177.8405456
51
179.9770623
0
ARC
8
DEFAULT_255_2_778
10
18.7787325
20
105.2700947
40
0.4198561
50
270.5473861
51
316.8967404
0
ARC
8
DEFAULT_255_2_778
10
18.7827705
20
105.2804581
40
0.4302003
50
268.5226571
51
269.9964175
0
ARC
8
DEFAULT_255_2_778
10
18.7647216
20
105.2285252
40
0.3781887
50
226.455184
51
271.0541416
0
ARC
8
DEFAULT_255_2_778
10
18.7161161
20
105.1831869
40
0.311866
50
179.0506747
51
227.1894377
0
ARC
8
DEFAULT_255_2_778
10
18.7977006
20
105.1882683
40
0.3934079
50
177.4603384
51
179.9875271
0
ARC
8
DEFAULT_255_2_778
10
18.7677222
20
105.2042892
40
0.3630457
50
122.3464314
51
179.7772632
0
ARC
8
DEFAULT_255_2_778
10
18.9127921
20
104.9771577
40
0.6325515
50
98.6956815
51
122.4402135
0
ARC
8
DEFAULT_255_2_778
10
18.9977072
20
104.5221789
40
1.0952432
50
89.6404969
51
99.4883828
0
ARC
8
DEFAULT_255_2_778
10
18.91142
20
105.737456
40
0.2635833
50
349.2520325
51
359.7979352
0
ARC
8
DEFAULT_255_2_778
10
18.9485896
20
105.7366836
40
0.2264121
50
359.9602232
51
5.7075699
0
ARC
8
DEFAULT_255_2_778
10
19.0517084
20
105.7508244
40
0.1224577
50
3.9221136
51
47.9806675
0
ARC
8
DEFAULT_255_2_778
10
19.0461009
20
105.7334028
40
0.1393558
50
51.0640414
51
91.6537281
0
ARC
8
DEFAULT_255_2_778
10
19.0343864
20
105.5992856
40
0.2735232
50
88.3883484
51
89.9950272
0
ARC
8
DEFAULT_255_2_778
10
19.0289472
20
105.6771996
40
0.1956856
50
88.4002709
51
125.6558116
0
ARC
8
DEFAULT_255_2_778
10
19.0229477
20
105.6954867
40
0.1774238
50
127.5242925
51
170.6536699
0
ARC
8
DEFAULT_255_2_778
10
18.8789596
20
105.7092573
40
0.3527561
50
122.7014157
51
177.7346919
0
ARC
8
DEFAULT_255_2_778
10
19.030198
20
105.5042043
40
0.6072396
50
91.7146868
51
124.2570002
0
ARC
8
DEFAULT_255_2_778
10
19.05893
20
105.2473064
40
0.865138
50
89.9735854
51
93.1077226
0
ARC
8
DEFAULT_255_2_778
10
19.0592938
20
105.190756
40
0.9216883
50
89.4414218
51
89.9978259
0
ARC
8
DEFAULT_255_2_778
10
19.0704714
20
105.5922068
40
0.5201984
50
63.6868659
51
90.2414521
0
ARC
8
DEFAULT_255_2_778
10
19.1244671
20
105.7201249
40
0.3816898
50
44.805062
51
62.4405121
0
ARC
8
DEFAULT_255_2_778
10
19.1511934
20
105.7443957
40
0.3456276
50
358.4368244
51
45.0725574
0
ARC
8
DEFAULT_255_2_778
10
18.9988451
20
105.7357092
40
0.4978477
50
354.0151208
51
359.9146153
0
ARC
8
DEFAULT_255_2_778
10
19.916384
20
105.0134006
40
0.5223437
50
178.2666392
51
179.9853875
0
ARC
8
DEFAULT_255_2_778
10
19.7189724
20
105.0055635
40
0.3250299
50
178.5948625
51
200.018038
0
ARC
8
DEFAULT_255_2_778
10
18.8607749
20
105.3944835
40
0.2979407
50
268.1351457
51
269.9967975
0
ARC
8
DEFAULT_255_2_778
10
18.8555143
20
105.3919809
40
0.2954847
50
271.0168715
51
323.4470831
0
ARC
8
DEFAULT_255_2_778
10
19.0185177
20
105.0324003
40
0.3950093
50
89.6139406
51
115.9632081
0
ARC
8
DEFAULT_255_2_778
10
18.9568146
20
105.1735476
40
0.2411766
50
117.4642621
51
142.4598629
0
ARC
8
DEFAULT_255_2_778
10
18.9147894
20
105.2104762
40
0.1853888
50
143.595728
51
174.110017
0
ARC
8
DEFAULT_255_2_778
10
18.8922711
20
105.2049244
40
0.1637466
50
171.368069
51
179.7835889
0
ARC
8
DEFAULT_255_2_778
10
18.8267207
20
105.2018088
40
0.098266
50
177.8221965
51
224.0379617
0
ARC
8
DEFAULT_255_2_778
10
18.8464576
20
105.2268517
40
0.1299333
50
225.9269812
51
272.0384171
0
ARC
8
DEFAULT_255_2_778
10
20.216987
20
105.7619976
40
0.3515032
50
37.8132465
51
89.9360651
0
ARC
8
DEFAULT_255_2_778
10
20.0346749
20
105.2717418
40
0.4267183
50
285.291584
51
321.0175046
0
ARC
8
DEFAULT_255_2_778
10
20.0570669
20
105.2255225
40
0.3763475
50
269.8450062
51
283.8588709
0
ARC
8
DEFAULT_255_2_778
10
20.0560587
20
105.2582286
40
0.4090522
50
268.5880369
51
269.9986183
0
ARC
8
DEFAULT_255_2_778
10
20.0420305
20
105.2050487
40
0.3557701
50
236.3475668
51
270.6359501
0
ARC
8
DEFAULT_255_2_778
10
20.0598141
20
105.2165321
40
0.3752788
50
201.8435891
51
235.058908
0
ARC
8
DEFAULT_255_2_778
10
20.3322211
20
105.3355871
40
0.6724873
50
181.1917384
51
202.6233367
0
ARC
8
DEFAULT_255_2_778
10
20.6351677
20
105.3686339
40
0.9764219
50
180.0156472
51
182.7609519
0
ARC
8
DEFAULT_255_2_778
10
20.5470549
20
105.3692658
40
0.8883095
50
174.2087211
51
180.0579587
0
ARC
8
DEFAULT_255_2_778
10
20.6346038
20
105.3821468
40
0.9727968
50
152.6606942
51
172.4775279
0
ARC
8
DEFAULT_255_2_778
10
20.4685375
20
105.4566269
40
0.7911386
50
151.1967159
51
151.9287309
0
ARC
8
DEFAULT_255_2_778
10
20.2724416
20
105.5806657
40
0.559722
50
125.8155177
51
152.6517649
0
ARC
8
DEFAULT_255_2_778
10
20.1926864
20
105.6751789
40
0.4365104
50
121.2895022
51
124.5859333
0
ARC
8
DEFAULT_255_2_778
10
20.2005174
20
105.6608255
40
0.4528439
50
89.3885498
51
121.1930117
0
ARC
8
DEFAULT_255_2_778
10
20.205315
20
105.5790492
40
0.5345942
50
88.6747242
51
89.9962477
0
ARC
8
DEFAULT_255_2_778
10
21.0229427
20
105.3416181
40
1.044966
50
173.5557888
51
179.5636493
0
ARC
8
DEFAULT_255_2_778
10
20.5582157
20
105.348589
40
0.5802095
50
179.9025124
51
183.3187157
0
ARC
8
DEFAULT_255_2_778
10
20.270534
20
105.319649
40
0.2915917
50
180.9134286
51
207.6247443
0
ARC
8
DEFAULT_255_2_778
10
20.135005
20
105.2552881
40
0.1417894
50
209.9763709
51
272.172214
0
ARC
8
DEFAULT_255_2_778
10
20.1512082
20
105.3790383
40
0.2656585
50
267.6638236
51
269.9934853
0
ARC
8
DEFAULT_255_2_778
10
20.1452669
20
105.3828962
40
0.2695812
50
271.2564257
51
323.4819236
0
ARC
8
DEFAULT_255_2_778
10
20.0042443
20
105.5217425
40
0.4663623
50
320.0808185
51
322.7722781
0
ARC
8
DEFAULT_255_2_778
10
20.2905955
20
105.6680938
40
0.1811681
50
17.7085133
51
91.4917236
0
ARC
8
DEFAULT_255_2_778
10
20.2776466
20
105.5673302
40
0.2819906
50
88.3270304
51
89.9962875
0
ARC
8
DEFAULT_255_2_778
10
20.2751839
20
105.6154886
40
0.2338453
50
89.3920923
51
141.8934507
0
ARC
8
DEFAULT_255_2_778
10
20.4150372
20
105.5058724
40
0.411538
50
141.9009784
51
164.0634131
0
ARC
8
DEFAULT_255_2_778
10
20.9401614
20
105.3381385
40
0.9626867
50
163.0454941
51
172.7936709
0
LINE
8
DEFAULT_255_2_778
10
14.1790793
20
106.0902006
11
14.4788793
21
106.0913006
0
LINE
8
DEFAULT_255_2_778
10
14.4788793
20
106.0913006
11
14.4515793
21
105.9473006
0
LINE
8
DEFAULT_255_2_778
10
15.1262793
20
105.6470006
11
14.9968793
21
104.8731006
0
LINE
8
DEFAULT_255_2_778
10
14.9968793
20
104.8731006
11
14.6764793
21
104.8731006
0
LINE
8
DEFAULT_255_2_778
10
14.6764793
20
104.8731006
11
14.8082793
21
105.6502006
0
LINE
8
DEFAULT_255_2_778
10
14.4391793
20
105.7322006
11
14.2856793
21
104.8729006
0
LINE
8
DEFAULT_255_2_778
10
14.2856793
20
104.8729006
11
13.9652793
21
104.8729006
0
LINE
8
DEFAULT_255_2_778
10
13.9652793
20
104.8729006
11
14.1787793
21
106.0900006
0
LINE
8
DEFAULT_255_2_778
10
14.1787793
20
106.0900006
11
14.1790793
21
106.0902006
0
LINE
8
DEFAULT_255_2_778
10
16.0157793
20
105.7053006
11
15.9692793
21
105.4433006
0
LINE
8
DEFAULT_255_2_778
10
15.9692793
20
105.4433006
11
15.3466793
21
105.4433006
0
LINE
8
DEFAULT_255_2_778
10
15.3466793
20
105.4433006
11
15.3921793
21
105.7053006
0
LINE
8
DEFAULT_255_2_778
10
15.3921793
20
105.7053006
11
16.0157793
21
105.7053006
0
LINE
8
DEFAULT_255_2_778
10
16.0157793
20
105.7053006
11
16.0157793
21
105.7053006
0
LINE
8
DEFAULT_255_2_778
10
16.7894793
20
104.8731006
11
16.1544793
21
104.8731006
0
LINE
8
DEFAULT_255_2_778
10
16.1544793
20
104.8731006
11
16.4417793
21
106.5106006
0
LINE
8
DEFAULT_255_2_778
10
16.4417793
20
106.5106006
11
16.9574793
21
106.5096006
0
LINE
8
DEFAULT_255_2_778
10
16.7894793
20
104.8731006
11
16.7894793
21
104.8731006
0
LINE
8
DEFAULT_255_2_778
10
16.9267793
20
105.5851006
11
16.6131793
21
105.5862006
0
LINE
8
DEFAULT_255_2_778
10
16.6131793
20
105.5862006
11
16.5348793
21
105.1441006
0
LINE
8
DEFAULT_255_2_778
10
16.5348793
20
105.1441006
11
16.7973793
21
105.1430006
0
LINE
8
DEFAULT_255_2_778
10
16.9267793
20
105.5849006
11
16.9267793
21
105.5851006
0
LINE
8
DEFAULT_255_2_778
10
16.7267793
20
106.2376006
11
16.6539793
21
105.8248006
0
LINE
8
DEFAULT_255_2_778
10
16.6539793
20
105.8248006
11
16.8798793
21
105.8225006
0
LINE
8
DEFAULT_255_2_778
10
16.9719793
20
106.2363006
11
16.7267793
21
106.2373006
0
LINE
8
DEFAULT_255_2_778
10
16.7267793
20
106.2373006
11
16.7267793
21
106.2376006
0
LINE
8
DEFAULT_255_2_778
10
18.4681793
20
106.0990006
11
18.4271793
21
105.7852006
0
LINE
8
DEFAULT_255_2_778
10
18.0477793
20
105.6695006
11
17.9056793
21
104.8731006
0
LINE
8
DEFAULT_255_2_778
10
17.9056793
20
104.8731006
11
17.5852793
21
104.8731006
0
LINE
8
DEFAULT_255_2_778
10
17.5852793
20
104.8731006
11
17.7987793
21
106.0902006
0
LINE
8
DEFAULT_255_2_778
10
17.7987793
20
106.0902006
11
18.0998793
21
106.0913006
0
LINE
8
DEFAULT_255_2_778
10
18.0998793
20
106.0913006
11
18.0702793
21
105.9428006
0
LINE
8
DEFAULT_255_2_778
10
18.4679793
20
106.0990006
11
18.4681793
21
106.0990006
0
LINE
8
DEFAULT_255_2_778
10
19.4122793
20
104.8729006
11
19.0976793
21
104.8729006
0
LINE
8
DEFAULT_255_2_778
10
19.0045793
20
105.6174006
11
19.1545793
21
105.6153006
0
LINE
8
DEFAULT_255_2_778
10
19.1545793
20
105.6153006
11
19.1703793
21
105.6883006
0
LINE
8
DEFAULT_255_2_778
10
18.8478793
20
105.7243006
11
18.5264793
21
105.7232006
0
LINE
8
DEFAULT_255_2_778
10
19.4939793
20
105.6838006
11
19.3997793
21
105.1012006
0
LINE
8
DEFAULT_255_2_778
10
19.3997793
20
105.1012006
11
19.3942793
21
105.0292006
0
LINE
8
DEFAULT_255_2_778
10
19.4135793
20
104.8943006
11
19.4124793
21
104.8729006
0
LINE
8
DEFAULT_255_2_778
10
19.4124793
20
104.8729006
11
19.4122793
21
104.8729006
0
LINE
8
DEFAULT_255_2_778
10
19.0928793
20
105.2160006
11
19.1325793
21
105.4264006
0
LINE
8
DEFAULT_255_2_778
10
19.1325793
20
105.4264006
11
19.0211793
21
105.4274006
0
LINE
8
DEFAULT_255_2_778
10
18.8510793
20
105.0970006
11
18.8510793
21
105.0967006
0
LINE
8
DEFAULT_255_2_778
10
20.4946793
20
105.9775006
11
20.6150793
21
106.6006006
0
LINE
8
DEFAULT_255_2_778
10
20.6150793
20
106.6006006
11
20.9364793
21
106.6006006
0
LINE
8
DEFAULT_255_2_778
10
20.9364793
20
106.6006006
11
20.6343793
21
104.8729006
0
LINE
8
DEFAULT_255_2_778
10
20.6343793
20
104.8729006
11
20.3480793
21
104.8729006
0
LINE
8
DEFAULT_255_2_778
10
20.3480793
20
104.8729006
11
20.3663793
21
105.0033006
0
LINE
8
DEFAULT_255_2_778
10
19.6632793
20
105.4589006
11
19.6701793
21
105.5095006
0
LINE
8
DEFAULT_255_2_778
10
20.2176793
20
106.1135006
11
20.2173793
21
106.1135006
0
LINE
8
DEFAULT_255_2_778
10
20.3755793
20
105.2396006
11
20.4631793
21
105.7232006
0
LINE
8
DEFAULT_255_2_778
10
19.9850793
20
105.4589006
11
19.9845793
21
105.4589006
0
LINE
8
DEFAULT_255_2_778
10
21.5304594
20
106.6006646
11
21.2282594
21
104.8729646
0
LINE
8
DEFAULT_255_2_778
10
21.2282594
20
104.8729646
11
20.9057594
21
104.8729646
0
LINE
8
DEFAULT_255_2_778
10
20.9057594
20
104.8729646
11
21.2089594
21
106.6006646
0
LINE
8
DEFAULT_255_2_778
10
21.2089594
20
106.6006646
11
21.5304594
21
106.6006646
0
LINE
8
DEFAULT_255_2_778
10
21.5304594
20
106.6006646
11
21.5304594
21
106.6006646
0
ARC
8
DEFAULT_255_2_778
10
22.0768767
20
105.3887764
40
0.5383522
50
238.763891
51
270.7055166
0
ARC
8
DEFAULT_255_2_778
10
22.0455625
20
105.333452
40
0.4748131
50
204.061185
51
238.5328679
0
ARC
8
DEFAULT_255_2_778
10
22.1281681
20
105.3730331
40
0.5663841
50
179.4896096
51
204.3103027
0
ARC
8
DEFAULT_255_2_778
10
22.2521843
20
105.3775727
40
0.6903781
50
175.123126
51
179.9580366
0
ARC
8
DEFAULT_255_2_778
10
22.3438479
20
105.4125152
40
0.7790728
50
149.5392097
51
174.9446897
0
ARC
8
DEFAULT_255_2_778
10
22.217984
20
105.4960212
40
0.628301
50
120.7003982
51
150.2846053
0
ARC
8
DEFAULT_255_2_778
10
22.1784851
20
105.5557024
40
0.556829
50
89.4236852
51
120.3409826
0
ARC
8
DEFAULT_255_2_778
10
22.1840352
20
105.4569671
40
0.6555361
50
88.4553682
51
89.9955718
0
ARC
8
DEFAULT_255_2_778
10
22.2069363
20
105.6411369
40
0.4711572
50
58.4514404
51
90.636095
0
ARC
8
DEFAULT_255_2_778
10
22.2332403
20
105.7045423
40
0.403504
50
35.6058989
51
56.9235594
0
ARC
8
DEFAULT_255_2_778
10
22.1229882
20
105.6307058
40
0.5361477
50
0.6851965
51
35.1616077
0
ARC
8
DEFAULT_255_2_778
10
21.9204313
20
105.6103229
40
0.7391521
50
359.9888194
51
2.0774415
0
ARC
8
DEFAULT_255_2_778
10
21.8068025
20
105.6120249
40
0.852783
50
353.383538
51
359.8759623
0
ARC
8
DEFAULT_255_2_778
10
22.293021
20
105.3596119
40
0.4107176
50
177.8018731
51
179.9839782
0
ARC
8
DEFAULT_255_2_778
10
22.1344217
20
105.348124
40
0.2523852
50
177.3650374
51
219.8309448
0
ARC
8
DEFAULT_255_2_778
10
22.1050068
20
105.3348401
40
0.2214564
50
222.0668323
51
271.55222
0
ARC
8
DEFAULT_255_2_778
10
22.1220002
20
105.5396289
40
0.4263057
50
268.5221572
51
269.9980687
0
ARC
8
DEFAULT_255_2_778
10
22.1204001
20
105.5100217
40
0.3967017
50
270.2290309
51
318.5203973
0
ARC
8
DEFAULT_255_2_778
10
22.1898056
20
105.3267979
40
0.4555006
50
292.4982989
51
325.2807674
0
ARC
8
DEFAULT_255_2_778
10
22.0999907
20
105.5053545
40
0.6549996
50
269.6158853
51
293.7802026
0
ARC
8
DEFAULT_255_2_778
10
22.0956026
20
105.592233
40
0.7418635
50
269.0811303
51
269.9997673
0
ARC
8
DEFAULT_255_2_778
10
22.1793249
20
105.5851977
40
0.2651417
50
88.6426435
51
89.9971979
0
ARC
8
DEFAULT_255_2_778
10
22.1775009
20
105.6204788
40
0.2298681
50
89.5421073
51
130.5025885
0
ARC
8
DEFAULT_255_2_778
10
22.2762398
20
105.5203327
40
0.370282
50
132.0556576
51
154.4346079
0
ARC
8
DEFAULT_255_2_778
10
22.6775288
20
105.3027869
40
0.8264843
50
152.8348001
51
159.2008974
0
ARC
8
DEFAULT_255_2_778
10
22.042515
20
105.6737268
40
0.3137404
50
351.1327381
51
359.8552777
0
ARC
8
DEFAULT_255_2_778
10
22.0889744
20
105.6733274
40
0.2672803
50
359.9157472
51
8.073482
0
ARC
8
DEFAULT_255_2_778
10
22.1916726
20
105.6886276
40
0.1634528
50
7.8192239
51
49.4174523
0
ARC
8
DEFAULT_255_2_778
10
22.1897336
20
105.6754377
40
0.174876
50
51.746929
51
91.3525911
0
LINE
8
DEFAULT_255_2_778
10
21.5643056
20
105.436265
11
21.5678056
21
105.481165
0
LINE
8
DEFAULT_255_2_778
10
22.6539056
20
105.513765
11
22.6356056
21
105.375365
0
LINE
8
DEFAULT_255_2_778
10
22.6356056
20
105.375365
11
21.8826056
21
105.375365
0
LINE
8
DEFAULT_255_2_778
10
22.4176056
20
105.247265
11
22.5642056
21
105.067365
0
LINE
8
DEFAULT_255_2_778
10
22.0837056
20
104.850465
11
22.0835056
21
104.850465
0
LINE
8
DEFAULT_255_2_778
10
21.9049056
20
105.596265
11
22.3456056
21
105.596265
0
LINE
8
DEFAULT_255_2_778
10
22.3456056
20
105.596265
11
22.3525056
21
105.625365
0
LINE
8
DEFAULT_255_2_778
10
22.1856056
20
105.850265
11
22.1856056
21
105.850265
0
ARC
8
DEFAULT_255_2_778
10
22.5732251
20
104.9893848
40
0.7187609
50
318.1171527
51
335.3457065
0
ARC
8
DEFAULT_255_2_778
10
22.7861338
20
104.8072586
40
0.4387075
50
306.2044829
51
317.2623563
0
ARC
8
DEFAULT_255_2_778
10
22.8118587
20
104.7765063
40
0.3987066
50
269.0092455
51
305.8318035
0
ARC
8
DEFAULT_255_2_778
10
22.8209703
20
104.9411254
40
0.5634934
50
257.9736769
51
268.3723286
0
ARC
8
DEFAULT_255_2_778
10
22.976467
20
105.7953273
40
1.431581
50
256.8370098
51
259.0102636
0
ARC
8
DEFAULT_255_2_778
10
22.7299218
20
105.043381
40
0.396887
50
268.3457775
51
269.9906226
0
ARC
8
DEFAULT_255_2_778
10
22.744688
20
104.8839479
40
0.2379166
50
266.425992
51
328.6474802
0
LINE
8
DEFAULT_255_2_778
10
23.1491646
20
106.0899594
11
23.2378646
21
105.3364594
0
LINE
8
DEFAULT_255_2_778
10
23.2378646
20
105.3364594
11
23.5889646
21
106.0899594
0
LINE
8
DEFAULT_255_2_778
10
23.5889646
20
106.0899594
11
23.9453646
21
106.0899594
0
LINE
8
DEFAULT_255_2_778
10
23.9453646
20
106.0899594
11
23.2264646
21
104.6895594
0
LINE
8
DEFAULT_255_2_778
10
22.6504646
20
104.4013594
11
22.6742646
21
104.6487594
0
LINE
8
DEFAULT_255_2_778
10
22.6742646
20
104.6487594
11
22.7184646
21
104.6466594
0
LINE
8
DEFAULT_255_2_778
10
22.9478646
20
104.7601594
11
23.0182646
21
104.8895594
0
LINE
8
DEFAULT_255_2_778
10
23.0182646
20
104.8895594
11
22.8171646
21
106.0896594
0
LINE
8
DEFAULT_255_2_778
10
22.8171646
20
106.0896594
11
23.1489646
21
106.0896594
0
LINE
8
DEFAULT_255_2_778
10
23.1489646
20
106.0896594
11
23.1491646
21
106.0899594
0
LINE
8
DEFAULT_255_2_778
10
5.4244542
20
106.4894666
11
5.4244542
21
105.3041666
0
LINE
8
DEFAULT_255_2_778
10
5.4244542
20
105.3041666
11
8.3507542
21
105.2671666
0
LINE
8
DEFAULT_255_2_778
10
8.3507542
20
105.2671666
11
8.3507542
21
106.4894666
0
LINE
8
DEFAULT_255_2_778
10
8.3507542
20
106.4894666
11
7.4246542
21
107.3414666
0
LINE
8
DEFAULT_255_2_778
10
7.4246542
20
107.3414666
11
6.2764542
21
107.3414666
0
LINE
8
DEFAULT_255_2_778
10
6.2764542
20
107.3414666
11
5.4244542
21
106.4894666
0
LINE
8
DEFAULT_255_2_778
10
5.5726542
20
105.0819666
11
8.2025542
21
105.0819666
0
LINE
8
DEFAULT_255_2_778
10
8.2025542
20
105.0819666
11
7.4617542
21
104.3781666
0
LINE
8
DEFAULT_255_2_778
10
7.4617542
20
104.3781666
11
6.3504542
21
104.3781666
0
LINE
8
DEFAULT_255_2_778
10
6.3504542
20
104.3781666
11
5.5726542
21
105.0819666
0
ARC
8
DEFAULT_255_2_778
10
7.8458226
20
105.6310768
40
0.1423419
50
264.5115721
51
318.4176283
0
ARC
8
DEFAULT_255_2_778
10
7.8189879
20
105.6281225
40
0.1616977
50
325.5297452
51
3.3557414
0
ARC
8
DEFAULT_255_2_778
10
7.8389795
20
105.9846157
40
0.142084
50
354.4959081
51
48.5537602
0
ARC
8
DEFAULT_255_2_778
10
7.8416444
20
105.9574068
40
0.1619557
50
55.6500697
51
93.3401169
0
ARC
8
DEFAULT_255_2_778
10
7.8414709
20
106.183925
40
0.0654958
50
261.8698976
51
8.1301024
0
ARC
8
DEFAULT_255_2_778
10
7.7988672
20
106.5666455
40
0.1074847
50
358.3696885
51
95.9524071
0
ARC
8
DEFAULT_255_2_778
10
7.7588839
20
106.3382916
40
0.3364968
50
85.0838783
51
90.1320543
0
LINE
8
DEFAULT_255_2_778
10
5.6838084
20
105.4893875
11
6.1283084
21
106.7117875
0
LINE
8
DEFAULT_255_2_778
10
6.1283084
20
106.7117875
11
6.3876084
21
106.7117875
0
LINE
8
DEFAULT_255_2_778
10
6.3876084
20
106.7117875
11
6.8691084
21
105.5264875
0
LINE
8
DEFAULT_255_2_778
10
6.8691084
20
105.5264875
11
6.5358084
21
105.5264875
0
LINE
8
DEFAULT_255_2_778
10
6.5358084
20
105.5264875
11
6.4246084
21
105.7857875
0
LINE
8
DEFAULT_255_2_778
10
6.4246084
20
105.7857875
11
6.0913084
21
105.7857875
0
LINE
8
DEFAULT_255_2_778
10
6.0913084
20
105.7857875
11
6.0913084
21
105.9338875
0
LINE
8
DEFAULT_255_2_778
10
6.0913084
20
105.9338875
11
6.3876084
21
105.9338875
0
LINE
8
DEFAULT_255_2_778
10
6.3876084
20
105.9338875
11
6.2024084
21
106.3783875
0
LINE
8
DEFAULT_255_2_778
10
6.2024084
20
106.3783875
11
5.8690084
21
105.4893875
0
LINE
8
DEFAULT_255_2_778
10
5.8690084
20
105.4893875
11
5.6838084
21
105.4893875
0
LINE
8
DEFAULT_255_2_778
10
5.6838084
20
105.4893875
11
5.6838084
21
105.4893875
0
LINE
8
DEFAULT_255_2_778
10
6.7580084
20
106.1561875
11
6.9062084
21
106.1561875
0
LINE
8
DEFAULT_255_2_778
10
6.9062084
20
106.1561875
11
6.9062084
21
106.0079875
0
LINE
8
DEFAULT_255_2_778
10
6.9062084
20
106.0079875
11
6.7580084
21
106.0079875
0
LINE
8
DEFAULT_255_2_778
10
6.7580084
20
106.0079875
11
6.7580084
21
106.1561875
0
LINE
8
DEFAULT_255_2_778
10
7.2766084
20
106.4895875
11
7.6100084
21
106.4895875
0
LINE
8
DEFAULT_255_2_778
10
7.6100084
20
106.4895875
11
7.6100084
21
106.1190875
0
LINE
8
DEFAULT_255_2_778
10
7.6100084
20
106.1190875
11
7.3507084
21
106.1190875
0
LINE
8
DEFAULT_255_2_778
10
7.3507084
20
106.1190875
11
7.3507084
21
105.9709875
0
LINE
8
DEFAULT_255_2_778
10
7.3507084
20
105.9709875
11
7.6840084
21
105.9709875
0
LINE
8
DEFAULT_255_2_778
10
7.6840084
20
105.9709875
11
7.6840084
21
105.6375875
0
LINE
8
DEFAULT_255_2_778
10
7.6840084
20
105.6375875
11
7.2766084
21
105.6375875
0
LINE
8
DEFAULT_255_2_778
10
7.2766084
20
105.6375875
11
7.2766084
21
106.4895875
0
LINE
8
DEFAULT_255_2_778
10
7.2766084
20
106.4895875
11
7.2766084
21
106.4895875
0
LINE
8
DEFAULT_255_2_778
10
6.9803084
20
106.6747875
11
6.9803084
21
105.4893875
0
LINE
8
DEFAULT_255_2_778
10
6.9803084
20
105.4893875
11
7.8322084
21
105.4893875
0
LINE
8
DEFAULT_255_2_778
10
7.9804084
20
105.6375875
11
7.9804084
21
105.9709875
0
LINE
8
DEFAULT_255_2_778
10
7.9063084
20
106.1931875
11
7.9063084
21
106.5635875
0
LINE
8
DEFAULT_255_2_778
10
7.7581084
20
106.6747875
11
6.9803084
21
106.6747875
0
LINE
8
DEFAULT_255_2_778
10
6.9803084
20
106.6747875
11
6.9803084
21
106.6747875
0
LINE
8
DEFAULT_255_2_778
10
6.3394427
20
104.6990198
11
6.3367427
21
104.6990198
0
ARC
8
DEFAULT_255_2_778
10
6.3340483
20
104.8240854
40
0.1250946
50
247.1356448
51
271.2341787
0
ARC
8
DEFAULT_255_2_778
10
6.3160916
20
104.7817164
40
0.0790776
50
215.0349981
51
247.1960091
0
ARC
8
DEFAULT_255_2_778
10
6.3109464
20
104.7763964
40
0.0718243
50
178.625123
51
213.9163394
0
ARC
8
DEFAULT_255_2_778
10
6.3131693
20
104.8934391
40
0.0740421
50
147.0420611
51
181.175799
0
ARC
8
DEFAULT_255_2_778
10
6.3147919
20
104.8895628
40
0.0775487
50
112.4780918
51
145.2909011
0
ARC
8
DEFAULT_255_2_778
10
6.333917
20
104.8451534
40
0.1258981
50
88.7138988
51
112.7934617
0
ARC
8
DEFAULT_255_2_778
10
6.339481
20
104.8456878
40
0.1253619
50
67.159311
51
91.2516049
0
ARC
8
DEFAULT_255_2_778
10
6.3569794
20
104.8876852
40
0.0798654
50
35.1978461
51
67.0331611
0
ARC
8
DEFAULT_255_2_778
10
6.3626391
20
104.8936431
40
0.0718243
50
358.625123
51
33.9163394
0
ARC
8
DEFAULT_255_2_778
10
6.3604162
20
104.7766004
40
0.0740421
50
327.0420611
51
1.175799
0
ARC
8
DEFAULT_255_2_778
10
6.361381
20
104.7778218
40
0.0739133
50
291.6436853
51
325.8406333
0
ARC
8
DEFAULT_255_2_778
10
6.3401809
20
104.786874
40
0.0482768
50
265.9160158
51
308.3617549
0
ARC
8
DEFAULT_255_2_778
10
6.3451719
20
104.7758207
40
0.036631
50
312.9754563
51
3.2850623
0
ARC
8
DEFAULT_255_2_778
10
6.3448152
20
104.893502
40
0.0369754
50
357.082104
51
47.4006092
0
ARC
8
DEFAULT_255_2_778
10
6.339634
20
104.8833686
40
0.0480383
50
51.0349629
51
93.4505724
0
ARC
8
DEFAULT_255_2_778
10
6.3340455
20
104.883049
40
0.0483461
50
86.8017862
51
128.8135095
0
ARC
8
DEFAULT_255_2_778
10
6.3287702
20
104.893502
40
0.0369754
50
132.5993908
51
182.917896
0
ARC
8
DEFAULT_255_2_778
10
6.3284135
20
104.7758207
40
0.036631
50
176.7149377
51
227.0245437
0
ARC
8
DEFAULT_255_2_778
10
6.3334908
20
104.787186
40
0.0485752
50
231.7867693
51
273.8385805
0
ARC
8
DEFAULT_255_2_778
10
6.5570034
20
104.7755567
40
0.0766655
50
226.2029837
51
273.3195937
0
ARC
8
DEFAULT_255_2_778
10
6.5622798
20
104.7735746
40
0.0790566
50
176.8492311
51
222.4458356
0
ARC
8
DEFAULT_255_2_778
10
6.5699928
20
104.7754647
40
0.043631
50
176.5112098
51
217.639275
0
ARC
8
DEFAULT_255_2_778
10
6.5593879
20
104.7703664
40
0.0322122
50
221.9818643
51
273.6574471
0
ARC
8
DEFAULT_255_2_778
10
6.5632217
20
104.7708151
40
0.0326438
50
266.8760675
51
317.6392064
0
ARC
8
DEFAULT_255_2_778
10
6.5527926
20
104.7754647
40
0.043631
50
322.360725
51
3.4887902
0
ARC
8
DEFAULT_255_2_778
10
6.5605056
20
104.7735746
40
0.0790566
50
317.5541644
51
3.1507689
0
ARC
8
DEFAULT_255_2_778
10
6.5656687
20
104.7758223
40
0.0769357
50
266.6274163
51
313.7210327
0
LINE
8
DEFAULT_255_2_778
10
6.4394427
20
104.6374198
11
6.3828427
21
104.6374198
0
LINE
8
DEFAULT_255_2_778
10
6.3828427
20
104.6374198
11
6.3394427
21
104.6990198
0
LINE
8
DEFAULT_255_2_778
10
6.2391427
20
104.7781198
11
6.2391427
21
104.8919198
0
LINE
8
DEFAULT_255_2_778
10
6.4344427
20
104.8919198
11
6.4344427
21
104.7781198
0
LINE
8
DEFAULT_255_2_778
10
6.3886427
20
104.7091198
11
6.4394427
21
104.6376198
0
LINE
8
DEFAULT_255_2_778
10
6.4394427
20
104.6376198
11
6.4394427
21
104.6374198
0
LINE
8
DEFAULT_255_2_778
10
6.3817427
20
104.7779198
11
6.3817427
21
104.8916198
0
LINE
8
DEFAULT_255_2_778
10
6.2918427
20
104.8916198
11
6.2918427
21
104.7779198
0
LINE
8
DEFAULT_255_2_778
10
6.3367427
20
104.7387198
11
6.3367427
21
104.7387198
0
LINE
8
DEFAULT_255_2_778
10
6.4833427
20
104.7779198
11
6.4833427
21
104.9670198
0
LINE
8
DEFAULT_255_2_778
10
6.4833427
20
104.9670198
11
6.5264427
21
104.9670198
0
LINE
8
DEFAULT_255_2_778
10
6.5264427
20
104.9670198
11
6.5264427
21
104.7781198
0
LINE
8
DEFAULT_255_2_778
10
6.5963427
20
104.7781198
11
6.5963427
21
104.9670198
0
LINE
8
DEFAULT_255_2_778
10
6.5963427
20
104.9670198
11
6.6394427
21
104.9670198
0
LINE
8
DEFAULT_255_2_778
10
6.6394427
20
104.9670198
11
6.6394427
21
104.7779198
0
LINE
8
DEFAULT_255_2_778
10
6.5611427
20
104.6990198
11
6.5614427
21
104.6990198
0
ARC
8
DEFAULT_255_2_778
10
12.1641553
20
106.0021635
40
5.5033955
50
191.4837585
51
191.8239227
0
ARC
8
DEFAULT_255_2_778
10
8.3589245
20
105.1983972
40
1.6145995
50
189.6626565
51
190.4158531
0
ARC
8
DEFAULT_255_2_778
10
6.1197449
20
105.0312409
40
0.6557616
50
349.0334606
51
350.8880298
0
ARC
8
DEFAULT_255_2_778
10
6.0674183
20
105.0348866
40
0.7078549
50
346.9283592
51
349.5494987
0
ARC
8
DEFAULT_255_2_778
10
7.2958769
20
104.8040243
40
0.1856762
50
15.5793022
51
22.5708948
0
ARC
8
DEFAULT_255_2_778
10
7.3328007
20
104.8088058
40
0.1489195
50
11.1061152
51
17.6230497
0
ARC
8
DEFAULT_255_2_778
10
8.063214
20
104.6930593
40
0.6018696
50
164.5010167
51
166.1150622
0
ARC
8
DEFAULT_255_2_778
10
7.6620856
20
104.8040243
40
0.1856762
50
157.4291052
51
164.4206978
0
LINE
8
DEFAULT_255_2_778
10
6.7201313
20
104.7024917
11
6.6762313
21
104.7024917
0
LINE
8
DEFAULT_255_2_778
10
6.6762313
20
104.7024917
11
6.7392313
21
104.9670917
0
LINE
8
DEFAULT_255_2_778
10
6.7392313
20
104.9670917
11
6.7942313
21
104.9670917
0
LINE
8
DEFAULT_255_2_778
10
6.7942313
20
104.9670917
11
6.8577313
21
104.7024917
0
LINE
8
DEFAULT_255_2_778
10
6.8577313
20
104.7024917
11
6.8138313
21
104.7024917
0
LINE
8
DEFAULT_255_2_778
10
6.8138313
20
104.7024917
11
6.8000313
21
104.7664917
0
LINE
8
DEFAULT_255_2_778
10
6.8000313
20
104.7664917
11
6.7336313
21
104.7664917
0
LINE
8
DEFAULT_255_2_778
10
6.7336313
20
104.7664917
11
6.7199313
21
104.7024917
0
LINE
8
DEFAULT_255_2_778
10
6.7199313
20
104.7024917
11
6.7201313
21
104.7024917
0
LINE
8
DEFAULT_255_2_778
10
6.7569313
20
104.8749917
11
6.7418313
21
104.8035917
0
LINE
8
DEFAULT_255_2_778
10
6.7418313
20
104.8035917
11
6.7926313
21
104.8035917
0
LINE
8
DEFAULT_255_2_778
10
6.7926313
20
104.8035917
11
6.7775313
21
104.8744917
0
LINE
8
DEFAULT_255_2_778
10
6.7569313
20
104.8747917
11
6.7569313
21
104.8749917
0
LINE
8
DEFAULT_255_2_778
10
7.0231313
20
104.7024917
11
6.8741313
21
104.7024917
0
LINE
8
DEFAULT_255_2_778
10
6.8741313
20
104.7024917
11
6.8741313
21
104.9670917
0
LINE
8
DEFAULT_255_2_778
10
6.8741313
20
104.9670917
11
6.9170313
21
104.9670917
0
LINE
8
DEFAULT_255_2_778
10
6.9170313
20
104.9670917
11
6.9170313
21
104.7434917
0
LINE
8
DEFAULT_255_2_778
10
6.9170313
20
104.7434917
11
7.0231313
21
104.7434917
0
LINE
8
DEFAULT_255_2_778
10
7.0231313
20
104.7434917
11
7.0231313
21
104.7024917
0
LINE
8
DEFAULT_255_2_778
10
7.0231313
20
104.7024917
11
7.0231313
21
104.7024917
0
LINE
8
DEFAULT_255_2_778
10
7.1760313
20
104.7024917
11
7.0321313
21
104.7024917
0
LINE
8
DEFAULT_255_2_778
10
7.0321313
20
104.7024917
11
7.0321313
21
104.7434917
0
LINE
8
DEFAULT_255_2_778
10
7.0321313
20
104.7434917
11
7.0823313
21
104.7434917
0
LINE
8
DEFAULT_255_2_778
10
7.0823313
20
104.7434917
11
7.0823313
21
104.9260917
0
LINE
8
DEFAULT_255_2_778
10
7.0823313
20
104.9260917
11
7.0321313
21
104.9260917
0
LINE
8
DEFAULT_255_2_778
10
7.0321313
20
104.9260917
11
7.0321313
21
104.9670917
0
LINE
8
DEFAULT_255_2_778
10
7.0321313
20
104.9670917
11
7.1760313
21
104.9670917
0
LINE
8
DEFAULT_255_2_778
10
7.1760313
20
104.9670917
11
7.1760313
21
104.9260917
0
LINE
8
DEFAULT_255_2_778
10
7.1760313
20
104.9260917
11
7.1257313
21
104.9260917
0
LINE
8
DEFAULT_255_2_778
10
7.1257313
20
104.9260917
11
7.1257313
21
104.7434917
0
LINE
8
DEFAULT_255_2_778
10
7.1257313
20
104.7434917
11
7.1760313
21
104.7434917
0
LINE
8
DEFAULT_255_2_778
10
7.1760313
20
104.7434917
11
7.1760313
21
104.7024917
0
LINE
8
DEFAULT_255_2_778
10
7.1760313
20
104.7024917
11
7.1760313
21
104.7024917
0
LINE
8
DEFAULT_255_2_778
10
7.2940313
20
104.7024917
11
7.2509313
21
104.7024917
0
LINE
8
DEFAULT_255_2_778
10
7.2509313
20
104.7024917
11
7.2509313
21
104.9260917
0
LINE
8
DEFAULT_255_2_778
10
7.2509313
20
104.9260917
11
7.1855313
21
104.9260917
0
LINE
8
DEFAULT_255_2_778
10
7.1855313
20
104.9260917
11
7.1855313
21
104.9670917
0
LINE
8
DEFAULT_255_2_778
10
7.1855313
20
104.9670917
11
7.3596313
21
104.9670917
0
LINE
8
DEFAULT_255_2_778
10
7.3596313
20
104.9670917
11
7.3596313
21
104.9260917
0
LINE
8
DEFAULT_255_2_778
10
7.3596313
20
104.9260917
11
7.2943313
21
104.9260917
0
LINE
8
DEFAULT_255_2_778
10
7.2943313
20
104.9260917
11
7.2943313
21
104.7024917
0
LINE
8
DEFAULT_255_2_778
10
7.2943313
20
104.7024917
11
7.2940313
21
104.7024917
0
LINE
8
DEFAULT_255_2_778
10
7.4996313
20
104.7024917
11
7.4565313
21
104.7024917
0
LINE
8
DEFAULT_255_2_778
10
7.4565313
20
104.7024917
11
7.4565313
21
104.7985917
0
LINE
8
DEFAULT_255_2_778
10
7.4565313
20
104.7985917
11
7.3832313
21
104.9670917
0
LINE
8
DEFAULT_255_2_778
10
7.3832313
20
104.9670917
11
7.4281313
21
104.9670917
0
LINE
8
DEFAULT_255_2_778
10
7.4281313
20
104.9670917
11
7.4673313
21
104.8752917
0
LINE
8
DEFAULT_255_2_778
10
7.4906313
20
104.8752917
11
7.5287313
21
104.9670917
0
LINE
8
DEFAULT_255_2_778
10
7.5287313
20
104.9670917
11
7.5731313
21
104.9670917
0
LINE
8
DEFAULT_255_2_778
10
7.5731313
20
104.9670917
11
7.4998313
21
104.7985917
0
LINE
8
DEFAULT_255_2_778
10
7.4998313
20
104.7985917
11
7.4998313
21
104.7024917
0
LINE
8
DEFAULT_255_2_778
10
7.4998313
20
104.7024917
11
7.4996313
21
104.7024917
0
LINE
8
DEFAULT_255_1_388
10
10.4043024
20
103.2018898
11
10.6283864
21
103.2018898
0
LINE
8
DEFAULT_255_1_388
10
10.6283864
20
103.2018898
11
11.0584831
21
102.1284553
0
LINE
8
DEFAULT_255_1_388
10
11.0584831
20
102.1284553
11
11.4885797
21
103.2018898
0
LINE
8
DEFAULT_255_1_388
10
11.4885797
20
103.2018898
11
11.7135673
21
103.2018898
0
LINE
8
DEFAULT_255_1_388
10
11.7135673
20
103.2018898
11
11.7135673
21
101.8863
0
LINE
8
DEFAULT_255_1_388
10
11.7135673
20
101.8863
11
11.5400829
21
101.8863
0
LINE
8
DEFAULT_255_1_388
10
11.5400829
20
101.8863
11
11.5400829
21
102.398621
0
LINE
8
DEFAULT_255_1_388
10
11.5400829
20
102.398621
11
11.5563471
21
102.9516025
0
LINE
8
DEFAULT_255_1_388
10
11.5563471
20
102.9516025
11
11.1244433
21
101.8863
0
LINE
8
DEFAULT_255_1_388
10
11.1244433
20
101.8863
11
10.9916193
21
101.8863
0
LINE
8
DEFAULT_255_1_388
10
10.9916193
20
101.8863
11
10.560619
21
102.9488918
0
LINE
8
DEFAULT_255_1_388
10
10.560619
20
102.9488918
11
10.5777868
21
102.398621
0
LINE
8
DEFAULT_255_1_388
10
10.5777868
20
102.398621
11
10.5777868
21
101.8863
0
LINE
8
DEFAULT_255_1_388
10
10.5777868
20
101.8863
11
10.4043024
21
101.8863
0
LINE
8
DEFAULT_255_1_388
10
10.4043024
20
101.8863
11
10.4043024
21
103.2018898
0
LINE
8
DEFAULT_255_1_388
10
12.1752887
20
102.8639567
11
12.1752887
21
101.8863
0
LINE
8
DEFAULT_255_1_388
10
12.1752887
20
101.8863
11
12.0081293
21
101.8863
0
LINE
8
DEFAULT_255_1_388
10
12.0081293
20
101.8863
11
12.0081293
21
102.8639567
0
LINE
8
DEFAULT_255_1_388
10
12.0081293
20
102.8639567
11
12.1752887
21
102.8639567
0
ARC
8
DEFAULT_255_1_388
10
12.1046655
20
103.1243428
40
0.1100948
50
161.4148232
51
180.5532607
0
ARC
8
DEFAULT_255_1_388
10
12.0906965
20
103.1281875
40
0.0956324
50
138.1830164
51
160.9307633
0
ARC
8
DEFAULT_255_1_388
10
12.0783152
20
103.1389313
40
0.0792417
50
104.6371663
51
138.0036136
0
ARC
8
DEFAULT_255_1_388
10
12.0903691
20
103.0976963
40
0.1221906
50
92.0601206
51
105.2198859
0
ARC
8
DEFAULT_255_1_388
10
12.0930055
20
103.0588583
40
0.161103
50
89.9790681
51
92.5006086
0
ARC
8
DEFAULT_255_1_388
10
12.0941231
20
103.0844998
40
0.1354654
50
78.0234649
51
90.4478111
0
ARC
8
DEFAULT_255_1_388
10
12.1044815
20
103.1310203
40
0.0878096
50
55.0521508
51
78.336297
0
ARC
8
DEFAULT_255_1_388
10
12.110135
20
103.1405168
40
0.0767913
50
42.0506198
51
54.4508489
0
ARC
8
DEFAULT_255_1_388
10
12.0949383
20
103.1265821
40
0.0974091
50
1.7493657
51
42.1498724
0
ARC
8
DEFAULT_255_1_388
10
12.0663288
20
103.1233166
40
0.1261276
50
359.9832635
51
2.8353994
0
ARC
8
DEFAULT_255_1_388
10
12.0849698
20
103.1222412
40
0.1074916
50
342.1062453
51
0.5535864
0
ARC
8
DEFAULT_255_1_388
10
12.1010122
20
103.1178197
40
0.0908695
50
316.7110111
51
341.6513114
0
ARC
8
DEFAULT_255_1_388
10
12.1085554
20
103.1110607
40
0.0807447
50
285.4398289
51
316.5320129
0
ARC
8
DEFAULT_255_1_388
10
12.0961725
20
103.1522023
40
0.1237022
50
272.3543902
51
285.8951677
0
ARC
8
DEFAULT_255_1_388
10
12.0931435
20
103.1937742
40
0.1653687
50
269.9725761
51
272.8112722
0
ARC
8
DEFAULT_255_1_388
10
12.0920487
20
103.1686727
40
0.1402709
50
258.8433431
51
270.4148607
0
ARC
8
DEFAULT_255_1_388
10
12.0819267
20
103.1196739
40
0.0902407
50
238.54281
51
259.1289544
0
ARC
8
DEFAULT_255_1_388
10
12.0742588
20
103.1057694
40
0.0743817
50
222.5056676
51
237.9918132
0
ARC
8
DEFAULT_255_1_388
10
12.0886182
20
103.1188295
40
0.0937918
50
184.1070774
51
222.4604165
0
ARC
8
DEFAULT_255_1_388
10
12.1188596
20
103.1231538
40
0.1242838
50
179.9419581
51
185.0970785
0
LINE
8
DEFAULT_255_1_388
10
13.0652997
20
102.1944155
11
13.2234235
21
102.1944155
0
LINE
8
DEFAULT_255_1_388
10
12.3993727
20
102.3660927
11
12.3993727
21
102.3941032
0
LINE
8
DEFAULT_255_1_388
10
13.2234235
20
102.5278308
11
13.0652997
21
102.5278308
0
LINE
8
DEFAULT_255_1_388
10
12.5665321
20
102.3877783
11
12.5665321
21
102.3561535
0
ARC
8
DEFAULT_255_1_388
10
12.8389554
20
102.2454109
40
0.2407783
50
269.0327343
51
309.2224588
0
ARC
8
DEFAULT_255_1_388
10
12.8625558
20
102.221219
40
0.207135
50
308.3965377
51
329.6987678
0
ARC
8
DEFAULT_255_1_388
10
12.8780616
20
102.2094899
40
0.1878439
50
330.4013397
51
355.3970937
0
ARC
8
DEFAULT_255_1_388
10
12.92946
20
102.2114312
40
0.2944555
50
329.2357424
51
356.6872018
0
ARC
8
DEFAULT_255_1_388
10
12.8676495
20
102.2441153
40
0.3643032
50
324.8702872
51
329.7911998
0
ARC
8
DEFAULT_255_1_388
10
12.8587777
20
102.2517113
40
0.3759315
50
298.8769973
51
324.7015261
0
ARC
8
DEFAULT_255_1_388
10
12.8214321
20
102.311229
40
0.4461015
50
296.902888
51
299.3854973
0
ARC
8
DEFAULT_255_1_388
10
12.8360318
20
102.2788595
40
0.4106323
50
269.8407861
51
297.1298875
0
ARC
8
DEFAULT_255_1_388
10
12.8300314
20
102.3506354
40
0.4824312
50
253.3156606
51
270.5771301
0
ARC
8
DEFAULT_255_1_388
10
12.8022492
20
102.2500943
40
0.3781531
50
221.1002518
51
252.9743523
0
ARC
8
DEFAULT_255_1_388
10
12.8539962
20
102.2945131
40
0.4463481
50
194.5394284
51
221.0302764
0
ARC
8
DEFAULT_255_1_388
10
13.0619783
20
102.3524897
40
0.6622359
50
182.0498004
51
194.8774376
0
ARC
8
DEFAULT_255_1_388
10
13.2612873
20
102.3657778
40
0.8619146
50
179.9790673
51
182.4586753
0
ARC
8
DEFAULT_255_1_388
10
13.0656187
20
102.3974412
40
0.6662543
50
168.615001
51
180.2870547
0
ARC
8
DEFAULT_255_1_388
10
12.9304095
20
102.4239636
40
0.5284705
50
154.9162417
51
168.5402053
0
ARC
8
DEFAULT_255_1_388
10
12.8267371
20
102.4751942
40
0.4128641
50
133.5745308
51
155.2559538
0
ARC
8
DEFAULT_255_1_388
10
12.8084214
20
102.4908116
40
0.3889328
50
122.0165845
51
133.2056002
0
ARC
8
DEFAULT_255_1_388
10
12.8124538
20
102.4808977
40
0.3994808
50
97.8732516
51
121.753124
0
ARC
8
DEFAULT_255_1_388
10
12.8325996
20
102.361959
40
0.5200708
50
89.8471322
51
98.2768545
0
ARC
8
DEFAULT_255_1_388
10
12.8380844
20
102.4305809
40
0.4514657
50
73.3760755
51
90.5199878
0
ARC
8
DEFAULT_255_1_388
10
12.8601761
20
102.511855
40
0.3672743
50
47.7085939
51
73.0510707
0
ARC
8
DEFAULT_255_1_388
10
12.8747863
20
102.5245231
40
0.3480795
50
3.7442743
51
48.0844373
0
ARC
8
DEFAULT_255_1_388
10
12.7635857
20
102.5067946
40
0.4603187
50
2.6192831
51
5.0424684
0
ARC
8
DEFAULT_255_1_388
10
12.8151328
20
102.5112986
40
0.2507126
50
3.78087
51
23.9354314
0
ARC
8
DEFAULT_255_1_388
10
12.8408588
20
102.5203644
40
0.2235311
50
24.4867863
51
46.9439952
0
ARC
8
DEFAULT_255_1_388
10
12.8409533
20
102.5229874
40
0.2215567
50
46.4987715
51
89.3298168
0
ARC
8
DEFAULT_255_1_388
10
12.8340192
20
102.4563742
40
0.2883121
50
88.1066411
51
90.0063536
0
ARC
8
DEFAULT_255_1_388
10
12.8309168
20
102.4621548
40
0.2825481
50
89.3773571
51
107.2070287
0
ARC
8
DEFAULT_255_1_388
10
12.8148436
20
102.5203667
40
0.2221946
50
107.688418
51
143.3582986
0
ARC
8
DEFAULT_255_1_388
10
12.878673
20
102.4724064
40
0.3020337
50
143.2845866
51
162.9352432
0
ARC
8
DEFAULT_255_1_388
10
13.0480746
20
102.4180401
40
0.4799362
50
162.6652705
51
174.0802646
0
ARC
8
DEFAULT_255_1_388
10
13.2891227
20
102.3900287
40
0.7225942
50
173.8422673
51
180.1784414
0
ARC
8
DEFAULT_255_1_388
10
13.2274898
20
102.3527276
40
0.6609665
50
179.7030218
51
188.2277356
0
ARC
8
DEFAULT_255_1_388
10
12.9910505
20
102.3173143
40
0.4218948
50
188.0630838
51
201.115837
0
ARC
8
DEFAULT_255_1_388
10
12.867539
20
102.270173
40
0.2896941
50
201.2186162
51
216.9761863
0
ARC
8
DEFAULT_255_1_388
10
12.8167548
20
102.2321225
40
0.2262366
50
217.0136373
51
265.2055518
0
ARC
8
DEFAULT_255_1_388
10
12.8342885
20
102.3358503
40
0.3311837
50
263.6824874
51
270.1042034
0
LINE
8
DEFAULT_255_1_388
10
13.8839291
20
102.8693781
11
13.8839291
21
102.713965
0
LINE
8
DEFAULT_255_1_388
10
13.5785243
20
102.5802375
11
13.5785243
21
101.8863
0
LINE
8
DEFAULT_255_1_388
10
13.5785243
20
101.8863
11
13.4113649
21
101.8863
0
LINE
8
DEFAULT_255_1_388
10
13.4113649
20
101.8863
11
13.4113649
21
102.8639567
0
LINE
8
DEFAULT_255_1_388
10
13.4113649
20
102.8639567
11
13.5740065
21
102.8639567
0
LINE
8
DEFAULT_255_1_388
10
13.5740065
20
102.8639567
11
13.5767172
21
102.7510112
0
ARC
8
DEFAULT_255_1_388
10
13.8089451
20
102.2573068
40
0.4627735
50
80.6751522
51
86.893806
0
ARC
8
DEFAULT_255_1_388
10
13.8021281
20
102.1481103
40
0.5721798
50
86.8046851
51
90.0423898
0
ARC
8
DEFAULT_255_1_388
10
13.79797
20
102.4248197
40
0.2954939
50
89.2758283
51
106.6212906
0
ARC
8
DEFAULT_255_1_388
10
13.7749725
20
102.5084009
40
0.2088351
50
107.1347109
51
157.6456887
0
ARC
8
DEFAULT_255_1_388
10
13.8517787
20
102.4656908
40
0.296292
50
155.6557383
51
157.256838
0
ARC
8
DEFAULT_255_1_388
10
13.8297401
20
102.5967472
40
0.296341
50
127.8167201
51
148.6300223
0
ARC
8
DEFAULT_255_1_388
10
13.8012149
20
102.6260066
40
0.2557782
50
91.3329934
51
126.7875218
0
ARC
8
DEFAULT_255_1_388
10
13.8097536
20
102.5456718
40
0.3363561
50
89.9858247
51
92.4688453
0
ARC
8
DEFAULT_255_1_388
10
13.8107029
20
102.5765114
40
0.3055179
50
85.3587643
51
90.1624243
0
ARC
8
DEFAULT_255_1_388
10
13.8202094
20
102.6894458
40
0.1921848
50
78.4019195
51
85.4592653
0
ARC
8
DEFAULT_255_1_388
10
13.8365155
20
102.7672142
40
0.1127267
50
67.7849217
51
78.573798
0
ARC
8
DEFAULT_255_1_388
10
13.8486789
20
102.7987374
40
0.0789473
50
63.4805074
51
67.3074739
0
LINE
8
DEFAULT_255_1_388
10
13.9751891
20
102.3724177
11
13.9751891
21
102.384164
0
LINE
8
DEFAULT_255_1_388
10
14.8652001
20
102.3760319
11
14.8652001
21
102.3642856
0
ARC
8
DEFAULT_255_1_388
10
14.6036336
20
102.387804
40
0.628455
50
166.3005265
51
180.3318609
0
ARC
8
DEFAULT_255_1_388
10
14.5065685
20
102.4095267
40
0.52901
50
153.8608648
51
166.0965672
0
ARC
8
DEFAULT_255_1_388
10
14.4316851
20
102.4496652
40
0.4441126
50
135.1317053
51
154.2534962
0
ARC
8
DEFAULT_255_1_388
10
14.4003502
20
102.4773431
40
0.4023863
50
121.7042632
51
134.7771455
0
ARC
8
DEFAULT_255_1_388
10
14.4078934
20
102.4628469
40
0.4186852
50
93.4001111
51
121.5399523
0
ARC
8
DEFAULT_255_1_388
10
14.4185768
20
102.3698759
40
0.5121521
50
89.9706387
51
93.9763381
0
ARC
8
DEFAULT_255_1_388
10
14.4238753
20
102.4138563
40
0.4681988
50
71.3321659
51
90.6162917
0
ARC
8
DEFAULT_255_1_388
10
14.4421786
20
102.4816003
40
0.3981841
50
41.1813875
51
70.7072086
0
ARC
8
DEFAULT_255_1_388
10
14.3884503
20
102.432813
40
0.4707474
50
12.1971434
51
41.3446641
0
ARC
8
DEFAULT_255_1_388
10
14.1717766
20
102.3812328
40
0.6934429
50
359.5702713
51
12.5803533
0
ARC
8
DEFAULT_255_1_388
10
14.2250082
20
102.3607207
40
0.6402018
50
347.0196754
51
0.3190452
0
ARC
8
DEFAULT_255_1_388
10
14.3328136
20
102.3375189
40
0.5299421
50
334.350439
51
346.8460534
0
ARC
8
DEFAULT_255_1_388
10
14.4279382
20
102.2881244
40
0.4228234
50
310.4228125
51
334.8045131
0
ARC
8
DEFAULT_255_1_388
10
14.437136
20
102.2809301
40
0.4113892
50
301.8488154
51
310.0972985
0
ARC
8
DEFAULT_255_1_388
10
14.43351
20
102.2894573
40
0.4205483
50
274.3078723
51
301.6554173
0
ARC
8
DEFAULT_255_1_388
10
14.4210556
20
102.3881943
40
0.5199658
50
269.954904
51
274.859116
0
ARC
8
DEFAULT_255_1_388
10
14.415538
20
102.3318239
40
0.4636233
50
250.8887647
51
270.6313164
0
ARC
8
DEFAULT_255_1_388
10
14.3986541
20
102.2689405
40
0.398705
50
221.1701369
51
250.2227012
0
ARC
8
DEFAULT_255_1_388
10
14.4531206
20
102.3185716
40
0.4723796
50
191.6263861
51
221.3526879
0
ARC
8
DEFAULT_255_1_388
10
14.6655052
20
102.3677203
40
0.6903321
50
179.6101251
51
192.0694841
0
ARC
8
DEFAULT_255_1_388
10
14.7131399
20
102.3606681
40
0.5698993
50
179.636304
51
190.6161344
0
ARC
8
DEFAULT_255_1_388
10
14.5283731
20
102.3246635
40
0.3816643
50
190.4136062
51
208.7168709
0
ARC
8
DEFAULT_255_1_388
10
14.4709765
20
102.2961905
40
0.3176572
50
209.187109
51
217.4221816
0
ARC
8
DEFAULT_255_1_388
10
14.4114235
20
102.2437729
40
0.2385702
50
216.1156863
51
265.2575395
0
ARC
8
DEFAULT_255_1_388
10
14.4203272
20
102.3082608
40
0.3035941
50
264.5891546
51
270.0602378
0
ARC
8
DEFAULT_255_1_388
10
14.4240469
20
102.2655539
40
0.2609091
50
269.2532353
51
291.8793864
0
ARC
8
DEFAULT_255_1_388
10
14.4273348
20
102.2455359
40
0.241148
50
292.9269367
51
323.1777736
0
ARC
8
DEFAULT_255_1_388
10
14.3802633
20
102.2868762
40
0.3036446
50
322.25666
51
323.087958
0
ARC
8
DEFAULT_255_1_388
10
14.3499891
20
102.3051332
40
0.3388345
50
323.6941379
51
343.8493587
0
ARC
8
DEFAULT_255_1_388
10
14.1724327
20
102.3591698
40
0.5244204
50
343.5746655
51
355.008149
0
ARC
8
DEFAULT_255_1_388
10
13.9466018
20
102.3825797
40
0.7514406
50
354.728272
51
0.1208026
0
ARC
8
DEFAULT_255_1_388
10
14.1455044
20
102.3877947
40
0.5525482
50
359.6235211
51
11.2016685
0
ARC
8
DEFAULT_255_1_388
10
14.3180871
20
102.4233284
40
0.3763527
50
10.9991302
51
30.8317616
0
ARC
8
DEFAULT_255_1_388
10
14.3626175
20
102.4467988
40
0.3260975
50
31.3007463
51
37.395541
0
ARC
8
DEFAULT_255_1_388
10
14.4184894
20
102.4939773
40
0.253082
50
36.5918894
51
62.2439906
0
ARC
8
DEFAULT_255_1_388
10
14.4237186
20
102.4936378
40
0.2509927
50
63.3364883
51
89.7193846
0
ARC
8
DEFAULT_255_1_388
10
14.4188639
20
102.4288375
40
0.3158485
50
88.8962924
51
90.004475
0
ARC
8
DEFAULT_255_1_388
10
14.4153067
20
102.4941071
40
0.250604
50
89.1923115
51
114.7099029
0
ARC
8
DEFAULT_255_1_388
10
14.4185408
20
102.4983675
40
0.2481307
50
115.7996284
51
142.2901353
0
ARC
8
DEFAULT_255_1_388
10
14.4653679
20
102.4564752
40
0.310833
50
141.4607507
51
142.383894
0
ARC
8
DEFAULT_255_1_388
10
14.4801531
20
102.4496449
40
0.3267335
50
143.0176473
51
163.2340089
0
ARC
8
DEFAULT_255_1_388
10
14.6576819
20
102.3934553
40
0.5129308
50
162.9446504
51
174.3733893
0
ARC
8
DEFAULT_255_1_388
10
14.8990792
20
102.3663483
40
0.75583
50
174.1225809
51
180.1563667
0
ARC
8
DEFAULT_255_1_388
10
15.5380098
20
102.855672
40
0.3175098
50
338.8762533
51
0.5167111
0
ARC
8
DEFAULT_255_1_388
10
15.5569692
20
102.85056
40
0.2979894
50
325.8415285
51
338.4793574
0
ARC
8
DEFAULT_255_1_388
10
15.5130326
20
102.8810242
40
0.351452
50
296.7587686
51
325.7536481
0
ARC
8
DEFAULT_255_1_388
10
15.4801954
20
102.9364363
40
0.4157374
50
296.0927901
51
297.3613472
0
ARC
8
DEFAULT_255_1_388
10
15.5096149
20
102.1981593
40
0.395855
50
47.9007294
51
67.1948823
0
ARC
8
DEFAULT_255_1_388
10
15.5316791
20
102.2258599
40
0.360516
50
35.2363914
51
47.551141
0
ARC
8
DEFAULT_255_1_388
10
15.5611195
20
102.2455093
40
0.3251343
50
359.2759765
51
35.4014143
0
ARC
8
DEFAULT_255_1_388
10
15.4773122
20
102.2372787
40
0.4089365
50
343.1293083
51
0.5775513
0
ARC
8
DEFAULT_255_1_388
10
15.5588235
20
102.2148336
40
0.3244269
50
310.8496669
51
342.7449331
0
ARC
8
DEFAULT_255_1_388
10
15.511811
20
102.2684913
40
0.3957651
50
281.5472888
51
310.9170406
0
ARC
8
DEFAULT_255_1_388
10
15.4716984
20
102.4431814
40
0.5749654
50
269.619248
51
281.9789564
0
ARC
8
DEFAULT_255_1_388
10
15.4635762
20
102.4432776
40
0.5750649
50
257.4585678
51
270.4285689
0
ARC
8
DEFAULT_255_1_388
10
15.4207282
20
102.2628741
40
0.389671
50
228.7554326
51
257.8484789
0
ARC
8
DEFAULT_255_1_388
10
15.3858767
20
102.2209228
40
0.335154
50
184.0104975
51
228.5071184
0
ARC
8
DEFAULT_255_1_388
10
15.516716
20
102.240843
40
0.4671891
50
179.9315832
51
185.3253753
0
ARC
8
DEFAULT_255_1_388
10
15.3843673
20
102.2450592
40
0.33486
50
145.6796023
51
180.6259786
0
ARC
8
DEFAULT_255_1_388
10
15.4027438
20
102.2322271
40
0.3572723
50
115.5537685
51
145.6415986
0
ARC
8
DEFAULT_255_1_388
10
15.4410482
20
102.1636087
40
0.4357296
50
113.243307
51
116.2057839
0
ARC
8
DEFAULT_255_1_388
10
15.4239134
20
102.8833379
40
0.3549126
50
222.9549744
51
244.1370481
0
ARC
8
DEFAULT_255_1_388
10
15.4101777
20
102.8679378
40
0.3343711
50
213.3436887
51
222.6274467
0
ARC
8
DEFAULT_255_1_388
10
15.3885847
20
102.8532653
40
0.3082678
50
180.431584
51
213.271499
0
ARC
8
DEFAULT_255_1_388
10
15.4520846
20
102.8585296
40
0.3718363
50
179.9991191
51
181.1690594
0
ARC
8
DEFAULT_255_1_388
10
15.4993302
20
102.8624072
40
0.4190996
50
164.6186169
51
180.529336
0
ARC
8
DEFAULT_255_1_388
10
15.398295
20
102.889578
40
0.3144772
50
132.2455553
51
164.5090724
0
ARC
8
DEFAULT_255_1_388
10
15.4305929
20
102.853007
40
0.3632644
50
100.7053914
51
132.1386381
0
ARC
8
DEFAULT_255_1_388
10
15.464899
20
102.6980118
40
0.5219578
50
89.6730358
51
101.2451698
0
ARC
8
DEFAULT_255_1_388
10
15.4718981
20
102.7176648
40
0.5023124
50
76.287748
51
90.4586006
0
ARC
8
DEFAULT_255_1_388
10
15.5063483
20
102.8551671
40
0.3605639
50
47.8240511
51
76.4266241
0
ARC
8
DEFAULT_255_1_388
10
15.5313867
20
102.8844599
40
0.3220463
50
6.9168387
51
47.6262497
0
ARC
8
DEFAULT_255_1_388
10
15.397932
20
102.8598004
40
0.4575765
50
359.8415968
51
7.9697453
0
ARC
8
DEFAULT_255_1_388
10
15.436359
20
102.2477519
40
0.2827228
50
359.445363
51
16.9256873
0
ARC
8
DEFAULT_255_1_388
10
15.4891024
20
102.2622781
40
0.2280396
50
17.2920767
51
45.4630727
0
ARC
8
DEFAULT_255_1_388
10
15.4830159
20
102.2570324
40
0.2360485
50
45.30305
51
83.1920945
0
ARC
8
DEFAULT_255_1_388
10
15.4668904
20
102.1668473
40
0.3275527
50
82.2612665
51
90.1434275
0
ARC
8
DEFAULT_255_1_388
10
15.463418
20
102.1930869
40
0.3013237
50
89.4956434
51
104.8580688
0
ARC
8
DEFAULT_255_1_388
10
15.443537
20
102.2684455
40
0.2233867
50
104.8856641
51
135.244616
0
ARC
8
DEFAULT_255_1_388
10
15.4491359
20
102.2634352
40
0.2308906
50
135.3399546
51
172.1044062
0
ARC
8
DEFAULT_255_1_388
10
15.5398884
20
102.2460667
40
0.3232034
50
171.2645637
51
180.186429
0
ARC
8
DEFAULT_255_1_388
10
15.5208888
20
102.2424426
40
0.304213
50
179.5154935
51
193.6464289
0
ARC
8
DEFAULT_255_1_388
10
15.4290564
20
102.2190473
40
0.209456
50
193.3540274
51
225.8258581
0
ARC
8
DEFAULT_255_1_388
10
15.4336436
20
102.2270076
40
0.2183738
50
226.4180634
51
255.8552336
0
ARC
8
DEFAULT_255_1_388
10
15.4624903
20
102.3323521
40
0.3275812
50
255.4654104
51
268.7987425
0
ARC
8
DEFAULT_255_1_388
10
15.4678079
20
102.4265545
40
0.4218877
50
268.3449238
51
270.0094605
0
ARC
8
DEFAULT_255_1_388
10
15.4704313
20
102.3497094
40
0.3450519
50
269.5759586
51
282.0820163
0
ARC
8
DEFAULT_255_1_388
10
15.4957349
20
102.2378363
40
0.2303642
50
281.752014
51
306.6056188
0
ARC
8
DEFAULT_255_1_388
10
15.5068157
20
102.2196802
40
0.2091906
50
307.1346085
51
314.027845
0
ARC
8
DEFAULT_255_1_388
10
15.5027669
20
102.2226459
40
0.2141385
50
314.2552483
51
350.1694025
0
ARC
8
DEFAULT_255_1_388
10
15.4069906
20
102.2434175
40
0.312082
50
349.4140529
51
0.2933014
0
ARC
8
DEFAULT_255_1_388
10
15.4655183
20
102.8237924
40
0.2588377
50
89.477747
51
105.729729
0
ARC
8
DEFAULT_255_1_388
10
15.4502103
20
102.8806367
40
0.1999733
50
105.9233417
51
135.1660906
0
ARC
8
DEFAULT_255_1_388
10
15.4525134
20
102.8790412
40
0.2027322
50
135.3052302
51
168.9883645
0
ARC
8
DEFAULT_255_1_388
10
15.545615
20
102.8576996
40
0.2982129
50
168.3801673
51
180.3602268
0
ARC
8
DEFAULT_255_1_388
10
15.5199267
20
102.8534622
40
0.2725291
50
179.5033122
51
194.9125571
0
ARC
8
DEFAULT_255_1_388
10
15.4540674
20
102.8361427
40
0.204431
50
194.9720816
51
224.194444
0
ARC
8
DEFAULT_255_1_388
10
15.4509039
20
102.8335635
40
0.2003651
50
224.2962453
51
262.015664
0
ARC
8
DEFAULT_255_1_388
10
15.4669043
20
102.9158315
40
0.2840925
50
261.1245923
51
270.1962896
0
ARC
8
DEFAULT_255_1_388
10
15.4702525
20
102.8947859
40
0.2630559
50
269.4827276
51
285.0987215
0
ARC
8
DEFAULT_255_1_388
10
15.4875961
20
102.8297175
40
0.1957162
50
285.1585357
51
315.9484501
0
ARC
8
DEFAULT_255_1_388
10
15.4775834
20
102.8389315
40
0.2093195
50
316.0413965
51
351.916092
0
ARC
8
DEFAULT_255_1_388
10
15.3951209
20
102.8548323
40
0.2932279
50
351.105835
51
0.1939062
0
ARC
8
DEFAULT_255_1_388
10
15.4246843
20
102.8582224
40
0.2636739
50
359.4789618
51
16.0678224
0
ARC
8
DEFAULT_255_1_388
10
15.4782314
20
102.8726721
40
0.2082215
50
16.3252067
51
44.7913869
0
ARC
8
DEFAULT_255_1_388
10
15.4762377
20
102.872732
40
0.2095992
50
44.3957814
51
88.2499162
0
ARC
8
DEFAULT_255_1_388
10
15.4679711
20
102.8039006
40
0.2787189
50
86.9833854
51
90.0192215
0
LINE
8
DEFAULT_255_1_388
10
16.307289
20
102.5115666
11
16.1735614
21
102.5459021
0
LINE
8
DEFAULT_255_1_388
10
16.1735614
20
102.5459021
11
16.2404252
21
103.2018898
0
LINE
8
DEFAULT_255_1_388
10
16.2404252
20
103.2018898
11
16.9144843
21
103.2018898
0
LINE
8
DEFAULT_255_1_388
10
16.9144843
20
103.2018898
11
16.9144843
21
103.0473803
0
LINE
8
DEFAULT_255_1_388
10
16.9144843
20
103.0473803
11
16.3822848
21
103.0473803
0
LINE
8
DEFAULT_255_1_388
10
16.3822848
20
103.0473803
11
16.342528
21
102.6886652
0
LINE
8
DEFAULT_255_1_388
10
16.1265761
20
102.2323652
11
16.2846999
21
102.2323652
0
LINE
8
DEFAULT_255_1_388
10
16.3515636
20
102.5477092
11
16.307289
21
102.5115666
0
ARC
8
DEFAULT_255_1_388
10
16.5511893
20
102.3309241
40
0.4141476
50
93.7181681
51
120.253934
0
ARC
8
DEFAULT_255_1_388
10
16.5617945
20
102.2400284
40
0.5055616
50
89.9660471
51
94.2495185
0
ARC
8
DEFAULT_255_1_388
10
16.5663767
20
102.3063154
40
0.4392953
50
73.8045384
51
90.5585736
0
ARC
8
DEFAULT_255_1_388
10
16.5928025
20
102.402852
40
0.3392225
50
41.3071072
51
73.543002
0
ARC
8
DEFAULT_255_1_388
10
16.5459845
20
102.3625461
40
0.4009977
50
13.5075837
51
41.2174839
0
ARC
8
DEFAULT_255_1_388
10
16.3612942
20
102.3141907
40
0.5918864
50
1.1330171
51
13.8830737
0
ARC
8
DEFAULT_255_1_388
10
16.2016588
20
102.3056522
40
0.7516787
50
359.9925091
51
1.5431298
0
ARC
8
DEFAULT_255_1_388
10
16.3461203
20
102.3010027
40
0.6072343
50
347.8572712
51
0.4294349
0
ARC
8
DEFAULT_255_1_388
10
16.5430338
20
102.2563898
40
0.4053482
50
323.6727442
51
348.1674594
0
ARC
8
DEFAULT_255_1_388
10
16.5761303
20
102.2362175
40
0.3667495
50
316.8171818
51
323.1486802
0
ARC
8
DEFAULT_255_1_388
10
16.5830426
20
102.2320612
40
0.358869
50
281.839603
51
316.5458142
0
ARC
8
DEFAULT_255_1_388
10
16.5407714
20
102.4070363
40
0.5388223
50
269.5770964
51
282.4214641
0
ARC
8
DEFAULT_255_1_388
10
16.5327635
20
102.382993
40
0.5147801
50
256.2425863
51
270.4486481
0
ARC
8
DEFAULT_255_1_388
10
16.4991162
20
102.2480124
40
0.3756708
50
228.9024379
51
256.33135
0
ARC
8
DEFAULT_255_1_388
10
16.4908142
20
102.2349054
40
0.360344
50
193.7536029
51
228.5272638
0
ARC
8
DEFAULT_255_1_388
10
16.6300707
20
102.2757463
40
0.5053599
50
184.9244437
51
194.4976052
0
ARC
8
DEFAULT_255_1_388
10
16.6517349
20
102.2797722
40
0.3700839
50
187.3596909
51
198.6733728
0
ARC
8
DEFAULT_255_1_388
10
16.5336592
20
102.2388373
40
0.2451195
50
198.4453795
51
217.7945479
0
ARC
8
DEFAULT_255_1_388
10
16.5003765
20
102.2152563
40
0.2043754
50
218.2887146
51
228.5613203
0
ARC
8
DEFAULT_255_1_388
10
16.5113772
20
102.2300902
40
0.2227819
50
228.9652423
51
258.1237049
0
ARC
8
DEFAULT_255_1_388
10
16.5345209
20
102.3291964
40
0.3245374
50
257.7260585
51
270.4013717
0
ARC
8
DEFAULT_255_1_388
10
16.5395707
20
102.2791255
40
0.2744726
50
269.4204315
51
286.420998
0
ARC
8
DEFAULT_255_1_388
10
16.5562763
20
102.2184705
40
0.2115721
50
286.7250065
51
320.6004665
0
ARC
8
DEFAULT_255_1_388
10
16.5131678
20
102.2534527
40
0.2670878
50
320.6712228
51
344.5440474
0
ARC
8
DEFAULT_255_1_388
10
16.3830392
20
102.2916394
40
0.4026927
50
344.241448
51
356.735803
0
ARC
8
DEFAULT_255_1_388
10
16.2426699
20
102.3032656
40
0.5435085
50
356.3547471
51
0.0507222
0
ARC
8
DEFAULT_255_1_388
10
16.3928964
20
102.3067812
40
0.3932934
50
359.5579289
51
12.9534322
0
ARC
8
DEFAULT_255_1_388
10
16.5115804
20
102.3355586
40
0.2711827
50
12.6489751
51
41.608121
0
ARC
8
DEFAULT_255_1_388
10
16.5374964
20
102.3575946
40
0.2371737
50
41.7851122
51
85.9892156
0
ARC
8
DEFAULT_255_1_388
10
16.5236274
20
102.2660738
40
0.3295244
50
84.6965848
51
90.0672125
0
ARC
8
DEFAULT_255_1_388
10
16.5209842
20
102.1909118
40
0.4046926
50
89.6804991
51
99.161352
0
ARC
8
DEFAULT_255_1_388
10
16.4978851
20
102.3289848
40
0.2647044
50
98.9836248
51
113.8905702
0
ARC
8
DEFAULT_255_1_388
10
16.4720526
20
102.3899118
40
0.1985386
50
114.195234
51
127.3641866
0
LINE
8
DEFAULT_255_1_388
10
17.9608119
20
102.664269
11
17.9608119
21
102.4474135
0
LINE
8
DEFAULT_255_1_388
10
17.1304362
20
102.4248244
11
17.1304362
21
102.6480048
0
LINE
8
DEFAULT_255_1_388
10
17.7936525
20
102.4022353
11
17.7936525
21
102.6760153
0
LINE
8
DEFAULT_255_1_388
10
17.2975956
20
102.6886652
11
17.2975956
21
102.4212102
0
ARC
8
DEFAULT_255_1_388
10
16.5830453
20
102.4419118
40
1.3777776
50
353.8440855
51
0.2287917
0
ARC
8
DEFAULT_255_1_388
10
17.104947
20
102.3836414
40
0.852639
50
344.4934746
51
353.9763743
0
ARC
8
DEFAULT_255_1_388
10
17.4416278
20
102.2879191
40
0.5026273
50
329.2803599
51
344.7473406
0
ARC
8
DEFAULT_255_1_388
10
17.5531773
20
102.2267038
40
0.3754848
50
324.9361395
51
328.6153007
0
ARC
8
DEFAULT_255_1_388
10
17.5957423
20
102.1969586
40
0.3235566
50
280.5801797
51
324.9173226
0
ARC
8
DEFAULT_255_1_388
10
17.5506052
20
102.3849236
40
0.5167077
50
269.5979457
51
281.6732777
0
ARC
8
DEFAULT_255_1_388
10
17.5424955
20
102.3714113
40
0.5032026
50
256.6228565
51
270.5105488
0
ARC
8
DEFAULT_255_1_388
10
17.4972698
20
102.1972345
40
0.3233092
50
215.8618351
51
257.2787793
0
ARC
8
DEFAULT_255_1_388
10
17.6121405
20
102.2743106
40
0.4615831
50
197.9695203
51
215.2622745
0
ARC
8
DEFAULT_255_1_388
10
17.8917081
20
102.3686641
40
0.7566307
50
187.8816486
51
198.2346584
0
ARC
8
DEFAULT_255_1_388
10
18.3370319
20
102.4329453
40
1.2065653
50
180.8977266
51
188.0054894
0
ARC
8
DEFAULT_255_1_388
10
18.6420533
20
102.44444
40
1.5117443
50
180.7434591
51
181.152202
0
ARC
8
DEFAULT_255_1_388
10
18.4745529
20
102.6534371
40
1.3441277
50
173.7674302
51
180.2315596
0
ARC
8
DEFAULT_255_1_388
10
17.9663398
20
102.7108779
40
0.8326847
50
164.3058537
51
173.9000553
0
ARC
8
DEFAULT_255_1_388
10
17.6387398
20
102.8052652
40
0.4917711
50
148.7922028
51
164.5682288
0
ARC
8
DEFAULT_255_1_388
10
17.5318135
20
102.8649457
40
0.3694204
50
144.5883979
51
148.1161588
0
ARC
8
DEFAULT_255_1_388
10
17.493088
20
102.8919667
40
0.322202
50
101.6440149
51
144.5142619
0
ARC
8
DEFAULT_255_1_388
10
17.5409073
20
102.7019337
40
0.5180451
50
89.528284
51
102.5820197
0
ARC
8
DEFAULT_255_1_388
10
17.5498064
20
102.6975376
40
0.5224441
50
77.0437914
51
90.508231
0
ARC
8
DEFAULT_255_1_388
10
17.5950318
20
102.8823272
40
0.3322297
50
48.2777708
51
77.4996087
0
ARC
8
DEFAULT_255_1_388
10
17.6032058
20
102.8968557
40
0.315966
50
36.3141586
51
47.6307332
0
ARC
8
DEFAULT_255_1_388
10
17.505478
20
102.8310159
40
0.4337313
50
18.2931065
51
35.6770203
0
ARC
8
DEFAULT_255_1_388
10
17.2193621
20
102.7328107
40
0.7362203
50
8.0246996
51
18.5605636
0
ARC
8
DEFAULT_255_1_388
10
16.7509977
20
102.6636432
40
1.2096583
50
1.127539
51
8.1718423
0
ARC
8
DEFAULT_255_1_388
10
16.386111
20
102.6493374
40
1.5747719
50
0.5432713
51
1.38669
0
ARC
8
DEFAULT_255_1_388
10
16.5918489
20
102.6800163
40
1.2018103
50
359.8092569
51
4.9408001
0
ARC
8
DEFAULT_255_1_388
10
17.065507
20
102.72229
40
0.7262727
50
4.8364937
51
12.2906017
0
ARC
8
DEFAULT_255_1_388
10
17.3754535
20
102.7913485
40
0.4087324
50
12.0806994
51
23.8171225
0
ARC
8
DEFAULT_255_1_388
10
17.5074931
20
102.8472508
40
0.2653719
50
24.2874621
51
31.3934353
0
ARC
8
DEFAULT_255_1_388
10
17.5665367
20
102.8858822
40
0.1948607
50
30.7407708
51
82.4658033
0
ARC
8
DEFAULT_255_1_388
10
17.5463028
20
102.7865017
40
0.2961198
50
81.1057101
51
90.2187368
0
ARC
8
DEFAULT_255_1_388
10
17.5422839
20
102.8155421
40
0.2670929
50
89.380395
51
105.6763916
0
ARC
8
DEFAULT_255_1_388
10
17.5216561
20
102.890532
40
0.1893189
50
105.7980655
51
149.7387869
0
ARC
8
DEFAULT_255_1_388
10
17.6413701
20
102.8185719
40
0.3289892
50
149.4208441
51
163.628295
0
ARC
8
DEFAULT_255_1_388
10
17.8765931
20
102.7468345
40
0.5749004
50
163.3764549
51
172.141138
0
ARC
8
DEFAULT_255_1_388
10
18.2478653
20
102.6936582
40
0.9499585
50
172.0258462
51
178.0705453
0
ARC
8
DEFAULT_255_1_388
10
18.5900205
20
102.6774682
40
1.2924734
50
177.8639301
51
179.5036263
0
ARC
8
DEFAULT_255_1_388
10
18.4681224
20
102.4171151
40
1.170534
50
179.7995545
51
185.246089
0
ARC
8
DEFAULT_255_1_388
10
18.0132817
20
102.3740404
40
0.7136613
50
185.1411911
51
193.0082205
0
ARC
8
DEFAULT_255_1_388
10
17.7159078
20
102.3037441
40
0.4080987
50
192.7897338
51
205.2507384
0
ARC
8
DEFAULT_255_1_388
10
17.5981288
20
102.2511538
40
0.2791522
50
205.8001921
51
211.2545876
0
ARC
8
DEFAULT_255_1_388
10
17.5392827
20
102.2117132
40
0.2084074
50
210.3789935
51
238.4007996
0
ARC
8
DEFAULT_255_1_388
10
17.5370913
20
102.2169786
40
0.2117943
50
239.6521916
51
265.9793852
0
ARC
8
DEFAULT_255_1_388
10
17.5466762
20
102.2926358
40
0.2879689
50
265.1324455
51
270.0603288
0
ARC
8
DEFAULT_255_1_388
10
17.5499139
20
102.2561418
40
0.2514919
50
269.3314378
51
287.2180039
0
ARC
8
DEFAULT_255_1_388
10
17.5654221
20
102.1995291
40
0.1928357
50
287.7957942
51
329.0808983
0
ARC
8
DEFAULT_255_1_388
10
17.4576978
20
102.2667651
40
0.319808
50
328.6635261
51
343.3325043
0
ARC
8
DEFAULT_255_1_388
10
17.2132437
20
102.3429195
40
0.5758408
50
343.0498092
51
351.9392499
0
ARC
8
DEFAULT_255_1_388
10
16.8231758
20
102.4004205
40
0.9701202
50
351.8071632
51
357.7957897
0
ARC
8
DEFAULT_255_1_388
10
16.4597235
20
102.4192724
40
1.3340376
50
357.5870923
51
359.2682493
0
LINE
8
DEFAULT_255_2_778
10
19.9765417
20
92.4719078
11
18.6536417
21
92.4719078
0
LINE
8
DEFAULT_255_2_778
10
18.6536417
20
92.4719078
11
18.6536417
21
51.4615078
0
LINE
8
DEFAULT_255_2_778
10
17.3307834
20
51.4614333
11
19.9765834
21
51.4614333
0
LINE
8
DEFAULT_255_2_778
10
19.9765834
20
51.4614333
11
19.9765834
21
46.1697333
0
LINE
8
DEFAULT_255_2_778
10
19.9765834
20
46.1697333
11
17.3307834
21
46.1697333
0
LINE
8
DEFAULT_255_2_778
10
17.3307834
20
46.1697333
11
17.3307834
21
51.4614333
0
ARC
8
DEFAULT_255_2_778_1
10
21.1303591
20
46.272177
40
4.816461
50
120.9442904
51
122.351755
0
ARC
8
DEFAULT_255_2_778_1
10
20.6837523
20
46.9758039
40
3.9830657
50
122.3407904
51
124.1946752
0
ARC
8
DEFAULT_255_2_778_1
10
20.2438464
20
47.6223306
40
3.2010724
50
124.1855758
51
126.4338849
0
ARC
8
DEFAULT_255_2_778_1
10
19.8579129
20
48.1450611
40
2.5513094
50
126.4326926
51
128.8877368
0
ARC
8
DEFAULT_255_2_778_1
10
19.5230968
20
48.5594658
40
2.0185498
50
128.8749205
51
131.8726567
0
ARC
8
DEFAULT_255_2_778_1
10
19.2259677
20
48.8904854
40
1.5737356
50
131.8616166
51
135.4168838
0
ARC
8
DEFAULT_255_2_778_1
10
18.963168
20
49.1486765
40
1.2053256
50
135.3893975
51
139.9687014
0
ARC
8
DEFAULT_255_2_778_1
10
18.7302889
20
49.3435102
40
0.9016937
50
139.9301659
51
145.9260426
0
ARC
8
DEFAULT_255_2_778_1
10
18.534154
20
49.4755104
40
0.6652776
50
145.8787362
51
153.8146208
0
ARC
8
DEFAULT_255_2_778_1
10
18.3820553
20
49.5498797
40
0.4959714
50
153.770634
51
164.3484794
0
ARC
8
DEFAULT_255_2_778_1
10
18.2807387
20
49.5780786
40
0.3908039
50
164.3220276
51
179.8083066
0
ARC
8
DEFAULT_255_2_778_1
10
18.3017789
20
49.586215
40
0.4118985
50
180.9499449
51
213.8111542
0
ARC
8
DEFAULT_255_2_778_1
10
18.5776828
20
49.7557896
40
0.73561
50
212.8271214
51
224.258472
0
ARC
8
DEFAULT_255_2_778_1
10
18.9605335
20
50.1251236
40
1.267567
50
224.1376218
51
231.4508261
0
ARC
8
DEFAULT_255_2_778_1
10
19.6032195
20
50.9281168
40
2.2960809
50
231.3955893
51
236.1256478
0
ARC
8
DEFAULT_255_2_778_1
10
21.4355223
20
53.6746293
40
5.5976905
50
236.2233172
51
239.1314682
0
ARC
8
DEFAULT_255_2_778_1
10
33.385427
20
73.4023568
40
28.6623793
50
238.8606853
51
239.0711101
0
ARC
8
DEFAULT_255_2_778_1
10
14.2132281
20
41.3052653
40
8.7248518
50
57.2420924
51
59.4062964
0
ARC
8
DEFAULT_255_2_778_1
10
17.4409241
20
46.3362102
40
2.747542
50
52.8289294
51
57.079028
0
ARC
8
DEFAULT_255_2_778_1
10
18.2155783
20
47.3565488
40
1.466457
50
46.3041868
51
52.8596521
0
ARC
8
DEFAULT_255_2_778_1
10
18.6478073
20
47.8066842
40
0.8424061
50
36.2174211
51
46.4090895
0
ARC
8
DEFAULT_255_2_778_1
10
18.9323088
20
48.0115128
40
0.4918609
50
17.400375
51
36.5489745
0
ARC
8
DEFAULT_255_2_778_1
10
19.0463994
20
48.0513754
40
0.3710912
50
0.0676858
51
16.7951297
0
ARC
8
DEFAULT_255_2_778_1
10
19.0253613
20
48.0532428
40
0.3921317
50
343.8035191
51
359.7912046
0
ARC
8
DEFAULT_255_2_778_1
10
18.9190912
20
48.0837167
40
0.5026844
50
333.2506233
51
343.8465691
0
ARC
8
DEFAULT_255_2_778_1
10
18.7652757
20
48.1604313
40
0.6745679
50
325.6600948
51
333.3122657
0
ARC
8
DEFAULT_255_2_778_1
10
18.5698344
20
48.2932296
40
0.9108568
50
319.7560915
51
325.6976089
0
ARC
8
DEFAULT_255_2_778_1
10
18.341699
20
48.4850002
40
1.2088854
50
315.4577584
51
319.8037947
0
ARC
8
DEFAULT_255_2_778_1
10
18.0783127
20
48.7438507
40
1.5781764
50
311.7298824
51
315.4670864
0
ARC
8
DEFAULT_255_2_778_1
10
17.7692879
20
49.0894074
40
2.0417554
50
308.723055
51
311.7470879
0
ARC
8
DEFAULT_255_2_778_1
10
17.415089
20
49.5306492
40
2.6075745
50
306.1165163
51
308.7300151
0
ARC
8
DEFAULT_255_2_778_1
10
17.0121091
20
50.0819523
40
3.2904564
50
303.9559446
51
306.1266333
0
ARC
8
DEFAULT_255_2_778_1
10
16.6005432
20
50.691215
40
4.0257023
50
302.3733397
51
303.9712246
0
ARC
8
DEFAULT_255_2_778_1
10
16.1809347
20
51.3527058
40
4.8090549
50
300.9434827
51
302.3758078
0
LINE
8
DEFAULT_255_2_778
10
18.6536417
20
46.1698078
11
18.6536417
21
5.1594078
0
LINE
8
DEFAULT_255_2_778
10
18.6536417
20
5.1594078
11
19.9765417
21
5.1594078
0
LINE
8
DEFAULT_255_1_388
10
4.8132318
20
100.0383382
11
4.8132318
21
99.9019
0
LINE
8
DEFAULT_255_1_388
10
4.8132318
20
99.9019
11
3.9512313
21
99.9019
0
LINE
8
DEFAULT_255_1_388
10
3.9512313
20
99.9019
11
3.9512313
21
100.0220741
0
LINE
8
DEFAULT_255_1_388
10
3.9512313
20
100.0220741
11
4.4066278
21
100.5280702
0
LINE
8
DEFAULT_255_1_388
10
4.0930909
20
100.8298607
11
3.9259315
21
100.8298607
0
LINE
8
DEFAULT_255_1_388
10
4.5051163
20
100.420546
11
4.1527262
21
100.0383382
0
LINE
8
DEFAULT_255_1_388
10
4.1527262
20
100.0383382
11
4.8132318
21
100.0383382
0
ARC
8
DEFAULT_255_1_388
10
2.8890337
20
101.8700983
40
2.0258655
50
318.5132526
51
320.7829045
0
ARC
8
DEFAULT_255_1_388
10
3.4838294
20
101.3859929
40
1.2589638
50
320.7372878
51
323.9739031
0
ARC
8
DEFAULT_255_1_388
10
3.9247226
20
101.0665554
40
0.7145141
50
323.8962701
51
328.64194
0
ARC
8
DEFAULT_255_1_388
10
4.1549484
20
100.9245545
40
0.4440242
50
328.8294576
51
331.7891185
0
ARC
8
DEFAULT_255_1_388
10
4.2671804
20
100.8666374
40
0.3177517
50
331.4254512
51
352.9365785
0
ARC
8
DEFAULT_255_1_388
10
4.2824804
20
100.863205
40
0.3021496
50
353.2257659
51
0.0166158
0
ARC
8
DEFAULT_255_1_388
10
4.3061564
20
100.8657894
40
0.2784847
50
359.486299
51
15.9343185
0
ARC
8
DEFAULT_255_1_388
10
4.3631831
20
100.8811269
40
0.2194403
50
16.1712913
51
43.5286088
0
ARC
8
DEFAULT_255_1_388
10
4.3718776
20
100.8898191
40
0.2071504
50
43.4417391
51
83.1661095
0
ARC
8
DEFAULT_255_1_388
10
4.3567937
20
100.8069316
40
0.2912888
50
82.160179
51
90.1505708
0
ARC
8
DEFAULT_255_1_388
10
4.3532418
20
100.7465279
40
0.3517025
50
89.5460741
51
102.5418361
0
ARC
8
DEFAULT_255_1_388
10
4.3259138
20
100.8624933
40
0.2325748
50
102.1738499
51
129.206123
0
ARC
8
DEFAULT_255_1_388
10
4.3170592
20
100.8764664
40
0.2161591
50
129.72865
51
135.753947
0
ARC
8
DEFAULT_255_1_388
10
4.3307074
20
100.8655728
40
0.2335433
50
136.1757367
51
166.3673339
0
ARC
8
DEFAULT_255_1_388
10
4.4439762
20
100.8352148
40
0.3507873
50
165.9090694
51
178.8684636
0
ARC
8
DEFAULT_255_1_388
10
4.5415534
20
100.8299263
40
0.4484624
50
178.4391136
51
180.0083808
0
ARC
8
DEFAULT_255_1_388
10
4.3836235
20
100.8343197
40
0.4577138
50
163.2878482
51
180.5581842
0
ARC
8
DEFAULT_255_1_388
10
4.2934276
20
100.8591393
40
0.3641968
50
133.4540601
51
162.947111
0
ARC
8
DEFAULT_255_1_388
10
4.3135158
20
100.8377789
40
0.3935189
50
100.7869829
51
133.4382499
0
ARC
8
DEFAULT_255_1_388
10
4.3526403
20
100.6635399
40
0.5720313
50
89.660664
51
101.3702276
0
ARC
8
DEFAULT_255_1_388
10
4.3601012
20
100.6704263
40
0.5651495
50
78.2172678
51
90.412935
0
ARC
8
DEFAULT_255_1_388
10
4.4000478
20
100.8531511
40
0.378122
50
55.9269121
51
78.4888449
0
ARC
8
DEFAULT_255_1_388
10
4.4221193
20
100.8912187
40
0.3342379
50
47.929771
51
55.4049217
0
ARC
8
DEFAULT_255_1_388
10
4.4335723
20
100.9028618
40
0.3179217
50
4.334829
51
48.0560205
0
ARC
8
DEFAULT_255_1_388
10
4.3103525
20
100.8837487
40
0.442341
50
359.9251713
51
5.5971671
0
ARC
8
DEFAULT_255_1_388
10
4.358568
20
100.8900728
40
0.3941854
50
337.8914027
51
358.9967534
0
ARC
8
DEFAULT_255_1_388
10
4.053325
20
101.0078295
40
0.7213271
50
326.9132501
51
338.3508308
0
ARC
8
DEFAULT_255_1_388
10
3.6049362
20
101.2952105
40
1.2538973
50
319.6471833
51
327.0959558
0
ARC
8
DEFAULT_255_1_388
10
3.173602
20
101.651005
40
1.8129975
50
317.2588228
51
319.9045804
0
LINE
8
DEFAULT_255_1_388
10
5.6960143
20
101.2174898
11
5.6960143
21
100.343743
0
LINE
8
DEFAULT_255_1_388
10
5.6960143
20
100.343743
11
5.8785343
21
100.343743
0
LINE
8
DEFAULT_255_1_388
10
5.8785343
20
100.343743
11
5.8785343
21
100.2073048
0
LINE
8
DEFAULT_255_1_388
10
5.8785343
20
100.2073048
11
5.6960143
21
100.2073048
0
LINE
8
DEFAULT_255_1_388
10
5.6960143
20
100.2073048
11
5.6960143
21
99.9019
0
LINE
8
DEFAULT_255_1_388
10
5.6960143
20
99.9019
11
5.5279513
21
99.9019
0
LINE
8
DEFAULT_255_1_388
10
5.5279513
20
99.9019
11
5.5279513
21
100.2073048
0
LINE
8
DEFAULT_255_1_388
10
5.5279513
20
100.2073048
11
4.928888
21
100.2073048
0
LINE
8
DEFAULT_255_1_388
10
4.928888
20
100.2073048
11
4.928888
21
100.3057933
0
LINE
8
DEFAULT_255_1_388
10
4.928888
20
100.3057933
11
5.5180121
21
101.2174898
0
LINE
8
DEFAULT_255_1_388
10
5.5180121
20
101.2174898
11
5.6960143
21
101.2174898
0
LINE
8
DEFAULT_255_1_388
10
5.5080729
20
100.9527455
11
5.1186366
21
100.343743
0
LINE
8
DEFAULT_255_1_388
10
5.1186366
20
100.343743
11
5.5279513
21
100.343743
0
LINE
8
DEFAULT_255_1_388
10
5.5279513
20
100.343743
11
5.5279513
21
100.988888
0
LINE
8
DEFAULT_255_1_388
10
5.5279513
20
100.988888
11
5.5080729
21
100.9527455
0
LINE
8
DEFAULT_255_1_388
10
6.5254864
20
100.9915987
11
6.5254864
21
100.6075838
0
LINE
8
DEFAULT_255_1_388
10
6.5254864
20
100.6075838
11
6.8923336
21
100.6075838
0
LINE
8
DEFAULT_255_1_388
10
6.8923336
20
100.6075838
11
6.8923336
21
100.4494601
0
LINE
8
DEFAULT_255_1_388
10
6.8923336
20
100.4494601
11
6.5254864
21
100.4494601
0
LINE
8
DEFAULT_255_1_388
10
6.5254864
20
100.4494601
11
6.5254864
21
100.0338204
0
LINE
8
DEFAULT_255_1_388
10
6.5254864
20
100.0338204
11
6.3574234
21
100.0338204
0
LINE
8
DEFAULT_255_1_388
10
6.3574234
20
100.0338204
11
6.3574234
21
100.4494601
0
LINE
8
DEFAULT_255_1_388
10
6.3574234
20
100.4494601
11
5.9905763
21
100.4494601
0
LINE
8
DEFAULT_255_1_388
10
5.9905763
20
100.4494601
11
5.9905763
21
100.6075838
0
LINE
8
DEFAULT_255_1_388
10
5.9905763
20
100.6075838
11
6.3574234
21
100.6075838
0
LINE
8
DEFAULT_255_1_388
10
6.3574234
20
100.6075838
11
6.3574234
21
100.9915987
0
LINE
8
DEFAULT_255_1_388
10
6.3574234
20
100.9915987
11
6.5254864
21
100.9915987
0
LINE
8
DEFAULT_255_1_388
10
22.7155318
20
100.0383382
11
22.7155318
21
99.9019
0
LINE
8
DEFAULT_255_1_388
10
22.7155318
20
99.9019
11
21.8535313
21
99.9019
0
LINE
8
DEFAULT_255_1_388
10
21.8535313
20
99.9019
11
21.8535313
21
100.0220741
0
LINE
8
DEFAULT_255_1_388
10
21.8535313
20
100.0220741
11
22.3089278
21
100.5280702
0
LINE
8
DEFAULT_255_1_388
10
21.9953909
20
100.8298607
11
21.8282315
21
100.8298607
0
LINE
8
DEFAULT_255_1_388
10
22.4074163
20
100.420546
11
22.0550262
21
100.0383382
0
LINE
8
DEFAULT_255_1_388
10
22.0550262
20
100.0383382
11
22.7155318
21
100.0383382
0
ARC
8
DEFAULT_255_1_388
10
20.7913337
20
101.8700983
40
2.0258655
50
318.5132526
51
320.7829045
0
ARC
8
DEFAULT_255_1_388
10
21.3861294
20
101.3859929
40
1.2589638
50
320.7372878
51
323.9739031
0
ARC
8
DEFAULT_255_1_388
10
21.8270226
20
101.0665554
40
0.7145141
50
323.8962701
51
328.64194
0
ARC
8
DEFAULT_255_1_388
10
22.0572484
20
100.9245545
40
0.4440242
50
328.8294576
51
331.7891185
0
ARC
8
DEFAULT_255_1_388
10
22.1694804
20
100.8666374
40
0.3177517
50
331.4254512
51
352.9365785
0
ARC
8
DEFAULT_255_1_388
10
22.1847804
20
100.863205
40
0.3021496
50
353.2257659
51
0.0166158
0
ARC
8
DEFAULT_255_1_388
10
22.2084564
20
100.8657894
40
0.2784847
50
359.486299
51
15.9343185
0
ARC
8
DEFAULT_255_1_388
10
22.2654831
20
100.8811269
40
0.2194403
50
16.1712913
51
43.5286088
0
ARC
8
DEFAULT_255_1_388
10
22.2741776
20
100.8898191
40
0.2071504
50
43.4417391
51
83.1661095
0
ARC
8
DEFAULT_255_1_388
10
22.2590937
20
100.8069316
40
0.2912888
50
82.160179
51
90.1505708
0
ARC
8
DEFAULT_255_1_388
10
22.2555418
20
100.7465279
40
0.3517025
50
89.5460741
51
102.5418361
0
ARC
8
DEFAULT_255_1_388
10
22.2282138
20
100.8624933
40
0.2325748
50
102.1738499
51
129.206123
0
ARC
8
DEFAULT_255_1_388
10
22.2193592
20
100.8764664
40
0.2161591
50
129.72865
51
135.753947
0
ARC
8
DEFAULT_255_1_388
10
22.2330074
20
100.8655728
40
0.2335433
50
136.1757367
51
166.3673339
0
ARC
8
DEFAULT_255_1_388
10
22.3462762
20
100.8352148
40
0.3507873
50
165.9090694
51
178.8684636
0
ARC
8
DEFAULT_255_1_388
10
22.4438534
20
100.8299263
40
0.4484624
50
178.4391136
51
180.0083808
0
ARC
8
DEFAULT_255_1_388
10
22.2859235
20
100.8343197
40
0.4577138
50
163.2878482
51
180.5581842
0
ARC
8
DEFAULT_255_1_388
10
22.1957276
20
100.8591393
40
0.3641968
50
133.4540601
51
162.947111
0
ARC
8
DEFAULT_255_1_388
10
22.2158158
20
100.8377789
40
0.3935189
50
100.7869829
51
133.4382499
0
ARC
8
DEFAULT_255_1_388
10
22.2549403
20
100.6635399
40
0.5720313
50
89.660664
51
101.3702276
0
ARC
8
DEFAULT_255_1_388
10
22.2624012
20
100.6704263
40
0.5651495
50
78.2172678
51
90.412935
0
ARC
8
DEFAULT_255_1_388
10
22.3023478
20
100.8531511
40
0.378122
50
55.9269121
51
78.4888449
0
ARC
8
DEFAULT_255_1_388
10
22.3244193
20
100.8912187
40
0.3342379
50
47.929771
51
55.4049217
0
ARC
8
DEFAULT_255_1_388
10
22.3358723
20
100.9028618
40
0.3179217
50
4.334829
51
48.0560205
0
ARC
8
DEFAULT_255_1_388
10
22.2126525
20
100.8837487
40
0.442341
50
359.9251713
51
5.5971671
0
ARC
8
DEFAULT_255_1_388
10
22.260868
20
100.8900728
40
0.3941854
50
337.8914027
51
358.9967534
0
ARC
8
DEFAULT_255_1_388
10
21.955625
20
101.0078295
40
0.7213271
50
326.9132501
51
338.3508308
0
ARC
8
DEFAULT_255_1_388
10
21.5072362
20
101.2952105
40
1.2538973
50
319.6471833
51
327.0959558
0
ARC
8
DEFAULT_255_1_388
10
21.075902
20
101.651005
40
1.8129975
50
317.2588228
51
319.9045804
0
LINE
8
DEFAULT_255_1_388
10
23.5983143
20
101.2174898
11
23.5983143
21
100.343743
0
LINE
8
DEFAULT_255_1_388
10
23.5983143
20
100.343743
11
23.7808343
21
100.343743
0
LINE
8
DEFAULT_255_1_388
10
23.7808343
20
100.343743
11
23.7808343
21
100.2073048
0
LINE
8
DEFAULT_255_1_388
10
23.7808343
20
100.2073048
11
23.5983143
21
100.2073048
0
LINE
8
DEFAULT_255_1_388
10
23.5983143
20
100.2073048
11
23.5983143
21
99.9019
0
LINE
8
DEFAULT_255_1_388
10
23.5983143
20
99.9019
11
23.4302513
21
99.9019
0
LINE
8
DEFAULT_255_1_388
10
23.4302513
20
99.9019
11
23.4302513
21
100.2073048
0
LINE
8
DEFAULT_255_1_388
10
23.4302513
20
100.2073048
11
22.831188
21
100.2073048
0
LINE
8
DEFAULT_255_1_388
10
22.831188
20
100.2073048
11
22.831188
21
100.3057933
0
LINE
8
DEFAULT_255_1_388
10
22.831188
20
100.3057933
11
23.4203121
21
101.2174898
0
LINE
8
DEFAULT_255_1_388
10
23.4203121
20
101.2174898
11
23.5983143
21
101.2174898
0
LINE
8
DEFAULT_255_1_388
10
23.4103729
20
100.9527455
11
23.0209366
21
100.343743
0
LINE
8
DEFAULT_255_1_388
10
23.0209366
20
100.343743
11
23.4302513
21
100.343743
0
LINE
8
DEFAULT_255_1_388
10
23.4302513
20
100.343743
11
23.4302513
21
100.988888
0
LINE
8
DEFAULT_255_1_388
10
23.4302513
20
100.988888
11
23.4103729
21
100.9527455
0
LINE
8
DEFAULT_255_1_388
10
24.2967696
20
100.5289737
11
24.2967696
21
100.3925355
0
LINE
8
DEFAULT_255_1_388
10
24.2967696
20
100.3925355
11
23.8558301
21
100.3925355
0
LINE
8
DEFAULT_255_1_388
10
23.8558301
20
100.3925355
11
23.8558301
21
100.5289737
0
LINE
8
DEFAULT_255_1_388
10
23.8558301
20
100.5289737
11
24.2967696
21
100.5289737
0
LINE
8
DEFAULT_255_1_388
10
20.278832
20
5.0693468
11
20.4532199
21
5.0693468
0
LINE
8
DEFAULT_255_1_388
10
19.4403242
20
5.2482525
11
19.4403242
21
5.3747516
0
LINE
8
DEFAULT_255_1_388
10
20.4532199
20
5.5446217
11
20.278832
21
5.5446217
0
LINE
8
DEFAULT_255_1_388
10
19.6147121
20
5.3702337
11
19.6147121
21
5.2428312
0
ARC
8
DEFAULT_255_1_388
10
19.8366433
20
5.1365329
40
0.6202263
50
340.1774904
51
353.7812217
0
ARC
8
DEFAULT_255_1_388
10
20.0134286
20
5.0706893
40
0.4315926
50
311.4560052
51
340.4420756
0
ARC
8
DEFAULT_255_1_388
10
20.0096826
20
5.0831665
40
0.4434573
50
282.4332229
51
310.7514507
0
ARC
8
DEFAULT_255_1_388
10
19.9602644
20
5.2873703
40
0.6535262
50
269.9358869
51
282.8096729
0
ARC
8
DEFAULT_255_1_388
10
19.9544583
20
5.4386329
40
0.8048043
50
269.9995752
51
270.3612856
0
ARC
8
DEFAULT_255_1_388
10
19.9485073
20
5.1587781
40
0.5249831
50
250.7885263
51
270.6488451
0
ARC
8
DEFAULT_255_1_388
10
19.9295898
20
5.0870853
40
0.4510942
50
219.3628377
51
250.0611024
0
ARC
8
DEFAULT_255_1_388
10
20.0228772
20
5.1663653
40
0.5735046
50
193.5480293
51
219.5755675
0
ARC
8
DEFAULT_255_1_388
10
20.2896981
20
5.235652
40
0.849146
50
181.1220183
51
193.8754971
0
ARC
8
DEFAULT_255_1_388
10
20.5220214
20
5.2480914
40
1.0816971
50
179.9914644
51
181.5398227
0
ARC
8
DEFAULT_255_1_388
10
20.3143525
20
5.3789586
40
0.8740384
50
169.5837606
51
180.275782
0
ARC
8
DEFAULT_255_1_388
10
20.1076873
20
5.4171439
40
0.6638751
50
155.0367033
51
169.6002779
0
ARC
8
DEFAULT_255_1_388
10
19.9799331
20
5.4787336
40
0.5220662
50
136.7831557
51
155.2472983
0
ARC
8
DEFAULT_255_1_388
10
19.9361122
20
5.5159577
40
0.4646502
50
121.7633063
51
136.4281161
0
ARC
8
DEFAULT_255_1_388
10
19.9512962
20
5.4879049
40
0.4964979
50
95.6460018
51
121.5489589
0
ARC
8
DEFAULT_255_1_388
10
19.9689936
20
5.3631704
40
0.6223912
50
89.9245727
51
96.1375919
0
ARC
8
DEFAULT_255_1_388
10
19.9746641
20
5.3765721
40
0.6090084
50
76.6779212
51
90.456405
0
ARC
8
DEFAULT_255_1_388
10
20.0189454
20
5.555506
40
0.42469
50
47.4858803
51
76.9287069
0
ARC
8
DEFAULT_255_1_388
10
20.0024068
20
5.5442623
40
0.4441778
50
16.5424081
51
46.8934505
0
ARC
8
DEFAULT_255_1_388
10
19.8215118
20
5.4848265
40
0.6345318
50
5.4072971
51
17.0363711
0
ARC
8
DEFAULT_255_1_388
10
19.6596843
20
5.4588304
40
0.6250632
50
7.8888693
51
15.9242022
0
ARC
8
DEFAULT_255_1_388
10
19.8831828
20
5.5237309
40
0.3923364
50
15.7650676
51
27.9410069
0
ARC
8
DEFAULT_255_1_388
10
20.0073997
20
5.5902317
40
0.2514401
50
27.8167196
51
46.4007942
0
ARC
8
DEFAULT_255_1_388
10
20.0129839
20
5.5895882
40
0.2480958
50
47.4372362
51
75.0695672
0
ARC
8
DEFAULT_255_1_388
10
19.9782675
20
5.4687277
40
0.3738281
50
74.7009379
51
87.8124314
0
ARC
8
DEFAULT_255_1_388
10
19.9700292
20
5.3503659
40
0.4924321
50
87.3802571
51
90.0251599
0
ARC
8
DEFAULT_255_1_388
10
19.9656939
20
5.4823997
40
0.3604218
50
89.3451886
51
108.5744412
0
ARC
8
DEFAULT_255_1_388
10
19.9502931
20
5.5401836
40
0.3007661
50
109.2998307
51
143.3037387
0
ARC
8
DEFAULT_255_1_388
10
20.0360221
20
5.4742584
40
0.4089031
50
143.075267
51
163.1918576
0
ARC
8
DEFAULT_255_1_388
10
20.2556055
20
5.4049652
40
0.6391492
50
162.9375929
51
174.6208776
0
ARC
8
DEFAULT_255_1_388
10
20.5510437
20
5.3725711
40
0.9363344
50
174.342123
51
180.1430283
0
ARC
8
DEFAULT_255_1_388
10
20.4462978
20
5.2382117
40
0.8315986
50
179.6817261
51
189.150555
0
ARC
8
DEFAULT_255_1_388
10
20.1649727
20
5.1913559
40
0.5464044
50
188.9911061
51
203.5772363
0
ARC
8
DEFAULT_255_1_388
10
20.0435019
20
5.1409539
40
0.4149206
50
203.9075402
51
215.1312435
0
ARC
8
DEFAULT_255_1_388
10
19.9396817
20
5.0604907
40
0.2837747
50
213.9071511
51
263.8848919
0
ARC
8
DEFAULT_255_1_388
10
19.953781
20
5.1487519
40
0.3730641
50
263.1757928
51
270.1031044
0
ARC
8
DEFAULT_255_1_388
10
19.957389
20
5.2890511
40
0.5133712
50
269.6722503
51
279.0606936
0
ARC
8
DEFAULT_255_1_388
10
19.9874045
20
5.107615
40
0.3294739
50
278.8749101
51
293.6349581
0
ARC
8
DEFAULT_255_1_388
10
20.0234249
20
5.0230251
40
0.2375405
50
293.8553806
51
310.0518171
0
ARC
8
DEFAULT_255_1_388
10
20.0239758
20
5.0160021
40
0.2318463
50
311.0644687
51
332.0111037
0
ARC
8
DEFAULT_255_1_388
10
19.8898431
20
5.0899702
40
0.3850112
50
331.6586806
51
343.2877423
0
ARC
8
DEFAULT_255_1_388
10
19.6577896
20
5.1612806
40
0.6277712
50
343.1446576
51
351.0103568
0
ARC
8
DEFAULT_255_1_388
10
19.494522
20
5.1912873
40
0.7937327
50
350.71248
51
351.1626997
0
LINE
8
DEFAULT_255_1_388
10
21.701946
20
5.3503553
11
21.701946
21
5.2672274
0
LINE
8
DEFAULT_255_1_388
10
20.643872
20
5.2554811
11
20.643872
21
5.3503553
0
LINE
8
DEFAULT_255_1_388
10
21.5293652
20
5.2545775
11
21.5293652
21
5.3521625
0
LINE
8
DEFAULT_255_1_388
10
20.8164528
20
5.3639088
11
20.8164528
21
5.2672274
0
ARC
8
DEFAULT_255_1_388
10
20.7297198
20
5.2627726
40
0.9722364
50
350.4878118
51
0.2625322
0
ARC
8
DEFAULT_255_1_388
10
20.9877158
20
5.2183994
40
0.7104556
50
336.0277991
51
350.5787241
0
ARC
8
DEFAULT_255_1_388
10
21.1390265
20
5.1500243
40
0.544417
50
319.887443
51
336.1331163
0
ARC
8
DEFAULT_255_1_388
10
21.2068077
20
5.0957733
40
0.4576311
50
302.4806296
51
319.6144102
0
ARC
8
DEFAULT_255_1_388
10
21.1938699
20
5.1207067
40
0.4856183
50
275.8196423
51
302.1885521
0
ARC
8
DEFAULT_255_1_388
10
21.175156
20
5.2492466
40
0.6154183
50
269.9169897
51
276.339506
0
ARC
8
DEFAULT_255_1_388
10
21.1701161
20
5.172068
40
0.5382553
50
252.5221437
51
270.441579
0
ARC
8
DEFAULT_255_1_388
10
21.1539411
20
5.1114046
40
0.4755426
50
237.5349961
51
252.1858334
0
ARC
8
DEFAULT_255_1_388
10
21.1639787
20
5.124212
40
0.4917393
50
209.0632754
51
237.3492577
0
ARC
8
DEFAULT_255_1_388
10
21.2619113
20
5.1857104
40
0.6072464
50
205.118533
51
209.6465345
0
ARC
8
DEFAULT_255_1_388
10
21.3515115
20
5.2237174
40
0.7045164
50
188.7216633
51
204.8239753
0
ARC
8
DEFAULT_255_1_388
10
21.5761891
20
5.2615387
40
0.9323368
50
180.3722704
51
188.9253909
0
ARC
8
DEFAULT_255_1_388
10
21.5731452
20
5.3548416
40
0.929284
50
169.5253055
51
180.2766048
0
ARC
8
DEFAULT_255_1_388
10
21.3591251
20
5.3942024
40
0.7116745
50
155.8314601
51
169.5088611
0
ARC
8
DEFAULT_255_1_388
10
21.2150714
20
5.4610312
40
0.5528904
50
139.6259579
51
156.0379072
0
ARC
8
DEFAULT_255_1_388
10
21.1487248
20
5.5144143
40
0.4677708
50
122.6414784
51
139.3431662
0
ARC
8
DEFAULT_255_1_388
10
21.1600503
20
5.4937787
40
0.4912586
50
93.0224537
51
122.4556091
0
ARC
8
DEFAULT_255_1_388
10
21.1722023
20
5.3851776
40
0.6003837
50
89.9756766
51
93.6340839
0
ARC
8
DEFAULT_255_1_388
10
21.1765621
20
5.4300879
40
0.5554884
50
73.7463329
51
90.4234008
0
ARC
8
DEFAULT_255_1_388
10
21.1963094
20
5.5065772
40
0.4765353
50
57.663051
51
73.4516911
0
ARC
8
DEFAULT_255_1_388
10
21.1954132
20
5.5090108
40
0.4749629
50
29.1441355
51
57.4146687
0
ARC
8
DEFAULT_255_1_388
10
21.0901943
20
5.4433046
40
0.5988917
50
24.0985653
51
29.732054
0
ARC
8
DEFAULT_255_1_388
10
20.9739575
20
5.3951154
40
0.7246823
50
8.6654943
51
23.8241215
0
ARC
8
DEFAULT_255_1_388
10
20.7225994
20
5.3541037
40
0.9793537
50
359.7807044
51
8.8218476
0
ARC
8
DEFAULT_255_1_388
10
20.5935698
20
5.3569731
40
0.9358078
50
359.7054632
51
8.0359751
0
ARC
8
DEFAULT_255_1_388
10
20.9310749
20
5.4061252
40
0.5947474
50
7.8926278
51
20.2962188
0
ARC
8
DEFAULT_255_1_388
10
21.11416
20
5.4736367
40
0.3996117
50
20.3231056
51
36.4990255
0
ARC
8
DEFAULT_255_1_388
10
21.1912897
20
5.5330399
40
0.3022818
50
36.1436715
51
85.6627846
0
ARC
8
DEFAULT_255_1_388
10
21.1730152
20
5.4160881
40
0.4203853
50
84.3845912
51
90.076054
0
ARC
8
DEFAULT_255_1_388
10
21.1682507
20
5.4903416
40
0.346157
50
89.3037228
51
109.9046209
0
ARC
8
DEFAULT_255_1_388
10
21.157834
20
5.5333379
40
0.3022217
50
110.8229774
51
143.917961
0
ARC
8
DEFAULT_255_1_388
10
21.26287
20
5.4531455
40
0.434348
50
143.5289166
51
163.2980252
0
ARC
8
DEFAULT_255_1_388
10
21.4774987
20
5.3856685
40
0.659321
50
163.0418884
51
174.3139873
0
ARC
8
DEFAULT_255_1_388
10
21.7479951
20
5.3544378
40
0.9315905
50
174.050934
51
179.4174954
0
ARC
8
DEFAULT_255_1_388
10
21.6911895
20
5.2625382
40
0.8747493
50
179.6928582
51
188.7908948
0
ARC
8
DEFAULT_255_1_388
10
21.3915695
20
5.2146086
40
0.5713262
50
188.6328449
51
202.5630732
0
ARC
8
DEFAULT_255_1_388
10
21.2504532
20
5.1579142
40
0.4192612
50
202.8078931
51
216.1195888
0
ARC
8
DEFAULT_255_1_388
10
21.1594049
20
5.0846479
40
0.3025752
50
215.0755613
51
264.6379773
0
ARC
8
DEFAULT_255_1_388
10
21.1736887
20
5.1781376
40
0.3970284
50
263.8464302
51
270.0830805
0
ARC
8
DEFAULT_255_1_388
10
21.1783431
20
5.1490808
40
0.3679937
50
269.3649295
51
287.5149684
0
ARC
8
DEFAULT_255_1_388
10
21.1983872
20
5.0762714
40
0.2925408
50
288.0629019
51
323.8115617
0
ARC
8
DEFAULT_255_1_388
10
21.1003848
20
5.1493754
40
0.4148018
50
323.6546541
51
342.6591359
0
ARC
8
DEFAULT_255_1_388
10
20.8718506
20
5.223728
40
0.6551163
50
342.4092446
51
353.6451501
0
ARC
8
DEFAULT_255_1_388
10
20.55333
20
5.2633565
40
0.9760748
50
353.4027553
51
359.4846611
0
LINE
8
DEFAULT_255_1_388
10
21.9621726
20
5.9674898
11
22.1862565
21
5.9674898
0
LINE
8
DEFAULT_255_1_388
10
22.1862565
20
5.9674898
11
22.6163532
21
4.8940553
0
LINE
8
DEFAULT_255_1_388
10
22.6163532
20
4.8940553
11
23.0464499
21
5.9674898
0
LINE
8
DEFAULT_255_1_388
10
23.0464499
20
5.9674898
11
23.2714375
21
5.9674898
0
LINE
8
DEFAULT_255_1_388
10
23.2714375
20
5.9674898
11
23.2714375
21
4.6519
0
LINE
8
DEFAULT_255_1_388
10
23.2714375
20
4.6519
11
23.0979531
21
4.6519
0
LINE
8
DEFAULT_255_1_388
10
23.0979531
20
4.6519
11
23.0979531
21
5.164221
0
LINE
8
DEFAULT_255_1_388
10
23.0979531
20
5.164221
11
23.1142172
21
5.7172025
0
LINE
8
DEFAULT_255_1_388
10
23.1142172
20
5.7172025
11
22.6823134
21
4.6519
0
LINE
8
DEFAULT_255_1_388
10
22.6823134
20
4.6519
11
22.5494895
21
4.6519
0
LINE
8
DEFAULT_255_1_388
10
22.5494895
20
4.6519
11
22.1184892
21
5.7144918
0
LINE
8
DEFAULT_255_1_388
10
22.1184892
20
5.7144918
11
22.1356569
21
5.164221
0
LINE
8
DEFAULT_255_1_388
10
22.1356569
20
5.164221
11
22.1356569
21
4.6519
0
LINE
8
DEFAULT_255_1_388
10
22.1356569
20
4.6519
11
21.9621726
21
4.6519
0
LINE
8
DEFAULT_255_1_388
10
21.9621726
20
4.6519
11
21.9621726
21
5.9674898
0
LINE
8
DEFAULT_255_1_388
10
23.7774335
20
5.2545775
11
23.7774335
21
5.3910157
0
LINE
8
DEFAULT_255_1_388
10
23.7774335
20
5.3910157
11
23.903029
21
5.3910157
0
LINE
8
DEFAULT_255_1_388
10
23.6888842
20
5.6223282
11
23.5217248
21
5.6223282
0
LINE
8
DEFAULT_255_1_388
10
23.5099785
20
4.9988687
11
23.6780415
21
4.9988687
0
LINE
8
DEFAULT_255_1_388
10
23.903029
20
5.2545775
11
23.7774335
21
5.2545775
0
ARC
8
DEFAULT_255_1_388
10
23.8997517
20
5.7726922
40
0.3816905
50
270.491971
51
281.8953028
0
ARC
8
DEFAULT_255_1_388
10
23.9268943
20
5.6487199
40
0.2547877
50
281.6690378
51
301.2943765
0
ARC
8
DEFAULT_255_1_388
10
23.9460395
20
5.6136926
40
0.2149197
50
301.7834992
51
311.754567
0
ARC
8
DEFAULT_255_1_388
10
23.9563436
20
5.602265
40
0.1995326
50
311.7325027
51
354.2803031
0
ARC
8
DEFAULT_255_1_388
10
23.8745852
20
5.616328
40
0.2823461
50
353.0941646
51
0.1174696
0
ARC
8
DEFAULT_255_1_388
10
23.822741
20
5.6216874
40
0.3342238
50
359.1804452
51
15.0452323
0
ARC
8
DEFAULT_255_1_388
10
23.9741468
20
5.6658546
40
0.1765747
50
13.957816
51
77.6713812
0
ARC
8
DEFAULT_255_1_388
10
23.9306704
20
5.5100464
40
0.3381982
50
76.111571
51
90.7028736
0
ARC
8
DEFAULT_255_1_388
10
23.9240116
20
5.540825
40
0.3074046
50
89.5321574
51
103.5319393
0
ARC
8
DEFAULT_255_1_388
10
23.90145
20
5.6307443
40
0.2147041
50
103.2930114
51
133.5619756
0
ARC
8
DEFAULT_255_1_388
10
23.8964441
20
5.6374351
40
0.2064084
50
133.8349761
51
173.5343225
0
ARC
8
DEFAULT_255_1_388
10
23.9778099
20
5.6230144
40
0.2889266
50
172.5097183
51
180.1360699
0
ARC
8
DEFAULT_255_1_388
10
23.8707863
20
5.626888
40
0.3490913
50
155.3483706
51
180.7484035
0
ARC
8
DEFAULT_255_1_388
10
23.8652839
20
5.6236519
40
0.3454798
50
131.5745177
51
154.4799474
0
ARC
8
DEFAULT_255_1_388
10
23.9005121
20
5.5880422
40
0.3955058
50
96.9874487
51
131.9690874
0
ARC
8
DEFAULT_255_1_388
10
23.9252014
20
5.4479407
40
0.537622
50
89.8592909
51
97.7827481
0
ARC
8
DEFAULT_255_1_388
10
23.9306123
20
5.418436
40
0.5671399
50
78.3654493
51
90.4132586
0
ARC
8
DEFAULT_255_1_388
10
23.9708764
20
5.6050918
40
0.3762034
50
56.6229818
51
78.6387103
0
ARC
8
DEFAULT_255_1_388
10
23.9950593
20
5.6473846
40
0.3275964
50
47.0254604
51
56.085558
0
ARC
8
DEFAULT_255_1_388
10
23.9972844
20
5.6518189
40
0.3228382
50
10.9207523
51
46.777927
0
ARC
8
DEFAULT_255_1_388
10
23.8438438
20
5.6163401
40
0.4802559
50
359.6364235
51
11.6087615
0
ARC
8
DEFAULT_255_1_388
10
24.0502604
20
5.6146404
40
0.273833
50
332.3549969
51
359.7179765
0
ARC
8
DEFAULT_255_1_388
10
23.9771004
20
5.6493285
40
0.3547505
50
325.2332381
51
332.8746682
0
ARC
8
DEFAULT_255_1_388
10
23.9942587
20
5.6373763
40
0.3338396
50
292.9803892
51
325.2391113
0
ARC
8
DEFAULT_255_1_388
10
23.9631783
20
5.6978679
40
0.4016959
50
292.542178
51
293.6931461
0
ARC
8
DEFAULT_255_1_388
10
24.0075355
20
4.9713036
40
0.372079
50
57.643292
51
72.8626085
0
ARC
8
DEFAULT_255_1_388
10
24.047419
20
5.0359273
40
0.2961455
50
36.7246661
51
57.4701329
0
ARC
8
DEFAULT_255_1_388
10
24.0461346
20
5.037347
40
0.2963321
50
8.054535
51
36.3561529
0
ARC
8
DEFAULT_255_1_388
10
23.9491019
20
5.0199073
40
0.3948682
50
359.8316595
51
8.5873361
0
ARC
8
DEFAULT_255_1_388
10
23.9068493
20
5.014497
40
0.4371398
50
343.9831631
51
0.557075
0
ARC
8
DEFAULT_255_1_388
10
24.0065543
20
4.9871963
40
0.3337749
50
311.6358204
51
343.7652116
0
ARC
8
DEFAULT_255_1_388
10
23.9639796
20
5.0351955
40
0.3979351
50
279.7829743
51
311.625622
0
ARC
8
DEFAULT_255_1_388
10
23.9300932
20
5.1968642
40
0.5630417
50
269.7285092
51
280.3857694
0
ARC
8
DEFAULT_255_1_388
10
23.9231244
20
5.1922241
40
0.5584119
50
256.6827433
51
270.4412869
0
ARC
8
DEFAULT_255_1_388
10
23.8850231
20
5.0364698
40
0.3980715
50
229.4223821
51
256.8554507
0
ARC
8
DEFAULT_255_1_388
10
23.8383784
20
4.9839683
40
0.3278564
50
181.8183354
51
229.6455015
0
ARC
8
DEFAULT_255_1_388
10
23.9553394
20
4.9986825
40
0.4453611
50
179.9760419
51
183.2330638
0
ARC
8
DEFAULT_255_1_388
10
23.9359946
20
4.9963781
40
0.2579652
50
179.4467996
51
196.2871626
0
ARC
8
DEFAULT_255_1_388
10
23.88114
20
4.9813709
40
0.2011057
50
196.5661293
51
227.7059371
0
ARC
8
DEFAULT_255_1_388
10
23.8996007
20
5.0020155
40
0.2287994
50
227.7653015
51
257.8763321
0
ARC
8
DEFAULT_255_1_388
10
23.924909
20
5.1080961
40
0.3378385
50
257.4583525
51
270.4267406
0
ARC
8
DEFAULT_255_1_388
10
23.930034
20
5.140723
40
0.3704652
50
269.5965319
51
280.8788143
0
ARC
8
DEFAULT_255_1_388
10
23.9558568
20
5.0117529
40
0.2389415
50
280.6347277
51
299.8594068
0
ARC
8
DEFAULT_255_1_388
10
23.9773338
20
4.9709736
40
0.19289
50
300.3575552
51
314.5515667
0
ARC
8
DEFAULT_255_1_388
10
23.9680013
20
4.9778025
40
0.204312
50
315.0730962
51
345.0429362
0
ARC
8
DEFAULT_255_1_388
10
23.8641521
20
5.0080539
40
0.31246
50
344.598526
51
357.9270698
0
ARC
8
DEFAULT_255_1_388
10
23.7631826
20
5.0149705
40
0.4136265
50
357.4755098
51
0.0224936
0
ARC
8
DEFAULT_255_1_388
10
23.8784703
20
5.0177099
40
0.2983498
50
359.5051035
51
13.4236939
0
ARC
8
DEFAULT_255_1_388
10
23.9759793
20
5.0426637
40
0.1977186
50
12.9497905
51
48.7550905
0
ARC
8
DEFAULT_255_1_388
10
23.9554715
20
5.0146373
40
0.2323321
50
49.509109
51
72.1832965
0
ARC
8
DEFAULT_255_1_388
10
23.9152183
20
4.8951632
40
0.358397
50
71.9008458
51
84.3555134
0
ARC
8
DEFAULT_255_1_388
10
23.8970578
20
4.7419712
40
0.512641
50
84.019632
51
89.3326067
0
LINE
8
DEFAULT_255_1_388
10
20.5606448
20
13.9049898
11
20.9347205
21
12.8198089
0
LINE
8
DEFAULT_255_1_388
10
20.9347205
20
12.8198089
11
21.3106033
21
13.9049898
0
LINE
8
DEFAULT_255_1_388
10
21.3106033
20
13.9049898
11
21.5003518
21
13.9049898
0
LINE
8
DEFAULT_255_1_388
10
21.5003518
20
13.9049898
11
21.012427
21
12.5894
0
LINE
8
DEFAULT_255_1_388
10
21.012427
20
12.5894
11
20.858821
21
12.5894
0
LINE
8
DEFAULT_255_1_388
10
20.858821
20
12.5894
11
20.3717998
21
13.9049898
0
LINE
8
DEFAULT_255_1_388
10
20.3717998
20
13.9049898
11
20.5606448
21
13.9049898
0
LINE
8
DEFAULT_255_1_388
10
22.6767927
20
13.2878553
11
22.6767927
21
13.2047274
0
LINE
8
DEFAULT_255_1_388
10
21.6187187
20
13.1929811
11
21.6187187
21
13.2878553
0
LINE
8
DEFAULT_255_1_388
10
22.5042119
20
13.1920775
11
22.5042119
21
13.2896625
0
LINE
8
DEFAULT_255_1_388
10
21.7912996
20
13.3014088
11
21.7912996
21
13.2047274
0
ARC
8
DEFAULT_255_1_388
10
21.7045666
20
13.2002726
40
0.9722364
50
350.4878118
51
0.2625322
0
ARC
8
DEFAULT_255_1_388
10
21.9625626
20
13.1558994
40
0.7104556
50
336.0277991
51
350.5787241
0
ARC
8
DEFAULT_255_1_388
10
22.1138732
20
13.0875243
40
0.544417
50
319.887443
51
336.1331163
0
ARC
8
DEFAULT_255_1_388
10
22.1816545
20
13.0332733
40
0.4576311
50
302.4806296
51
319.6144102
0
ARC
8
DEFAULT_255_1_388
10
22.1687166
20
13.0582067
40
0.4856183
50
275.8196423
51
302.1885521
0
ARC
8
DEFAULT_255_1_388
10
22.1500027
20
13.1867466
40
0.6154183
50
269.9169897
51
276.339506
0
ARC
8
DEFAULT_255_1_388
10
22.1449628
20
13.109568
40
0.5382553
50
252.5221437
51
270.441579
0
ARC
8
DEFAULT_255_1_388
10
22.1287878
20
13.0489046
40
0.4755426
50
237.5349961
51
252.1858334
0
ARC
8
DEFAULT_255_1_388
10
22.1388254
20
13.061712
40
0.4917393
50
209.0632754
51
237.3492577
0
ARC
8
DEFAULT_255_1_388
10
22.236758
20
13.1232104
40
0.6072464
50
205.118533
51
209.6465345
0
ARC
8
DEFAULT_255_1_388
10
22.3263582
20
13.1612174
40
0.7045164
50
188.7216633
51
204.8239753
0
ARC
8
DEFAULT_255_1_388
10
22.5510358
20
13.1990387
40
0.9323368
50
180.3722704
51
188.9253909
0
ARC
8
DEFAULT_255_1_388
10
22.5479919
20
13.2923416
40
0.929284
50
169.5253055
51
180.2766048
0
ARC
8
DEFAULT_255_1_388
10
22.3339718
20
13.3317024
40
0.7116745
50
155.8314601
51
169.5088611
0
ARC
8
DEFAULT_255_1_388
10
22.1899181
20
13.3985312
40
0.5528904
50
139.6259579
51
156.0379072
0
ARC
8
DEFAULT_255_1_388
10
22.1235715
20
13.4519143
40
0.4677708
50
122.6414784
51
139.3431662
0
ARC
8
DEFAULT_255_1_388
10
22.134897
20
13.4312787
40
0.4912586
50
93.0224537
51
122.4556091
0
ARC
8
DEFAULT_255_1_388
10
22.1470491
20
13.3226776
40
0.6003837
50
89.9756766
51
93.6340839
0
ARC
8
DEFAULT_255_1_388
10
22.1514088
20
13.3675879
40
0.5554884
50
73.7463329
51
90.4234008
0
ARC
8
DEFAULT_255_1_388
10
22.1711562
20
13.4440772
40
0.4765353
50
57.663051
51
73.4516911
0
ARC
8
DEFAULT_255_1_388
10
22.1702599
20
13.4465108
40
0.4749629
50
29.1441355
51
57.4146687
0
ARC
8
DEFAULT_255_1_388
10
22.0650411
20
13.3808046
40
0.5988917
50
24.0985653
51
29.732054
0
ARC
8
DEFAULT_255_1_388
10
21.9488042
20
13.3326154
40
0.7246823
50
8.6654943
51
23.8241215
0
ARC
8
DEFAULT_255_1_388
10
21.6974461
20
13.2916037
40
0.9793537
50
359.7807044
51
8.8218476
0
ARC
8
DEFAULT_255_1_388
10
21.5684165
20
13.2944731
40
0.9358078
50
359.7054632
51
8.0359751
0
ARC
8
DEFAULT_255_1_388
10
21.9059217
20
13.3436252
40
0.5947474
50
7.8926278
51
20.2962188
0
ARC
8
DEFAULT_255_1_388
10
22.0890067
20
13.4111367
40
0.3996117
50
20.3231056
51
36.4990255
0
ARC
8
DEFAULT_255_1_388
10
22.1661364
20
13.4705399
40
0.3022818
50
36.1436715
51
85.6627846
0
ARC
8
DEFAULT_255_1_388
10
22.147862
20
13.3535881
40
0.4203853
50
84.3845912
51
90.076054
0
ARC
8
DEFAULT_255_1_388
10
22.1430974
20
13.4278416
40
0.346157
50
89.3037228
51
109.9046209
0
ARC
8
DEFAULT_255_1_388
10
22.1326807
20
13.4708379
40
0.3022217
50
110.8229774
51
143.917961
0
ARC
8
DEFAULT_255_1_388
10
22.2377167
20
13.3906455
40
0.434348
50
143.5289166
51
163.2980252
0
ARC
8
DEFAULT_255_1_388
10
22.4523454
20
13.3231685
40
0.659321
50
163.0418884
51
174.3139873
0
ARC
8
DEFAULT_255_1_388
10
22.7228419
20
13.2919378
40
0.9315905
50
174.050934
51
179.4174954
0
ARC
8
DEFAULT_255_1_388
10
22.6660363
20
13.2000382
40
0.8747493
50
179.6928582
51
188.7908948
0
ARC
8
DEFAULT_255_1_388
10
22.3664163
20
13.1521086
40
0.5713262
50
188.6328449
51
202.5630732
0
ARC
8
DEFAULT_255_1_388
10
22.2252999
20
13.0954142
40
0.4192612
50
202.8078931
51
216.1195888
0
ARC
8
DEFAULT_255_1_388
10
22.1342516
20
13.0221479
40
0.3025752
50
215.0755613
51
264.6379773
0
ARC
8
DEFAULT_255_1_388
10
22.1485354
20
13.1156376
40
0.3970284
50
263.8464302
51
270.0830805
0
ARC
8
DEFAULT_255_1_388
10
22.1531899
20
13.0865808
40
0.3679937
50
269.3649295
51
287.5149684
0
ARC
8
DEFAULT_255_1_388
10
22.1732339
20
13.0137714
40
0.2925408
50
288.0629019
51
323.8115617
0
ARC
8
DEFAULT_255_1_388
10
22.0752316
20
13.0868754
40
0.4148018
50
323.6546541
51
342.6591359
0
ARC
8
DEFAULT_255_1_388
10
21.8466973
20
13.161228
40
0.6551163
50
342.4092446
51
353.6451501
0
ARC
8
DEFAULT_255_1_388
10
21.5281767
20
13.2008565
40
0.9760748
50
353.4027553
51
359.4846611
0
LINE
8
DEFAULT_255_1_388
10
23.2586882
20
13.2164737
11
23.2586882
21
13.0800355
0
LINE
8
DEFAULT_255_1_388
10
23.2586882
20
13.0800355
11
22.8177488
21
13.0800355
0
LINE
8
DEFAULT_255_1_388
10
22.8177488
20
13.0800355
11
22.8177488
21
13.2164737
0
LINE
8
DEFAULT_255_1_388
10
22.8177488
20
13.2164737
11
23.2586882
21
13.2164737
0
LINE
8
DEFAULT_255_1_388
10
23.6472209
20
13.1920775
11
23.6472209
21
13.3285157
0
LINE
8
DEFAULT_255_1_388
10
23.6472209
20
13.3285157
11
23.7728164
21
13.3285157
0
LINE
8
DEFAULT_255_1_388
10
23.5586716
20
13.5598282
11
23.3915122
21
13.5598282
0
LINE
8
DEFAULT_255_1_388
10
23.3797659
20
12.9363687
11
23.5478289
21
12.9363687
0
LINE
8
DEFAULT_255_1_388
10
23.7728164
20
13.1920775
11
23.6472209
21
13.1920775
0
ARC
8
DEFAULT_255_1_388
10
23.7695391
20
13.7101922
40
0.3816905
50
270.491971
51
281.8953028
0
ARC
8
DEFAULT_255_1_388
10
23.7966818
20
13.5862199
40
0.2547877
50
281.6690378
51
301.2943765
0
ARC
8
DEFAULT_255_1_388
10
23.8158269
20
13.5511926
40
0.2149197
50
301.7834992
51
311.754567
0
ARC
8
DEFAULT_255_1_388
10
23.826131
20
13.539765
40
0.1995326
50
311.7325027
51
354.2803031
0
ARC
8
DEFAULT_255_1_388
10
23.7443726
20
13.553828
40
0.2823461
50
353.0941646
51
0.1174696
0
ARC
8
DEFAULT_255_1_388
10
23.6925284
20
13.5591874
40
0.3342238
50
359.1804452
51
15.0452323
0
ARC
8
DEFAULT_255_1_388
10
23.8439342
20
13.6033546
40
0.1765747
50
13.957816
51
77.6713812
0
ARC
8
DEFAULT_255_1_388
10
23.8004578
20
13.4475464
40
0.3381982
50
76.111571
51
90.7028736
0
ARC
8
DEFAULT_255_1_388
10
23.793799
20
13.478325
40
0.3074046
50
89.5321574
51
103.5319393
0
ARC
8
DEFAULT_255_1_388
10
23.7712374
20
13.5682443
40
0.2147041
50
103.2930114
51
133.5619756
0
ARC
8
DEFAULT_255_1_388
10
23.7662315
20
13.5749351
40
0.2064084
50
133.8349761
51
173.5343225
0
ARC
8
DEFAULT_255_1_388
10
23.8475973
20
13.5605144
40
0.2889266
50
172.5097183
51
180.1360699
0
ARC
8
DEFAULT_255_1_388
10
23.7405737
20
13.564388
40
0.3490913
50
155.3483706
51
180.7484035
0
ARC
8
DEFAULT_255_1_388
10
23.7350713
20
13.5611519
40
0.3454798
50
131.5745177
51
154.4799474
0
ARC
8
DEFAULT_255_1_388
10
23.7702995
20
13.5255422
40
0.3955058
50
96.9874487
51
131.9690874
0
ARC
8
DEFAULT_255_1_388
10
23.7949888
20
13.3854407
40
0.537622
50
89.8592909
51
97.7827481
0
ARC
8
DEFAULT_255_1_388
10
23.8003997
20
13.355936
40
0.5671399
50
78.3654493
51
90.4132586
0
ARC
8
DEFAULT_255_1_388
10
23.8406638
20
13.5425918
40
0.3762034
50
56.6229818
51
78.6387103
0
ARC
8
DEFAULT_255_1_388
10
23.8648467
20
13.5848846
40
0.3275964
50
47.0254604
51
56.085558
0
ARC
8
DEFAULT_255_1_388
10
23.8670718
20
13.5893189
40
0.3228382
50
10.9207523
51
46.777927
0
ARC
8
DEFAULT_255_1_388
10
23.7136312
20
13.5538401
40
0.4802559
50
359.6364235
51
11.6087615
0
ARC
8
DEFAULT_255_1_388
10
23.9200478
20
13.5521404
40
0.273833
50
332.3549969
51
359.7179765
0
ARC
8
DEFAULT_255_1_388
10
23.8468878
20
13.5868285
40
0.3547505
50
325.2332381
51
332.8746682
0
ARC
8
DEFAULT_255_1_388
10
23.8640461
20
13.5748763
40
0.3338396
50
292.9803892
51
325.2391113
0
ARC
8
DEFAULT_255_1_388
10
23.8329657
20
13.6353679
40
0.4016959
50
292.542178
51
293.6931461
0
ARC
8
DEFAULT_255_1_388
10
23.8773229
20
12.9088036
40
0.372079
50
57.643292
51
72.8626085
0
ARC
8
DEFAULT_255_1_388
10
23.9172064
20
12.9734273
40
0.2961455
50
36.7246661
51
57.4701329
0
ARC
8
DEFAULT_255_1_388
10
23.915922
20
12.974847
40
0.2963321
50
8.054535
51
36.3561529
0
ARC
8
DEFAULT_255_1_388
10
23.8188893
20
12.9574073
40
0.3948682
50
359.8316595
51
8.5873361
0
ARC
8
DEFAULT_255_1_388
10
23.7766367
20
12.951997
40
0.4371398
50
343.9831631
51
0.557075
0
ARC
8
DEFAULT_255_1_388
10
23.8763417
20
12.9246963
40
0.3337749
50
311.6358204
51
343.7652116
0
ARC
8
DEFAULT_255_1_388
10
23.833767
20
12.9726955
40
0.3979351
50
279.7829743
51
311.625622
0
ARC
8
DEFAULT_255_1_388
10
23.7998806
20
13.1343642
40
0.5630417
50
269.7285092
51
280.3857694
0
ARC
8
DEFAULT_255_1_388
10
23.7929119
20
13.1297241
40
0.5584119
50
256.6827433
51
270.4412869
0
ARC
8
DEFAULT_255_1_388
10
23.7548105
20
12.9739698
40
0.3980715
50
229.4223821
51
256.8554507
0
ARC
8
DEFAULT_255_1_388
10
23.7081658
20
12.9214683
40
0.3278564
50
181.8183354
51
229.6455015
0
ARC
8
DEFAULT_255_1_388
10
23.8251268
20
12.9361825
40
0.4453611
50
179.9760419
51
183.2330638
0
ARC
8
DEFAULT_255_1_388
10
23.805782
20
12.9338781
40
0.2579652
50
179.4467996
51
196.2871626
0
ARC
8
DEFAULT_255_1_388
10
23.7509274
20
12.9188709
40
0.2011057
50
196.5661293
51
227.7059371
0
ARC
8
DEFAULT_255_1_388
10
23.7693881
20
12.9395155
40
0.2287994
50
227.7653015
51
257.8763321
0
ARC
8
DEFAULT_255_1_388
10
23.7946964
20
13.0455961
40
0.3378385
50
257.4583525
51
270.4267406
0
ARC
8
DEFAULT_255_1_388
10
23.7998214
20
13.078223
40
0.3704652
50
269.5965319
51
280.8788143
0
ARC
8
DEFAULT_255_1_388
10
23.8256442
20
12.9492529
40
0.2389415
50
280.6347277
51
299.8594068
0
ARC
8
DEFAULT_255_1_388
10
23.8471212
20
12.9084736
40
0.19289
50
300.3575552
51
314.5515667
0
ARC
8
DEFAULT_255_1_388
10
23.8377887
20
12.9153025
40
0.204312
50
315.0730962
51
345.0429362
0
ARC
8
DEFAULT_255_1_388
10
23.7339395
20
12.9455539
40
0.31246
50
344.598526
51
357.9270698
0
ARC
8
DEFAULT_255_1_388
10
23.63297
20
12.9524705
40
0.4136265
50
357.4755098
51
0.0224936
0
ARC
8
DEFAULT_255_1_388
10
23.7482577
20
12.9552099
40
0.2983498
50
359.5051035
51
13.4236939
0
ARC
8
DEFAULT_255_1_388
10
23.8457667
20
12.9801637
40
0.1977186
50
12.9497905
51
48.7550905
0
ARC
8
DEFAULT_255_1_388
10
23.8252589
20
12.9521373
40
0.2323321
50
49.509109
51
72.1832965
0
ARC
8
DEFAULT_255_1_388
10
23.7850057
20
12.8326632
40
0.358397
50
71.9008458
51
84.3555134
0
ARC
8
DEFAULT_255_1_388
10
23.7668452
20
12.6794712
40
0.512641
50
84.019632
51
89.3326067
0
LINE
8
DEFAULT_255_1_388
10
21.384732
20
20.9443468
11
21.5591199
21
20.9443468
0
LINE
8
DEFAULT_255_1_388
10
20.5462242
20
21.1232525
11
20.5462242
21
21.2497516
0
LINE
8
DEFAULT_255_1_388
10
21.5591199
20
21.4196217
11
21.384732
21
21.4196217
0
LINE
8
DEFAULT_255_1_388
10
20.7206121
20
21.2452337
11
20.7206121
21
21.1178312
0
ARC
8
DEFAULT_255_1_388
10
20.9425433
20
21.0115329
40
0.6202263
50
340.1774904
51
353.7812217
0
ARC
8
DEFAULT_255_1_388
10
21.1193286
20
20.9456893
40
0.4315926
50
311.4560052
51
340.4420756
0
ARC
8
DEFAULT_255_1_388
10
21.1155826
20
20.9581665
40
0.4434573
50
282.4332229
51
310.7514507
0
ARC
8
DEFAULT_255_1_388
10
21.0661644
20
21.1623703
40
0.6535262
50
269.9358869
51
282.8096729
0
ARC
8
DEFAULT_255_1_388
10
21.0603583
20
21.3136329
40
0.8048043
50
269.9995752
51
270.3612856
0
ARC
8
DEFAULT_255_1_388
10
21.0544073
20
21.0337781
40
0.5249831
50
250.7885263
51
270.6488451
0
ARC
8
DEFAULT_255_1_388
10
21.0354898
20
20.9620853
40
0.4510942
50
219.3628377
51
250.0611024
0
ARC
8
DEFAULT_255_1_388
10
21.1287772
20
21.0413653
40
0.5735046
50
193.5480293
51
219.5755675
0
ARC
8
DEFAULT_255_1_388
10
21.3955981
20
21.110652
40
0.849146
50
181.1220183
51
193.8754971
0
ARC
8
DEFAULT_255_1_388
10
21.6279214
20
21.1230914
40
1.0816971
50
179.9914644
51
181.5398227
0
ARC
8
DEFAULT_255_1_388
10
21.4202525
20
21.2539586
40
0.8740384
50
169.5837606
51
180.275782
0
ARC
8
DEFAULT_255_1_388
10
21.2135873
20
21.2921439
40
0.6638751
50
155.0367033
51
169.6002779
0
ARC
8
DEFAULT_255_1_388
10
21.0858331
20
21.3537336
40
0.5220662
50
136.7831557
51
155.2472983
0
ARC
8
DEFAULT_255_1_388
10
21.0420122
20
21.3909577
40
0.4646502
50
121.7633063
51
136.4281161
0
ARC
8
DEFAULT_255_1_388
10
21.0571962
20
21.3629049
40
0.4964979
50
95.6460018
51
121.5489589
0
ARC
8
DEFAULT_255_1_388
10
21.0748936
20
21.2381704
40
0.6223912
50
89.9245727
51
96.1375919
0
ARC
8
DEFAULT_255_1_388
10
21.0805641
20
21.2515721
40
0.6090084
50
76.6779212
51
90.456405
0
ARC
8
DEFAULT_255_1_388
10
21.1248454
20
21.430506
40
0.42469
50
47.4858803
51
76.9287069
0
ARC
8
DEFAULT_255_1_388
10
21.1083068
20
21.4192623
40
0.4441778
50
16.5424081
51
46.8934505
0
ARC
8
DEFAULT_255_1_388
10
20.9274118
20
21.3598265
40
0.6345318
50
5.4072971
51
17.0363711
0
ARC
8
DEFAULT_255_1_388
10
20.7655843
20
21.3338304
40
0.6250632
50
7.8888693
51
15.9242022
0
ARC
8
DEFAULT_255_1_388
10
20.9890828
20
21.3987309
40
0.3923364
50
15.7650676
51
27.9410069
0
ARC
8
DEFAULT_255_1_388
10
21.1132997
20
21.4652317
40
0.2514401
50
27.8167196
51
46.4007942
0
ARC
8
DEFAULT_255_1_388
10
21.1188839
20
21.4645882
40
0.2480958
50
47.4372362
51
75.0695672
0
ARC
8
DEFAULT_255_1_388
10
21.0841675
20
21.3437277
40
0.3738281
50
74.7009379
51
87.8124314
0
ARC
8
DEFAULT_255_1_388
10
21.0759292
20
21.2253659
40
0.4924321
50
87.3802571
51
90.0251599
0
ARC
8
DEFAULT_255_1_388
10
21.0715939
20
21.3573997
40
0.3604218
50
89.3451886
51
108.5744412
0
ARC
8
DEFAULT_255_1_388
10
21.0561931
20
21.4151836
40
0.3007661
50
109.2998307
51
143.3037387
0
ARC
8
DEFAULT_255_1_388
10
21.1419221
20
21.3492584
40
0.4089031
50
143.075267
51
163.1918576
0
ARC
8
DEFAULT_255_1_388
10
21.3615055
20
21.2799652
40
0.6391492
50
162.9375929
51
174.6208776
0
ARC
8
DEFAULT_255_1_388
10
21.6569437
20
21.2475711
40
0.9363344
50
174.342123
51
180.1430283
0
ARC
8
DEFAULT_255_1_388
10
21.5521978
20
21.1132117
40
0.8315986
50
179.6817261
51
189.150555
0
ARC
8
DEFAULT_255_1_388
10
21.2708727
20
21.0663559
40
0.5464044
50
188.9911061
51
203.5772363
0
ARC
8
DEFAULT_255_1_388
10
21.1494019
20
21.0159539
40
0.4149206
50
203.9075402
51
215.1312435
0
ARC
8
DEFAULT_255_1_388
10
21.0455817
20
20.9354907
40
0.2837747
50
213.9071511
51
263.8848919
0
ARC
8
DEFAULT_255_1_388
10
21.059681
20
21.0237519
40
0.3730641
50
263.1757928
51
270.1031044
0
ARC
8
DEFAULT_255_1_388
10
21.063289
20
21.1640511
40
0.5133712
50
269.6722503
51
279.0606936
0
ARC
8
DEFAULT_255_1_388
10
21.0933045
20
20.982615
40
0.3294739
50
278.8749101
51
293.6349581
0
ARC
8
DEFAULT_255_1_388
10
21.1293249
20
20.8980251
40
0.2375405
50
293.8553806
51
310.0518171
0
ARC
8
DEFAULT_255_1_388
10
21.1298758
20
20.8910021
40
0.2318463
50
311.0644687
51
332.0111037
0
ARC
8
DEFAULT_255_1_388
10
20.9957431
20
20.9649702
40
0.3850112
50
331.6586806
51
343.2877423
0
ARC
8
DEFAULT_255_1_388
10
20.7636896
20
21.0362806
40
0.6277712
50
343.1446576
51
351.0103568
0
ARC
8
DEFAULT_255_1_388
10
20.600422
20
21.0662873
40
0.7937327
50
350.71248
51
351.1626997
0
LINE
8
DEFAULT_255_1_388
10
22.807846
20
21.2253553
11
22.807846
21
21.1422274
0
LINE
8
DEFAULT_255_1_388
10
21.749772
20
21.1304811
11
21.749772
21
21.2253553
0
LINE
8
DEFAULT_255_1_388
10
22.6352652
20
21.1295775
11
22.6352652
21
21.2271625
0
LINE
8
DEFAULT_255_1_388
10
21.9223528
20
21.2389088
11
21.9223528
21
21.1422274
0
ARC
8
DEFAULT_255_1_388
10
21.8356198
20
21.1377726
40
0.9722364
50
350.4878118
51
0.2625322
0
ARC
8
DEFAULT_255_1_388
10
22.0936158
20
21.0933994
40
0.7104556
50
336.0277991
51
350.5787241
0
ARC
8
DEFAULT_255_1_388
10
22.2449265
20
21.0250243
40
0.544417
50
319.887443
51
336.1331163
0
ARC
8
DEFAULT_255_1_388
10
22.3127077
20
20.9707733
40
0.4576311
50
302.4806296
51
319.6144102
0
ARC
8
DEFAULT_255_1_388
10
22.2997699
20
20.9957067
40
0.4856183
50
275.8196423
51
302.1885521
0
ARC
8
DEFAULT_255_1_388
10
22.281056
20
21.1242466
40
0.6154183
50
269.9169897
51
276.339506
0
ARC
8
DEFAULT_255_1_388
10
22.2760161
20
21.047068
40
0.5382553
50
252.5221437
51
270.441579
0
ARC
8
DEFAULT_255_1_388
10
22.2598411
20
20.9864046
40
0.4755426
50
237.5349961
51
252.1858334
0
ARC
8
DEFAULT_255_1_388
10
22.2698787
20
20.999212
40
0.4917393
50
209.0632754
51
237.3492577
0
ARC
8
DEFAULT_255_1_388
10
22.3678113
20
21.0607104
40
0.6072464
50
205.118533
51
209.6465345
0
ARC
8
DEFAULT_255_1_388
10
22.4574115
20
21.0987174
40
0.7045164
50
188.7216633
51
204.8239753
0
ARC
8
DEFAULT_255_1_388
10
22.6820891
20
21.1365387
40
0.9323368
50
180.3722704
51
188.9253909
0
ARC
8
DEFAULT_255_1_388
10
22.6790452
20
21.2298416
40
0.929284
50
169.5253055
51
180.2766048
0
ARC
8
DEFAULT_255_1_388
10
22.4650251
20
21.2692024
40
0.7116745
50
155.8314601
51
169.5088611
0
ARC
8
DEFAULT_255_1_388
10
22.3209714
20
21.3360312
40
0.5528904
50
139.6259579
51
156.0379072
0
ARC
8
DEFAULT_255_1_388
10
22.2546248
20
21.3894143
40
0.4677708
50
122.6414784
51
139.3431662
0
ARC
8
DEFAULT_255_1_388
10
22.2659503
20
21.3687787
40
0.4912586
50
93.0224537
51
122.4556091
0
ARC
8
DEFAULT_255_1_388
10
22.2781023
20
21.2601776
40
0.6003837
50
89.9756766
51
93.6340839
0
ARC
8
DEFAULT_255_1_388
10
22.2824621
20
21.3050879
40
0.5554884
50
73.7463329
51
90.4234008
0
ARC
8
DEFAULT_255_1_388
10
22.3022094
20
21.3815772
40
0.4765353
50
57.663051
51
73.4516911
0
ARC
8
DEFAULT_255_1_388
10
22.3013132
20
21.3840108
40
0.4749629
50
29.1441355
51
57.4146687
0
ARC
8
DEFAULT_255_1_388
10
22.1960943
20
21.3183046
40
0.5988917
50
24.0985653
51
29.732054
0
ARC
8
DEFAULT_255_1_388
10
22.0798575
20
21.2701154
40
0.7246823
50
8.6654943
51
23.8241215
0
ARC
8
DEFAULT_255_1_388
10
21.8284994
20
21.2291037
40
0.9793537
50
359.7807044
51
8.8218476
0
ARC
8
DEFAULT_255_1_388
10
21.6994698
20
21.2319731
40
0.9358078
50
359.7054632
51
8.0359751
0
ARC
8
DEFAULT_255_1_388
10
22.0369749
20
21.2811252
40
0.5947474
50
7.8926278
51
20.2962188
0
ARC
8
DEFAULT_255_1_388
10
22.22006
20
21.3486367
40
0.3996117
50
20.3231056
51
36.4990255
0
ARC
8
DEFAULT_255_1_388
10
22.2971897
20
21.4080399
40
0.3022818
50
36.1436715
51
85.6627846
0
ARC
8
DEFAULT_255_1_388
10
22.2789152
20
21.2910881
40
0.4203853
50
84.3845912
51
90.076054
0
ARC
8
DEFAULT_255_1_388
10
22.2741507
20
21.3653416
40
0.346157
50
89.3037228
51
109.9046209
0
ARC
8
DEFAULT_255_1_388
10
22.263734
20
21.4083379
40
0.3022217
50
110.8229774
51
143.917961
0
ARC
8
DEFAULT_255_1_388
10
22.36877
20
21.3281455
40
0.434348
50
143.5289166
51
163.2980252
0
ARC
8
DEFAULT_255_1_388
10
22.5833987
20
21.2606685
40
0.659321
50
163.0418884
51
174.3139873
0
ARC
8
DEFAULT_255_1_388
10
22.8538951
20
21.2294378
40
0.9315905
50
174.050934
51
179.4174954
0
ARC
8
DEFAULT_255_1_388
10
22.7970895
20
21.1375382
40
0.8747493
50
179.6928582
51
188.7908948
0
ARC
8
DEFAULT_255_1_388
10
22.4974695
20
21.0896086
40
0.5713262
50
188.6328449
51
202.5630732
0
ARC
8
DEFAULT_255_1_388
10
22.3563532
20
21.0329142
40
0.4192612
50
202.8078931
51
216.1195888
0
ARC
8
DEFAULT_255_1_388
10
22.2653049
20
20.9596479
40
0.3025752
50
215.0755613
51
264.6379773
0
ARC
8
DEFAULT_255_1_388
10
22.2795887
20
21.0531376
40
0.3970284
50
263.8464302
51
270.0830805
0
ARC
8
DEFAULT_255_1_388
10
22.2842431
20
21.0240808
40
0.3679937
50
269.3649295
51
287.5149684
0
ARC
8
DEFAULT_255_1_388
10
22.3042872
20
20.9512714
40
0.2925408
50
288.0629019
51
323.8115617
0
ARC
8
DEFAULT_255_1_388
10
22.2062848
20
21.0243754
40
0.4148018
50
323.6546541
51
342.6591359
0
ARC
8
DEFAULT_255_1_388
10
21.9777506
20
21.098728
40
0.6551163
50
342.4092446
51
353.6451501
0
ARC
8
DEFAULT_255_1_388
10
21.65923
20
21.1383565
40
0.9760748
50
353.4027553
51
359.4846611
0
LINE
8
DEFAULT_255_1_388
10
23.3897415
20
21.1539737
11
23.3897415
21
21.0175355
0
LINE
8
DEFAULT_255_1_388
10
23.3897415
20
21.0175355
11
22.9488021
21
21.0175355
0
LINE
8
DEFAULT_255_1_388
10
22.9488021
20
21.0175355
11
22.9488021
21
21.1539737
0
LINE
8
DEFAULT_255_1_388
10
22.9488021
20
21.1539737
11
23.3897415
21
21.1539737
0
LINE
8
DEFAULT_255_1_388
10
23.7782742
20
21.1295775
11
23.7782742
21
21.2660157
0
LINE
8
DEFAULT_255_1_388
10
23.7782742
20
21.2660157
11
23.9038697
21
21.2660157
0
LINE
8
DEFAULT_255_1_388
10
23.6897249
20
21.4973282
11
23.5225655
21
21.4973282
0
LINE
8
DEFAULT_255_1_388
10
23.5108191
20
20.8738687
11
23.6788821
21
20.8738687
0
LINE
8
DEFAULT_255_1_388
10
23.9038697
20
21.1295775
11
23.7782742
21
21.1295775
0
ARC
8
DEFAULT_255_1_388
10
23.9005923
20
21.6476922
40
0.3816905
50
270.491971
51
281.8953028
0
ARC
8
DEFAULT_255_1_388
10
23.927735
20
21.5237199
40
0.2547877
50
281.6690378
51
301.2943765
0
ARC
8
DEFAULT_255_1_388
10
23.9468801
20
21.4886926
40
0.2149197
50
301.7834992
51
311.754567
0
ARC
8
DEFAULT_255_1_388
10
23.9571843
20
21.477265
40
0.1995326
50
311.7325027
51
354.2803031
0
ARC
8
DEFAULT_255_1_388
10
23.8754259
20
21.491328
40
0.2823461
50
353.0941646
51
0.1174696
0
ARC
8
DEFAULT_255_1_388
10
23.8235817
20
21.4966874
40
0.3342238
50
359.1804452
51
15.0452323
0
ARC
8
DEFAULT_255_1_388
10
23.9749875
20
21.5408546
40
0.1765747
50
13.957816
51
77.6713812
0
ARC
8
DEFAULT_255_1_388
10
23.9315111
20
21.3850464
40
0.3381982
50
76.111571
51
90.7028736
0
ARC
8
DEFAULT_255_1_388
10
23.9248523
20
21.415825
40
0.3074046
50
89.5321574
51
103.5319393
0
ARC
8
DEFAULT_255_1_388
10
23.9022907
20
21.5057443
40
0.2147041
50
103.2930114
51
133.5619756
0
ARC
8
DEFAULT_255_1_388
10
23.8972848
20
21.5124351
40
0.2064084
50
133.8349761
51
173.5343225
0
ARC
8
DEFAULT_255_1_388
10
23.9786506
20
21.4980144
40
0.2889266
50
172.5097183
51
180.1360699
0
ARC
8
DEFAULT_255_1_388
10
23.871627
20
21.501888
40
0.3490913
50
155.3483706
51
180.7484035
0
ARC
8
DEFAULT_255_1_388
10
23.8661245
20
21.4986519
40
0.3454798
50
131.5745177
51
154.4799474
0
ARC
8
DEFAULT_255_1_388
10
23.9013528
20
21.4630422
40
0.3955058
50
96.9874487
51
131.9690874
0
ARC
8
DEFAULT_255_1_388
10
23.926042
20
21.3229407
40
0.537622
50
89.8592909
51
97.7827481
0
ARC
8
DEFAULT_255_1_388
10
23.9314529
20
21.293436
40
0.5671399
50
78.3654493
51
90.4132586
0
ARC
8
DEFAULT_255_1_388
10
23.9717171
20
21.4800918
40
0.3762034
50
56.6229818
51
78.6387103
0
ARC
8
DEFAULT_255_1_388
10
23.9959
20
21.5223846
40
0.3275964
50
47.0254604
51
56.085558
0
ARC
8
DEFAULT_255_1_388
10
23.9981251
20
21.5268189
40
0.3228382
50
10.9207523
51
46.777927
0
ARC
8
DEFAULT_255_1_388
10
23.8446845
20
21.4913401
40
0.4802559
50
359.6364235
51
11.6087615
0
ARC
8
DEFAULT_255_1_388
10
24.051101
20
21.4896404
40
0.273833
50
332.3549969
51
359.7179765
0
ARC
8
DEFAULT_255_1_388
10
23.9779411
20
21.5243285
40
0.3547505
50
325.2332381
51
332.8746682
0
ARC
8
DEFAULT_255_1_388
10
23.9950994
20
21.5123763
40
0.3338396
50
292.9803892
51
325.2391113
0
ARC
8
DEFAULT_255_1_388
10
23.964019
20
21.5728679
40
0.4016959
50
292.542178
51
293.6931461
0
ARC
8
DEFAULT_255_1_388
10
24.0083762
20
20.8463036
40
0.372079
50
57.643292
51
72.8626085
0
ARC
8
DEFAULT_255_1_388
10
24.0482596
20
20.9109273
40
0.2961455
50
36.7246661
51
57.4701329
0
ARC
8
DEFAULT_255_1_388
10
24.0469753
20
20.912347
40
0.2963321
50
8.054535
51
36.3561529
0
ARC
8
DEFAULT_255_1_388
10
23.9499426
20
20.8949073
40
0.3948682
50
359.8316595
51
8.5873361
0
ARC
8
DEFAULT_255_1_388
10
23.90769
20
20.889497
40
0.4371398
50
343.9831631
51
0.557075
0
ARC
8
DEFAULT_255_1_388
10
24.0073949
20
20.8621963
40
0.3337749
50
311.6358204
51
343.7652116
0
ARC
8
DEFAULT_255_1_388
10
23.9648203
20
20.9101955
40
0.3979351
50
279.7829743
51
311.625622
0
ARC
8
DEFAULT_255_1_388
10
23.9309338
20
21.0718642
40
0.5630417
50
269.7285092
51
280.3857694
0
ARC
8
DEFAULT_255_1_388
10
23.9239651
20
21.0672241
40
0.5584119
50
256.6827433
51
270.4412869
0
ARC
8
DEFAULT_255_1_388
10
23.8858638
20
20.9114698
40
0.3980715
50
229.4223821
51
256.8554507
0
ARC
8
DEFAULT_255_1_388
10
23.8392191
20
20.8589683
40
0.3278564
50
181.8183354
51
229.6455015
0
ARC
8
DEFAULT_255_1_388
10
23.9561801
20
20.8736825
40
0.4453611
50
179.9760419
51
183.2330638
0
ARC
8
DEFAULT_255_1_388
10
23.9368353
20
20.8713781
40
0.2579652
50
179.4467996
51
196.2871626
0
ARC
8
DEFAULT_255_1_388
10
23.8819807
20
20.8563709
40
0.2011057
50
196.5661293
51
227.7059371
0
ARC
8
DEFAULT_255_1_388
10
23.9004414
20
20.8770155
40
0.2287994
50
227.7653015
51
257.8763321
0
ARC
8
DEFAULT_255_1_388
10
23.9257497
20
20.9830961
40
0.3378385
50
257.4583525
51
270.4267406
0
ARC
8
DEFAULT_255_1_388
10
23.9308747
20
21.015723
40
0.3704652
50
269.5965319
51
280.8788143
0
ARC
8
DEFAULT_255_1_388
10
23.9566975
20
20.8867529
40
0.2389415
50
280.6347277
51
299.8594068
0
ARC
8
DEFAULT_255_1_388
10
23.9781744
20
20.8459736
40
0.19289
50
300.3575552
51
314.5515667
0
ARC
8
DEFAULT_255_1_388
10
23.968842
20
20.8528025
40
0.204312
50
315.0730962
51
345.0429362
0
ARC
8
DEFAULT_255_1_388
10
23.8649927
20
20.8830539
40
0.31246
50
344.598526
51
357.9270698
0
ARC
8
DEFAULT_255_1_388
10
23.7640232
20
20.8899705
40
0.4136265
50
357.4755098
51
0.0224936
0
ARC
8
DEFAULT_255_1_388
10
23.879311
20
20.8927099
40
0.2983498
50
359.5051035
51
13.4236939
0
ARC
8
DEFAULT_255_1_388
10
23.97682
20
20.9176637
40
0.1977186
50
12.9497905
51
48.7550905
0
ARC
8
DEFAULT_255_1_388
10
23.9563122
20
20.8896373
40
0.2323321
50
49.509109
51
72.1832965
0
ARC
8
DEFAULT_255_1_388
10
23.916059
20
20.7701632
40
0.358397
50
71.9008458
51
84.3555134
0
ARC
8
DEFAULT_255_1_388
10
23.8978985
20
20.6169712
40
0.512641
50
84.019632
51
89.3326067
0
LINE
8
DEFAULT_255_1_388
10
20.278832
20
28.8818468
11
20.4532199
21
28.8818468
0
LINE
8
DEFAULT_255_1_388
10
19.4403242
20
29.0607525
11
19.4403242
21
29.1872516
0
LINE
8
DEFAULT_255_1_388
10
20.4532199
20
29.3571217
11
20.278832
21
29.3571217
0
LINE
8
DEFAULT_255_1_388
10
19.6147121
20
29.1827337
11
19.6147121
21
29.0553312
0
ARC
8
DEFAULT_255_1_388
10
19.8366433
20
28.9490329
40
0.6202263
50
340.1774904
51
353.7812217
0
ARC
8
DEFAULT_255_1_388
10
20.0134286
20
28.8831893
40
0.4315926
50
311.4560052
51
340.4420756
0
ARC
8
DEFAULT_255_1_388
10
20.0096826
20
28.8956665
40
0.4434573
50
282.4332229
51
310.7514507
0
ARC
8
DEFAULT_255_1_388
10
19.9602644
20
29.0998703
40
0.6535262
50
269.9358869
51
282.8096729
0
ARC
8
DEFAULT_255_1_388
10
19.9544583
20
29.2511329
40
0.8048043
50
269.9995752
51
270.3612856
0
ARC
8
DEFAULT_255_1_388
10
19.9485073
20
28.9712781
40
0.5249831
50
250.7885263
51
270.6488451
0
ARC
8
DEFAULT_255_1_388
10
19.9295898
20
28.8995853
40
0.4510942
50
219.3628377
51
250.0611024
0
ARC
8
DEFAULT_255_1_388
10
20.0228772
20
28.9788653
40
0.5735046
50
193.5480293
51
219.5755675
0
ARC
8
DEFAULT_255_1_388
10
20.2896981
20
29.048152
40
0.849146
50
181.1220183
51
193.8754971
0
ARC
8
DEFAULT_255_1_388
10
20.5220214
20
29.0605914
40
1.0816971
50
179.9914644
51
181.5398227
0
ARC
8
DEFAULT_255_1_388
10
20.3143525
20
29.1914586
40
0.8740384
50
169.5837606
51
180.275782
0
ARC
8
DEFAULT_255_1_388
10
20.1076873
20
29.2296439
40
0.6638751
50
155.0367033
51
169.6002779
0
ARC
8
DEFAULT_255_1_388
10
19.9799331
20
29.2912336
40
0.5220662
50
136.7831557
51
155.2472983
0
ARC
8
DEFAULT_255_1_388
10
19.9361122
20
29.3284577
40
0.4646502
50
121.7633063
51
136.4281161
0
ARC
8
DEFAULT_255_1_388
10
19.9512962
20
29.3004049
40
0.4964979
50
95.6460018
51
121.5489589
0
ARC
8
DEFAULT_255_1_388
10
19.9689936
20
29.1756704
40
0.6223912
50
89.9245727
51
96.1375919
0
ARC
8
DEFAULT_255_1_388
10
19.9746641
20
29.1890721
40
0.6090084
50
76.6779212
51
90.456405
0
ARC
8
DEFAULT_255_1_388
10
20.0189454
20
29.368006
40
0.42469
50
47.4858803
51
76.9287069
0
ARC
8
DEFAULT_255_1_388
10
20.0024068
20
29.3567623
40
0.4441778
50
16.5424081
51
46.8934505
0
ARC
8
DEFAULT_255_1_388
10
19.8215118
20
29.2973265
40
0.6345318
50
5.4072971
51
17.0363711
0
ARC
8
DEFAULT_255_1_388
10
19.6596843
20
29.2713304
40
0.6250632
50
7.8888693
51
15.9242022
0
ARC
8
DEFAULT_255_1_388
10
19.8831828
20
29.3362309
40
0.3923364
50
15.7650676
51
27.9410069
0
ARC
8
DEFAULT_255_1_388
10
20.0073997
20
29.4027317
40
0.2514401
50
27.8167196
51
46.4007942
0
ARC
8
DEFAULT_255_1_388
10
20.0129839
20
29.4020882
40
0.2480958
50
47.4372362
51
75.0695672
0
ARC
8
DEFAULT_255_1_388
10
19.9782675
20
29.2812277
40
0.3738281
50
74.7009379
51
87.8124314
0
ARC
8
DEFAULT_255_1_388
10
19.9700292
20
29.1628659
40
0.4924321
50
87.3802571
51
90.0251599
0
ARC
8
DEFAULT_255_1_388
10
19.9656939
20
29.2948997
40
0.3604218
50
89.3451886
51
108.5744412
0
ARC
8
DEFAULT_255_1_388
10
19.9502931
20
29.3526836
40
0.3007661
50
109.2998307
51
143.3037387
0
ARC
8
DEFAULT_255_1_388
10
20.0360221
20
29.2867584
40
0.4089031
50
143.075267
51
163.1918576
0
ARC
8
DEFAULT_255_1_388
10
20.2556055
20
29.2174652
40
0.6391492
50
162.9375929
51
174.6208776
0
ARC
8
DEFAULT_255_1_388
10
20.5510437
20
29.1850711
40
0.9363344
50
174.342123
51
180.1430283
0
ARC
8
DEFAULT_255_1_388
10
20.4462978
20
29.0507117
40
0.8315986
50
179.6817261
51
189.150555
0
ARC
8
DEFAULT_255_1_388
10
20.1649727
20
29.0038559
40
0.5464044
50
188.9911061
51
203.5772363
0
ARC
8
DEFAULT_255_1_388
10
20.0435019
20
28.9534539
40
0.4149206
50
203.9075402
51
215.1312435
0
ARC
8
DEFAULT_255_1_388
10
19.9396817
20
28.8729907
40
0.2837747
50
213.9071511
51
263.8848919
0
ARC
8
DEFAULT_255_1_388
10
19.953781
20
28.9612519
40
0.3730641
50
263.1757928
51
270.1031044
0
ARC
8
DEFAULT_255_1_388
10
19.957389
20
29.1015511
40
0.5133712
50
269.6722503
51
279.0606936
0
ARC
8
DEFAULT_255_1_388
10
19.9874045
20
28.920115
40
0.3294739
50
278.8749101
51
293.6349581
0
ARC
8
DEFAULT_255_1_388
10
20.0234249
20
28.8355251
40
0.2375405
50
293.8553806
51
310.0518171
0
ARC
8
DEFAULT_255_1_388
10
20.0239758
20
28.8285021
40
0.2318463
50
311.0644687
51
332.0111037
0
ARC
8
DEFAULT_255_1_388
10
19.8898431
20
28.9024702
40
0.3850112
50
331.6586806
51
343.2877423
0
ARC
8
DEFAULT_255_1_388
10
19.6577896
20
28.9737806
40
0.6277712
50
343.1446576
51
351.0103568
0
ARC
8
DEFAULT_255_1_388
10
19.494522
20
29.0037873
40
0.7937327
50
350.71248
51
351.1626997
0
LINE
8
DEFAULT_255_1_388
10
21.701946
20
29.1628553
11
21.701946
21
29.0797274
0
LINE
8
DEFAULT_255_1_388
10
20.643872
20
29.0679811
11
20.643872
21
29.1628553
0
LINE
8
DEFAULT_255_1_388
10
21.5293652
20
29.0670775
11
21.5293652
21
29.1646625
0
LINE
8
DEFAULT_255_1_388
10
20.8164528
20
29.1764088
11
20.8164528
21
29.0797274
0
ARC
8
DEFAULT_255_1_388
10
20.7297198
20
29.0752726
40
0.9722364
50
350.4878118
51
0.2625322
0
ARC
8
DEFAULT_255_1_388
10
20.9877158
20
29.0308994
40
0.7104556
50
336.0277991
51
350.5787241
0
ARC
8
DEFAULT_255_1_388
10
21.1390265
20
28.9625243
40
0.544417
50
319.887443
51
336.1331163
0
ARC
8
DEFAULT_255_1_388
10
21.2068077
20
28.9082733
40
0.4576311
50
302.4806296
51
319.6144102
0
ARC
8
DEFAULT_255_1_388
10
21.1938699
20
28.9332067
40
0.4856183
50
275.8196423
51
302.1885521
0
ARC
8
DEFAULT_255_1_388
10
21.175156
20
29.0617466
40
0.6154183
50
269.9169897
51
276.339506
0
ARC
8
DEFAULT_255_1_388
10
21.1701161
20
28.984568
40
0.5382553
50
252.5221437
51
270.441579
0
ARC
8
DEFAULT_255_1_388
10
21.1539411
20
28.9239046
40
0.4755426
50
237.5349961
51
252.1858334
0
ARC
8
DEFAULT_255_1_388
10
21.1639787
20
28.936712
40
0.4917393
50
209.0632754
51
237.3492577
0
ARC
8
DEFAULT_255_1_388
10
21.2619113
20
28.9982104
40
0.6072464
50
205.118533
51
209.6465345
0
ARC
8
DEFAULT_255_1_388
10
21.3515115
20
29.0362174
40
0.7045164
50
188.7216633
51
204.8239753
0
ARC
8
DEFAULT_255_1_388
10
21.5761891
20
29.0740387
40
0.9323368
50
180.3722704
51
188.9253909
0
ARC
8
DEFAULT_255_1_388
10
21.5731452
20
29.1673416
40
0.929284
50
169.5253055
51
180.2766048
0
ARC
8
DEFAULT_255_1_388
10
21.3591251
20
29.2067024
40
0.7116745
50
155.8314601
51
169.5088611
0
ARC
8
DEFAULT_255_1_388
10
21.2150714
20
29.2735312
40
0.5528904
50
139.6259579
51
156.0379072
0
ARC
8
DEFAULT_255_1_388
10
21.1487248
20
29.3269143
40
0.4677708
50
122.6414784
51
139.3431662
0
ARC
8
DEFAULT_255_1_388
10
21.1600503
20
29.3062787
40
0.4912586
50
93.0224537
51
122.4556091
0
ARC
8
DEFAULT_255_1_388
10
21.1722023
20
29.1976776
40
0.6003837
50
89.9756766
51
93.6340839
0
ARC
8
DEFAULT_255_1_388
10
21.1765621
20
29.2425879
40
0.5554884
50
73.7463329
51
90.4234008
0
ARC
8
DEFAULT_255_1_388
10
21.1963094
20
29.3190772
40
0.4765353
50
57.663051
51
73.4516911
0
ARC
8
DEFAULT_255_1_388
10
21.1954132
20
29.3215108
40
0.4749629
50
29.1441355
51
57.4146687
0
ARC
8
DEFAULT_255_1_388
10
21.0901943
20
29.2558046
40
0.5988917
50
24.0985653
51
29.732054
0
ARC
8
DEFAULT_255_1_388
10
20.9739575
20
29.2076154
40
0.7246823
50
8.6654943
51
23.8241215
0
ARC
8
DEFAULT_255_1_388
10
20.7225994
20
29.1666037
40
0.9793537
50
359.7807044
51
8.8218476
0
ARC
8
DEFAULT_255_1_388
10
20.5935698
20
29.1694731
40
0.9358078
50
359.7054632
51
8.0359751
0
ARC
8
DEFAULT_255_1_388
10
20.9310749
20
29.2186252
40
0.5947474
50
7.8926278
51
20.2962188
0
ARC
8
DEFAULT_255_1_388
10
21.11416
20
29.2861367
40
0.3996117
50
20.3231056
51
36.4990255
0
ARC
8
DEFAULT_255_1_388
10
21.1912897
20
29.3455399
40
0.3022818
50
36.1436715
51
85.6627846
0
ARC
8
DEFAULT_255_1_388
10
21.1730152
20
29.2285881
40
0.4203853
50
84.3845912
51
90.076054
0
ARC
8
DEFAULT_255_1_388
10
21.1682507
20
29.3028416
40
0.346157
50
89.3037228
51
109.9046209
0
ARC
8
DEFAULT_255_1_388
10
21.157834
20
29.3458379
40
0.3022217
50
110.8229774
51
143.917961
0
ARC
8
DEFAULT_255_1_388
10
21.26287
20
29.2656455
40
0.434348
50
143.5289166
51
163.2980252
0
ARC
8
DEFAULT_255_1_388
10
21.4774987
20
29.1981685
40
0.659321
50
163.0418884
51
174.3139873
0
ARC
8
DEFAULT_255_1_388
10
21.7479951
20
29.1669378
40
0.9315905
50
174.050934
51
179.4174954
0
ARC
8
DEFAULT_255_1_388
10
21.6911895
20
29.0750382
40
0.8747493
50
179.6928582
51
188.7908948
0
ARC
8
DEFAULT_255_1_388
10
21.3915695
20
29.0271086
40
0.5713262
50
188.6328449
51
202.5630732
0
ARC
8
DEFAULT_255_1_388
10
21.2504532
20
28.9704142
40
0.4192612
50
202.8078931
51
216.1195888
0
ARC
8
DEFAULT_255_1_388
10
21.1594049
20
28.8971479
40
0.3025752
50
215.0755613
51
264.6379773
0
ARC
8
DEFAULT_255_1_388
10
21.1736887
20
28.9906376
40
0.3970284
50
263.8464302
51
270.0830805
0
ARC
8
DEFAULT_255_1_388
10
21.1783431
20
28.9615808
40
0.3679937
50
269.3649295
51
287.5149684
0
ARC
8
DEFAULT_255_1_388
10
21.1983872
20
28.8887714
40
0.2925408
50
288.0629019
51
323.8115617
0
ARC
8
DEFAULT_255_1_388
10
21.1003848
20
28.9618754
40
0.4148018
50
323.6546541
51
342.6591359
0
ARC
8
DEFAULT_255_1_388
10
20.8718506
20
29.036228
40
0.6551163
50
342.4092446
51
353.6451501
0
ARC
8
DEFAULT_255_1_388
10
20.55333
20
29.0758565
40
0.9760748
50
353.4027553
51
359.4846611
0
LINE
8
DEFAULT_255_1_388
10
21.9621726
20
29.7799898
11
22.1862565
21
29.7799898
0
LINE
8
DEFAULT_255_1_388
10
22.1862565
20
29.7799898
11
22.6163532
21
28.7065553
0
LINE
8
DEFAULT_255_1_388
10
22.6163532
20
28.7065553
11
23.0464499
21
29.7799898
0
LINE
8
DEFAULT_255_1_388
10
23.0464499
20
29.7799898
11
23.2714375
21
29.7799898
0
LINE
8
DEFAULT_255_1_388
10
23.2714375
20
29.7799898
11
23.2714375
21
28.4644
0
LINE
8
DEFAULT_255_1_388
10
23.2714375
20
28.4644
11
23.0979531
21
28.4644
0
LINE
8
DEFAULT_255_1_388
10
23.0979531
20
28.4644
11
23.0979531
21
28.976721
0
LINE
8
DEFAULT_255_1_388
10
23.0979531
20
28.976721
11
23.1142172
21
29.5297025
0
LINE
8
DEFAULT_255_1_388
10
23.1142172
20
29.5297025
11
22.6823134
21
28.4644
0
LINE
8
DEFAULT_255_1_388
10
22.6823134
20
28.4644
11
22.5494895
21
28.4644
0
LINE
8
DEFAULT_255_1_388
10
22.5494895
20
28.4644
11
22.1184892
21
29.5269918
0
LINE
8
DEFAULT_255_1_388
10
22.1184892
20
29.5269918
11
22.1356569
21
28.976721
0
LINE
8
DEFAULT_255_1_388
10
22.1356569
20
28.976721
11
22.1356569
21
28.4644
0
LINE
8
DEFAULT_255_1_388
10
22.1356569
20
28.4644
11
21.9621726
21
28.4644
0
LINE
8
DEFAULT_255_1_388
10
21.9621726
20
28.4644
11
21.9621726
21
29.7799898
0
LINE
8
DEFAULT_255_1_388
10
24.3963752
20
28.6008382
11
24.3963752
21
28.4644
0
LINE
8
DEFAULT_255_1_388
10
24.3963752
20
28.4644
11
23.5343747
21
28.4644
0
LINE
8
DEFAULT_255_1_388
10
23.5343747
20
28.4644
11
23.5343747
21
28.5845741
0
LINE
8
DEFAULT_255_1_388
10
23.5343747
20
28.5845741
11
23.9897712
21
29.0905702
0
LINE
8
DEFAULT_255_1_388
10
23.6762343
20
29.3923607
11
23.5090749
21
29.3923607
0
LINE
8
DEFAULT_255_1_388
10
24.0882597
20
28.983046
11
23.7358696
21
28.6008382
0
LINE
8
DEFAULT_255_1_388
10
23.7358696
20
28.6008382
11
24.3963752
21
28.6008382
0
ARC
8
DEFAULT_255_1_388
10
22.4721771
20
30.4325983
40
2.0258655
50
318.5132526
51
320.7829045
0
ARC
8
DEFAULT_255_1_388
10
23.0669728
20
29.9484929
40
1.2589638
50
320.7372878
51
323.9739031
0
ARC
8
DEFAULT_255_1_388
10
23.507866
20
29.6290554
40
0.7145141
50
323.8962701
51
328.64194
0
ARC
8
DEFAULT_255_1_388
10
23.7380918
20
29.4870545
40
0.4440242
50
328.8294576
51
331.7891185
0
ARC
8
DEFAULT_255_1_388
10
23.8503238
20
29.4291374
40
0.3177517
50
331.4254512
51
352.9365785
0
ARC
8
DEFAULT_255_1_388
10
23.8656238
20
29.425705
40
0.3021496
50
353.2257659
51
0.0166158
0
ARC
8
DEFAULT_255_1_388
10
23.8892998
20
29.4282894
40
0.2784847
50
359.486299
51
15.9343185
0
ARC
8
DEFAULT_255_1_388
10
23.9463265
20
29.4436269
40
0.2194403
50
16.1712913
51
43.5286088
0
ARC
8
DEFAULT_255_1_388
10
23.955021
20
29.4523191
40
0.2071504
50
43.4417391
51
83.1661095
0
ARC
8
DEFAULT_255_1_388
10
23.9399371
20
29.3694316
40
0.2912888
50
82.160179
51
90.1505708
0
ARC
8
DEFAULT_255_1_388
10
23.9363852
20
29.3090279
40
0.3517025
50
89.5460741
51
102.5418361
0
ARC
8
DEFAULT_255_1_388
10
23.9090572
20
29.4249933
40
0.2325748
50
102.1738499
51
129.206123
0
ARC
8
DEFAULT_255_1_388
10
23.9002026
20
29.4389664
40
0.2161591
50
129.72865
51
135.753947
0
ARC
8
DEFAULT_255_1_388
10
23.9138508
20
29.4280728
40
0.2335433
50
136.1757367
51
166.3673339
0
ARC
8
DEFAULT_255_1_388
10
24.0271196
20
29.3977148
40
0.3507873
50
165.9090694
51
178.8684636
0
ARC
8
DEFAULT_255_1_388
10
24.1246968
20
29.3924263
40
0.4484624
50
178.4391136
51
180.0083808
0
ARC
8
DEFAULT_255_1_388
10
23.9667669
20
29.3968197
40
0.4577138
50
163.2878482
51
180.5581842
0
ARC
8
DEFAULT_255_1_388
10
23.8765711
20
29.4216393
40
0.3641968
50
133.4540601
51
162.947111
0
ARC
8
DEFAULT_255_1_388
10
23.8966592
20
29.4002789
40
0.3935189
50
100.7869829
51
133.4382499
0
ARC
8
DEFAULT_255_1_388
10
23.9357837
20
29.2260399
40
0.5720313
50
89.660664
51
101.3702276
0
ARC
8
DEFAULT_255_1_388
10
23.9432446
20
29.2329263
40
0.5651495
50
78.2172678
51
90.412935
0
ARC
8
DEFAULT_255_1_388
10
23.9831912
20
29.4156511
40
0.378122
50
55.9269121
51
78.4888449
0
ARC
8
DEFAULT_255_1_388
10
24.0052627
20
29.4537187
40
0.3342379
50
47.929771
51
55.4049217
0
ARC
8
DEFAULT_255_1_388
10
24.0167157
20
29.4653618
40
0.3179217
50
4.334829
51
48.0560205
0
ARC
8
DEFAULT_255_1_388
10
23.8934959
20
29.4462487
40
0.442341
50
359.9251713
51
5.5971671
0
ARC
8
DEFAULT_255_1_388
10
23.9417114
20
29.4525728
40
0.3941854
50
337.8914027
51
358.9967534
0
ARC
8
DEFAULT_255_1_388
10
23.6364684
20
29.5703295
40
0.7213271
50
326.9132501
51
338.3508308
0
ARC
8
DEFAULT_255_1_388
10
23.1880796
20
29.8577105
40
1.2538973
50
319.6471833
51
327.0959558
0
ARC
8
DEFAULT_255_1_388
10
22.7567454
20
30.213505
40
1.8129975
50
317.2588228
51
319.9045804
0
LINE
8
DEFAULT_255_1_388
10
20.5606448
20
37.7174898
11
20.9347205
21
36.6323089
0
LINE
8
DEFAULT_255_1_388
10
20.9347205
20
36.6323089
11
21.3106033
21
37.7174898
0
LINE
8
DEFAULT_255_1_388
10
21.3106033
20
37.7174898
11
21.5003518
21
37.7174898
0
LINE
8
DEFAULT_255_1_388
10
21.5003518
20
37.7174898
11
21.012427
21
36.4019
0
LINE
8
DEFAULT_255_1_388
10
21.012427
20
36.4019
11
20.858821
21
36.4019
0
LINE
8
DEFAULT_255_1_388
10
20.858821
20
36.4019
11
20.3717998
21
37.7174898
0
LINE
8
DEFAULT_255_1_388
10
20.3717998
20
37.7174898
11
20.5606448
21
37.7174898
0
LINE
8
DEFAULT_255_1_388
10
22.6767927
20
37.1003553
11
22.6767927
21
37.0172274
0
LINE
8
DEFAULT_255_1_388
10
21.6187187
20
37.0054811
11
21.6187187
21
37.1003553
0
LINE
8
DEFAULT_255_1_388
10
22.5042119
20
37.0045775
11
22.5042119
21
37.1021625
0
LINE
8
DEFAULT_255_1_388
10
21.7912996
20
37.1139088
11
21.7912996
21
37.0172274
0
ARC
8
DEFAULT_255_1_388
10
21.7045666
20
37.0127726
40
0.9722364
50
350.4878118
51
0.2625322
0
ARC
8
DEFAULT_255_1_388
10
21.9625626
20
36.9683994
40
0.7104556
50
336.0277991
51
350.5787241
0
ARC
8
DEFAULT_255_1_388
10
22.1138732
20
36.9000243
40
0.544417
50
319.887443
51
336.1331163
0
ARC
8
DEFAULT_255_1_388
10
22.1816545
20
36.8457733
40
0.4576311
50
302.4806296
51
319.6144102
0
ARC
8
DEFAULT_255_1_388
10
22.1687166
20
36.8707067
40
0.4856183
50
275.8196423
51
302.1885521
0
ARC
8
DEFAULT_255_1_388
10
22.1500027
20
36.9992466
40
0.6154183
50
269.9169897
51
276.339506
0
ARC
8
DEFAULT_255_1_388
10
22.1449628
20
36.922068
40
0.5382553
50
252.5221437
51
270.441579
0
ARC
8
DEFAULT_255_1_388
10
22.1287878
20
36.8614046
40
0.4755426
50
237.5349961
51
252.1858334
0
ARC
8
DEFAULT_255_1_388
10
22.1388254
20
36.874212
40
0.4917393
50
209.0632754
51
237.3492577
0
ARC
8
DEFAULT_255_1_388
10
22.236758
20
36.9357104
40
0.6072464
50
205.118533
51
209.6465345
0
ARC
8
DEFAULT_255_1_388
10
22.3263582
20
36.9737174
40
0.7045164
50
188.7216633
51
204.8239753
0
ARC
8
DEFAULT_255_1_388
10
22.5510358
20
37.0115387
40
0.9323368
50
180.3722704
51
188.9253909
0
ARC
8
DEFAULT_255_1_388
10
22.5479919
20
37.1048416
40
0.929284
50
169.5253055
51
180.2766048
0
ARC
8
DEFAULT_255_1_388
10
22.3339718
20
37.1442024
40
0.7116745
50
155.8314601
51
169.5088611
0
ARC
8
DEFAULT_255_1_388
10
22.1899181
20
37.2110312
40
0.5528904
50
139.6259579
51
156.0379072
0
ARC
8
DEFAULT_255_1_388
10
22.1235715
20
37.2644143
40
0.4677708
50
122.6414784
51
139.3431662
0
ARC
8
DEFAULT_255_1_388
10
22.134897
20
37.2437787
40
0.4912586
50
93.0224537
51
122.4556091
0
ARC
8
DEFAULT_255_1_388
10
22.1470491
20
37.1351776
40
0.6003837
50
89.9756766
51
93.6340839
0
ARC
8
DEFAULT_255_1_388
10
22.1514088
20
37.1800879
40
0.5554884
50
73.7463329
51
90.4234008
0
ARC
8
DEFAULT_255_1_388
10
22.1711562
20
37.2565772
40
0.4765353
50
57.663051
51
73.4516911
0
ARC
8
DEFAULT_255_1_388
10
22.1702599
20
37.2590108
40
0.4749629
50
29.1441355
51
57.4146687
0
ARC
8
DEFAULT_255_1_388
10
22.0650411
20
37.1933046
40
0.5988917
50
24.0985653
51
29.732054
0
ARC
8
DEFAULT_255_1_388
10
21.9488042
20
37.1451154
40
0.7246823
50
8.6654943
51
23.8241215
0
ARC
8
DEFAULT_255_1_388
10
21.6974461
20
37.1041037
40
0.9793537
50
359.7807044
51
8.8218476
0
ARC
8
DEFAULT_255_1_388
10
21.5684165
20
37.1069731
40
0.9358078
50
359.7054632
51
8.0359751
0
ARC
8
DEFAULT_255_1_388
10
21.9059217
20
37.1561252
40
0.5947474
50
7.8926278
51
20.2962188
0
ARC
8
DEFAULT_255_1_388
10
22.0890067
20
37.2236367
40
0.3996117
50
20.3231056
51
36.4990255
0
ARC
8
DEFAULT_255_1_388
10
22.1661364
20
37.2830399
40
0.3022818
50
36.1436715
51
85.6627846
0
ARC
8
DEFAULT_255_1_388
10
22.147862
20
37.1660881
40
0.4203853
50
84.3845912
51
90.076054
0
ARC
8
DEFAULT_255_1_388
10
22.1430974
20
37.2403416
40
0.346157
50
89.3037228
51
109.9046209
0
ARC
8
DEFAULT_255_1_388
10
22.1326807
20
37.2833379
40
0.3022217
50
110.8229774
51
143.917961
0
ARC
8
DEFAULT_255_1_388
10
22.2377167
20
37.2031455
40
0.434348
50
143.5289166
51
163.2980252
0
ARC
8
DEFAULT_255_1_388
10
22.4523454
20
37.1356685
40
0.659321
50
163.0418884
51
174.3139873
0
ARC
8
DEFAULT_255_1_388
10
22.7228419
20
37.1044378
40
0.9315905
50
174.050934
51
179.4174954
0
ARC
8
DEFAULT_255_1_388
10
22.6660363
20
37.0125382
40
0.8747493
50
179.6928582
51
188.7908948
0
ARC
8
DEFAULT_255_1_388
10
22.3664163
20
36.9646086
40
0.5713262
50
188.6328449
51
202.5630732
0
ARC
8
DEFAULT_255_1_388
10
22.2252999
20
36.9079142
40
0.4192612
50
202.8078931
51
216.1195888
0
ARC
8
DEFAULT_255_1_388
10
22.1342516
20
36.8346479
40
0.3025752
50
215.0755613
51
264.6379773
0
ARC
8
DEFAULT_255_1_388
10
22.1485354
20
36.9281376
40
0.3970284
50
263.8464302
51
270.0830805
0
ARC
8
DEFAULT_255_1_388
10
22.1531899
20
36.8990808
40
0.3679937
50
269.3649295
51
287.5149684
0
ARC
8
DEFAULT_255_1_388
10
22.1732339
20
36.8262714
40
0.2925408
50
288.0629019
51
323.8115617
0
ARC
8
DEFAULT_255_1_388
10
22.0752316
20
36.8993754
40
0.4148018
50
323.6546541
51
342.6591359
0
ARC
8
DEFAULT_255_1_388
10
21.8466973
20
36.973728
40
0.6551163
50
342.4092446
51
353.6451501
0
ARC
8
DEFAULT_255_1_388
10
21.5281767
20
37.0133565
40
0.9760748
50
353.4027553
51
359.4846611
0
LINE
8
DEFAULT_255_1_388
10
23.2586882
20
37.0289737
11
23.2586882
21
36.8925355
0
LINE
8
DEFAULT_255_1_388
10
23.2586882
20
36.8925355
11
22.8177488
21
36.8925355
0
LINE
8
DEFAULT_255_1_388
10
22.8177488
20
36.8925355
11
22.8177488
21
37.0289737
0
LINE
8
DEFAULT_255_1_388
10
22.8177488
20
37.0289737
11
23.2586882
21
37.0289737
0
LINE
8
DEFAULT_255_1_388
10
24.2661626
20
36.5383382
11
24.2661626
21
36.4019
0
LINE
8
DEFAULT_255_1_388
10
24.2661626
20
36.4019
11
23.4041621
21
36.4019
0
LINE
8
DEFAULT_255_1_388
10
23.4041621
20
36.4019
11
23.4041621
21
36.5220741
0
LINE
8
DEFAULT_255_1_388
10
23.4041621
20
36.5220741
11
23.8595586
21
37.0280702
0
LINE
8
DEFAULT_255_1_388
10
23.5460217
20
37.3298607
11
23.3788623
21
37.3298607
0
LINE
8
DEFAULT_255_1_388
10
23.9580471
20
36.920546
11
23.605657
21
36.5383382
0
LINE
8
DEFAULT_255_1_388
10
23.605657
20
36.5383382
11
24.2661626
21
36.5383382
0
ARC
8
DEFAULT_255_1_388
10
22.3419645
20
38.3700983
40
2.0258655
50
318.5132526
51
320.7829045
0
ARC
8
DEFAULT_255_1_388
10
22.9367602
20
37.8859929
40
1.2589638
50
320.7372878
51
323.9739031
0
ARC
8
DEFAULT_255_1_388
10
23.3776534
20
37.5665554
40
0.7145141
50
323.8962701
51
328.64194
0
ARC
8
DEFAULT_255_1_388
10
23.6078792
20
37.4245545
40
0.4440242
50
328.8294576
51
331.7891185
0
ARC
8
DEFAULT_255_1_388
10
23.7201112
20
37.3666374
40
0.3177517
50
331.4254512
51
352.9365785
0
ARC
8
DEFAULT_255_1_388
10
23.7354112
20
37.363205
40
0.3021496
50
353.2257659
51
0.0166158
0
ARC
8
DEFAULT_255_1_388
10
23.7590872
20
37.3657894
40
0.2784847
50
359.486299
51
15.9343185
0
ARC
8
DEFAULT_255_1_388
10
23.8161139
20
37.3811269
40
0.2194403
50
16.1712913
51
43.5286088
0
ARC
8
DEFAULT_255_1_388
10
23.8248084
20
37.3898191
40
0.2071504
50
43.4417391
51
83.1661095
0
ARC
8
DEFAULT_255_1_388
10
23.8097245
20
37.3069316
40
0.2912888
50
82.160179
51
90.1505708
0
ARC
8
DEFAULT_255_1_388
10
23.8061726
20
37.2465279
40
0.3517025
50
89.5460741
51
102.5418361
0
ARC
8
DEFAULT_255_1_388
10
23.7788446
20
37.3624933
40
0.2325748
50
102.1738499
51
129.206123
0
ARC
8
DEFAULT_255_1_388
10
23.76999
20
37.3764664
40
0.2161591
50
129.72865
51
135.753947
0
ARC
8
DEFAULT_255_1_388
10
23.7836382
20
37.3655728
40
0.2335433
50
136.1757367
51
166.3673339
0
ARC
8
DEFAULT_255_1_388
10
23.896907
20
37.3352148
40
0.3507873
50
165.9090694
51
178.8684636
0
ARC
8
DEFAULT_255_1_388
10
23.9944842
20
37.3299263
40
0.4484624
50
178.4391136
51
180.0083808
0
ARC
8
DEFAULT_255_1_388
10
23.8365543
20
37.3343197
40
0.4577138
50
163.2878482
51
180.5581842
0
ARC
8
DEFAULT_255_1_388
10
23.7463585
20
37.3591393
40
0.3641968
50
133.4540601
51
162.947111
0
ARC
8
DEFAULT_255_1_388
10
23.7664466
20
37.3377789
40
0.3935189
50
100.7869829
51
133.4382499
0
ARC
8
DEFAULT_255_1_388
10
23.8055711
20
37.1635399
40
0.5720313
50
89.660664
51
101.3702276
0
ARC
8
DEFAULT_255_1_388
10
23.813032
20
37.1704263
40
0.5651495
50
78.2172678
51
90.412935
0
ARC
8
DEFAULT_255_1_388
10
23.8529786
20
37.3531511
40
0.378122
50
55.9269121
51
78.4888449
0
ARC
8
DEFAULT_255_1_388
10
23.8750501
20
37.3912187
40
0.3342379
50
47.929771
51
55.4049217
0
ARC
8
DEFAULT_255_1_388
10
23.8865031
20
37.4028618
40
0.3179217
50
4.334829
51
48.0560205
0
ARC
8
DEFAULT_255_1_388
10
23.7632833
20
37.3837487
40
0.442341
50
359.9251713
51
5.5971671
0
ARC
8
DEFAULT_255_1_388
10
23.8114988
20
37.3900728
40
0.3941854
50
337.8914027
51
358.9967534
0
ARC
8
DEFAULT_255_1_388
10
23.5062558
20
37.5078295
40
0.7213271
50
326.9132501
51
338.3508308
0
ARC
8
DEFAULT_255_1_388
10
23.057867
20
37.7952105
40
1.2538973
50
319.6471833
51
327.0959558
0
ARC
8
DEFAULT_255_1_388
10
22.6265328
20
38.151005
40
1.8129975
50
317.2588228
51
319.9045804
0
LINE
8
DEFAULT_255_1_388
10
21.384732
20
44.7568468
11
21.5591199
21
44.7568468
0
LINE
8
DEFAULT_255_1_388
10
20.5462242
20
44.9357525
11
20.5462242
21
45.0622516
0
LINE
8
DEFAULT_255_1_388
10
21.5591199
20
45.2321217
11
21.384732
21
45.2321217
0
LINE
8
DEFAULT_255_1_388
10
20.7206121
20
45.0577337
11
20.7206121
21
44.9303312
0
ARC
8
DEFAULT_255_1_388
10
20.9425433
20
44.8240329
40
0.6202263
50
340.1774904
51
353.7812217
0
ARC
8
DEFAULT_255_1_388
10
21.1193286
20
44.7581893
40
0.4315926
50
311.4560052
51
340.4420756
0
ARC
8
DEFAULT_255_1_388
10
21.1155826
20
44.7706665
40
0.4434573
50
282.4332229
51
310.7514507
0
ARC
8
DEFAULT_255_1_388
10
21.0661644
20
44.9748703
40
0.6535262
50
269.9358869
51
282.8096729
0
ARC
8
DEFAULT_255_1_388
10
21.0603583
20
45.1261329
40
0.8048043
50
269.9995752
51
270.3612856
0
ARC
8
DEFAULT_255_1_388
10
21.0544073
20
44.8462781
40
0.5249831
50
250.7885263
51
270.6488451
0
ARC
8
DEFAULT_255_1_388
10
21.0354898
20
44.7745853
40
0.4510942
50
219.3628377
51
250.0611024
0
ARC
8
DEFAULT_255_1_388
10
21.1287772
20
44.8538653
40
0.5735046
50
193.5480293
51
219.5755675
0
ARC
8
DEFAULT_255_1_388
10
21.3955981
20
44.923152
40
0.849146
50
181.1220183
51
193.8754971
0
ARC
8
DEFAULT_255_1_388
10
21.6279214
20
44.9355914
40
1.0816971
50
179.9914644
51
181.5398227
0
ARC
8
DEFAULT_255_1_388
10
21.4202525
20
45.0664586
40
0.8740384
50
169.5837606
51
180.275782
0
ARC
8
DEFAULT_255_1_388
10
21.2135873
20
45.1046439
40
0.6638751
50
155.0367033
51
169.6002779
0
ARC
8
DEFAULT_255_1_388
10
21.0858331
20
45.1662336
40
0.5220662
50
136.7831557
51
155.2472983
0
ARC
8
DEFAULT_255_1_388
10
21.0420122
20
45.2034577
40
0.4646502
50
121.7633063
51
136.4281161
0
ARC
8
DEFAULT_255_1_388
10
21.0571962
20
45.1754049
40
0.4964979
50
95.6460018
51
121.5489589
0
ARC
8
DEFAULT_255_1_388
10
21.0748936
20
45.0506704
40
0.6223912
50
89.9245727
51
96.1375919
0
ARC
8
DEFAULT_255_1_388
10
21.0805641
20
45.0640721
40
0.6090084
50
76.6779212
51
90.456405
0
ARC
8
DEFAULT_255_1_388
10
21.1248454
20
45.243006
40
0.42469
50
47.4858803
51
76.9287069
0
ARC
8
DEFAULT_255_1_388
10
21.1083068
20
45.2317623
40
0.4441778
50
16.5424081
51
46.8934505
0
ARC
8
DEFAULT_255_1_388
10
20.9274118
20
45.1723265
40
0.6345318
50
5.4072971
51
17.0363711
0
ARC
8
DEFAULT_255_1_388
10
20.7655843
20
45.1463304
40
0.6250632
50
7.8888693
51
15.9242022
0
ARC
8
DEFAULT_255_1_388
10
20.9890828
20
45.2112309
40
0.3923364
50
15.7650676
51
27.9410069
0
ARC
8
DEFAULT_255_1_388
10
21.1132997
20
45.2777317
40
0.2514401
50
27.8167196
51
46.4007942
0
ARC
8
DEFAULT_255_1_388
10
21.1188839
20
45.2770882
40
0.2480958
50
47.4372362
51
75.0695672
0
ARC
8
DEFAULT_255_1_388
10
21.0841675
20
45.1562277
40
0.3738281
50
74.7009379
51
87.8124314
0
ARC
8
DEFAULT_255_1_388
10
21.0759292
20
45.0378659
40
0.4924321
50
87.3802571
51
90.0251599
0
ARC
8
DEFAULT_255_1_388
10
21.0715939
20
45.1698997
40
0.3604218
50
89.3451886
51
108.5744412
0
ARC
8
DEFAULT_255_1_388
10
21.0561931
20
45.2276836
40
0.3007661
50
109.2998307
51
143.3037387
0
ARC
8
DEFAULT_255_1_388
10
21.1419221
20
45.1617584
40
0.4089031
50
143.075267
51
163.1918576
0
ARC
8
DEFAULT_255_1_388
10
21.3615055
20
45.0924652
40
0.6391492
50
162.9375929
51
174.6208776
0
ARC
8
DEFAULT_255_1_388
10
21.6569437
20
45.0600711
40
0.9363344
50
174.342123
51
180.1430283
0
ARC
8
DEFAULT_255_1_388
10
21.5521978
20
44.9257117
40
0.8315986
50
179.6817261
51
189.150555
0
ARC
8
DEFAULT_255_1_388
10
21.2708727
20
44.8788559
40
0.5464044
50
188.9911061
51
203.5772363
0
ARC
8
DEFAULT_255_1_388
10
21.1494019
20
44.8284539
40
0.4149206
50
203.9075402
51
215.1312435
0
ARC
8
DEFAULT_255_1_388
10
21.0455817
20
44.7479907
40
0.2837747
50
213.9071511
51
263.8848919
0
ARC
8
DEFAULT_255_1_388
10
21.059681
20
44.8362519
40
0.3730641
50
263.1757928
51
270.1031044
0
ARC
8
DEFAULT_255_1_388
10
21.063289
20
44.9765511
40
0.5133712
50
269.6722503
51
279.0606936
0
ARC
8
DEFAULT_255_1_388
10
21.0933045
20
44.795115
40
0.3294739
50
278.8749101
51
293.6349581
0
ARC
8
DEFAULT_255_1_388
10
21.1293249
20
44.7105251
40
0.2375405
50
293.8553806
51
310.0518171
0
ARC
8
DEFAULT_255_1_388
10
21.1298758
20
44.7035021
40
0.2318463
50
311.0644687
51
332.0111037
0
ARC
8
DEFAULT_255_1_388
10
20.9957431
20
44.7774702
40
0.3850112
50
331.6586806
51
343.2877423
0
ARC
8
DEFAULT_255_1_388
10
20.7636896
20
44.8487806
40
0.6277712
50
343.1446576
51
351.0103568
0
ARC
8
DEFAULT_255_1_388
10
20.600422
20
44.8787873
40
0.7937327
50
350.71248
51
351.1626997
0
LINE
8
DEFAULT_255_1_388
10
22.807846
20
45.0378553
11
22.807846
21
44.9547274
0
LINE
8
DEFAULT_255_1_388
10
21.749772
20
44.9429811
11
21.749772
21
45.0378553
0
LINE
8
DEFAULT_255_1_388
10
22.6352652
20
44.9420775
11
22.6352652
21
45.0396625
0
LINE
8
DEFAULT_255_1_388
10
21.9223528
20
45.0514088
11
21.9223528
21
44.9547274
0
ARC
8
DEFAULT_255_1_388
10
21.8356198
20
44.9502726
40
0.9722364
50
350.4878118
51
0.2625322
0
ARC
8
DEFAULT_255_1_388
10
22.0936158
20
44.9058994
40
0.7104556
50
336.0277991
51
350.5787241
0
ARC
8
DEFAULT_255_1_388
10
22.2449265
20
44.8375243
40
0.544417
50
319.887443
51
336.1331163
0
ARC
8
DEFAULT_255_1_388
10
22.3127077
20
44.7832733
40
0.4576311
50
302.4806296
51
319.6144102
0
ARC
8
DEFAULT_255_1_388
10
22.2997699
20
44.8082067
40
0.4856183
50
275.8196423
51
302.1885521
0
ARC
8
DEFAULT_255_1_388
10
22.281056
20
44.9367466
40
0.6154183
50
269.9169897
51
276.339506
0
ARC
8
DEFAULT_255_1_388
10
22.2760161
20
44.859568
40
0.5382553
50
252.5221437
51
270.441579
0
ARC
8
DEFAULT_255_1_388
10
22.2598411
20
44.7989046
40
0.4755426
50
237.5349961
51
252.1858334
0
ARC
8
DEFAULT_255_1_388
10
22.2698787
20
44.811712
40
0.4917393
50
209.0632754
51
237.3492577
0
ARC
8
DEFAULT_255_1_388
10
22.3678113
20
44.8732104
40
0.6072464
50
205.118533
51
209.6465345
0
ARC
8
DEFAULT_255_1_388
10
22.4574115
20
44.9112174
40
0.7045164
50
188.7216633
51
204.8239753
0
ARC
8
DEFAULT_255_1_388
10
22.6820891
20
44.9490387
40
0.9323368
50
180.3722704
51
188.9253909
0
ARC
8
DEFAULT_255_1_388
10
22.6790452
20
45.0423416
40
0.929284
50
169.5253055
51
180.2766048
0
ARC
8
DEFAULT_255_1_388
10
22.4650251
20
45.0817024
40
0.7116745
50
155.8314601
51
169.5088611
0
ARC
8
DEFAULT_255_1_388
10
22.3209714
20
45.1485312
40
0.5528904
50
139.6259579
51
156.0379072
0
ARC
8
DEFAULT_255_1_388
10
22.2546248
20
45.2019143
40
0.4677708
50
122.6414784
51
139.3431662
0
ARC
8
DEFAULT_255_1_388
10
22.2659503
20
45.1812787
40
0.4912586
50
93.0224537
51
122.4556091
0
ARC
8
DEFAULT_255_1_388
10
22.2781023
20
45.0726776
40
0.6003837
50
89.9756766
51
93.6340839
0
ARC
8
DEFAULT_255_1_388
10
22.2824621
20
45.1175879
40
0.5554884
50
73.7463329
51
90.4234008
0
ARC
8
DEFAULT_255_1_388
10
22.3022094
20
45.1940772
40
0.4765353
50
57.663051
51
73.4516911
0
ARC
8
DEFAULT_255_1_388
10
22.3013132
20
45.1965108
40
0.4749629
50
29.1441355
51
57.4146687
0
ARC
8
DEFAULT_255_1_388
10
22.1960943
20
45.1308046
40
0.5988917
50
24.0985653
51
29.732054
0
ARC
8
DEFAULT_255_1_388
10
22.0798575
20
45.0826154
40
0.7246823
50
8.6654943
51
23.8241215
0
ARC
8
DEFAULT_255_1_388
10
21.8284994
20
45.0416037
40
0.9793537
50
359.7807044
51
8.8218476
0
ARC
8
DEFAULT_255_1_388
10
21.6994698
20
45.0444731
40
0.9358078
50
359.7054632
51
8.0359751
0
ARC
8
DEFAULT_255_1_388
10
22.0369749
20
45.0936252
40
0.5947474
50
7.8926278
51
20.2962188
0
ARC
8
DEFAULT_255_1_388
10
22.22006
20
45.1611367
40
0.3996117
50
20.3231056
51
36.4990255
0
ARC
8
DEFAULT_255_1_388
10
22.2971897
20
45.2205399
40
0.3022818
50
36.1436715
51
85.6627846
0
ARC
8
DEFAULT_255_1_388
10
22.2789152
20
45.1035881
40
0.4203853
50
84.3845912
51
90.076054
0
ARC
8
DEFAULT_255_1_388
10
22.2741507
20
45.1778416
40
0.346157
50
89.3037228
51
109.9046209
0
ARC
8
DEFAULT_255_1_388
10
22.263734
20
45.2208379
40
0.3022217
50
110.8229774
51
143.917961
0
ARC
8
DEFAULT_255_1_388
10
22.36877
20
45.1406455
40
0.434348
50
143.5289166
51
163.2980252
0
ARC
8
DEFAULT_255_1_388
10
22.5833987
20
45.0731685
40
0.659321
50
163.0418884
51
174.3139873
0
ARC
8
DEFAULT_255_1_388
10
22.8538951
20
45.0419378
40
0.9315905
50
174.050934
51
179.4174954
0
ARC
8
DEFAULT_255_1_388
10
22.7970895
20
44.9500382
40
0.8747493
50
179.6928582
51
188.7908948
0
ARC
8
DEFAULT_255_1_388
10
22.4974695
20
44.9021086
40
0.5713262
50
188.6328449
51
202.5630732
0
ARC
8
DEFAULT_255_1_388
10
22.3563532
20
44.8454142
40
0.4192612
50
202.8078931
51
216.1195888
0
ARC
8
DEFAULT_255_1_388
10
22.2653049
20
44.7721479
40
0.3025752
50
215.0755613
51
264.6379773
0
ARC
8
DEFAULT_255_1_388
10
22.2795887
20
44.8656376
40
0.3970284
50
263.8464302
51
270.0830805
0
ARC
8
DEFAULT_255_1_388
10
22.2842431
20
44.8365808
40
0.3679937
50
269.3649295
51
287.5149684
0
ARC
8
DEFAULT_255_1_388
10
22.3042872
20
44.7637714
40
0.2925408
50
288.0629019
51
323.8115617
0
ARC
8
DEFAULT_255_1_388
10
22.2062848
20
44.8368754
40
0.4148018
50
323.6546541
51
342.6591359
0
ARC
8
DEFAULT_255_1_388
10
21.9777506
20
44.911228
40
0.6551163
50
342.4092446
51
353.6451501
0
ARC
8
DEFAULT_255_1_388
10
21.65923
20
44.9508565
40
0.9760748
50
353.4027553
51
359.4846611
0
LINE
8
DEFAULT_255_1_388
10
23.3897415
20
44.9664737
11
23.3897415
21
44.8300355
0
LINE
8
DEFAULT_255_1_388
10
23.3897415
20
44.8300355
11
22.9488021
21
44.8300355
0
LINE
8
DEFAULT_255_1_388
10
22.9488021
20
44.8300355
11
22.9488021
21
44.9664737
0
LINE
8
DEFAULT_255_1_388
10
22.9488021
20
44.9664737
11
23.3897415
21
44.9664737
0
LINE
8
DEFAULT_255_1_388
10
24.3972159
20
44.4758382
11
24.3972159
21
44.3394
0
LINE
8
DEFAULT_255_1_388
10
24.3972159
20
44.3394
11
23.5352154
21
44.3394
0
LINE
8
DEFAULT_255_1_388
10
23.5352154
20
44.3394
11
23.5352154
21
44.4595741
0
LINE
8
DEFAULT_255_1_388
10
23.5352154
20
44.4595741
11
23.9906119
21
44.9655702
0
LINE
8
DEFAULT_255_1_388
10
23.677075
20
45.2673607
11
23.5099156
21
45.2673607
0
LINE
8
DEFAULT_255_1_388
10
24.0891004
20
44.858046
11
23.7367103
21
44.4758382
0
LINE
8
DEFAULT_255_1_388
10
23.7367103
20
44.4758382
11
24.3972159
21
44.4758382
0
ARC
8
DEFAULT_255_1_388
10
22.4730178
20
46.3075983
40
2.0258655
50
318.5132526
51
320.7829045
0
ARC
8
DEFAULT_255_1_388
10
23.0678135
20
45.8234929
40
1.2589638
50
320.7372878
51
323.9739031
0
ARC
8
DEFAULT_255_1_388
10
23.5087067
20
45.5040554
40
0.7145141
50
323.8962701
51
328.64194
0
ARC
8
DEFAULT_255_1_388
10
23.7389324
20
45.3620545
40
0.4440242
50
328.8294576
51
331.7891185
0
ARC
8
DEFAULT_255_1_388
10
23.8511645
20
45.3041374
40
0.3177517
50
331.4254512
51
352.9365785
0
ARC
8
DEFAULT_255_1_388
10
23.8664644
20
45.300705
40
0.3021496
50
353.2257659
51
0.0166158
0
ARC
8
DEFAULT_255_1_388
10
23.8901405
20
45.3032894
40
0.2784847
50
359.486299
51
15.9343185
0
ARC
8
DEFAULT_255_1_388
10
23.9471672
20
45.3186269
40
0.2194403
50
16.1712913
51
43.5286088
0
ARC
8
DEFAULT_255_1_388
10
23.9558616
20
45.3273191
40
0.2071504
50
43.4417391
51
83.1661095
0
ARC
8
DEFAULT_255_1_388
10
23.9407777
20
45.2444316
40
0.2912888
50
82.160179
51
90.1505708
0
ARC
8
DEFAULT_255_1_388
10
23.9372259
20
45.1840279
40
0.3517025
50
89.5460741
51
102.5418361
0
ARC
8
DEFAULT_255_1_388
10
23.9098979
20
45.2999933
40
0.2325748
50
102.1738499
51
129.206123
0
ARC
8
DEFAULT_255_1_388
10
23.9010432
20
45.3139664
40
0.2161591
50
129.72865
51
135.753947
0
ARC
8
DEFAULT_255_1_388
10
23.9146915
20
45.3030728
40
0.2335433
50
136.1757367
51
166.3673339
0
ARC
8
DEFAULT_255_1_388
10
24.0279603
20
45.2727148
40
0.3507873
50
165.9090694
51
178.8684636
0
ARC
8
DEFAULT_255_1_388
10
24.1255375
20
45.2674263
40
0.4484624
50
178.4391136
51
180.0083808
0
ARC
8
DEFAULT_255_1_388
10
23.9676076
20
45.2718197
40
0.4577138
50
163.2878482
51
180.5581842
0
ARC
8
DEFAULT_255_1_388
10
23.8774117
20
45.2966393
40
0.3641968
50
133.4540601
51
162.947111
0
ARC
8
DEFAULT_255_1_388
10
23.8974999
20
45.2752789
40
0.3935189
50
100.7869829
51
133.4382499
0
ARC
8
DEFAULT_255_1_388
10
23.9366244
20
45.1010399
40
0.5720313
50
89.660664
51
101.3702276
0
ARC
8
DEFAULT_255_1_388
10
23.9440853
20
45.1079263
40
0.5651495
50
78.2172678
51
90.412935
0
ARC
8
DEFAULT_255_1_388
10
23.9840319
20
45.2906511
40
0.378122
50
55.9269121
51
78.4888449
0
ARC
8
DEFAULT_255_1_388
10
24.0061034
20
45.3287187
40
0.3342379
50
47.929771
51
55.4049217
0
ARC
8
DEFAULT_255_1_388
10
24.0175564
20
45.3403618
40
0.3179217
50
4.334829
51
48.0560205
0
ARC
8
DEFAULT_255_1_388
10
23.8943366
20
45.3212487
40
0.442341
50
359.9251713
51
5.5971671
0
ARC
8
DEFAULT_255_1_388
10
23.9425521
20
45.3275728
40
0.3941854
50
337.8914027
51
358.9967534
0
ARC
8
DEFAULT_255_1_388
10
23.6373091
20
45.4453295
40
0.7213271
50
326.9132501
51
338.3508308
0
ARC
8
DEFAULT_255_1_388
10
23.1889203
20
45.7327105
40
1.2538973
50
319.6471833
51
327.0959558
0
ARC
8
DEFAULT_255_1_388
10
22.7575861
20
46.088505
40
1.8129975
50
317.2588228
51
319.9045804
0
LINE
8
DEFAULT_255_1_388
10
20.286432
20
52.6943468
11
20.4608199
21
52.6943468
0
LINE
8
DEFAULT_255_1_388
10
19.4479242
20
52.8732525
11
19.4479242
21
52.9997516
0
LINE
8
DEFAULT_255_1_388
10
20.4608199
20
53.1696217
11
20.286432
21
53.1696217
0
LINE
8
DEFAULT_255_1_388
10
19.6223121
20
52.9952337
11
19.6223121
21
52.8678312
0
ARC
8
DEFAULT_255_1_388
10
19.8442433
20
52.7615329
40
0.6202263
50
340.1774904
51
353.7812217
0
ARC
8
DEFAULT_255_1_388
10
20.0210286
20
52.6956893
40
0.4315926
50
311.4560052
51
340.4420756
0
ARC
8
DEFAULT_255_1_388
10
20.0172826
20
52.7081665
40
0.4434573
50
282.4332229
51
310.7514507
0
ARC
8
DEFAULT_255_1_388
10
19.9678644
20
52.9123703
40
0.6535262
50
269.9358869
51
282.8096729
0
ARC
8
DEFAULT_255_1_388
10
19.9620583
20
53.0636329
40
0.8048043
50
269.9995752
51
270.3612856
0
ARC
8
DEFAULT_255_1_388
10
19.9561073
20
52.7837781
40
0.5249831
50
250.7885263
51
270.6488451
0
ARC
8
DEFAULT_255_1_388
10
19.9371898
20
52.7120853
40
0.4510942
50
219.3628377
51
250.0611024
0
ARC
8
DEFAULT_255_1_388
10
20.0304772
20
52.7913653
40
0.5735046
50
193.5480293
51
219.5755675
0
ARC
8
DEFAULT_255_1_388
10
20.2972981
20
52.860652
40
0.849146
50
181.1220183
51
193.8754971
0
ARC
8
DEFAULT_255_1_388
10
20.5296214
20
52.8730914
40
1.0816971
50
179.9914644
51
181.5398227
0
ARC
8
DEFAULT_255_1_388
10
20.3219525
20
53.0039586
40
0.8740384
50
169.5837606
51
180.275782
0
ARC
8
DEFAULT_255_1_388
10
20.1152873
20
53.0421439
40
0.6638751
50
155.0367033
51
169.6002779
0
ARC
8
DEFAULT_255_1_388
10
19.9875331
20
53.1037336
40
0.5220662
50
136.7831557
51
155.2472983
0
ARC
8
DEFAULT_255_1_388
10
19.9437122
20
53.1409577
40
0.4646502
50
121.7633063
51
136.4281161
0
ARC
8
DEFAULT_255_1_388
10
19.9588962
20
53.1129049
40
0.4964979
50
95.6460018
51
121.5489589
0
ARC
8
DEFAULT_255_1_388
10
19.9765936
20
52.9881704
40
0.6223912
50
89.9245727
51
96.1375919
0
ARC
8
DEFAULT_255_1_388
10
19.9822641
20
53.0015721
40
0.6090084
50
76.6779212
51
90.456405
0
ARC
8
DEFAULT_255_1_388
10
20.0265454
20
53.180506
40
0.42469
50
47.4858803
51
76.9287069
0
ARC
8
DEFAULT_255_1_388
10
20.0100068
20
53.1692623
40
0.4441778
50
16.5424081
51
46.8934505
0
ARC
8
DEFAULT_255_1_388
10
19.8291118
20
53.1098265
40
0.6345318
50
5.4072971
51
17.0363711
0
ARC
8
DEFAULT_255_1_388
10
19.6672843
20
53.0838304
40
0.6250632
50
7.8888693
51
15.9242022
0
ARC
8
DEFAULT_255_1_388
10
19.8907828
20
53.1487309
40
0.3923364
50
15.7650676
51
27.9410069
0
ARC
8
DEFAULT_255_1_388
10
20.0149997
20
53.2152317
40
0.2514401
50
27.8167196
51
46.4007942
0
ARC
8
DEFAULT_255_1_388
10
20.0205839
20
53.2145882
40
0.2480958
50
47.4372362
51
75.0695672
0
ARC
8
DEFAULT_255_1_388
10
19.9858675
20
53.0937277
40
0.3738281
50
74.7009379
51
87.8124314
0
ARC
8
DEFAULT_255_1_388
10
19.9776292
20
52.9753659
40
0.4924321
50
87.3802571
51
90.0251599
0
ARC
8
DEFAULT_255_1_388
10
19.9732939
20
53.1073997
40
0.3604218
50
89.3451886
51
108.5744412
0
ARC
8
DEFAULT_255_1_388
10
19.9578931
20
53.1651836
40
0.3007661
50
109.2998307
51
143.3037387
0
ARC
8
DEFAULT_255_1_388
10
20.0436221
20
53.0992584
40
0.4089031
50
143.075267
51
163.1918576
0
ARC
8
DEFAULT_255_1_388
10
20.2632055
20
53.0299652
40
0.6391492
50
162.9375929
51
174.6208776
0
ARC
8
DEFAULT_255_1_388
10
20.5586437
20
52.9975711
40
0.9363344
50
174.342123
51
180.1430283
0
ARC
8
DEFAULT_255_1_388
10
20.4538978
20
52.8632117
40
0.8315986
50
179.6817261
51
189.150555
0
ARC
8
DEFAULT_255_1_388
10
20.1725727
20
52.8163559
40
0.5464044
50
188.9911061
51
203.5772363
0
ARC
8
DEFAULT_255_1_388
10
20.0511019
20
52.7659539
40
0.4149206
50
203.9075402
51
215.1312435
0
ARC
8
DEFAULT_255_1_388
10
19.9472817
20
52.6854907
40
0.2837747
50
213.9071511
51
263.8848919
0
ARC
8
DEFAULT_255_1_388
10
19.961381
20
52.7737519
40
0.3730641
50
263.1757928
51
270.1031044
0
ARC
8
DEFAULT_255_1_388
10
19.964989
20
52.9140511
40
0.5133712
50
269.6722503
51
279.0606936
0
ARC
8
DEFAULT_255_1_388
10
19.9950045
20
52.732615
40
0.3294739
50
278.8749101
51
293.6349581
0
ARC
8
DEFAULT_255_1_388
10
20.0310249
20
52.6480251
40
0.2375405
50
293.8553806
51
310.0518171
0
ARC
8
DEFAULT_255_1_388
10
20.0315758
20
52.6410021
40
0.2318463
50
311.0644687
51
332.0111037
0
ARC
8
DEFAULT_255_1_388
10
19.8974431
20
52.7149702
40
0.3850112
50
331.6586806
51
343.2877423
0
ARC
8
DEFAULT_255_1_388
10
19.6653896
20
52.7862806
40
0.6277712
50
343.1446576
51
351.0103568
0
ARC
8
DEFAULT_255_1_388
10
19.502122
20
52.8162873
40
0.7937327
50
350.71248
51
351.1626997
0
LINE
8
DEFAULT_255_1_388
10
21.709546
20
52.9753553
11
21.709546
21
52.8922274
0
LINE
8
DEFAULT_255_1_388
10
20.651472
20
52.8804811
11
20.651472
21
52.9753553
0
LINE
8
DEFAULT_255_1_388
10
21.5369652
20
52.8795775
11
21.5369652
21
52.9771625
0
LINE
8
DEFAULT_255_1_388
10
20.8240528
20
52.9889088
11
20.8240528
21
52.8922274
0
ARC
8
DEFAULT_255_1_388
10
20.7373198
20
52.8877726
40
0.9722364
50
350.4878118
51
0.2625322
0
ARC
8
DEFAULT_255_1_388
10
20.9953158
20
52.8433994
40
0.7104556
50
336.0277991
51
350.5787241
0
ARC
8
DEFAULT_255_1_388
10
21.1466265
20
52.7750243
40
0.544417
50
319.887443
51
336.1331163
0
ARC
8
DEFAULT_255_1_388
10
21.2144077
20
52.7207733
40
0.4576311
50
302.4806296
51
319.6144102
0
ARC
8
DEFAULT_255_1_388
10
21.2014699
20
52.7457067
40
0.4856183
50
275.8196423
51
302.1885521
0
ARC
8
DEFAULT_255_1_388
10
21.182756
20
52.8742466
40
0.6154183
50
269.9169897
51
276.339506
0
ARC
8
DEFAULT_255_1_388
10
21.1777161
20
52.797068
40
0.5382553
50
252.5221437
51
270.441579
0
ARC
8
DEFAULT_255_1_388
10
21.1615411
20
52.7364046
40
0.4755426
50
237.5349961
51
252.1858334
0
ARC
8
DEFAULT_255_1_388
10
21.1715787
20
52.749212
40
0.4917393
50
209.0632754
51
237.3492577
0
ARC
8
DEFAULT_255_1_388
10
21.2695113
20
52.8107104
40
0.6072464
50
205.118533
51
209.6465345
0
ARC
8
DEFAULT_255_1_388
10
21.3591115
20
52.8487174
40
0.7045164
50
188.7216633
51
204.8239753
0
ARC
8
DEFAULT_255_1_388
10
21.5837891
20
52.8865387
40
0.9323368
50
180.3722704
51
188.9253909
0
ARC
8
DEFAULT_255_1_388
10
21.5807452
20
52.9798416
40
0.929284
50
169.5253055
51
180.2766048
0
ARC
8
DEFAULT_255_1_388
10
21.3667251
20
53.0192024
40
0.7116745
50
155.8314601
51
169.5088611
0
ARC
8
DEFAULT_255_1_388
10
21.2226714
20
53.0860312
40
0.5528904
50
139.6259579
51
156.0379072
0
ARC
8
DEFAULT_255_1_388
10
21.1563248
20
53.1394143
40
0.4677708
50
122.6414784
51
139.3431662
0
ARC
8
DEFAULT_255_1_388
10
21.1676503
20
53.1187787
40
0.4912586
50
93.0224537
51
122.4556091
0
ARC
8
DEFAULT_255_1_388
10
21.1798023
20
53.0101776
40
0.6003837
50
89.9756766
51
93.6340839
0
ARC
8
DEFAULT_255_1_388
10
21.1841621
20
53.0550879
40
0.5554884
50
73.7463329
51
90.4234008
0
ARC
8
DEFAULT_255_1_388
10
21.2039094
20
53.1315772
40
0.4765353
50
57.663051
51
73.4516911
0
ARC
8
DEFAULT_255_1_388
10
21.2030132
20
53.1340108
40
0.4749629
50
29.1441355
51
57.4146687
0
ARC
8
DEFAULT_255_1_388
10
21.0977943
20
53.0683046
40
0.5988917
50
24.0985653
51
29.732054
0
ARC
8
DEFAULT_255_1_388
10
20.9815575
20
53.0201154
40
0.7246823
50
8.6654943
51
23.8241215
0
ARC
8
DEFAULT_255_1_388
10
20.7301994
20
52.9791037
40
0.9793537
50
359.7807044
51
8.8218476
0
ARC
8
DEFAULT_255_1_388
10
20.6011698
20
52.9819731
40
0.9358078
50
359.7054632
51
8.0359751
0
ARC
8
DEFAULT_255_1_388
10
20.9386749
20
53.0311252
40
0.5947474
50
7.8926278
51
20.2962188
0
ARC
8
DEFAULT_255_1_388
10
21.12176
20
53.0986367
40
0.3996117
50
20.3231056
51
36.4990255
0
ARC
8
DEFAULT_255_1_388
10
21.1988897
20
53.1580399
40
0.3022818
50
36.1436715
51
85.6627846
0
ARC
8
DEFAULT_255_1_388
10
21.1806152
20
53.0410881
40
0.4203853
50
84.3845912
51
90.076054
0
ARC
8
DEFAULT_255_1_388
10
21.1758507
20
53.1153416
40
0.346157
50
89.3037228
51
109.9046209
0
ARC
8
DEFAULT_255_1_388
10
21.165434
20
53.1583379
40
0.3022217
50
110.8229774
51
143.917961
0
ARC
8
DEFAULT_255_1_388
10
21.27047
20
53.0781455
40
0.434348
50
143.5289166
51
163.2980252
0
ARC
8
DEFAULT_255_1_388
10
21.4850987
20
53.0106685
40
0.659321
50
163.0418884
51
174.3139873
0
ARC
8
DEFAULT_255_1_388
10
21.7555951
20
52.9794378
40
0.9315905
50
174.050934
51
179.4174954
0
ARC
8
DEFAULT_255_1_388
10
21.6987895
20
52.8875382
40
0.8747493
50
179.6928582
51
188.7908948
0
ARC
8
DEFAULT_255_1_388
10
21.3991695
20
52.8396086
40
0.5713262
50
188.6328449
51
202.5630732
0
ARC
8
DEFAULT_255_1_388
10
21.2580532
20
52.7829142
40
0.4192612
50
202.8078931
51
216.1195888
0
ARC
8
DEFAULT_255_1_388
10
21.1670049
20
52.7096479
40
0.3025752
50
215.0755613
51
264.6379773
0
ARC
8
DEFAULT_255_1_388
10
21.1812887
20
52.8031376
40
0.3970284
50
263.8464302
51
270.0830805
0
ARC
8
DEFAULT_255_1_388
10
21.1859431
20
52.7740808
40
0.3679937
50
269.3649295
51
287.5149684
0
ARC
8
DEFAULT_255_1_388
10
21.2059872
20
52.7012714
40
0.2925408
50
288.0629019
51
323.8115617
0
ARC
8
DEFAULT_255_1_388
10
21.1079848
20
52.7743754
40
0.4148018
50
323.6546541
51
342.6591359
0
ARC
8
DEFAULT_255_1_388
10
20.8794506
20
52.848728
40
0.6551163
50
342.4092446
51
353.6451501
0
ARC
8
DEFAULT_255_1_388
10
20.56093
20
52.8883565
40
0.9760748
50
353.4027553
51
359.4846611
0
LINE
8
DEFAULT_255_1_388
10
21.9697726
20
53.5924898
11
22.1938565
21
53.5924898
0
LINE
8
DEFAULT_255_1_388
10
22.1938565
20
53.5924898
11
22.6239532
21
52.5190553
0
LINE
8
DEFAULT_255_1_388
10
22.6239532
20
52.5190553
11
23.0540499
21
53.5924898
0
LINE
8
DEFAULT_255_1_388
10
23.0540499
20
53.5924898
11
23.2790375
21
53.5924898
0
LINE
8
DEFAULT_255_1_388
10
23.2790375
20
53.5924898
11
23.2790375
21
52.2769
0
LINE
8
DEFAULT_255_1_388
10
23.2790375
20
52.2769
11
23.1055531
21
52.2769
0
LINE
8
DEFAULT_255_1_388
10
23.1055531
20
52.2769
11
23.1055531
21
52.789221
0
LINE
8
DEFAULT_255_1_388
10
23.1055531
20
52.789221
11
23.1218172
21
53.3422025
0
LINE
8
DEFAULT_255_1_388
10
23.1218172
20
53.3422025
11
22.6899134
21
52.2769
0
LINE
8
DEFAULT_255_1_388
10
22.6899134
20
52.2769
11
22.5570895
21
52.2769
0
LINE
8
DEFAULT_255_1_388
10
22.5570895
20
52.2769
11
22.1260892
21
53.3394918
0
LINE
8
DEFAULT_255_1_388
10
22.1260892
20
53.3394918
11
22.1432569
21
52.789221
0
LINE
8
DEFAULT_255_1_388
10
22.1432569
20
52.789221
11
22.1432569
21
52.2769
0
LINE
8
DEFAULT_255_1_388
10
22.1432569
20
52.2769
11
21.9697726
21
52.2769
0
LINE
8
DEFAULT_255_1_388
10
21.9697726
20
52.2769
11
21.9697726
21
53.5924898
0
LINE
8
DEFAULT_255_1_388
10
24.0913419
20
53.5988148
11
24.0913419
21
52.2769
0
LINE
8
DEFAULT_255_1_388
10
24.0913419
20
52.2769
11
23.9232789
21
52.2769
0
LINE
8
DEFAULT_255_1_388
10
23.9232789
20
52.2769
11
23.9232789
21
53.390995
0
LINE
8
DEFAULT_255_1_388
10
23.9232789
20
53.390995
11
23.5862494
21
53.2672066
0
LINE
8
DEFAULT_255_1_388
10
23.5862494
20
53.2672066
11
23.5862494
21
53.4190055
0
LINE
8
DEFAULT_255_1_388
10
23.5862494
20
53.4190055
11
24.0651385
21
53.5988148
0
LINE
8
DEFAULT_255_1_388
10
24.0651385
20
53.5988148
11
24.0913419
21
53.5988148
0
LINE
8
DEFAULT_255_1_388
10
20.5684448
20
61.5299898
11
20.9425205
21
60.4448089
0
LINE
8
DEFAULT_255_1_388
10
20.9425205
20
60.4448089
11
21.3184033
21
61.5299898
0
LINE
8
DEFAULT_255_1_388
10
21.3184033
20
61.5299898
11
21.5081518
21
61.5299898
0
LINE
8
DEFAULT_255_1_388
10
21.5081518
20
61.5299898
11
21.020227
21
60.2144
0
LINE
8
DEFAULT_255_1_388
10
21.020227
20
60.2144
11
20.866621
21
60.2144
0
LINE
8
DEFAULT_255_1_388
10
20.866621
20
60.2144
11
20.3795998
21
61.5299898
0
LINE
8
DEFAULT_255_1_388
10
20.3795998
20
61.5299898
11
20.5684448
21
61.5299898
0
LINE
8
DEFAULT_255_1_388
10
22.6845927
20
60.9128553
11
22.6845927
21
60.8297274
0
LINE
8
DEFAULT_255_1_388
10
21.6265187
20
60.8179811
11
21.6265187
21
60.9128553
0
LINE
8
DEFAULT_255_1_388
10
22.5120119
20
60.8170775
11
22.5120119
21
60.9146625
0
LINE
8
DEFAULT_255_1_388
10
21.7990996
20
60.9264088
11
21.7990996
21
60.8297274
0
ARC
8
DEFAULT_255_1_388
10
21.7123666
20
60.8252726
40
0.9722364
50
350.4878118
51
0.2625322
0
ARC
8
DEFAULT_255_1_388
10
21.9703626
20
60.7808994
40
0.7104556
50
336.0277991
51
350.5787241
0
ARC
8
DEFAULT_255_1_388
10
22.1216732
20
60.7125243
40
0.544417
50
319.887443
51
336.1331163
0
ARC
8
DEFAULT_255_1_388
10
22.1894545
20
60.6582733
40
0.4576311
50
302.4806296
51
319.6144102
0
ARC
8
DEFAULT_255_1_388
10
22.1765166
20
60.6832067
40
0.4856183
50
275.8196423
51
302.1885521
0
ARC
8
DEFAULT_255_1_388
10
22.1578027
20
60.8117466
40
0.6154183
50
269.9169897
51
276.339506
0
ARC
8
DEFAULT_255_1_388
10
22.1527628
20
60.734568
40
0.5382553
50
252.5221437
51
270.441579
0
ARC
8
DEFAULT_255_1_388
10
22.1365878
20
60.6739046
40
0.4755426
50
237.5349961
51
252.1858334
0
ARC
8
DEFAULT_255_1_388
10
22.1466254
20
60.686712
40
0.4917393
50
209.0632754
51
237.3492577
0
ARC
8
DEFAULT_255_1_388
10
22.244558
20
60.7482104
40
0.6072464
50
205.118533
51
209.6465345
0
ARC
8
DEFAULT_255_1_388
10
22.3341582
20
60.7862174
40
0.7045164
50
188.7216633
51
204.8239753
0
ARC
8
DEFAULT_255_1_388
10
22.5588358
20
60.8240387
40
0.9323368
50
180.3722704
51
188.9253909
0
ARC
8
DEFAULT_255_1_388
10
22.5557919
20
60.9173416
40
0.929284
50
169.5253055
51
180.2766048
0
ARC
8
DEFAULT_255_1_388
10
22.3417718
20
60.9567024
40
0.7116745
50
155.8314601
51
169.5088611
0
ARC
8
DEFAULT_255_1_388
10
22.1977181
20
61.0235312
40
0.5528904
50
139.6259579
51
156.0379072
0
ARC
8
DEFAULT_255_1_388
10
22.1313715
20
61.0769143
40
0.4677708
50
122.6414784
51
139.3431662
0
ARC
8
DEFAULT_255_1_388
10
22.142697
20
61.0562787
40
0.4912586
50
93.0224537
51
122.4556091
0
ARC
8
DEFAULT_255_1_388
10
22.1548491
20
60.9476776
40
0.6003837
50
89.9756766
51
93.6340839
0
ARC
8
DEFAULT_255_1_388
10
22.1592088
20
60.9925879
40
0.5554884
50
73.7463329
51
90.4234008
0
ARC
8
DEFAULT_255_1_388
10
22.1789562
20
61.0690772
40
0.4765353
50
57.663051
51
73.4516911
0
ARC
8
DEFAULT_255_1_388
10
22.1780599
20
61.0715108
40
0.4749629
50
29.1441355
51
57.4146687
0
ARC
8
DEFAULT_255_1_388
10
22.0728411
20
61.0058046
40
0.5988917
50
24.0985653
51
29.732054
0
ARC
8
DEFAULT_255_1_388
10
21.9566042
20
60.9576154
40
0.7246823
50
8.6654943
51
23.8241215
0
ARC
8
DEFAULT_255_1_388
10
21.7052461
20
60.9166037
40
0.9793537
50
359.7807044
51
8.8218476
0
ARC
8
DEFAULT_255_1_388
10
21.5762165
20
60.9194731
40
0.9358078
50
359.7054632
51
8.0359751
0
ARC
8
DEFAULT_255_1_388
10
21.9137217
20
60.9686252
40
0.5947474
50
7.8926278
51
20.2962188
0
ARC
8
DEFAULT_255_1_388
10
22.0968067
20
61.0361367
40
0.3996117
50
20.3231056
51
36.4990255
0
ARC
8
DEFAULT_255_1_388
10
22.1739364
20
61.0955399
40
0.3022818
50
36.1436715
51
85.6627846
0
ARC
8
DEFAULT_255_1_388
10
22.155662
20
60.9785881
40
0.4203853
50
84.3845912
51
90.076054
0
ARC
8
DEFAULT_255_1_388
10
22.1508974
20
61.0528416
40
0.346157
50
89.3037228
51
109.9046209
0
ARC
8
DEFAULT_255_1_388
10
22.1404807
20
61.0958379
40
0.3022217
50
110.8229774
51
143.917961
0
ARC
8
DEFAULT_255_1_388
10
22.2455167
20
61.0156455
40
0.434348
50
143.5289166
51
163.2980252
0
ARC
8
DEFAULT_255_1_388
10
22.4601454
20
60.9481685
40
0.659321
50
163.0418884
51
174.3139873
0
ARC
8
DEFAULT_255_1_388
10
22.7306419
20
60.9169378
40
0.9315905
50
174.050934
51
179.4174954
0
ARC
8
DEFAULT_255_1_388
10
22.6738363
20
60.8250382
40
0.8747493
50
179.6928582
51
188.7908948
0
ARC
8
DEFAULT_255_1_388
10
22.3742163
20
60.7771086
40
0.5713262
50
188.6328449
51
202.5630732
0
ARC
8
DEFAULT_255_1_388
10
22.2330999
20
60.7204142
40
0.4192612
50
202.8078931
51
216.1195888
0
ARC
8
DEFAULT_255_1_388
10
22.1420516
20
60.6471479
40
0.3025752
50
215.0755613
51
264.6379773
0
ARC
8
DEFAULT_255_1_388
10
22.1563354
20
60.7406376
40
0.3970284
50
263.8464302
51
270.0830805
0
ARC
8
DEFAULT_255_1_388
10
22.1609899
20
60.7115808
40
0.3679937
50
269.3649295
51
287.5149684
0
ARC
8
DEFAULT_255_1_388
10
22.1810339
20
60.6387714
40
0.2925408
50
288.0629019
51
323.8115617
0
ARC
8
DEFAULT_255_1_388
10
22.0830316
20
60.7118754
40
0.4148018
50
323.6546541
51
342.6591359
0
ARC
8
DEFAULT_255_1_388
10
21.8544973
20
60.786228
40
0.6551163
50
342.4092446
51
353.6451501
0
ARC
8
DEFAULT_255_1_388
10
21.5359767
20
60.8258565
40
0.9760748
50
353.4027553
51
359.4846611
0
LINE
8
DEFAULT_255_1_388
10
23.2664882
20
60.8414737
11
23.2664882
21
60.7050355
0
LINE
8
DEFAULT_255_1_388
10
23.2664882
20
60.7050355
11
22.8255488
21
60.7050355
0
LINE
8
DEFAULT_255_1_388
10
22.8255488
20
60.7050355
11
22.8255488
21
60.8414737
0
LINE
8
DEFAULT_255_1_388
10
22.8255488
20
60.8414737
11
23.2664882
21
60.8414737
0
LINE
8
DEFAULT_255_1_388
10
23.9613293
20
61.5363148
11
23.9613293
21
60.2144
0
LINE
8
DEFAULT_255_1_388
10
23.9613293
20
60.2144
11
23.7932663
21
60.2144
0
LINE
8
DEFAULT_255_1_388
10
23.7932663
20
60.2144
11
23.7932663
21
61.328495
0
LINE
8
DEFAULT_255_1_388
10
23.7932663
20
61.328495
11
23.4562368
21
61.2047066
0
LINE
8
DEFAULT_255_1_388
10
23.4562368
20
61.2047066
11
23.4562368
21
61.3565055
0
LINE
8
DEFAULT_255_1_388
10
23.4562368
20
61.3565055
11
23.9351259
21
61.5363148
0
LINE
8
DEFAULT_255_1_388
10
23.9351259
20
61.5363148
11
23.9613293
21
61.5363148
0
LINE
8
DEFAULT_255_1_388
10
21.393432
20
68.5693468
11
21.5678199
21
68.5693468
0
LINE
8
DEFAULT_255_1_388
10
20.5549242
20
68.7482525
11
20.5549242
21
68.8747516
0
LINE
8
DEFAULT_255_1_388
10
21.5678199
20
69.0446217
11
21.393432
21
69.0446217
0
LINE
8
DEFAULT_255_1_388
10
20.7293121
20
68.8702337
11
20.7293121
21
68.7428312
0
ARC
8
DEFAULT_255_1_388
10
20.9512433
20
68.6365329
40
0.6202263
50
340.1774904
51
353.7812217
0
ARC
8
DEFAULT_255_1_388
10
21.1280286
20
68.5706893
40
0.4315926
50
311.4560052
51
340.4420756
0
ARC
8
DEFAULT_255_1_388
10
21.1242826
20
68.5831665
40
0.4434573
50
282.4332229
51
310.7514507
0
ARC
8
DEFAULT_255_1_388
10
21.0748644
20
68.7873703
40
0.6535262
50
269.9358869
51
282.8096729
0
ARC
8
DEFAULT_255_1_388
10
21.0690583
20
68.9386329
40
0.8048043
50
269.9995752
51
270.3612856
0
ARC
8
DEFAULT_255_1_388
10
21.0631073
20
68.6587781
40
0.5249831
50
250.7885263
51
270.6488451
0
ARC
8
DEFAULT_255_1_388
10
21.0441898
20
68.5870853
40
0.4510942
50
219.3628377
51
250.0611024
0
ARC
8
DEFAULT_255_1_388
10
21.1374772
20
68.6663653
40
0.5735046
50
193.5480293
51
219.5755675
0
ARC
8
DEFAULT_255_1_388
10
21.4042981
20
68.735652
40
0.849146
50
181.1220183
51
193.8754971
0
ARC
8
DEFAULT_255_1_388
10
21.6366214
20
68.7480914
40
1.0816971
50
179.9914644
51
181.5398227
0
ARC
8
DEFAULT_255_1_388
10
21.4289525
20
68.8789586
40
0.8740384
50
169.5837606
51
180.275782
0
ARC
8
DEFAULT_255_1_388
10
21.2222873
20
68.9171439
40
0.6638751
50
155.0367033
51
169.6002779
0
ARC
8
DEFAULT_255_1_388
10
21.0945331
20
68.9787336
40
0.5220662
50
136.7831557
51
155.2472983
0
ARC
8
DEFAULT_255_1_388
10
21.0507122
20
69.0159577
40
0.4646502
50
121.7633063
51
136.4281161
0
ARC
8
DEFAULT_255_1_388
10
21.0658962
20
68.9879049
40
0.4964979
50
95.6460018
51
121.5489589
0
ARC
8
DEFAULT_255_1_388
10
21.0835936
20
68.8631704
40
0.6223912
50
89.9245727
51
96.1375919
0
ARC
8
DEFAULT_255_1_388
10
21.0892641
20
68.8765721
40
0.6090084
50
76.6779212
51
90.456405
0
ARC
8
DEFAULT_255_1_388
10
21.1335454
20
69.055506
40
0.42469
50
47.4858803
51
76.9287069
0
ARC
8
DEFAULT_255_1_388
10
21.1170068
20
69.0442623
40
0.4441778
50
16.5424081
51
46.8934505
0
ARC
8
DEFAULT_255_1_388
10
20.9361118
20
68.9848265
40
0.6345318
50
5.4072971
51
17.0363711
0
ARC
8
DEFAULT_255_1_388
10
20.7742843
20
68.9588304
40
0.6250632
50
7.8888693
51
15.9242022
0
ARC
8
DEFAULT_255_1_388
10
20.9977828
20
69.0237309
40
0.3923364
50
15.7650676
51
27.9410069
0
ARC
8
DEFAULT_255_1_388
10
21.1219997
20
69.0902317
40
0.2514401
50
27.8167196
51
46.4007942
0
ARC
8
DEFAULT_255_1_388
10
21.1275839
20
69.0895882
40
0.2480958
50
47.4372362
51
75.0695672
0
ARC
8
DEFAULT_255_1_388
10
21.0928675
20
68.9687277
40
0.3738281
50
74.7009379
51
87.8124314
0
ARC
8
DEFAULT_255_1_388
10
21.0846292
20
68.8503659
40
0.4924321
50
87.3802571
51
90.0251599
0
ARC
8
DEFAULT_255_1_388
10
21.0802939
20
68.9823997
40
0.3604218
50
89.3451886
51
108.5744412
0
ARC
8
DEFAULT_255_1_388
10
21.0648931
20
69.0401836
40
0.3007661
50
109.2998307
51
143.3037387
0
ARC
8
DEFAULT_255_1_388
10
21.1506221
20
68.9742584
40
0.4089031
50
143.075267
51
163.1918576
0
ARC
8
DEFAULT_255_1_388
10
21.3702055
20
68.9049652
40
0.6391492
50
162.9375929
51
174.6208776
0
ARC
8
DEFAULT_255_1_388
10
21.6656437
20
68.8725711
40
0.9363344
50
174.342123
51
180.1430283
0
ARC
8
DEFAULT_255_1_388
10
21.5608978
20
68.7382117
40
0.8315986
50
179.6817261
51
189.150555
0
ARC
8
DEFAULT_255_1_388
10
21.2795727
20
68.6913559
40
0.5464044
50
188.9911061
51
203.5772363
0
ARC
8
DEFAULT_255_1_388
10
21.1581019
20
68.6409539
40
0.4149206
50
203.9075402
51
215.1312435
0
ARC
8
DEFAULT_255_1_388
10
21.0542817
20
68.5604907
40
0.2837747
50
213.9071511
51
263.8848919
0
ARC
8
DEFAULT_255_1_388
10
21.068381
20
68.6487519
40
0.3730641
50
263.1757928
51
270.1031044
0
ARC
8
DEFAULT_255_1_388
10
21.071989
20
68.7890511
40
0.5133712
50
269.6722503
51
279.0606936
0
ARC
8
DEFAULT_255_1_388
10
21.1020045
20
68.607615
40
0.3294739
50
278.8749101
51
293.6349581
0
ARC
8
DEFAULT_255_1_388
10
21.1380249
20
68.5230251
40
0.2375405
50
293.8553806
51
310.0518171
0
ARC
8
DEFAULT_255_1_388
10
21.1385758
20
68.5160021
40
0.2318463
50
311.0644687
51
332.0111037
0
ARC
8
DEFAULT_255_1_388
10
21.0044431
20
68.5899702
40
0.3850112
50
331.6586806
51
343.2877423
0
ARC
8
DEFAULT_255_1_388
10
20.7723896
20
68.6612806
40
0.6277712
50
343.1446576
51
351.0103568
0
ARC
8
DEFAULT_255_1_388
10
20.609122
20
68.6912873
40
0.7937327
50
350.71248
51
351.1626997
0
LINE
8
DEFAULT_255_1_388
10
22.816546
20
68.8503553
11
22.816546
21
68.7672274
0
LINE
8
DEFAULT_255_1_388
10
21.758472
20
68.7554811
11
21.758472
21
68.8503553
0
LINE
8
DEFAULT_255_1_388
10
22.6439652
20
68.7545775
11
22.6439652
21
68.8521625
0
LINE
8
DEFAULT_255_1_388
10
21.9310528
20
68.8639088
11
21.9310528
21
68.7672274
0
ARC
8
DEFAULT_255_1_388
10
21.8443198
20
68.7627726
40
0.9722364
50
350.4878118
51
0.2625322
0
ARC
8
DEFAULT_255_1_388
10
22.1023158
20
68.7183994
40
0.7104556
50
336.0277991
51
350.5787241
0
ARC
8
DEFAULT_255_1_388
10
22.2536265
20
68.6500243
40
0.544417
50
319.887443
51
336.1331163
0
ARC
8
DEFAULT_255_1_388
10
22.3214077
20
68.5957733
40
0.4576311
50
302.4806296
51
319.6144102
0
ARC
8
DEFAULT_255_1_388
10
22.3084699
20
68.6207067
40
0.4856183
50
275.8196423
51
302.1885521
0
ARC
8
DEFAULT_255_1_388
10
22.289756
20
68.7492466
40
0.6154183
50
269.9169897
51
276.339506
0
ARC
8
DEFAULT_255_1_388
10
22.2847161
20
68.672068
40
0.5382553
50
252.5221437
51
270.441579
0
ARC
8
DEFAULT_255_1_388
10
22.2685411
20
68.6114046
40
0.4755426
50
237.5349961
51
252.1858334
0
ARC
8
DEFAULT_255_1_388
10
22.2785787
20
68.624212
40
0.4917393
50
209.0632754
51
237.3492577
0
ARC
8
DEFAULT_255_1_388
10
22.3765113
20
68.6857104
40
0.6072464
50
205.118533
51
209.6465345
0
ARC
8
DEFAULT_255_1_388
10
22.4661115
20
68.7237174
40
0.7045164
50
188.7216633
51
204.8239753
0
ARC
8
DEFAULT_255_1_388
10
22.6907891
20
68.7615387
40
0.9323368
50
180.3722704
51
188.9253909
0
ARC
8
DEFAULT_255_1_388
10
22.6877452
20
68.8548416
40
0.929284
50
169.5253055
51
180.2766048
0
ARC
8
DEFAULT_255_1_388
10
22.4737251
20
68.8942024
40
0.7116745
50
155.8314601
51
169.5088611
0
ARC
8
DEFAULT_255_1_388
10
22.3296714
20
68.9610312
40
0.5528904
50
139.6259579
51
156.0379072
0
ARC
8
DEFAULT_255_1_388
10
22.2633248
20
69.0144143
40
0.4677708
50
122.6414784
51
139.3431662
0
ARC
8
DEFAULT_255_1_388
10
22.2746503
20
68.9937787
40
0.4912586
50
93.0224537
51
122.4556091
0
ARC
8
DEFAULT_255_1_388
10
22.2868023
20
68.8851776
40
0.6003837
50
89.9756766
51
93.6340839
0
ARC
8
DEFAULT_255_1_388
10
22.2911621
20
68.9300879
40
0.5554884
50
73.7463329
51
90.4234008
0
ARC
8
DEFAULT_255_1_388
10
22.3109094
20
69.0065772
40
0.4765353
50
57.663051
51
73.4516911
0
ARC
8
DEFAULT_255_1_388
10
22.3100132
20
69.0090108
40
0.4749629
50
29.1441355
51
57.4146687
0
ARC
8
DEFAULT_255_1_388
10
22.2047943
20
68.9433046
40
0.5988917
50
24.0985653
51
29.732054
0
ARC
8
DEFAULT_255_1_388
10
22.0885575
20
68.8951154
40
0.7246823
50
8.6654943
51
23.8241215
0
ARC
8
DEFAULT_255_1_388
10
21.8371994
20
68.8541037
40
0.9793537
50
359.7807044
51
8.8218476
0
ARC
8
DEFAULT_255_1_388
10
21.7081698
20
68.8569731
40
0.9358078
50
359.7054632
51
8.0359751
0
ARC
8
DEFAULT_255_1_388
10
22.0456749
20
68.9061252
40
0.5947474
50
7.8926278
51
20.2962188
0
ARC
8
DEFAULT_255_1_388
10
22.22876
20
68.9736367
40
0.3996117
50
20.3231056
51
36.4990255
0
ARC
8
DEFAULT_255_1_388
10
22.3058897
20
69.0330399
40
0.3022818
50
36.1436715
51
85.6627846
0
ARC
8
DEFAULT_255_1_388
10
22.2876152
20
68.9160881
40
0.4203853
50
84.3845912
51
90.076054
0
ARC
8
DEFAULT_255_1_388
10
22.2828507
20
68.9903416
40
0.346157
50
89.3037228
51
109.9046209
0
ARC
8
DEFAULT_255_1_388
10
22.272434
20
69.0333379
40
0.3022217
50
110.8229774
51
143.917961
0
ARC
8
DEFAULT_255_1_388
10
22.37747
20
68.9531455
40
0.434348
50
143.5289166
51
163.2980252
0
ARC
8
DEFAULT_255_1_388
10
22.5920987
20
68.8856685
40
0.659321
50
163.0418884
51
174.3139873
0
ARC
8
DEFAULT_255_1_388
10
22.8625951
20
68.8544378
40
0.9315905
50
174.050934
51
179.4174954
0
ARC
8
DEFAULT_255_1_388
10
22.8057895
20
68.7625382
40
0.8747493
50
179.6928582
51
188.7908948
0
ARC
8
DEFAULT_255_1_388
10
22.5061695
20
68.7146086
40
0.5713262
50
188.6328449
51
202.5630732
0
ARC
8
DEFAULT_255_1_388
10
22.3650532
20
68.6579142
40
0.4192612
50
202.8078931
51
216.1195888
0
ARC
8
DEFAULT_255_1_388
10
22.2740049
20
68.5846479
40
0.3025752
50
215.0755613
51
264.6379773
0
ARC
8
DEFAULT_255_1_388
10
22.2882887
20
68.6781376
40
0.3970284
50
263.8464302
51
270.0830805
0
ARC
8
DEFAULT_255_1_388
10
22.2929431
20
68.6490808
40
0.3679937
50
269.3649295
51
287.5149684
0
ARC
8
DEFAULT_255_1_388
10
22.3129872
20
68.5762714
40
0.2925408
50
288.0629019
51
323.8115617
0
ARC
8
DEFAULT_255_1_388
10
22.2149848
20
68.6493754
40
0.4148018
50
323.6546541
51
342.6591359
0
ARC
8
DEFAULT_255_1_388
10
21.9864506
20
68.723728
40
0.6551163
50
342.4092446
51
353.6451501
0
ARC
8
DEFAULT_255_1_388
10
21.66793
20
68.7633565
40
0.9760748
50
353.4027553
51
359.4846611
0
LINE
8
DEFAULT_255_1_388
10
23.3984415
20
68.7789737
11
23.3984415
21
68.6425355
0
LINE
8
DEFAULT_255_1_388
10
23.3984415
20
68.6425355
11
22.9575021
21
68.6425355
0
LINE
8
DEFAULT_255_1_388
10
22.9575021
20
68.6425355
11
22.9575021
21
68.7789737
0
LINE
8
DEFAULT_255_1_388
10
22.9575021
20
68.7789737
11
23.3984415
21
68.7789737
0
LINE
8
DEFAULT_255_1_388
10
24.0932826
20
69.4738148
11
24.0932826
21
68.1519
0
LINE
8
DEFAULT_255_1_388
10
24.0932826
20
68.1519
11
23.9252196
21
68.1519
0
LINE
8
DEFAULT_255_1_388
10
23.9252196
20
68.1519
11
23.9252196
21
69.265995
0
LINE
8
DEFAULT_255_1_388
10
23.9252196
20
69.265995
11
23.58819
21
69.1422066
0
LINE
8
DEFAULT_255_1_388
10
23.58819
20
69.1422066
11
23.58819
21
69.2940055
0
LINE
8
DEFAULT_255_1_388
10
23.58819
20
69.2940055
11
24.0670792
21
69.4738148
0
LINE
8
DEFAULT_255_1_388
10
24.0670792
20
69.4738148
11
24.0932826
21
69.4738148
0
LINE
8
DEFAULT_255_1_388
10
20.278832
20
76.5068468
11
20.4532199
21
76.5068468
0
LINE
8
DEFAULT_255_1_388
10
19.4403242
20
76.6857525
11
19.4403242
21
76.8122516
0
LINE
8
DEFAULT_255_1_388
10
20.4532199
20
76.9821217
11
20.278832
21
76.9821217
0
LINE
8
DEFAULT_255_1_388
10
19.6147121
20
76.8077337
11
19.6147121
21
76.6803312
0
ARC
8
DEFAULT_255_1_388
10
19.8366433
20
76.5740329
40
0.6202263
50
340.1774904
51
353.7812217
0
ARC
8
DEFAULT_255_1_388
10
20.0134286
20
76.5081893
40
0.4315926
50
311.4560052
51
340.4420756
0
ARC
8
DEFAULT_255_1_388
10
20.0096826
20
76.5206665
40
0.4434573
50
282.4332229
51
310.7514507
0
ARC
8
DEFAULT_255_1_388
10
19.9602644
20
76.7248703
40
0.6535262
50
269.9358869
51
282.8096729
0
ARC
8
DEFAULT_255_1_388
10
19.9544583
20
76.8761329
40
0.8048043
50
269.9995752
51
270.3612856
0
ARC
8
DEFAULT_255_1_388
10
19.9485073
20
76.5962781
40
0.5249831
50
250.7885263
51
270.6488451
0
ARC
8
DEFAULT_255_1_388
10
19.9295898
20
76.5245853
40
0.4510942
50
219.3628377
51
250.0611024
0
ARC
8
DEFAULT_255_1_388
10
20.0228772
20
76.6038653
40
0.5735046
50
193.5480293
51
219.5755675
0
ARC
8
DEFAULT_255_1_388
10
20.2896981
20
76.673152
40
0.849146
50
181.1220183
51
193.8754971
0
ARC
8
DEFAULT_255_1_388
10
20.5220214
20
76.6855914
40
1.0816971
50
179.9914644
51
181.5398227
0
ARC
8
DEFAULT_255_1_388
10
20.3143525
20
76.8164586
40
0.8740384
50
169.5837606
51
180.275782
0
ARC
8
DEFAULT_255_1_388
10
20.1076873
20
76.8546439
40
0.6638751
50
155.0367033
51
169.6002779
0
ARC
8
DEFAULT_255_1_388
10
19.9799331
20
76.9162336
40
0.5220662
50
136.7831557
51
155.2472983
0
ARC
8
DEFAULT_255_1_388
10
19.9361122
20
76.9534577
40
0.4646502
50
121.7633063
51
136.4281161
0
ARC
8
DEFAULT_255_1_388
10
19.9512962
20
76.9254049
40
0.4964979
50
95.6460018
51
121.5489589
0
ARC
8
DEFAULT_255_1_388
10
19.9689936
20
76.8006704
40
0.6223912
50
89.9245727
51
96.1375919
0
ARC
8
DEFAULT_255_1_388
10
19.9746641
20
76.8140721
40
0.6090084
50
76.6779212
51
90.456405
0
ARC
8
DEFAULT_255_1_388
10
20.0189454
20
76.993006
40
0.42469
50
47.4858803
51
76.9287069
0
ARC
8
DEFAULT_255_1_388
10
20.0024068
20
76.9817623
40
0.4441778
50
16.5424081
51
46.8934505
0
ARC
8
DEFAULT_255_1_388
10
19.8215118
20
76.9223265
40
0.6345318
50
5.4072971
51
17.0363711
0
ARC
8
DEFAULT_255_1_388
10
19.6596843
20
76.8963304
40
0.6250632
50
7.8888693
51
15.9242022
0
ARC
8
DEFAULT_255_1_388
10
19.8831828
20
76.9612309
40
0.3923364
50
15.7650676
51
27.9410069
0
ARC
8
DEFAULT_255_1_388
10
20.0073997
20
77.0277317
40
0.2514401
50
27.8167196
51
46.4007942
0
ARC
8
DEFAULT_255_1_388
10
20.0129839
20
77.0270882
40
0.2480958
50
47.4372362
51
75.0695672
0
ARC
8
DEFAULT_255_1_388
10
19.9782675
20
76.9062277
40
0.3738281
50
74.7009379
51
87.8124314
0
ARC
8
DEFAULT_255_1_388
10
19.9700292
20
76.7878659
40
0.4924321
50
87.3802571
51
90.0251599
0
ARC
8
DEFAULT_255_1_388
10
19.9656939
20
76.9198997
40
0.3604218
50
89.3451886
51
108.5744412
0
ARC
8
DEFAULT_255_1_388
10
19.9502931
20
76.9776836
40
0.3007661
50
109.2998307
51
143.3037387
0
ARC
8
DEFAULT_255_1_388
10
20.0360221
20
76.9117584
40
0.4089031
50
143.075267
51
163.1918576
0
ARC
8
DEFAULT_255_1_388
10
20.2556055
20
76.8424652
40
0.6391492
50
162.9375929
51
174.6208776
0
ARC
8
DEFAULT_255_1_388
10
20.5510437
20
76.8100711
40
0.9363344
50
174.342123
51
180.1430283
0
ARC
8
DEFAULT_255_1_388
10
20.4462978
20
76.6757117
40
0.8315986
50
179.6817261
51
189.150555
0
ARC
8
DEFAULT_255_1_388
10
20.1649727
20
76.6288559
40
0.5464044
50
188.9911061
51
203.5772363
0
ARC
8
DEFAULT_255_1_388
10
20.0435019
20
76.5784539
40
0.4149206
50
203.9075402
51
215.1312435
0
ARC
8
DEFAULT_255_1_388
10
19.9396817
20
76.4979907
40
0.2837747
50
213.9071511
51
263.8848919
0
ARC
8
DEFAULT_255_1_388
10
19.953781
20
76.5862519
40
0.3730641
50
263.1757928
51
270.1031044
0
ARC
8
DEFAULT_255_1_388
10
19.957389
20
76.7265511
40
0.5133712
50
269.6722503
51
279.0606936
0
ARC
8
DEFAULT_255_1_388
10
19.9874045
20
76.545115
40
0.3294739
50
278.8749101
51
293.6349581
0
ARC
8
DEFAULT_255_1_388
10
20.0234249
20
76.4605251
40
0.2375405
50
293.8553806
51
310.0518171
0
ARC
8
DEFAULT_255_1_388
10
20.0239758
20
76.4535021
40
0.2318463
50
311.0644687
51
332.0111037
0
ARC
8
DEFAULT_255_1_388
10
19.8898431
20
76.5274702
40
0.3850112
50
331.6586806
51
343.2877423
0
ARC
8
DEFAULT_255_1_388
10
19.6577896
20
76.5987806
40
0.6277712
50
343.1446576
51
351.0103568
0
ARC
8
DEFAULT_255_1_388
10
19.494522
20
76.6287873
40
0.7937327
50
350.71248
51
351.1626997
0
LINE
8
DEFAULT_255_1_388
10
21.701946
20
76.7878553
11
21.701946
21
76.7047274
0
LINE
8
DEFAULT_255_1_388
10
20.643872
20
76.6929811
11
20.643872
21
76.7878553
0
LINE
8
DEFAULT_255_1_388
10
21.5293652
20
76.6920775
11
21.5293652
21
76.7896625
0
LINE
8
DEFAULT_255_1_388
10
20.8164528
20
76.8014088
11
20.8164528
21
76.7047274
0
ARC
8
DEFAULT_255_1_388
10
20.7297198
20
76.7002726
40
0.9722364
50
350.4878118
51
0.2625322
0
ARC
8
DEFAULT_255_1_388
10
20.9877158
20
76.6558994
40
0.7104556
50
336.0277991
51
350.5787241
0
ARC
8
DEFAULT_255_1_388
10
21.1390265
20
76.5875243
40
0.544417
50
319.887443
51
336.1331163
0
ARC
8
DEFAULT_255_1_388
10
21.2068077
20
76.5332733
40
0.4576311
50
302.4806296
51
319.6144102
0
ARC
8
DEFAULT_255_1_388
10
21.1938699
20
76.5582067
40
0.4856183
50
275.8196423
51
302.1885521
0
ARC
8
DEFAULT_255_1_388
10
21.175156
20
76.6867466
40
0.6154183
50
269.9169897
51
276.339506
0
ARC
8
DEFAULT_255_1_388
10
21.1701161
20
76.609568
40
0.5382553
50
252.5221437
51
270.441579
0
ARC
8
DEFAULT_255_1_388
10
21.1539411
20
76.5489046
40
0.4755426
50
237.5349961
51
252.1858334
0
ARC
8
DEFAULT_255_1_388
10
21.1639787
20
76.561712
40
0.4917393
50
209.0632754
51
237.3492577
0
ARC
8
DEFAULT_255_1_388
10
21.2619113
20
76.6232104
40
0.6072464
50
205.118533
51
209.6465345
0
ARC
8
DEFAULT_255_1_388
10
21.3515115
20
76.6612174
40
0.7045164
50
188.7216633
51
204.8239753
0
ARC
8
DEFAULT_255_1_388
10
21.5761891
20
76.6990387
40
0.9323368
50
180.3722704
51
188.9253909
0
ARC
8
DEFAULT_255_1_388
10
21.5731452
20
76.7923416
40
0.929284
50
169.5253055
51
180.2766048
0
ARC
8
DEFAULT_255_1_388
10
21.3591251
20
76.8317024
40
0.7116745
50
155.8314601
51
169.5088611
0
ARC
8
DEFAULT_255_1_388
10
21.2150714
20
76.8985312
40
0.5528904
50
139.6259579
51
156.0379072
0
ARC
8
DEFAULT_255_1_388
10
21.1487248
20
76.9519143
40
0.4677708
50
122.6414784
51
139.3431662
0
ARC
8
DEFAULT_255_1_388
10
21.1600503
20
76.9312787
40
0.4912586
50
93.0224537
51
122.4556091
0
ARC
8
DEFAULT_255_1_388
10
21.1722023
20
76.8226776
40
0.6003837
50
89.9756766
51
93.6340839
0
ARC
8
DEFAULT_255_1_388
10
21.1765621
20
76.8675879
40
0.5554884
50
73.7463329
51
90.4234008
0
ARC
8
DEFAULT_255_1_388
10
21.1963094
20
76.9440772
40
0.4765353
50
57.663051
51
73.4516911
0
ARC
8
DEFAULT_255_1_388
10
21.1954132
20
76.9465108
40
0.4749629
50
29.1441355
51
57.4146687
0
ARC
8
DEFAULT_255_1_388
10
21.0901943
20
76.8808046
40
0.5988917
50
24.0985653
51
29.732054
0
ARC
8
DEFAULT_255_1_388
10
20.9739575
20
76.8326154
40
0.7246823
50
8.6654943
51
23.8241215
0
ARC
8
DEFAULT_255_1_388
10
20.7225994
20
76.7916037
40
0.9793537
50
359.7807044
51
8.8218476
0
ARC
8
DEFAULT_255_1_388
10
20.5935698
20
76.7944731
40
0.9358078
50
359.7054632
51
8.0359751
0
ARC
8
DEFAULT_255_1_388
10
20.9310749
20
76.8436252
40
0.5947474
50
7.8926278
51
20.2962188
0
ARC
8
DEFAULT_255_1_388
10
21.11416
20
76.9111367
40
0.3996117
50
20.3231056
51
36.4990255
0
ARC
8
DEFAULT_255_1_388
10
21.1912897
20
76.9705399
40
0.3022818
50
36.1436715
51
85.6627846
0
ARC
8
DEFAULT_255_1_388
10
21.1730152
20
76.8535881
40
0.4203853
50
84.3845912
51
90.076054
0
ARC
8
DEFAULT_255_1_388
10
21.1682507
20
76.9278416
40
0.346157
50
89.3037228
51
109.9046209
0
ARC
8
DEFAULT_255_1_388
10
21.157834
20
76.9708379
40
0.3022217
50
110.8229774
51
143.917961
0
ARC
8
DEFAULT_255_1_388
10
21.26287
20
76.8906455
40
0.434348
50
143.5289166
51
163.2980252
0
ARC
8
DEFAULT_255_1_388
10
21.4774987
20
76.8231685
40
0.659321
50
163.0418884
51
174.3139873
0
ARC
8
DEFAULT_255_1_388
10
21.7479951
20
76.7919378
40
0.9315905
50
174.050934
51
179.4174954
0
ARC
8
DEFAULT_255_1_388
10
21.6911895
20
76.7000382
40
0.8747493
50
179.6928582
51
188.7908948
0
ARC
8
DEFAULT_255_1_388
10
21.3915695
20
76.6521086
40
0.5713262
50
188.6328449
51
202.5630732
0
ARC
8
DEFAULT_255_1_388
10
21.2504532
20
76.5954142
40
0.4192612
50
202.8078931
51
216.1195888
0
ARC
8
DEFAULT_255_1_388
10
21.1594049
20
76.5221479
40
0.3025752
50
215.0755613
51
264.6379773
0
ARC
8
DEFAULT_255_1_388
10
21.1736887
20
76.6156376
40
0.3970284
50
263.8464302
51
270.0830805
0
ARC
8
DEFAULT_255_1_388
10
21.1783431
20
76.5865808
40
0.3679937
50
269.3649295
51
287.5149684
0
ARC
8
DEFAULT_255_1_388
10
21.1983872
20
76.5137714
40
0.2925408
50
288.0629019
51
323.8115617
0
ARC
8
DEFAULT_255_1_388
10
21.1003848
20
76.5868754
40
0.4148018
50
323.6546541
51
342.6591359
0
ARC
8
DEFAULT_255_1_388
10
20.8718506
20
76.661228
40
0.6551163
50
342.4092446
51
353.6451501
0
ARC
8
DEFAULT_255_1_388
10
20.55333
20
76.7008565
40
0.9760748
50
353.4027553
51
359.4846611
0
LINE
8
DEFAULT_255_1_388
10
21.9621726
20
77.4049898
11
22.1862565
21
77.4049898
0
LINE
8
DEFAULT_255_1_388
10
22.1862565
20
77.4049898
11
22.6163532
21
76.3315553
0
LINE
8
DEFAULT_255_1_388
10
22.6163532
20
76.3315553
11
23.0464499
21
77.4049898
0
LINE
8
DEFAULT_255_1_388
10
23.0464499
20
77.4049898
11
23.2714375
21
77.4049898
0
LINE
8
DEFAULT_255_1_388
10
23.2714375
20
77.4049898
11
23.2714375
21
76.0894
0
LINE
8
DEFAULT_255_1_388
10
23.2714375
20
76.0894
11
23.0979531
21
76.0894
0
LINE
8
DEFAULT_255_1_388
10
23.0979531
20
76.0894
11
23.0979531
21
76.601721
0
LINE
8
DEFAULT_255_1_388
10
23.0979531
20
76.601721
11
23.1142172
21
77.1547025
0
LINE
8
DEFAULT_255_1_388
10
23.1142172
20
77.1547025
11
22.6823134
21
76.0894
0
LINE
8
DEFAULT_255_1_388
10
22.6823134
20
76.0894
11
22.5494895
21
76.0894
0
LINE
8
DEFAULT_255_1_388
10
22.5494895
20
76.0894
11
22.1184892
21
77.1519918
0
LINE
8
DEFAULT_255_1_388
10
22.1184892
20
77.1519918
11
22.1356569
21
76.601721
0
LINE
8
DEFAULT_255_1_388
10
22.1356569
20
76.601721
11
22.1356569
21
76.0894
0
LINE
8
DEFAULT_255_1_388
10
22.1356569
20
76.0894
11
21.9621726
21
76.0894
0
LINE
8
DEFAULT_255_1_388
10
21.9621726
20
76.0894
11
21.9621726
21
77.4049898
0
LINE
8
DEFAULT_255_1_388
10
24.3593291
20
76.867369
11
24.3593291
21
76.6505135
0
LINE
8
DEFAULT_255_1_388
10
23.5289533
20
76.6279244
11
23.5289533
21
76.8511048
0
LINE
8
DEFAULT_255_1_388
10
24.1921696
20
76.6053353
11
24.1921696
21
76.8791153
0
LINE
8
DEFAULT_255_1_388
10
23.6961127
20
76.8917652
11
23.6961127
21
76.6243102
0
ARC
8
DEFAULT_255_1_388
10
22.9815624
20
76.6450118
40
1.3777776
50
353.8440855
51
0.2287917
0
ARC
8
DEFAULT_255_1_388
10
23.5034642
20
76.5867414
40
0.852639
50
344.4934746
51
353.9763743
0
ARC
8
DEFAULT_255_1_388
10
23.8401449
20
76.4910191
40
0.5026273
50
329.2803599
51
344.7473406
0
ARC
8
DEFAULT_255_1_388
10
23.9516945
20
76.4298038
40
0.3754848
50
324.9361395
51
328.6153007
0
ARC
8
DEFAULT_255_1_388
10
23.9942595
20
76.4000586
40
0.3235566
50
280.5801797
51
324.9173226
0
ARC
8
DEFAULT_255_1_388
10
23.9491223
20
76.5880236
40
0.5167077
50
269.5979457
51
281.6732777
0
ARC
8
DEFAULT_255_1_388
10
23.9410127
20
76.5745113
40
0.5032026
50
256.6228565
51
270.5105488
0
ARC
8
DEFAULT_255_1_388
10
23.8957869
20
76.4003345
40
0.3233092
50
215.8618351
51
257.2787793
0
ARC
8
DEFAULT_255_1_388
10
24.0106577
20
76.4774106
40
0.4615831
50
197.9695203
51
215.2622745
0
ARC
8
DEFAULT_255_1_388
10
24.2902252
20
76.5717641
40
0.7566307
50
187.8816486
51
198.2346584
0
ARC
8
DEFAULT_255_1_388
10
24.735549
20
76.6360453
40
1.2065653
50
180.8977266
51
188.0054894
0
ARC
8
DEFAULT_255_1_388
10
25.0405704
20
76.64754
40
1.5117443
50
180.7434591
51
181.152202
0
ARC
8
DEFAULT_255_1_388
10
24.87307
20
76.8565371
40
1.3441277
50
173.7674302
51
180.2315596
0
ARC
8
DEFAULT_255_1_388
10
24.3648569
20
76.9139779
40
0.8326847
50
164.3058537
51
173.9000553
0
ARC
8
DEFAULT_255_1_388
10
24.0372569
20
77.0083652
40
0.4917711
50
148.7922028
51
164.5682288
0
ARC
8
DEFAULT_255_1_388
10
23.9303306
20
77.0680457
40
0.3694204
50
144.5883979
51
148.1161588
0
ARC
8
DEFAULT_255_1_388
10
23.8916052
20
77.0950667
40
0.322202
50
101.6440149
51
144.5142619
0
ARC
8
DEFAULT_255_1_388
10
23.9394244
20
76.9050337
40
0.5180451
50
89.528284
51
102.5820197
0
ARC
8
DEFAULT_255_1_388
10
23.9483236
20
76.9006376
40
0.5224441
50
77.0437914
51
90.508231
0
ARC
8
DEFAULT_255_1_388
10
23.9935489
20
77.0854272
40
0.3322297
50
48.2777708
51
77.4996087
0
ARC
8
DEFAULT_255_1_388
10
24.0017229
20
77.0999557
40
0.315966
50
36.3141586
51
47.6307332
0
ARC
8
DEFAULT_255_1_388
10
23.9039952
20
77.0341159
40
0.4337313
50
18.2931065
51
35.6770203
0
ARC
8
DEFAULT_255_1_388
10
23.6178793
20
76.9359107
40
0.7362203
50
8.0246996
51
18.5605636
0
ARC
8
DEFAULT_255_1_388
10
23.1495148
20
76.8667432
40
1.2096583
50
1.127539
51
8.1718423
0
ARC
8
DEFAULT_255_1_388
10
22.7846281
20
76.8524374
40
1.5747719
50
0.5432713
51
1.38669
0
ARC
8
DEFAULT_255_1_388
10
22.990366
20
76.8831163
40
1.2018103
50
359.8092569
51
4.9408001
0
ARC
8
DEFAULT_255_1_388
10
23.4640241
20
76.92539
40
0.7262727
50
4.8364937
51
12.2906017
0
ARC
8
DEFAULT_255_1_388
10
23.7739706
20
76.9944485
40
0.4087324
50
12.0806994
51
23.8171225
0
ARC
8
DEFAULT_255_1_388
10
23.9060102
20
77.0503508
40
0.2653719
50
24.2874621
51
31.3934353
0
ARC
8
DEFAULT_255_1_388
10
23.9650538
20
77.0889822
40
0.1948607
50
30.7407708
51
82.4658033
0
ARC
8
DEFAULT_255_1_388
10
23.9448199
20
76.9896017
40
0.2961198
50
81.1057101
51
90.2187368
0
ARC
8
DEFAULT_255_1_388
10
23.9408011
20
77.0186421
40
0.2670929
50
89.380395
51
105.6763916
0
ARC
8
DEFAULT_255_1_388
10
23.9201733
20
77.093632
40
0.1893189
50
105.7980655
51
149.7387869
0
ARC
8
DEFAULT_255_1_388
10
24.0398873
20
77.0216719
40
0.3289892
50
149.4208441
51
163.628295
0
ARC
8
DEFAULT_255_1_388
10
24.2751103
20
76.9499345
40
0.5749004
50
163.3764549
51
172.141138
0
ARC
8
DEFAULT_255_1_388
10
24.6463824
20
76.8967582
40
0.9499585
50
172.0258462
51
178.0705453
0
ARC
8
DEFAULT_255_1_388
10
24.9885377
20
76.8805682
40
1.2924734
50
177.8639301
51
179.5036263
0
ARC
8
DEFAULT_255_1_388
10
24.8666395
20
76.6202151
40
1.170534
50
179.7995545
51
185.246089
0
ARC
8
DEFAULT_255_1_388
10
24.4117989
20
76.5771404
40
0.7136613
50
185.1411911
51
193.0082205
0
ARC
8
DEFAULT_255_1_388
10
24.1144249
20
76.5068441
40
0.4080987
50
192.7897338
51
205.2507384
0
ARC
8
DEFAULT_255_1_388
10
23.9966459
20
76.4542538
40
0.2791522
50
205.8001921
51
211.2545876
0
ARC
8
DEFAULT_255_1_388
10
23.9377998
20
76.4148132
40
0.2084074
50
210.3789935
51
238.4007996
0
ARC
8
DEFAULT_255_1_388
10
23.9356084
20
76.4200786
40
0.2117943
50
239.6521916
51
265.9793852
0
ARC
8
DEFAULT_255_1_388
10
23.9451933
20
76.4957358
40
0.2879689
50
265.1324455
51
270.0603288
0
ARC
8
DEFAULT_255_1_388
10
23.948431
20
76.4592418
40
0.2514919
50
269.3314378
51
287.2180039
0
ARC
8
DEFAULT_255_1_388
10
23.9639392
20
76.4026291
40
0.1928357
50
287.7957942
51
329.0808983
0
ARC
8
DEFAULT_255_1_388
10
23.856215
20
76.4698651
40
0.319808
50
328.6635261
51
343.3325043
0
ARC
8
DEFAULT_255_1_388
10
23.6117608
20
76.5460195
40
0.5758408
50
343.0498092
51
351.9392499
0
ARC
8
DEFAULT_255_1_388
10
23.221693
20
76.6035205
40
0.9701202
50
351.8071632
51
357.7957897
0
ARC
8
DEFAULT_255_1_388
10
22.8582407
20
76.6223724
40
1.3340376
50
357.5870923
51
359.2682493
0
LINE
8
DEFAULT_255_1_388
10
20.5606448
20
85.3424898
11
20.9347205
21
84.2573089
0
LINE
8
DEFAULT_255_1_388
10
20.9347205
20
84.2573089
11
21.3106033
21
85.3424898
0
LINE
8
DEFAULT_255_1_388
10
21.3106033
20
85.3424898
11
21.5003518
21
85.3424898
0
LINE
8
DEFAULT_255_1_388
10
21.5003518
20
85.3424898
11
21.012427
21
84.0269
0
LINE
8
DEFAULT_255_1_388
10
21.012427
20
84.0269
11
20.858821
21
84.0269
0
LINE
8
DEFAULT_255_1_388
10
20.858821
20
84.0269
11
20.3717998
21
85.3424898
0
LINE
8
DEFAULT_255_1_388
10
20.3717998
20
85.3424898
11
20.5606448
21
85.3424898
0
LINE
8
DEFAULT_255_1_388
10
22.6767927
20
84.7253553
11
22.6767927
21
84.6422274
0
LINE
8
DEFAULT_255_1_388
10
21.6187187
20
84.6304811
11
21.6187187
21
84.7253553
0
LINE
8
DEFAULT_255_1_388
10
22.5042119
20
84.6295775
11
22.5042119
21
84.7271625
0
LINE
8
DEFAULT_255_1_388
10
21.7912996
20
84.7389088
11
21.7912996
21
84.6422274
0
ARC
8
DEFAULT_255_1_388
10
21.7045666
20
84.6377726
40
0.9722364
50
350.4878118
51
0.2625322
0
ARC
8
DEFAULT_255_1_388
10
21.9625626
20
84.5933994
40
0.7104556
50
336.0277991
51
350.5787241
0
ARC
8
DEFAULT_255_1_388
10
22.1138732
20
84.5250243
40
0.544417
50
319.887443
51
336.1331163
0
ARC
8
DEFAULT_255_1_388
10
22.1816545
20
84.4707733
40
0.4576311
50
302.4806296
51
319.6144102
0
ARC
8
DEFAULT_255_1_388
10
22.1687166
20
84.4957067
40
0.4856183
50
275.8196423
51
302.1885521
0
ARC
8
DEFAULT_255_1_388
10
22.1500027
20
84.6242466
40
0.6154183
50
269.9169897
51
276.339506
0
ARC
8
DEFAULT_255_1_388
10
22.1449628
20
84.547068
40
0.5382553
50
252.5221437
51
270.441579
0
ARC
8
DEFAULT_255_1_388
10
22.1287878
20
84.4864046
40
0.4755426
50
237.5349961
51
252.1858334
0
ARC
8
DEFAULT_255_1_388
10
22.1388254
20
84.499212
40
0.4917393
50
209.0632754
51
237.3492577
0
ARC
8
DEFAULT_255_1_388
10
22.236758
20
84.5607104
40
0.6072464
50
205.118533
51
209.6465345
0
ARC
8
DEFAULT_255_1_388
10
22.3263582
20
84.5987174
40
0.7045164
50
188.7216633
51
204.8239753
0
ARC
8
DEFAULT_255_1_388
10
22.5510358
20
84.6365387
40
0.9323368
50
180.3722704
51
188.9253909
0
ARC
8
DEFAULT_255_1_388
10
22.5479919
20
84.7298416
40
0.929284
50
169.5253055
51
180.2766048
0
ARC
8
DEFAULT_255_1_388
10
22.3339718
20
84.7692024
40
0.7116745
50
155.8314601
51
169.5088611
0
ARC
8
DEFAULT_255_1_388
10
22.1899181
20
84.8360312
40
0.5528904
50
139.6259579
51
156.0379072
0
ARC
8
DEFAULT_255_1_388
10
22.1235715
20
84.8894143
40
0.4677708
50
122.6414784
51
139.3431662
0
ARC
8
DEFAULT_255_1_388
10
22.134897
20
84.8687787
40
0.4912586
50
93.0224537
51
122.4556091
0
ARC
8
DEFAULT_255_1_388
10
22.1470491
20
84.7601776
40
0.6003837
50
89.9756766
51
93.6340839
0
ARC
8
DEFAULT_255_1_388
10
22.1514088
20
84.8050879
40
0.5554884
50
73.7463329
51
90.4234008
0
ARC
8
DEFAULT_255_1_388
10
22.1711562
20
84.8815772
40
0.4765353
50
57.663051
51
73.4516911
0
ARC
8
DEFAULT_255_1_388
10
22.1702599
20
84.8840108
40
0.4749629
50
29.1441355
51
57.4146687
0
ARC
8
DEFAULT_255_1_388
10
22.0650411
20
84.8183046
40
0.5988917
50
24.0985653
51
29.732054
0
ARC
8
DEFAULT_255_1_388
10
21.9488042
20
84.7701154
40
0.7246823
50
8.6654943
51
23.8241215
0
ARC
8
DEFAULT_255_1_388
10
21.6974461
20
84.7291037
40
0.9793537
50
359.7807044
51
8.8218476
0
ARC
8
DEFAULT_255_1_388
10
21.5684165
20
84.7319731
40
0.9358078
50
359.7054632
51
8.0359751
0
ARC
8
DEFAULT_255_1_388
10
21.9059217
20
84.7811252
40
0.5947474
50
7.8926278
51
20.2962188
0
ARC
8
DEFAULT_255_1_388
10
22.0890067
20
84.8486367
40
0.3996117
50
20.3231056
51
36.4990255
0
ARC
8
DEFAULT_255_1_388
10
22.1661364
20
84.9080399
40
0.3022818
50
36.1436715
51
85.6627846
0
ARC
8
DEFAULT_255_1_388
10
22.147862
20
84.7910881
40
0.4203853
50
84.3845912
51
90.076054
0
ARC
8
DEFAULT_255_1_388
10
22.1430974
20
84.8653416
40
0.346157
50
89.3037228
51
109.9046209
0
ARC
8
DEFAULT_255_1_388
10
22.1326807
20
84.9083379
40
0.3022217
50
110.8229774
51
143.917961
0
ARC
8
DEFAULT_255_1_388
10
22.2377167
20
84.8281455
40
0.434348
50
143.5289166
51
163.2980252
0
ARC
8
DEFAULT_255_1_388
10
22.4523454
20
84.7606685
40
0.659321
50
163.0418884
51
174.3139873
0
ARC
8
DEFAULT_255_1_388
10
22.7228419
20
84.7294378
40
0.9315905
50
174.050934
51
179.4174954
0
ARC
8
DEFAULT_255_1_388
10
22.6660363
20
84.6375382
40
0.8747493
50
179.6928582
51
188.7908948
0
ARC
8
DEFAULT_255_1_388
10
22.3664163
20
84.5896086
40
0.5713262
50
188.6328449
51
202.5630732
0
ARC
8
DEFAULT_255_1_388
10
22.2252999
20
84.5329142
40
0.4192612
50
202.8078931
51
216.1195888
0
ARC
8
DEFAULT_255_1_388
10
22.1342516
20
84.4596479
40
0.3025752
50
215.0755613
51
264.6379773
0
ARC
8
DEFAULT_255_1_388
10
22.1485354
20
84.5531376
40
0.3970284
50
263.8464302
51
270.0830805
0
ARC
8
DEFAULT_255_1_388
10
22.1531899
20
84.5240808
40
0.3679937
50
269.3649295
51
287.5149684
0
ARC
8
DEFAULT_255_1_388
10
22.1732339
20
84.4512714
40
0.2925408
50
288.0629019
51
323.8115617
0
ARC
8
DEFAULT_255_1_388
10
22.0752316
20
84.5243754
40
0.4148018
50
323.6546541
51
342.6591359
0
ARC
8
DEFAULT_255_1_388
10
21.8466973
20
84.598728
40
0.6551163
50
342.4092446
51
353.6451501
0
ARC
8
DEFAULT_255_1_388
10
21.5281767
20
84.6383565
40
0.9760748
50
353.4027553
51
359.4846611
0
LINE
8
DEFAULT_255_1_388
10
23.2586882
20
84.6539737
11
23.2586882
21
84.5175355
0
LINE
8
DEFAULT_255_1_388
10
23.2586882
20
84.5175355
11
22.8177488
21
84.5175355
0
LINE
8
DEFAULT_255_1_388
10
22.8177488
20
84.5175355
11
22.8177488
21
84.6539737
0
LINE
8
DEFAULT_255_1_388
10
22.8177488
20
84.6539737
11
23.2586882
21
84.6539737
0
LINE
8
DEFAULT_255_1_388
10
24.2291165
20
84.804869
11
24.2291165
21
84.5880135
0
LINE
8
DEFAULT_255_1_388
10
23.3987407
20
84.5654244
11
23.3987407
21
84.7886048
0
LINE
8
DEFAULT_255_1_388
10
24.061957
20
84.5428353
11
24.061957
21
84.8166153
0
LINE
8
DEFAULT_255_1_388
10
23.5659001
20
84.8292652
11
23.5659001
21
84.5618102
0
ARC
8
DEFAULT_255_1_388
10
22.8513499
20
84.5825118
40
1.3777776
50
353.8440855
51
0.2287917
0
ARC
8
DEFAULT_255_1_388
10
23.3732516
20
84.5242414
40
0.852639
50
344.4934746
51
353.9763743
0
ARC
8
DEFAULT_255_1_388
10
23.7099323
20
84.4285191
40
0.5026273
50
329.2803599
51
344.7473406
0
ARC
8
DEFAULT_255_1_388
10
23.8214819
20
84.3673038
40
0.3754848
50
324.9361395
51
328.6153007
0
ARC
8
DEFAULT_255_1_388
10
23.8640469
20
84.3375586
40
0.3235566
50
280.5801797
51
324.9173226
0
ARC
8
DEFAULT_255_1_388
10
23.8189097
20
84.5255236
40
0.5167077
50
269.5979457
51
281.6732777
0
ARC
8
DEFAULT_255_1_388
10
23.8108001
20
84.5120113
40
0.5032026
50
256.6228565
51
270.5105488
0
ARC
8
DEFAULT_255_1_388
10
23.7655744
20
84.3378345
40
0.3233092
50
215.8618351
51
257.2787793
0
ARC
8
DEFAULT_255_1_388
10
23.8804451
20
84.4149106
40
0.4615831
50
197.9695203
51
215.2622745
0
ARC
8
DEFAULT_255_1_388
10
24.1600126
20
84.5092641
40
0.7566307
50
187.8816486
51
198.2346584
0
ARC
8
DEFAULT_255_1_388
10
24.6053364
20
84.5735453
40
1.2065653
50
180.8977266
51
188.0054894
0
ARC
8
DEFAULT_255_1_388
10
24.9103578
20
84.58504
40
1.5117443
50
180.7434591
51
181.152202
0
ARC
8
DEFAULT_255_1_388
10
24.7428574
20
84.7940371
40
1.3441277
50
173.7674302
51
180.2315596
0
ARC
8
DEFAULT_255_1_388
10
24.2346443
20
84.8514779
40
0.8326847
50
164.3058537
51
173.9000553
0
ARC
8
DEFAULT_255_1_388
10
23.9070443
20
84.9458652
40
0.4917711
50
148.7922028
51
164.5682288
0
ARC
8
DEFAULT_255_1_388
10
23.800118
20
85.0055457
40
0.3694204
50
144.5883979
51
148.1161588
0
ARC
8
DEFAULT_255_1_388
10
23.7613926
20
85.0325667
40
0.322202
50
101.6440149
51
144.5142619
0
ARC
8
DEFAULT_255_1_388
10
23.8092118
20
84.8425337
40
0.5180451
50
89.528284
51
102.5820197
0
ARC
8
DEFAULT_255_1_388
10
23.818111
20
84.8381376
40
0.5224441
50
77.0437914
51
90.508231
0
ARC
8
DEFAULT_255_1_388
10
23.8633364
20
85.0229272
40
0.3322297
50
48.2777708
51
77.4996087
0
ARC
8
DEFAULT_255_1_388
10
23.8715104
20
85.0374557
40
0.315966
50
36.3141586
51
47.6307332
0
ARC
8
DEFAULT_255_1_388
10
23.7737826
20
84.9716159
40
0.4337313
50
18.2931065
51
35.6770203
0
ARC
8
DEFAULT_255_1_388
10
23.4876667
20
84.8734107
40
0.7362203
50
8.0246996
51
18.5605636
0
ARC
8
DEFAULT_255_1_388
10
23.0193022
20
84.8042432
40
1.2096583
50
1.127539
51
8.1718423
0
ARC
8
DEFAULT_255_1_388
10
22.6544155
20
84.7899374
40
1.5747719
50
0.5432713
51
1.38669
0
ARC
8
DEFAULT_255_1_388
10
22.8601534
20
84.8206163
40
1.2018103
50
359.8092569
51
4.9408001
0
ARC
8
DEFAULT_255_1_388
10
23.3338115
20
84.86289
40
0.7262727
50
4.8364937
51
12.2906017
0
ARC
8
DEFAULT_255_1_388
10
23.643758
20
84.9319485
40
0.4087324
50
12.0806994
51
23.8171225
0
ARC
8
DEFAULT_255_1_388
10
23.7757976
20
84.9878508
40
0.2653719
50
24.2874621
51
31.3934353
0
ARC
8
DEFAULT_255_1_388
10
23.8348412
20
85.0264822
40
0.1948607
50
30.7407708
51
82.4658033
0
ARC
8
DEFAULT_255_1_388
10
23.8146073
20
84.9271017
40
0.2961198
50
81.1057101
51
90.2187368
0
ARC
8
DEFAULT_255_1_388
10
23.8105885
20
84.9561421
40
0.2670929
50
89.380395
51
105.6763916
0
ARC
8
DEFAULT_255_1_388
10
23.7899607
20
85.031132
40
0.1893189
50
105.7980655
51
149.7387869
0
ARC
8
DEFAULT_255_1_388
10
23.9096747
20
84.9591719
40
0.3289892
50
149.4208441
51
163.628295
0
ARC
8
DEFAULT_255_1_388
10
24.1448977
20
84.8874345
40
0.5749004
50
163.3764549
51
172.141138
0
ARC
8
DEFAULT_255_1_388
10
24.5161698
20
84.8342582
40
0.9499585
50
172.0258462
51
178.0705453
0
ARC
8
DEFAULT_255_1_388
10
24.8583251
20
84.8180682
40
1.2924734
50
177.8639301
51
179.5036263
0
ARC
8
DEFAULT_255_1_388
10
24.7364269
20
84.5577151
40
1.170534
50
179.7995545
51
185.246089
0
ARC
8
DEFAULT_255_1_388
10
24.2815863
20
84.5146404
40
0.7136613
50
185.1411911
51
193.0082205
0
ARC
8
DEFAULT_255_1_388
10
23.9842123
20
84.4443441
40
0.4080987
50
192.7897338
51
205.2507384
0
ARC
8
DEFAULT_255_1_388
10
23.8664333
20
84.3917538
40
0.2791522
50
205.8001921
51
211.2545876
0
ARC
8
DEFAULT_255_1_388
10
23.8075872
20
84.3523132
40
0.2084074
50
210.3789935
51
238.4007996
0
ARC
8
DEFAULT_255_1_388
10
23.8053958
20
84.3575786
40
0.2117943
50
239.6521916
51
265.9793852
0
ARC
8
DEFAULT_255_1_388
10
23.8149807
20
84.4332358
40
0.2879689
50
265.1324455
51
270.0603288
0
ARC
8
DEFAULT_255_1_388
10
23.8182184
20
84.3967418
40
0.2514919
50
269.3314378
51
287.2180039
0
ARC
8
DEFAULT_255_1_388
10
23.8337267
20
84.3401291
40
0.1928357
50
287.7957942
51
329.0808983
0
ARC
8
DEFAULT_255_1_388
10
23.7260024
20
84.4073651
40
0.319808
50
328.6635261
51
343.3325043
0
ARC
8
DEFAULT_255_1_388
10
23.4815482
20
84.4835195
40
0.5758408
50
343.0498092
51
351.9392499
0
ARC
8
DEFAULT_255_1_388
10
23.0914804
20
84.5410205
40
0.9701202
50
351.8071632
51
357.7957897
0
ARC
8
DEFAULT_255_1_388
10
22.7280281
20
84.5598724
40
1.3340376
50
357.5870923
51
359.2682493
0
LINE
8
DEFAULT_255_1_388
10
21.384732
20
92.3818468
11
21.5591199
21
92.3818468
0
LINE
8
DEFAULT_255_1_388
10
20.5462242
20
92.5607525
11
20.5462242
21
92.6872516
0
LINE
8
DEFAULT_255_1_388
10
21.5591199
20
92.8571217
11
21.384732
21
92.8571217
0
LINE
8
DEFAULT_255_1_388
10
20.7206121
20
92.6827337
11
20.7206121
21
92.5553312
0
ARC
8
DEFAULT_255_1_388
10
20.9425433
20
92.4490329
40
0.6202263
50
340.1774904
51
353.7812217
0
ARC
8
DEFAULT_255_1_388
10
21.1193286
20
92.3831893
40
0.4315926
50
311.4560052
51
340.4420756
0
ARC
8
DEFAULT_255_1_388
10
21.1155826
20
92.3956665
40
0.4434573
50
282.4332229
51
310.7514507
0
ARC
8
DEFAULT_255_1_388
10
21.0661644
20
92.5998703
40
0.6535262
50
269.9358869
51
282.8096729
0
ARC
8
DEFAULT_255_1_388
10
21.0603583
20
92.7511329
40
0.8048043
50
269.9995752
51
270.3612856
0
ARC
8
DEFAULT_255_1_388
10
21.0544073
20
92.4712781
40
0.5249831
50
250.7885263
51
270.6488451
0
ARC
8
DEFAULT_255_1_388
10
21.0354898
20
92.3995853
40
0.4510942
50
219.3628377
51
250.0611024
0
ARC
8
DEFAULT_255_1_388
10
21.1287772
20
92.4788653
40
0.5735046
50
193.5480293
51
219.5755675
0
ARC
8
DEFAULT_255_1_388
10
21.3955981
20
92.548152
40
0.849146
50
181.1220183
51
193.8754971
0
ARC
8
DEFAULT_255_1_388
10
21.6279214
20
92.5605914
40
1.0816971
50
179.9914644
51
181.5398227
0
ARC
8
DEFAULT_255_1_388
10
21.4202525
20
92.6914586
40
0.8740384
50
169.5837606
51
180.275782
0
ARC
8
DEFAULT_255_1_388
10
21.2135873
20
92.7296439
40
0.6638751
50
155.0367033
51
169.6002779
0
ARC
8
DEFAULT_255_1_388
10
21.0858331
20
92.7912336
40
0.5220662
50
136.7831557
51
155.2472983
0
ARC
8
DEFAULT_255_1_388
10
21.0420122
20
92.8284577
40
0.4646502
50
121.7633063
51
136.4281161
0
ARC
8
DEFAULT_255_1_388
10
21.0571962
20
92.8004049
40
0.4964979
50
95.6460018
51
121.5489589
0
ARC
8
DEFAULT_255_1_388
10
21.0748936
20
92.6756704
40
0.6223912
50
89.9245727
51
96.1375919
0
ARC
8
DEFAULT_255_1_388
10
21.0805641
20
92.6890721
40
0.6090084
50
76.6779212
51
90.456405
0
ARC
8
DEFAULT_255_1_388
10
21.1248454
20
92.868006
40
0.42469
50
47.4858803
51
76.9287069
0
ARC
8
DEFAULT_255_1_388
10
21.1083068
20
92.8567623
40
0.4441778
50
16.5424081
51
46.8934505
0
ARC
8
DEFAULT_255_1_388
10
20.9274118
20
92.7973265
40
0.6345318
50
5.4072971
51
17.0363711
0
ARC
8
DEFAULT_255_1_388
10
20.7655843
20
92.7713304
40
0.6250632
50
7.8888693
51
15.9242022
0
ARC
8
DEFAULT_255_1_388
10
20.9890828
20
92.8362309
40
0.3923364
50
15.7650676
51
27.9410069
0
ARC
8
DEFAULT_255_1_388
10
21.1132997
20
92.9027317
40
0.2514401
50
27.8167196
51
46.4007942
0
ARC
8
DEFAULT_255_1_388
10
21.1188839
20
92.9020882
40
0.2480958
50
47.4372362
51
75.0695672
0
ARC
8
DEFAULT_255_1_388
10
21.0841675
20
92.7812277
40
0.3738281
50
74.7009379
51
87.8124314
0
ARC
8
DEFAULT_255_1_388
10
21.0759292
20
92.6628659
40
0.4924321
50
87.3802571
51
90.0251599
0
ARC
8
DEFAULT_255_1_388
10
21.0715939
20
92.7948997
40
0.3604218
50
89.3451886
51
108.5744412
0
ARC
8
DEFAULT_255_1_388
10
21.0561931
20
92.8526836
40
0.3007661
50
109.2998307
51
143.3037387
0
ARC
8
DEFAULT_255_1_388
10
21.1419221
20
92.7867584
40
0.4089031
50
143.075267
51
163.1918576
0
ARC
8
DEFAULT_255_1_388
10
21.3615055
20
92.7174652
40
0.6391492
50
162.9375929
51
174.6208776
0
ARC
8
DEFAULT_255_1_388
10
21.6569437
20
92.6850711
40
0.9363344
50
174.342123
51
180.1430283
0
ARC
8
DEFAULT_255_1_388
10
21.5521978
20
92.5507117
40
0.8315986
50
179.6817261
51
189.150555
0
ARC
8
DEFAULT_255_1_388
10
21.2708727
20
92.5038559
40
0.5464044
50
188.9911061
51
203.5772363
0
ARC
8
DEFAULT_255_1_388
10
21.1494019
20
92.4534539
40
0.4149206
50
203.9075402
51
215.1312435
0
ARC
8
DEFAULT_255_1_388
10
21.0455817
20
92.3729907
40
0.2837747
50
213.9071511
51
263.8848919
0
ARC
8
DEFAULT_255_1_388
10
21.059681
20
92.4612519
40
0.3730641
50
263.1757928
51
270.1031044
0
ARC
8
DEFAULT_255_1_388
10
21.063289
20
92.6015511
40
0.5133712
50
269.6722503
51
279.0606936
0
ARC
8
DEFAULT_255_1_388
10
21.0933045
20
92.420115
40
0.3294739
50
278.8749101
51
293.6349581
0
ARC
8
DEFAULT_255_1_388
10
21.1293249
20
92.3355251
40
0.2375405
50
293.8553806
51
310.0518171
0
ARC
8
DEFAULT_255_1_388
10
21.1298758
20
92.3285021
40
0.2318463
50
311.0644687
51
332.0111037
0
ARC
8
DEFAULT_255_1_388
10
20.9957431
20
92.4024702
40
0.3850112
50
331.6586806
51
343.2877423
0
ARC
8
DEFAULT_255_1_388
10
20.7636896
20
92.4737806
40
0.6277712
50
343.1446576
51
351.0103568
0
ARC
8
DEFAULT_255_1_388
10
20.600422
20
92.5037873
40
0.7937327
50
350.71248
51
351.1626997
0
LINE
8
DEFAULT_255_1_388
10
22.807846
20
92.6628553
11
22.807846
21
92.5797274
0
LINE
8
DEFAULT_255_1_388
10
21.749772
20
92.5679811
11
21.749772
21
92.6628553
0
LINE
8
DEFAULT_255_1_388
10
22.6352652
20
92.5670775
11
22.6352652
21
92.6646625
0
LINE
8
DEFAULT_255_1_388
10
21.9223528
20
92.6764088
11
21.9223528
21
92.5797274
0
ARC
8
DEFAULT_255_1_388
10
21.8356198
20
92.5752726
40
0.9722364
50
350.4878118
51
0.2625322
0
ARC
8
DEFAULT_255_1_388
10
22.0936158
20
92.5308994
40
0.7104556
50
336.0277991
51
350.5787241
0
ARC
8
DEFAULT_255_1_388
10
22.2449265
20
92.4625243
40
0.544417
50
319.887443
51
336.1331163
0
ARC
8
DEFAULT_255_1_388
10
22.3127077
20
92.4082733
40
0.4576311
50
302.4806296
51
319.6144102
0
ARC
8
DEFAULT_255_1_388
10
22.2997699
20
92.4332067
40
0.4856183
50
275.8196423
51
302.1885521
0
ARC
8
DEFAULT_255_1_388
10
22.281056
20
92.5617466
40
0.6154183
50
269.9169897
51
276.339506
0
ARC
8
DEFAULT_255_1_388
10
22.2760161
20
92.484568
40
0.5382553
50
252.5221437
51
270.441579
0
ARC
8
DEFAULT_255_1_388
10
22.2598411
20
92.4239046
40
0.4755426
50
237.5349961
51
252.1858334
0
ARC
8
DEFAULT_255_1_388
10
22.2698787
20
92.436712
40
0.4917393
50
209.0632754
51
237.3492577
0
ARC
8
DEFAULT_255_1_388
10
22.3678113
20
92.4982104
40
0.6072464
50
205.118533
51
209.6465345
0
ARC
8
DEFAULT_255_1_388
10
22.4574115
20
92.5362174
40
0.7045164
50
188.7216633
51
204.8239753
0
ARC
8
DEFAULT_255_1_388
10
22.6820891
20
92.5740387
40
0.9323368
50
180.3722704
51
188.9253909
0
ARC
8
DEFAULT_255_1_388
10
22.6790452
20
92.6673416
40
0.929284
50
169.5253055
51
180.2766048
0
ARC
8
DEFAULT_255_1_388
10
22.4650251
20
92.7067024
40
0.7116745
50
155.8314601
51
169.5088611
0
ARC
8
DEFAULT_255_1_388
10
22.3209714
20
92.7735312
40
0.5528904
50
139.6259579
51
156.0379072
0
ARC
8
DEFAULT_255_1_388
10
22.2546248
20
92.8269143
40
0.4677708
50
122.6414784
51
139.3431662
0
ARC
8
DEFAULT_255_1_388
10
22.2659503
20
92.8062787
40
0.4912586
50
93.0224537
51
122.4556091
0
ARC
8
DEFAULT_255_1_388
10
22.2781023
20
92.6976776
40
0.6003837
50
89.9756766
51
93.6340839
0
ARC
8
DEFAULT_255_1_388
10
22.2824621
20
92.7425879
40
0.5554884
50
73.7463329
51
90.4234008
0
ARC
8
DEFAULT_255_1_388
10
22.3022094
20
92.8190772
40
0.4765353
50
57.663051
51
73.4516911
0
ARC
8
DEFAULT_255_1_388
10
22.3013132
20
92.8215108
40
0.4749629
50
29.1441355
51
57.4146687
0
ARC
8
DEFAULT_255_1_388
10
22.1960943
20
92.7558046
40
0.5988917
50
24.0985653
51
29.732054
0
ARC
8
DEFAULT_255_1_388
10
22.0798575
20
92.7076154
40
0.7246823
50
8.6654943
51
23.8241215
0
ARC
8
DEFAULT_255_1_388
10
21.8284994
20
92.6666037
40
0.9793537
50
359.7807044
51
8.8218476
0
ARC
8
DEFAULT_255_1_388
10
21.6994698
20
92.6694731
40
0.9358078
50
359.7054632
51
8.0359751
0
ARC
8
DEFAULT_255_1_388
10
22.0369749
20
92.7186252
40
0.5947474
50
7.8926278
51
20.2962188
0
ARC
8
DEFAULT_255_1_388
10
22.22006
20
92.7861367
40
0.3996117
50
20.3231056
51
36.4990255
0
ARC
8
DEFAULT_255_1_388
10
22.2971897
20
92.8455399
40
0.3022818
50
36.1436715
51
85.6627846
0
ARC
8
DEFAULT_255_1_388
10
22.2789152
20
92.7285881
40
0.4203853
50
84.3845912
51
90.076054
0
ARC
8
DEFAULT_255_1_388
10
22.2741507
20
92.8028416
40
0.346157
50
89.3037228
51
109.9046209
0
ARC
8
DEFAULT_255_1_388
10
22.263734
20
92.8458379
40
0.3022217
50
110.8229774
51
143.917961
0
ARC
8
DEFAULT_255_1_388
10
22.36877
20
92.7656455
40
0.434348
50
143.5289166
51
163.2980252
0
ARC
8
DEFAULT_255_1_388
10
22.5833987
20
92.6981685
40
0.659321
50
163.0418884
51
174.3139873
0
ARC
8
DEFAULT_255_1_388
10
22.8538951
20
92.6669378
40
0.9315905
50
174.050934
51
179.4174954
0
ARC
8
DEFAULT_255_1_388
10
22.7970895
20
92.5750382
40
0.8747493
50
179.6928582
51
188.7908948
0
ARC
8
DEFAULT_255_1_388
10
22.4974695
20
92.5271086
40
0.5713262
50
188.6328449
51
202.5630732
0
ARC
8
DEFAULT_255_1_388
10
22.3563532
20
92.4704142
40
0.4192612
50
202.8078931
51
216.1195888
0
ARC
8
DEFAULT_255_1_388
10
22.2653049
20
92.3971479
40
0.3025752
50
215.0755613
51
264.6379773
0
ARC
8
DEFAULT_255_1_388
10
22.2795887
20
92.4906376
40
0.3970284
50
263.8464302
51
270.0830805
0
ARC
8
DEFAULT_255_1_388
10
22.2842431
20
92.4615808
40
0.3679937
50
269.3649295
51
287.5149684
0
ARC
8
DEFAULT_255_1_388
10
22.3042872
20
92.3887714
40
0.2925408
50
288.0629019
51
323.8115617
0
ARC
8
DEFAULT_255_1_388
10
22.2062848
20
92.4618754
40
0.4148018
50
323.6546541
51
342.6591359
0
ARC
8
DEFAULT_255_1_388
10
21.9777506
20
92.536228
40
0.6551163
50
342.4092446
51
353.6451501
0
ARC
8
DEFAULT_255_1_388
10
21.65923
20
92.5758565
40
0.9760748
50
353.4027553
51
359.4846611
0
LINE
8
DEFAULT_255_1_388
10
23.3897415
20
92.5914737
11
23.3897415
21
92.4550355
0
LINE
8
DEFAULT_255_1_388
10
23.3897415
20
92.4550355
11
22.9488021
21
92.4550355
0
LINE
8
DEFAULT_255_1_388
10
22.9488021
20
92.4550355
11
22.9488021
21
92.5914737
0
LINE
8
DEFAULT_255_1_388
10
22.9488021
20
92.5914737
11
23.3897415
21
92.5914737
0
LINE
8
DEFAULT_255_1_388
10
24.3601697
20
92.742369
11
24.3601697
21
92.5255135
0
LINE
8
DEFAULT_255_1_388
10
23.529794
20
92.5029244
11
23.529794
21
92.7261048
0
LINE
8
DEFAULT_255_1_388
10
24.1930103
20
92.4803353
11
24.1930103
21
92.7541153
0
LINE
8
DEFAULT_255_1_388
10
23.6969534
20
92.7667652
11
23.6969534
21
92.4993102
0
ARC
8
DEFAULT_255_1_388
10
22.9824031
20
92.5200118
40
1.3777776
50
353.8440855
51
0.2287917
0
ARC
8
DEFAULT_255_1_388
10
23.5043049
20
92.4617414
40
0.852639
50
344.4934746
51
353.9763743
0
ARC
8
DEFAULT_255_1_388
10
23.8409856
20
92.3660191
40
0.5026273
50
329.2803599
51
344.7473406
0
ARC
8
DEFAULT_255_1_388
10
23.9525352
20
92.3048038
40
0.3754848
50
324.9361395
51
328.6153007
0
ARC
8
DEFAULT_255_1_388
10
23.9951001
20
92.2750586
40
0.3235566
50
280.5801797
51
324.9173226
0
ARC
8
DEFAULT_255_1_388
10
23.949963
20
92.4630236
40
0.5167077
50
269.5979457
51
281.6732777
0
ARC
8
DEFAULT_255_1_388
10
23.9418534
20
92.4495113
40
0.5032026
50
256.6228565
51
270.5105488
0
ARC
8
DEFAULT_255_1_388
10
23.8966276
20
92.2753345
40
0.3233092
50
215.8618351
51
257.2787793
0
ARC
8
DEFAULT_255_1_388
10
24.0114983
20
92.3524106
40
0.4615831
50
197.9695203
51
215.2622745
0
ARC
8
DEFAULT_255_1_388
10
24.2910659
20
92.4467641
40
0.7566307
50
187.8816486
51
198.2346584
0
ARC
8
DEFAULT_255_1_388
10
24.7363897
20
92.5110453
40
1.2065653
50
180.8977266
51
188.0054894
0
ARC
8
DEFAULT_255_1_388
10
25.0414111
20
92.52254
40
1.5117443
50
180.7434591
51
181.152202
0
ARC
8
DEFAULT_255_1_388
10
24.8739107
20
92.7315371
40
1.3441277
50
173.7674302
51
180.2315596
0
ARC
8
DEFAULT_255_1_388
10
24.3656976
20
92.7889779
40
0.8326847
50
164.3058537
51
173.9000553
0
ARC
8
DEFAULT_255_1_388
10
24.0380976
20
92.8833652
40
0.4917711
50
148.7922028
51
164.5682288
0
ARC
8
DEFAULT_255_1_388
10
23.9311713
20
92.9430457
40
0.3694204
50
144.5883979
51
148.1161588
0
ARC
8
DEFAULT_255_1_388
10
23.8924458
20
92.9700667
40
0.322202
50
101.6440149
51
144.5142619
0
ARC
8
DEFAULT_255_1_388
10
23.9402651
20
92.7800337
40
0.5180451
50
89.528284
51
102.5820197
0
ARC
8
DEFAULT_255_1_388
10
23.9491643
20
92.7756376
40
0.5224441
50
77.0437914
51
90.508231
0
ARC
8
DEFAULT_255_1_388
10
23.9943896
20
92.9604272
40
0.3322297
50
48.2777708
51
77.4996087
0
ARC
8
DEFAULT_255_1_388
10
24.0025636
20
92.9749557
40
0.315966
50
36.3141586
51
47.6307332
0
ARC
8
DEFAULT_255_1_388
10
23.9048358
20
92.9091159
40
0.4337313
50
18.2931065
51
35.6770203
0
ARC
8
DEFAULT_255_1_388
10
23.6187199
20
92.8109107
40
0.7362203
50
8.0246996
51
18.5605636
0
ARC
8
DEFAULT_255_1_388
10
23.1503555
20
92.7417432
40
1.2096583
50
1.127539
51
8.1718423
0
ARC
8
DEFAULT_255_1_388
10
22.7854688
20
92.7274374
40
1.5747719
50
0.5432713
51
1.38669
0
ARC
8
DEFAULT_255_1_388
10
22.9912067
20
92.7581163
40
1.2018103
50
359.8092569
51
4.9408001
0
ARC
8
DEFAULT_255_1_388
10
23.4648648
20
92.80039
40
0.7262727
50
4.8364937
51
12.2906017
0
ARC
8
DEFAULT_255_1_388
10
23.7748113
20
92.8694485
40
0.4087324
50
12.0806994
51
23.8171225
0
ARC
8
DEFAULT_255_1_388
10
23.9068509
20
92.9253508
40
0.2653719
50
24.2874621
51
31.3934353
0
ARC
8
DEFAULT_255_1_388
10
23.9658945
20
92.9639822
40
0.1948607
50
30.7407708
51
82.4658033
0
ARC
8
DEFAULT_255_1_388
10
23.9456606
20
92.8646017
40
0.2961198
50
81.1057101
51
90.2187368
0
ARC
8
DEFAULT_255_1_388
10
23.9416418
20
92.8936421
40
0.2670929
50
89.380395
51
105.6763916
0
ARC
8
DEFAULT_255_1_388
10
23.9210139
20
92.968632
40
0.1893189
50
105.7980655
51
149.7387869
0
ARC
8
DEFAULT_255_1_388
10
24.040728
20
92.8966719
40
0.3289892
50
149.4208441
51
163.628295
0
ARC
8
DEFAULT_255_1_388
10
24.2759509
20
92.8249345
40
0.5749004
50
163.3764549
51
172.141138
0
ARC
8
DEFAULT_255_1_388
10
24.6472231
20
92.7717582
40
0.9499585
50
172.0258462
51
178.0705453
0
ARC
8
DEFAULT_255_1_388
10
24.9893783
20
92.7555682
40
1.2924734
50
177.8639301
51
179.5036263
0
ARC
8
DEFAULT_255_1_388
10
24.8674802
20
92.4952151
40
1.170534
50
179.7995545
51
185.246089
0
ARC
8
DEFAULT_255_1_388
10
24.4126395
20
92.4521404
40
0.7136613
50
185.1411911
51
193.0082205
0
ARC
8
DEFAULT_255_1_388
10
24.1152656
20
92.3818441
40
0.4080987
50
192.7897338
51
205.2507384
0
ARC
8
DEFAULT_255_1_388
10
23.9974866
20
92.3292538
40
0.2791522
50
205.8001921
51
211.2545876
0
ARC
8
DEFAULT_255_1_388
10
23.9386405
20
92.2898132
40
0.2084074
50
210.3789935
51
238.4007996
0
ARC
8
DEFAULT_255_1_388
10
23.9364491
20
92.2950786
40
0.2117943
50
239.6521916
51
265.9793852
0
ARC
8
DEFAULT_255_1_388
10
23.946034
20
92.3707358
40
0.2879689
50
265.1324455
51
270.0603288
0
ARC
8
DEFAULT_255_1_388
10
23.9492717
20
92.3342418
40
0.2514919
50
269.3314378
51
287.2180039
0
ARC
8
DEFAULT_255_1_388
10
23.9647799
20
92.2776291
40
0.1928357
50
287.7957942
51
329.0808983
0
ARC
8
DEFAULT_255_1_388
10
23.8570556
20
92.3448651
40
0.319808
50
328.6635261
51
343.3325043
0
ARC
8
DEFAULT_255_1_388
10
23.6126015
20
92.4210195
40
0.5758408
50
343.0498092
51
351.9392499
0
ARC
8
DEFAULT_255_1_388
10
23.2225336
20
92.4785205
40
0.9701202
50
351.8071632
51
357.7957897
0
ARC
8
DEFAULT_255_1_388
10
22.8590813
20
92.4973724
40
1.3340376
50
357.5870923
51
359.2682493
0
ENDSEC
0
EOF