0
SECTION
2
HEADER
9
$MEASUREMENT
70
1
0
ENDSEC
0
SECTION
2
TABLES
0
TABLE
2
LTYPE
0
LTYPE
72
65
70
64
2
CONTINUOUS
3
______
73
0
40
0
0
ENDTAB
0
TABLE
2
LAYER
0
LAYER
2
DEFAULT_255_2_778
70
0
62
255
6
CONTINUOUS
0
ENDTAB
0
ENDSEC
0
SECTION
2
ENTITIES
0
LINE
8
DEFAULT_255_2_778
10
93.4262646
20
43.1471138
11
59.0253646
21
43.1471138
0
LINE
8
DEFAULT_255_2_778
10
59.0253646
20
43.1471138
11
59.0253646
21
45.2309138
0
LINE
8
DEFAULT_255_2_778
10
59.0253646
20
45.2309138
11
59.0301646
21
45.9270138
0
LINE
8
DEFAULT_255_2_778
10
59.0301646
20
45.9270138
11
59.0301646
21
62.6262138
0
LINE
8
DEFAULT_255_2_778
10
59.0301646
20
62.6262138
11
59.0253646
21
63.3223138
0
LINE
8
DEFAULT_255_2_778
10
59.0253646
20
63.3223138
11
59.0253646
21
65.4062138
0
LINE
8
DEFAULT_255_2_778
10
59.0253646
20
65.4062138
11
93.4262646
21
65.4062138
0
LINE
8
DEFAULT_255_2_778
10
93.4262646
20
65.4062138
11
93.4262646
21
64.0137138
0
LINE
8
DEFAULT_255_2_778
10
93.4262646
20
64.0137138
11
93.4214646
21
63.3221138
0
LINE
8
DEFAULT_255_2_778
10
93.4214646
20
63.3221138
11
93.4214646
21
45.2304138
0
LINE
8
DEFAULT_255_2_778
10
93.4214646
20
45.2304138
11
93.4262646
21
44.5388138
0
LINE
8
DEFAULT_255_2_778
10
93.4262646
20
44.5388138
11
93.4262646
21
43.1426138
0
LINE
8
DEFAULT_255_2_778
10
59.5881285
20
43.6490041
11
92.8591285
21
43.6490041
0
LINE
8
DEFAULT_255_2_778
10
92.8591285
20
43.6490041
11
92.8591285
21
64.9000041
0
LINE
8
DEFAULT_255_2_778
10
92.8591285
20
64.9000041
11
59.5881285
21
64.9000041
0
LINE
8
DEFAULT_255_2_778
10
59.5881285
20
64.9000041
11
59.5881285
21
43.6490041
0
LINE
8
DEFAULT_255_2_778
10
55.2166285
20
70.1634041
11
37.1387285
21
70.1608041
0
LINE
8
DEFAULT_255_2_778
10
37.1387285
20
70.1608041
11
37.0130285
21
70.1301041
0
LINE
8
DEFAULT_255_2_778
10
37.0130285
20
70.1301041
11
36.9000285
21
70.0716041
0
LINE
8
DEFAULT_255_2_778
10
36.9000285
20
70.0716041
11
36.8590285
21
70.0385041
0
LINE
8
DEFAULT_255_2_778
10
36.8590285
20
70.0385041
11
36.8051285
21
69.9851041
0
LINE
8
DEFAULT_255_2_778
10
36.8051285
20
69.9851041
11
36.7744285
21
69.9443041
0
LINE
8
DEFAULT_255_2_778
10
36.7744285
20
69.9443041
11
36.7487285
21
69.8985041
0
LINE
8
DEFAULT_255_2_778
10
36.7487285
20
69.8985041
11
36.7180285
21
69.8297041
0
LINE
8
DEFAULT_255_2_778
10
36.7180285
20
69.8297041
11
36.7027285
21
69.7813041
0
LINE
8
DEFAULT_255_2_778
10
36.7027285
20
69.7813041
11
36.6976285
21
69.7559041
0
LINE
8
DEFAULT_255_2_778
10
36.6976285
20
69.7559041
11
36.6926285
21
69.7049041
0
LINE
8
DEFAULT_255_2_778
10
36.6926285
20
69.7049041
11
36.6516285
21
69.1826041
0
LINE
8
DEFAULT_255_2_778
10
36.6516285
20
69.1826041
11
36.5746285
21
68.1383041
0
LINE
8
DEFAULT_255_2_778
10
36.5746285
20
68.1383041
11
36.5386285
21
67.6160041
0
LINE
8
DEFAULT_255_2_778
10
36.5386285
20
67.6160041
11
36.4386285
21
66.0494041
0
LINE
8
DEFAULT_255_2_778
10
36.4386285
20
66.0494041
11
36.4079285
21
65.5247041
0
LINE
8
DEFAULT_255_2_778
10
36.4079285
20
65.5247041
11
36.3516285
21
64.4804041
0
LINE
8
DEFAULT_255_2_778
10
36.3516285
20
64.4804041
11
36.3002285
21
63.4334041
0
LINE
8
DEFAULT_255_2_778
10
36.3002285
20
63.4334041
11
36.2539285
21
62.3891041
0
LINE
8
DEFAULT_255_2_778
10
36.2539285
20
62.3891041
11
36.2333285
21
61.8645041
0
LINE
8
DEFAULT_255_2_778
10
36.2333285
20
61.8645041
11
36.1793285
21
60.2952041
0
LINE
8
DEFAULT_255_2_778
10
36.1793285
20
60.2952041
11
36.1640285
21
59.7729041
0
LINE
8
DEFAULT_255_2_778
10
36.1640285
20
59.7729041
11
36.1383285
21
58.7260041
0
LINE
8
DEFAULT_255_2_778
10
36.1383285
20
58.7260041
11
36.1076285
21
57.1544041
0
LINE
8
DEFAULT_255_2_778
10
36.1076285
20
57.1544041
11
36.0923285
21
55.5851041
0
LINE
8
DEFAULT_255_2_778
10
36.0923285
20
55.5851041
11
36.0923285
21
52.9665041
0
LINE
8
DEFAULT_255_2_778
10
36.0923285
20
52.9665041
11
36.1076285
21
51.3973041
0
LINE
8
DEFAULT_255_2_778
10
36.1076285
20
51.3973041
11
36.1383285
21
49.8257041
0
LINE
8
DEFAULT_255_2_778
10
36.1383285
20
49.8257041
11
36.1640285
21
48.7787041
0
LINE
8
DEFAULT_255_2_778
10
36.1640285
20
48.7787041
11
36.1793285
21
48.2564041
0
LINE
8
DEFAULT_255_2_778
10
36.1793285
20
48.2564041
11
36.2333285
21
46.6872041
0
LINE
8
DEFAULT_255_2_778
10
36.2333285
20
46.6872041
11
36.2539285
21
46.1625041
0
LINE
8
DEFAULT_255_2_778
10
36.2539285
20
46.1625041
11
36.3002285
21
45.1182041
0
LINE
8
DEFAULT_255_2_778
10
36.3002285
20
45.1182041
11
36.3516285
21
44.0712041
0
LINE
8
DEFAULT_255_2_778
10
36.3516285
20
44.0712041
11
36.4079285
21
43.0269041
0
LINE
8
DEFAULT_255_2_778
10
36.4079285
20
43.0269041
11
36.4386285
21
42.5023041
0
LINE
8
DEFAULT_255_2_778
10
36.4386285
20
42.5023041
11
36.5386285
21
40.9357041
0
LINE
8
DEFAULT_255_2_778
10
36.5386285
20
40.9357041
11
36.5746285
21
40.4134041
0
LINE
8
DEFAULT_255_2_778
10
36.5746285
20
40.4134041
11
36.6516285
21
39.3691041
0
LINE
8
DEFAULT_255_2_778
10
36.6516285
20
39.3691041
11
36.6926285
21
38.8468041
0
LINE
8
DEFAULT_255_2_778
10
36.6926285
20
38.8468041
11
36.6976285
21
38.7957041
0
LINE
8
DEFAULT_255_2_778
10
36.6976285
20
38.7957041
11
36.7027285
21
38.7703041
0
LINE
8
DEFAULT_255_2_778
10
36.7027285
20
38.7703041
11
36.7180285
21
38.7219041
0
LINE
8
DEFAULT_255_2_778
10
36.7180285
20
38.7219041
11
36.7487285
21
38.6531041
0
LINE
8
DEFAULT_255_2_778
10
36.7487285
20
38.6531041
11
36.7744285
21
38.6073041
0
LINE
8
DEFAULT_255_2_778
10
36.7744285
20
38.6073041
11
36.8051285
21
38.5666041
0
LINE
8
DEFAULT_255_2_778
10
36.8051285
20
38.5666041
11
36.8794285
21
38.4951041
0
LINE
8
DEFAULT_255_2_778
10
36.8794285
20
38.4951041
11
36.9204285
21
38.4671041
0
LINE
8
DEFAULT_255_2_778
10
36.9204285
20
38.4671041
11
37.0128285
21
38.4213041
0
LINE
8
DEFAULT_255_2_778
10
37.0128285
20
38.4213041
11
37.0871285
21
38.3983041
0
LINE
8
DEFAULT_255_2_778
10
37.0871285
20
38.3983041
11
37.1898285
21
38.3880041
0
LINE
8
DEFAULT_255_2_778
10
37.1898285
20
38.3880041
11
55.2677285
21
38.3906041
0
LINE
8
DEFAULT_255_2_778
10
55.2677285
20
38.3906041
11
55.3447285
21
38.4060041
0
LINE
8
DEFAULT_255_2_778
10
55.3447285
20
38.4060041
11
55.4190285
21
38.4314041
0
LINE
8
DEFAULT_255_2_778
10
55.4190285
20
38.4314041
11
55.4883285
21
38.4695041
0
LINE
8
DEFAULT_255_2_778
10
55.4883285
20
38.4695041
11
55.5320285
21
38.5002041
0
LINE
8
DEFAULT_255_2_778
10
55.5320285
20
38.5002041
11
55.5704285
21
38.5333041
0
LINE
8
DEFAULT_255_2_778
10
55.5704285
20
38.5333041
11
55.6217285
21
38.5944041
0
LINE
8
DEFAULT_255_2_778
10
55.6217285
20
38.5944041
11
55.6500285
21
38.6378041
0
LINE
8
DEFAULT_255_2_778
10
55.6500285
20
38.6378041
11
55.6833285
21
38.7066041
0
LINE
8
DEFAULT_255_2_778
10
55.6833285
20
38.7066041
11
55.6987285
21
38.7576041
0
LINE
8
DEFAULT_255_2_778
10
55.6987285
20
38.7576041
11
55.7140285
21
38.8341041
0
LINE
8
DEFAULT_255_2_778
10
55.7140285
20
38.8341041
11
55.7140285
21
69.7176041
0
LINE
8
DEFAULT_255_2_778
10
55.7140285
20
69.7176041
11
55.6987285
21
69.7940041
0
LINE
8
DEFAULT_255_2_778
10
55.6987285
20
69.7940041
11
55.6833285
21
69.8451041
0
LINE
8
DEFAULT_255_2_778
10
55.6833285
20
69.8451041
11
55.6500285
21
69.9139041
0
LINE
8
DEFAULT_255_2_778
10
55.6500285
20
69.9139041
11
55.6217285
21
69.9573041
0
LINE
8
DEFAULT_255_2_778
10
55.6217285
20
69.9573041
11
55.5704285
21
70.0184041
0
LINE
8
DEFAULT_255_2_778
10
55.5704285
20
70.0184041
11
55.5320285
21
70.0515041
0
LINE
8
DEFAULT_255_2_778
10
55.5320285
20
70.0515041
11
55.4653285
21
70.0972041
0
LINE
8
DEFAULT_255_2_778
10
55.4653285
20
70.0972041
11
55.3960285
21
70.1303041
0
LINE
8
DEFAULT_255_2_778
10
55.3960285
20
70.1303041
11
55.3447285
21
70.1457041
0
LINE
8
DEFAULT_255_2_778
10
55.3447285
20
70.1457041
11
55.2677285
21
70.1610041
0
LINE
8
DEFAULT_255_2_778
10
55.2677285
20
70.1610041
11
55.2420285
21
70.1610041
0
LINE
8
DEFAULT_255_2_778
10
55.2391285
20
70.4608041
11
55.3934285
21
70.4468041
0
LINE
8
DEFAULT_255_2_778
10
55.3934285
20
70.4468041
11
55.4682285
21
70.4282041
0
LINE
8
DEFAULT_255_2_778
10
55.4682285
20
70.4282041
11
55.5804285
21
70.3864041
0
LINE
8
DEFAULT_255_2_778
10
55.5804285
20
70.3864041
11
55.6505285
21
70.3494041
0
LINE
8
DEFAULT_255_2_778
10
55.6505285
20
70.3494041
11
55.7159285
21
70.3076041
0
LINE
8
DEFAULT_255_2_778
10
55.7159285
20
70.3076041
11
55.7439285
21
70.2798041
0
LINE
8
DEFAULT_255_2_778
10
55.7439285
20
70.2798041
11
55.7767285
21
70.2565041
0
LINE
8
DEFAULT_255_2_778
10
55.7767285
20
70.2565041
11
55.8328285
21
70.2007041
0
LINE
8
DEFAULT_255_2_778
10
55.8328285
20
70.2007041
11
55.8561285
21
70.1729041
0
LINE
8
DEFAULT_255_2_778
10
55.8561285
20
70.1729041
11
55.9262285
21
70.0756041
0
LINE
8
DEFAULT_255_2_778
10
55.9262285
20
70.0756041
11
55.9635285
21
70.0060041
0
LINE
8
DEFAULT_255_2_778
10
55.9635285
20
70.0060041
11
56.0056285
21
69.8993041
0
LINE
8
DEFAULT_255_2_778
10
56.0056285
20
69.8993041
11
56.0244285
21
69.8205041
0
LINE
8
DEFAULT_255_2_778
10
56.0244285
20
69.8205041
11
56.0336285
21
69.7461041
0
LINE
8
DEFAULT_255_2_778
10
56.0336285
20
69.7461041
11
56.0384285
21
69.7043041
0
LINE
8
DEFAULT_255_2_778
10
56.0384285
20
69.7043041
11
56.0384285
21
38.8492041
0
LINE
8
DEFAULT_255_2_778
10
56.0384285
20
38.8492041
11
56.0336285
21
38.8074041
0
LINE
8
DEFAULT_255_2_778
10
56.0336285
20
38.8074041
11
56.0244285
21
38.7330041
0
LINE
8
DEFAULT_255_2_778
10
56.0244285
20
38.7330041
11
56.0056285
21
38.6587041
0
LINE
8
DEFAULT_255_2_778
10
56.0056285
20
38.6587041
11
55.9635285
21
38.5473041
0
LINE
8
DEFAULT_255_2_778
10
55.9635285
20
38.5473041
11
55.9262285
21
38.4777041
0
LINE
8
DEFAULT_255_2_778
10
55.9262285
20
38.4777041
11
55.8328285
21
38.3523041
0
LINE
8
DEFAULT_255_2_778
10
55.8328285
20
38.3523041
11
55.7767285
21
38.2965041
0
LINE
8
DEFAULT_255_2_778
10
55.7767285
20
38.2965041
11
55.6505285
21
38.2036041
0
LINE
8
DEFAULT_255_2_778
10
55.6505285
20
38.2036041
11
55.5804285
21
38.1665041
0
LINE
8
DEFAULT_255_2_778
10
55.5804285
20
38.1665041
11
55.4730285
21
38.1247041
0
LINE
8
DEFAULT_255_2_778
10
55.4730285
20
38.1247041
11
55.3936285
21
38.1062041
0
LINE
8
DEFAULT_255_2_778
10
55.3936285
20
38.1062041
11
55.2767285
21
38.0922041
0
LINE
8
DEFAULT_255_2_778
10
55.2767285
20
38.0922041
11
37.1509285
21
38.0922041
0
LINE
8
DEFAULT_255_2_778
10
37.1509285
20
38.0922041
11
37.0059285
21
38.1107041
0
LINE
8
DEFAULT_255_2_778
10
37.0059285
20
38.1107041
11
36.9686285
21
38.1200041
0
LINE
8
DEFAULT_255_2_778
10
36.9686285
20
38.1200041
11
36.8331285
21
38.1758041
0
LINE
8
DEFAULT_255_2_778
10
36.8331285
20
38.1758041
11
36.7349285
21
38.2316041
0
LINE
8
DEFAULT_255_2_778
10
36.7349285
20
38.2316041
11
36.6460285
21
38.3012041
0
LINE
8
DEFAULT_255_2_778
10
36.6460285
20
38.3012041
11
36.6180285
21
38.3290041
0
LINE
8
DEFAULT_255_2_778
10
36.6180285
20
38.3290041
11
36.5479285
21
38.4126041
0
LINE
8
DEFAULT_255_2_778
10
36.5479285
20
38.4126041
11
36.5058285
21
38.4729041
0
LINE
8
DEFAULT_255_2_778
10
36.5058285
20
38.4729041
11
36.4685285
21
38.5380041
0
LINE
8
DEFAULT_255_2_778
10
36.4685285
20
38.5380041
11
36.4264285
21
38.6446041
0
LINE
8
DEFAULT_255_2_778
10
36.4264285
20
38.6446041
11
36.4076285
21
38.7142041
0
LINE
8
DEFAULT_255_2_778
10
36.4076285
20
38.7142041
11
36.3936285
21
38.8256041
0
LINE
8
DEFAULT_255_2_778
10
36.3936285
20
38.8256041
11
36.3423285
21
39.4662041
0
LINE
8
DEFAULT_255_2_778
10
36.3423285
20
39.4662041
11
36.2489285
21
40.7518041
0
LINE
8
DEFAULT_255_2_778
10
36.2489285
20
40.7518041
11
36.1648285
21
42.0422041
0
LINE
8
DEFAULT_255_2_778
10
36.1648285
20
42.0422041
11
36.0899285
21
43.3278041
0
LINE
8
DEFAULT_255_2_778
10
36.0899285
20
43.3278041
11
35.9917285
21
45.2584041
0
LINE
8
DEFAULT_255_2_778
10
35.9917285
20
45.2584041
11
35.9356285
21
46.5488041
0
LINE
8
DEFAULT_255_2_778
10
35.9356285
20
46.5488041
11
35.8888285
21
47.8344041
0
LINE
8
DEFAULT_255_2_778
10
35.8888285
20
47.8344041
11
35.8515285
21
49.1248041
0
LINE
8
DEFAULT_255_2_778
10
35.8515285
20
49.1248041
11
35.8375285
21
49.7653041
0
LINE
8
DEFAULT_255_2_778
10
35.8375285
20
49.7653041
11
35.8094285
21
51.0557041
0
LINE
8
DEFAULT_255_2_778
10
35.8094285
20
51.0557041
11
35.8002285
21
51.7008041
0
LINE
8
DEFAULT_255_2_778
10
35.8002285
20
51.7008041
11
35.7861285
21
53.6314041
0
LINE
8
DEFAULT_255_2_778
10
35.7861285
20
53.6314041
11
35.7861285
21
54.9218041
0
LINE
8
DEFAULT_255_2_778
10
35.7861285
20
54.9218041
11
35.8002285
21
56.8525041
0
LINE
8
DEFAULT_255_2_778
10
35.8002285
20
56.8525041
11
35.8094285
21
57.4975041
0
LINE
8
DEFAULT_255_2_778
10
35.8094285
20
57.4975041
11
35.8375285
21
58.7879041
0
LINE
8
DEFAULT_255_2_778
10
35.8375285
20
58.7879041
11
35.8515285
21
59.4285041
0
LINE
8
DEFAULT_255_2_778
10
35.8515285
20
59.4285041
11
35.8888285
21
60.7188041
0
LINE
8
DEFAULT_255_2_778
10
35.8888285
20
60.7188041
11
35.9356285
21
62.0044041
0
LINE
8
DEFAULT_255_2_778
10
35.9356285
20
62.0044041
11
35.9917285
21
63.2948041
0
LINE
8
DEFAULT_255_2_778
10
35.9917285
20
63.2948041
11
36.0899285
21
65.2255041
0
LINE
8
DEFAULT_255_2_778
10
36.0899285
20
65.2255041
11
36.1648285
21
66.5111041
0
LINE
8
DEFAULT_255_2_778
10
36.1648285
20
66.5111041
11
36.2489285
21
67.8015041
0
LINE
8
DEFAULT_255_2_778
10
36.2489285
20
67.8015041
11
36.3423285
21
69.0871041
0
LINE
8
DEFAULT_255_2_778
10
36.3423285
20
69.0871041
11
36.3936285
21
69.7276041
0
LINE
8
DEFAULT_255_2_778
10
36.3936285
20
69.7276041
11
36.3936285
21
69.7647041
0
LINE
8
DEFAULT_255_2_778
10
36.3936285
20
69.7647041
11
36.4029285
21
69.8017041
0
LINE
8
DEFAULT_255_2_778
10
36.4029285
20
69.8017041
11
36.4076285
21
69.8387041
0
LINE
8
DEFAULT_255_2_778
10
36.4076285
20
69.8387041
11
36.4264285
21
69.9083041
0
LINE
8
DEFAULT_255_2_778
10
36.4264285
20
69.9083041
11
36.4405285
21
69.9454041
0
LINE
8
DEFAULT_255_2_778
10
36.4405285
20
69.9454041
11
36.4685285
21
70.0105041
0
LINE
8
DEFAULT_255_2_778
10
36.4685285
20
70.0105041
11
36.5246285
21
70.1078041
0
LINE
8
DEFAULT_255_2_778
10
36.5246285
20
70.1078041
11
36.5479285
21
70.1404041
0
LINE
8
DEFAULT_255_2_778
10
36.5479285
20
70.1404041
11
36.6180285
21
70.2240041
0
LINE
8
DEFAULT_255_2_778
10
36.6180285
20
70.2240041
11
36.6460285
21
70.2518041
0
LINE
8
DEFAULT_255_2_778
10
36.6460285
20
70.2518041
11
36.7630285
21
70.3399041
0
LINE
8
DEFAULT_255_2_778
10
36.7630285
20
70.3399041
11
36.8283285
21
70.3769041
0
LINE
8
DEFAULT_255_2_778
10
36.8283285
20
70.3769041
11
36.9686285
21
70.4327041
0
LINE
8
DEFAULT_255_2_778
10
36.9686285
20
70.4327041
11
37.1509285
21
70.4605041
0
LINE
8
DEFAULT_255_2_778
10
37.1509285
20
70.4605041
11
55.2383285
21
70.4605041
0
LINE
8
DEFAULT_255_2_778
10
19.6926285
20
80.1170041
11
19.6926285
21
78.2028041
0
LINE
8
DEFAULT_255_2_778
10
19.6926285
20
78.2028041
11
20.1913285
21
78.2022041
0
LINE
8
DEFAULT_255_2_778
10
20.1913285
20
78.2022041
11
20.1913285
21
81.0928041
0
LINE
8
DEFAULT_255_2_778
10
20.1913285
20
81.0928041
11
19.6926285
21
81.0928041
0
LINE
8
DEFAULT_255_2_778
10
19.6926285
20
81.0928041
11
19.6926285
21
78.0691041
0
LINE
8
DEFAULT_255_2_778
10
20.1913537
20
79.6587509
11
19.7000537
21
79.6593509
0
LINE
8
DEFAULT_255_2_778
10
172.2371537
20
76.5020509
11
172.9813537
21
76.5020509
0
LINE
8
DEFAULT_255_2_778
10
172.2371537
20
76.3025509
11
172.9813537
21
76.3025509
0
LINE
8
DEFAULT_255_2_778
10
175.7285537
20
93.2020509
11
175.2372537
21
93.2906509
0
LINE
8
DEFAULT_255_2_778
10
175.4083537
20
91.5388509
11
174.9670537
21
91.6274509
0
LINE
8
DEFAULT_255_2_778
10
19.8416
20
78.0693481
11
19.8416
21
76.2728481
0
LINE
8
DEFAULT_255_2_778
10
19.8416
20
76.2728481
11
19.8416
21
81.0861481
0
LINE
8
DEFAULT_255_2_778
10
20.1914117
20
80.3979785
11
19.6927117
21
80.3985785
0
LINE
8
DEFAULT_255_2_778
10
20.1914117
20
78.9120785
11
19.6927117
21
78.9126785
0
LINE
8
DEFAULT_255_2_778
10
173.5675117
20
83.1332785
11
20.5558117
21
83.1332785
0
LINE
8
DEFAULT_255_2_778
10
173.2447453
20
77.9363204
11
20.1914453
21
77.9363204
0
LINE
8
DEFAULT_255_2_778
10
173.2494453
20
76.1324204
11
172.2368453
21
76.1324204
0
LINE
8
DEFAULT_255_2_778
10
173.9643453
20
92.1005204
11
23.0132453
21
92.1005204
0
LINE
8
DEFAULT_255_2_778
10
173.0409453
20
86.8072204
11
21.2122453
21
86.8072204
0
LINE
8
DEFAULT_255_2_778
10
172.2668453
20
81.5068204
11
21.2934453
21
81.5068204
0
LINE
8
DEFAULT_255_2_778
10
38.8556453
20
98.8942204
11
39.0046453
21
98.8423204
0
LINE
8
DEFAULT_255_2_778
10
39.0046453
20
98.8423204
11
39.0046453
21
97.4821204
0
LINE
8
DEFAULT_255_2_778
10
39.0046453
20
97.4821204
11
40.0021453
21
97.4599204
0
LINE
8
DEFAULT_255_2_778
10
91.9893453
20
97.4602204
11
40.0021453
21
97.4602204
0
LINE
8
DEFAULT_255_2_778
10
40.0021453
20
97.4602204
11
40.0021453
21
98.8278204
0
LINE
8
DEFAULT_255_2_778
10
40.0021453
20
98.8278204
11
39.0046453
21
98.8426204
0
LINE
8
DEFAULT_255_2_778
10
101.4515613
20
97.4602144
11
91.9892613
21
97.4602144
0
LINE
8
DEFAULT_255_2_778
10
91.9892613
20
97.4602144
11
91.9892613
21
98.8278144
0
LINE
8
DEFAULT_255_2_778
10
91.9892613
20
98.8278144
11
40.0020613
21
98.8278144
0
LINE
8
DEFAULT_255_2_778
10
91.9893057
20
98.8277753
11
101.4516057
21
98.8277753
0
LINE
8
DEFAULT_255_2_778
10
101.4516057
20
98.8277753
11
101.4516057
21
97.4601753
0
LINE
8
DEFAULT_255_2_778
10
101.4516057
20
97.4601753
11
156.9823057
21
97.4601753
0
LINE
8
DEFAULT_255_2_778
10
157.9801057
20
97.4823753
11
156.9826057
21
97.4601753
0
LINE
8
DEFAULT_255_2_778
10
156.9826057
20
97.4601753
11
156.9826057
21
98.8277753
0
LINE
8
DEFAULT_255_2_778
10
156.9826057
20
98.8277753
11
101.4519057
21
98.8277753
0
LINE
8
DEFAULT_255_2_778
10
19.6927057
20
76.6201753
11
19.6927057
21
78.0902753
0
LINE
8
DEFAULT_255_2_778
10
38.8557057
20
97.5561753
11
38.8557057
21
98.8941753
0
LINE
8
DEFAULT_255_2_778
10
38.8557057
20
98.8941753
11
23.3929057
21
98.8941753
0
LINE
8
DEFAULT_255_2_778
10
20.1914217
20
78.0694236
11
20.1914217
21
76.1440236
0
LINE
8
DEFAULT_255_2_778
10
20.1914217
20
76.1440236
11
20.1914217
21
78.2025236
0
LINE
8
DEFAULT_255_2_778
10
20.1914217
20
78.2025236
11
173.2494217
21
78.2025236
0
LINE
8
DEFAULT_255_2_778
10
173.2494217
20
78.2025236
11
173.2494217
21
76.1253236
0
LINE
8
DEFAULT_255_2_778
10
173.2494217
20
76.1253236
11
173.2494217
21
77.0124236
0
LINE
8
DEFAULT_255_2_778
10
173.2494217
20
77.0124236
11
173.7482217
21
78.0694236
0
LINE
8
DEFAULT_255_2_778
10
173.7482217
20
78.0694236
11
173.2494217
21
78.0694236
0
LINE
8
DEFAULT_255_2_778
10
172.2247217
20
76.7669236
11
172.9814217
21
76.7661236
0
LINE
8
DEFAULT_255_2_778
10
172.9814217
20
76.7661236
11
172.9814217
21
76.1377236
0
LINE
8
DEFAULT_255_2_778
10
172.9814217
20
76.1377236
11
172.2368217
21
76.1377236
0
LINE
8
DEFAULT_255_2_778
10
172.2220118
20
76.1315103
11
172.2220118
21
81.1891103
0
LINE
8
DEFAULT_255_2_778
10
174.9692118
20
97.0757103
11
174.8501118
21
96.5211103
0
LINE
8
DEFAULT_255_2_778
10
174.8501118
20
96.5211103
11
174.7385118
21
95.9666103
0
LINE
8
DEFAULT_255_2_778
10
174.7385118
20
95.9666103
11
174.6194118
21
95.4120103
0
LINE
8
DEFAULT_255_2_778
10
174.6194118
20
95.4120103
11
174.2545118
21
93.6009103
0
LINE
8
DEFAULT_255_2_778
10
174.2545118
20
93.6009103
11
174.1355118
21
92.9651103
0
LINE
8
DEFAULT_255_2_778
10
174.1355118
20
92.9651103
11
174.0090118
21
92.3367103
0
LINE
8
DEFAULT_255_2_778
10
174.0090118
20
92.3367103
11
173.9346118
21
91.9153103
0
LINE
8
DEFAULT_255_2_778
10
173.9346118
20
91.9153103
11
173.8526118
21
91.5012103
0
LINE
8
DEFAULT_255_2_778
10
173.8526118
20
91.5012103
11
173.7783118
21
91.0797103
0
LINE
8
DEFAULT_255_2_778
10
173.7783118
20
91.0797103
11
173.7039118
21
90.6656103
0
LINE
8
DEFAULT_255_2_778
10
173.7039118
20
90.6656103
11
173.6296118
21
90.2442103
0
LINE
8
DEFAULT_255_2_778
10
173.6296118
20
90.2442103
11
173.5552118
21
89.8301103
0
LINE
8
DEFAULT_255_2_778
10
173.5552118
20
89.8301103
11
173.4809118
21
89.4086103
0
LINE
8
DEFAULT_255_2_778
10
173.4809118
20
89.4086103
11
173.4065118
21
88.9945103
0
LINE
8
DEFAULT_255_2_778
10
173.4065118
20
88.9945103
11
173.3396118
21
88.5730103
0
LINE
8
DEFAULT_255_2_778
10
173.3396118
20
88.5730103
11
173.2653118
21
88.1516103
0
LINE
8
DEFAULT_255_2_778
10
173.2653118
20
88.1516103
11
173.1983118
21
87.7375103
0
LINE
8
DEFAULT_255_2_778
10
173.1983118
20
87.7375103
11
173.1240118
21
87.3160103
0
LINE
8
DEFAULT_255_2_778
10
173.1240118
20
87.3160103
11
173.0570118
21
86.8945103
0
LINE
8
DEFAULT_255_2_778
10
173.0570118
20
86.8945103
11
172.9901118
21
86.4805103
0
LINE
8
DEFAULT_255_2_778
10
172.9901118
20
86.4805103
11
172.9231118
21
86.0590103
0
LINE
8
DEFAULT_255_2_778
10
172.9231118
20
86.0590103
11
172.8636118
21
85.6375103
0
LINE
8
DEFAULT_255_2_778
10
172.8636118
20
85.6375103
11
172.7967118
21
85.2234103
0
LINE
8
DEFAULT_255_2_778
10
172.7967118
20
85.2234103
11
172.7371118
21
84.8019103
0
LINE
8
DEFAULT_255_2_778
10
172.7371118
20
84.8019103
11
172.6702118
21
84.3805103
0
LINE
8
DEFAULT_255_2_778
10
172.6702118
20
84.3805103
11
172.6107118
21
83.9664103
0
LINE
8
DEFAULT_255_2_778
10
172.6107118
20
83.9664103
11
172.4321118
21
82.7022103
0
LINE
8
DEFAULT_255_2_778
10
172.4321118
20
82.7022103
11
172.3725118
21
82.2881103
0
LINE
8
DEFAULT_255_2_778
10
172.3725118
20
82.2881103
11
172.2982118
21
81.7336103
0
LINE
8
DEFAULT_255_2_778
10
172.2982118
20
81.7336103
11
172.2238118
21
81.1864103
0
LINE
8
DEFAULT_255_2_778
10
173.7481118
20
81.0853103
11
173.7481118
21
76.6202103
0
LINE
8
DEFAULT_255_2_778
10
1.2237118
20
73.3259103
11
0.2243118
21
73.3087103
0
LINE
8
DEFAULT_255_2_778
10
0.2243118
20
73.3087103
11
0.2243118
21
74.5478103
0
LINE
8
DEFAULT_255_2_778
10
1.2295118
20
74.3027103
11
1.2295118
21
73.3267103
0
LINE
8
DEFAULT_255_2_778
10
1.2295118
20
73.3267103
11
18.6817118
21
73.3267103
0
LINE
8
DEFAULT_255_2_778
10
18.6817118
20
73.3267103
11
18.8994118
21
75.0793103
0
LINE
8
DEFAULT_255_2_778
10
1.2308118
20
80.8345103
11
19.0767118
21
80.8345103
0
LINE
8
DEFAULT_255_2_778
10
1.2308118
20
86.5998103
11
19.9731118
21
86.5998103
0
LINE
8
DEFAULT_255_2_778
10
1.2308118
20
92.3542103
11
21.0526118
21
92.3542103
0
LINE
8
DEFAULT_255_2_778
10
0.2230118
20
10.5829103
11
0.2249118
21
33.1251103
0
LINE
8
DEFAULT_255_2_778
10
0.2249118
20
33.1251103
11
0.2286118
21
33.1455103
0
LINE
8
DEFAULT_255_2_778
10
0.2286118
20
33.1455103
11
0.2397118
21
33.1751103
0
LINE
8
DEFAULT_255_2_778
10
0.2397118
20
33.1751103
11
0.2489118
21
33.1936103
0
LINE
8
DEFAULT_255_2_778
10
0.2489118
20
33.1936103
11
0.2862118
21
33.2397103
0
LINE
8
DEFAULT_255_2_778
10
0.2862118
20
33.2397103
11
0.3997118
21
33.3228103
0
LINE
8
DEFAULT_255_2_778
10
0.3997118
20
33.3228103
11
0.5095118
21
33.3743103
0
LINE
8
DEFAULT_255_2_778
10
0.5095118
20
33.3743103
11
0.7662118
21
33.4463103
0
LINE
8
DEFAULT_255_2_778
10
0.7662118
20
33.4463103
11
0.9633118
21
33.4760103
0
LINE
8
DEFAULT_255_2_778
10
0.9633118
20
33.4760103
11
1.2237118
21
33.4889103
0
LINE
8
DEFAULT_255_2_778
10
1.2237118
20
33.4889103
11
1.2237118
21
11.0279103
0
LINE
8
DEFAULT_255_2_778
10
0.2230538
20
21.9840588
11
0.2267538
21
21.9747588
0
LINE
8
DEFAULT_255_2_778
10
0.2267538
20
21.9747588
11
0.4852538
21
21.9176588
0
LINE
8
DEFAULT_255_2_778
10
0.4852538
20
21.9176588
11
0.9445538
21
21.8898588
0
LINE
8
DEFAULT_255_2_778
10
0.9445538
20
21.8898588
11
1.2234538
21
21.8861588
0
LINE
8
DEFAULT_255_2_778
10
28.0741538
20
12.5693588
11
28.0741538
21
10.5834588
0
LINE
8
DEFAULT_255_2_778
10
28.0741538
20
10.5834588
11
28.4128538
21
10.6426588
0
LINE
8
DEFAULT_255_2_778
10
28.4128538
20
10.6426588
11
28.0741538
21
10.5834588
0
LINE
8
DEFAULT_255_2_778
10
28.0741538
20
10.5834588
11
28.0741538
21
12.5693588
0
LINE
8
DEFAULT_255_2_778
10
28.0741538
20
12.5693588
11
28.4128538
21
12.5101588
0
LINE
8
DEFAULT_255_2_778
10
28.4128538
20
12.5101588
11
28.0741538
21
12.5693588
0
LINE
8
DEFAULT_255_2_778
10
28.4133538
20
12.5098588
11
28.4133538
21
10.6429588
0
LINE
8
DEFAULT_255_2_778
10
23.3777538
20
10.9578588
11
28.0685538
21
10.9578588
0
LINE
8
DEFAULT_255_2_778
10
28.0685538
20
10.9578588
11
28.0685538
21
10.0947588
0
LINE
8
DEFAULT_255_2_778
10
28.0685538
20
10.0947588
11
12.5788538
21
10.0947588
0
LINE
8
DEFAULT_255_2_778
10
12.5788538
20
10.0947588
11
12.5788538
21
10.9578588
0
LINE
8
DEFAULT_255_2_778
10
12.5788538
20
10.9578588
11
23.1216538
21
10.9578588
0
LINE
8
DEFAULT_255_2_778
10
23.1216538
20
10.9578588
11
23.1505538
21
10.8313588
0
LINE
8
DEFAULT_255_2_778
10
23.1505538
20
10.8313588
11
23.1764538
21
10.7337588
0
LINE
8
DEFAULT_255_2_778
10
23.1764538
20
10.7337588
11
23.2031538
21
10.6532588
0
LINE
8
DEFAULT_255_2_778
10
23.2031538
20
10.6532588
11
23.2558538
21
10.5577588
0
LINE
8
DEFAULT_255_2_778
10
23.2558538
20
10.5577588
11
23.2933538
21
10.5204588
0
LINE
8
DEFAULT_255_2_778
10
23.2933538
20
10.5204588
11
23.3367538
21
10.4995588
0
LINE
8
DEFAULT_255_2_778
10
23.3367538
20
10.4995588
11
23.3643538
21
10.4966588
0
LINE
8
DEFAULT_255_2_778
10
23.3643538
20
10.4966588
11
23.4143538
21
10.5230588
0
LINE
8
DEFAULT_255_2_778
10
23.4143538
20
10.5230588
11
23.4280538
21
10.5482588
0
LINE
8
DEFAULT_255_2_778
10
23.4280538
20
10.5482588
11
23.4375538
21
10.5876588
0
LINE
8
DEFAULT_255_2_778
10
23.4375538
20
10.5876588
11
23.4354538
21
10.6752588
0
LINE
8
DEFAULT_255_2_778
10
23.4354538
20
10.6752588
11
23.4333538
21
10.6940588
0
LINE
8
DEFAULT_255_2_778
10
23.4333538
20
10.6940588
11
23.4320538
21
10.7003588
0
LINE
8
DEFAULT_255_2_778
10
23.4320538
20
10.7003588
11
23.4307538
21
10.7133588
0
LINE
8
DEFAULT_255_2_778
10
23.4307538
20
10.7133588
11
23.3801538
21
10.9474588
0
LINE
8
DEFAULT_255_2_778
10
12.5788201
20
10.3469
11
28.0686201
21
10.3469
0
LINE
8
DEFAULT_255_2_778
10
27.3909593
20
12.7757595
11
27.5481593
21
12.6196595
0
LINE
8
DEFAULT_255_2_778
10
27.5481593
20
12.6196595
11
27.6002593
21
9.5904595
0
LINE
8
DEFAULT_255_2_778
10
27.6002593
20
9.5904595
11
27.4459593
21
9.5904595
0
LINE
8
DEFAULT_255_2_778
10
27.6005526
20
9.5905237
11
28.1003526
21
9.5905237
0
LINE
8
DEFAULT_255_2_778
10
28.1003526
20
9.5905237
11
28.0479526
21
12.6197237
0
LINE
8
DEFAULT_255_2_778
10
28.0479526
20
12.6197237
11
28.0482526
21
13.1160237
0
LINE
8
DEFAULT_255_2_778
10
28.0482526
20
13.1160237
11
27.5481526
21
12.6197237
0
LINE
8
DEFAULT_255_2_778
10
27.5481526
20
12.6197237
11
27.6005526
21
9.5905237
0
LINE
8
DEFAULT_255_2_778
10
12.3475526
20
9.5905237
11
12.8473526
21
9.5905237
0
LINE
8
DEFAULT_255_2_778
10
12.8473526
20
9.5905237
11
12.8997526
21
12.6197237
0
LINE
8
DEFAULT_255_2_778
10
12.8997526
20
12.6197237
11
12.3997526
21
13.1160237
0
LINE
8
DEFAULT_255_2_778
10
12.3997526
20
13.1160237
11
12.3999526
21
12.6197237
0
LINE
8
DEFAULT_255_2_778
10
12.3999526
20
12.6197237
11
12.3475526
21
9.5905237
0
LINE
8
DEFAULT_255_2_778
10
0.2230526
20
16.2132237
11
0.2249526
21
16.2077237
0
LINE
8
DEFAULT_255_2_778
10
0.2249526
20
16.2077237
11
0.2563526
21
16.1855237
0
LINE
8
DEFAULT_255_2_778
10
0.2563526
20
16.1855237
11
0.3362526
21
16.1614237
0
LINE
8
DEFAULT_255_2_778
10
0.3362526
20
16.1614237
11
0.8440526
21
16.1079237
0
LINE
8
DEFAULT_255_2_778
10
0.8440526
20
16.1079237
11
1.0765526
21
16.1005237
0
LINE
8
DEFAULT_255_2_778
10
1.0765526
20
16.1005237
11
1.2234526
21
16.1005237
0
LINE
8
DEFAULT_255_2_778
10
0.2230526
20
27.7623237
11
0.6376526
21
27.6977237
0
LINE
8
DEFAULT_255_2_778
10
0.6376526
20
27.6977237
11
1.2234526
21
27.6829237
0
LINE
8
DEFAULT_255_2_778
10
1.2287526
20
16.1966237
11
12.3147526
21
16.1966237
0
LINE
8
DEFAULT_255_2_778
10
1.2286781
20
21.9510365
11
12.3146781
21
21.9510365
0
LINE
8
DEFAULT_255_2_778
10
1.2286781
20
27.7163365
11
12.3146781
21
27.7163365
0
LINE
8
DEFAULT_255_2_778
10
6.5385937
20
10.4934981
11
12.3149937
21
10.4934981
0
LINE
8
DEFAULT_255_2_778
10
12.3149937
20
10.4934981
11
12.3141937
21
10.9816981
0
LINE
8
DEFAULT_255_2_778
10
12.3141937
20
10.9816981
11
12.3215937
21
11.5078981
0
LINE
8
DEFAULT_255_2_778
10
12.3215937
20
11.5078981
11
12.3308937
21
12.0359981
0
LINE
8
DEFAULT_255_2_778
10
12.3308937
20
12.0359981
11
12.3382937
21
12.5622981
0
LINE
8
DEFAULT_255_2_778
10
12.3382937
20
12.5622981
11
12.3234937
21
20.1502981
0
LINE
8
DEFAULT_255_2_778
10
12.3234937
20
20.1502981
11
12.3215937
21
21.4151981
0
LINE
8
DEFAULT_255_2_778
10
12.3215937
20
21.4151981
11
12.3197937
21
22.3660981
0
LINE
8
DEFAULT_255_2_778
10
12.3197937
20
22.3660981
11
12.3178937
21
23.6329981
0
LINE
8
DEFAULT_255_2_778
10
12.3178937
20
23.6329981
11
12.3160937
21
24.5819981
0
LINE
8
DEFAULT_255_2_778
10
12.3160937
20
24.5819981
11
12.3104937
21
28.3880981
0
LINE
8
DEFAULT_255_2_778
10
12.3104937
20
28.3880981
11
12.3086937
21
29.9741981
0
LINE
8
DEFAULT_255_2_778
10
12.3086937
20
29.9741981
11
12.3067937
21
31.2428981
0
LINE
8
DEFAULT_255_2_778
10
12.3067937
20
31.2428981
11
12.3049937
21
32.8308981
0
LINE
8
DEFAULT_255_2_778
10
12.3049937
20
32.8308981
11
18.9663937
21
32.8308981
0
LINE
8
DEFAULT_255_2_778
10
18.9663937
20
32.8308981
11
18.9533937
21
32.9399981
0
LINE
8
DEFAULT_255_2_778
10
18.9533937
20
32.9399981
11
18.9422937
21
33.0507981
0
LINE
8
DEFAULT_255_2_778
10
18.9422937
20
33.0507981
11
18.9292937
21
33.1597981
0
LINE
8
DEFAULT_255_2_778
10
18.9292937
20
33.1597981
11
18.9181937
21
33.2687981
0
LINE
8
DEFAULT_255_2_778
10
18.9181937
20
33.2687981
11
18.8940937
21
33.4886981
0
LINE
8
DEFAULT_255_2_778
10
18.8940937
20
33.4886981
11
1.2286937
21
33.4886981
0
LINE
8
DEFAULT_255_2_778
10
28.1410937
20
32.7568981
11
28.0690937
21
12.3169981
0
LINE
8
DEFAULT_255_2_778
10
28.0740937
20
10.5831981
11
28.4132937
21
10.6426981
0
LINE
8
DEFAULT_255_2_778
10
28.4132937
20
10.6426981
11
28.0740937
21
10.5831981
0
LINE
8
DEFAULT_255_2_778
10
28.0712049
20
25.6419582
11
20.6150049
21
25.6419582
0
LINE
8
DEFAULT_255_2_778
10
28.0712049
20
20.7400582
11
21.5606049
21
20.7400582
0
LINE
8
DEFAULT_255_2_778
10
28.0712049
20
15.8444582
11
22.4686049
21
15.8444582
0
LINE
8
DEFAULT_255_2_778
10
20.3586049
20
25.6419582
11
12.5764049
21
25.6419582
0
LINE
8
DEFAULT_255_2_778
10
21.2711049
20
20.7400582
11
12.5764049
21
20.7400582
0
LINE
8
DEFAULT_255_2_778
10
22.1980049
20
15.8444582
11
12.5764049
21
15.8444582
0
LINE
8
DEFAULT_255_2_778
10
18.9918049
20
12.0206582
11
18.9849049
21
12.0164582
0
LINE
8
DEFAULT_255_2_778
10
18.9849049
20
12.0164582
11
21.6632049
21
12.0164582
0
LINE
8
DEFAULT_255_2_778
10
21.6632049
20
12.0164582
11
21.6564049
21
12.0206582
0
LINE
8
DEFAULT_255_2_778
10
21.6564049
20
12.0206582
11
18.9918049
21
12.0206582
0
LINE
8
DEFAULT_255_2_778
10
21.6564537
20
12.020675
11
21.6633537
21
12.016375
0
LINE
8
DEFAULT_255_2_778
10
21.6633537
20
12.016375
11
21.6633537
21
12.016375
0
LINE
8
DEFAULT_255_2_778
10
21.6633537
20
12.016375
11
20.3239537
21
14.882875
0
LINE
8
DEFAULT_255_2_778
10
20.3239537
20
14.882875
11
20.3239537
21
14.872575
0
LINE
8
DEFAULT_255_2_778
10
20.3239537
20
14.872575
11
20.3239537
21
14.882875
0
LINE
8
DEFAULT_255_2_778
10
20.3239537
20
14.882875
11
18.9846537
21
12.016375
0
LINE
8
DEFAULT_255_2_778
10
18.9846537
20
12.016375
11
18.9846537
21
12.016375
0
LINE
8
DEFAULT_255_2_778
10
18.9846537
20
12.016375
11
18.9915537
21
12.020675
0
LINE
8
DEFAULT_255_2_778
10
18.9915537
20
12.020675
11
20.3239537
21
14.872375
0
LINE
8
DEFAULT_255_2_778
10
20.3239537
20
14.872375
11
20.3239537
21
14.872375
0
LINE
8
DEFAULT_255_2_778
10
20.3239537
20
14.872375
11
21.6564537
21
12.020675
0
LINE
8
DEFAULT_255_2_778
10
21.6564537
20
12.020675
11
21.6564537
21
12.020675
0
LINE
8
DEFAULT_255_2_778
10
23.4392537
20
10.623375
11
28.0686537
21
10.623375
0
LINE
8
DEFAULT_255_2_778
10
12.5788537
20
10.623375
11
23.2172537
21
10.623375
0
LINE
8
DEFAULT_255_2_778
10
28.1146537
20
16.196575
11
52.4063537
21
16.196575
0
LINE
8
DEFAULT_255_2_778
10
28.1146537
20
21.950975
11
51.3537537
21
21.950975
0
LINE
8
DEFAULT_255_2_778
10
28.1146537
20
27.716275
11
50.4740537
21
27.716275
0
LINE
8
DEFAULT_255_2_778
10
28.0963537
20
9.590775
11
53.8501537
21
9.596775
0
LINE
8
DEFAULT_255_2_778
10
53.8501537
20
9.596775
11
53.8416537
21
9.626675
0
LINE
8
DEFAULT_255_2_778
10
53.8416537
20
9.626675
11
53.8369537
21
9.638575
0
LINE
8
DEFAULT_255_2_778
10
53.8369537
20
9.638575
11
53.7961537
21
9.792375
0
LINE
8
DEFAULT_255_2_778
10
53.7961537
20
9.792375
11
53.7937537
21
9.805575
0
LINE
8
DEFAULT_255_2_778
10
53.7937537
20
9.805575
11
53.7866537
21
9.834175
0
LINE
8
DEFAULT_255_2_778
10
53.7866537
20
9.834175
11
53.7818537
21
9.848475
0
LINE
8
DEFAULT_255_2_778
10
53.7818537
20
9.848475
11
53.7710537
21
9.896075
0
LINE
8
DEFAULT_255_2_778
10
53.7710537
20
9.896075
11
53.7662537
21
9.911675
0
LINE
8
DEFAULT_255_2_778
10
53.7662537
20
9.911675
11
53.7313537
21
10.054575
0
LINE
8
DEFAULT_255_2_778
10
53.7313537
20
10.054575
11
53.7276537
21
10.073575
0
LINE
8
DEFAULT_255_2_778
10
53.7276537
20
10.073575
11
53.6892537
21
10.234475
0
LINE
8
DEFAULT_255_2_778
10
53.6892537
20
10.234475
11
53.6831537
21
10.255875
0
LINE
8
DEFAULT_255_2_778
10
53.6831537
20
10.255875
11
53.6638537
21
10.342975
0
LINE
8
DEFAULT_255_2_778
10
53.6638537
20
10.342975
11
53.6577537
21
10.364375
0
LINE
8
DEFAULT_255_2_778
10
53.6577537
20
10.364375
11
53.6374537
21
10.453775
0
LINE
8
DEFAULT_255_2_778
10
53.6374537
20
10.453775
11
28.0847537
21
10.453775
0
LINE
8
DEFAULT_255_2_778
10
28.0847537
20
10.453775
11
53.6368537
21
10.453775
0
LINE
8
DEFAULT_255_2_778
10
53.6368537
20
10.453775
11
53.5532537
21
10.823175
0
LINE
8
DEFAULT_255_2_778
10
53.5532537
20
10.823175
11
53.4678537
21
11.194375
0
LINE
8
DEFAULT_255_2_778
10
53.4678537
20
11.194375
11
53.3860537
21
11.563675
0
LINE
8
DEFAULT_255_2_778
10
53.3860537
20
11.563675
11
53.3024537
21
11.933075
0
LINE
8
DEFAULT_255_2_778
10
53.3024537
20
11.933075
11
53.2206537
21
12.302475
0
LINE
8
DEFAULT_255_2_778
10
53.2206537
20
12.302475
11
52.9807537
21
13.414175
0
LINE
8
DEFAULT_255_2_778
10
52.9807537
20
13.414175
11
52.7463537
21
14.524175
0
LINE
8
DEFAULT_255_2_778
10
52.7463537
20
14.524175
11
52.5939537
21
15.266575
0
LINE
8
DEFAULT_255_2_778
10
52.5939537
20
15.266575
11
52.3708537
21
16.378375
0
LINE
8
DEFAULT_255_2_778
10
52.3708537
20
16.378375
11
52.2258537
21
17.120775
0
LINE
8
DEFAULT_255_2_778
10
52.2258537
20
17.120775
11
52.0139537
21
18.234375
0
LINE
8
DEFAULT_255_2_778
10
52.0139537
20
18.234375
11
51.8075537
21
19.348075
0
LINE
8
DEFAULT_255_2_778
10
51.8075537
20
19.348075
11
51.6736537
21
20.092275
0
LINE
8
DEFAULT_255_2_778
10
51.6736537
20
20.092275
11
51.5435537
21
20.834775
0
LINE
8
DEFAULT_255_2_778
10
51.5435537
20
20.834775
11
51.2905537
21
22.323275
0
LINE
8
DEFAULT_255_2_778
10
51.2905537
20
22.323275
11
51.2291537
21
22.694475
0
LINE
8
DEFAULT_255_2_778
10
51.2291537
20
22.694475
11
50.9910537
21
24.184575
0
LINE
8
DEFAULT_255_2_778
10
50.9910537
20
24.184575
11
50.9333537
21
24.557675
0
LINE
8
DEFAULT_255_2_778
10
50.9333537
20
24.557675
11
50.7103537
21
26.047775
0
LINE
8
DEFAULT_255_2_778
10
50.7103537
20
26.047775
11
50.6563537
21
26.420875
0
LINE
8
DEFAULT_255_2_778
10
50.6563537
20
26.420875
11
50.6042537
21
26.793975
0
LINE
8
DEFAULT_255_2_778
10
50.6042537
20
26.793975
11
50.5502537
21
27.166975
0
LINE
8
DEFAULT_255_2_778
10
50.5502537
20
27.166975
11
50.4981537
21
27.540075
0
LINE
8
DEFAULT_255_2_778
10
50.4981537
20
27.540075
11
50.3975537
21
28.286175
0
LINE
8
DEFAULT_255_2_778
10
50.3975537
20
28.286175
11
50.3957537
21
29.911275
0
LINE
8
DEFAULT_255_2_778
10
50.3957537
20
29.911275
11
50.3938537
21
31.211375
0
LINE
8
DEFAULT_255_2_778
10
50.3938537
20
31.211375
11
50.3920537
21
32.838375
0
LINE
8
DEFAULT_255_2_778
10
50.3920537
20
32.838375
11
50.3901537
21
33.490275
0
LINE
8
DEFAULT_255_2_778
10
50.3901537
20
33.490275
11
32.8771537
21
33.490275
0
LINE
8
DEFAULT_255_2_778
10
32.8771537
20
33.490275
11
32.8771537
21
32.758975
0
LINE
8
DEFAULT_255_2_778
10
32.8771537
20
32.758975
11
28.1479537
21
32.758975
0
LINE
8
DEFAULT_255_2_778
10
174.0834094
20
20.4950056
11
51.5834094
21
20.4950056
0
LINE
8
DEFAULT_255_2_778
10
53.8247094
20
9.5917056
11
176.2183094
21
9.5346056
0
LINE
8
DEFAULT_255_2_778
10
176.2183094
20
9.5346056
11
176.0900094
21
9.7886056
0
LINE
8
DEFAULT_255_2_778
10
176.0900094
20
9.7886056
11
54.4446094
21
9.7886056
0
LINE
8
DEFAULT_255_2_778
10
174.9769094
20
21.9790056
11
174.8274094
21
21.9552056
0
LINE
8
DEFAULT_255_2_778
10
175.7164094
20
17.8369056
11
175.5468094
21
17.8052056
0
LINE
8
DEFAULT_255_2_778
10
176.5374094
20
13.7108056
11
176.3678094
21
13.6751056
0
LINE
8
DEFAULT_255_2_778
10
177.2195436
20
10.454063
11
177.1462436
21
10.778763
0
LINE
8
DEFAULT_255_2_778
10
177.1462436
20
10.778763
11
177.0020436
21
11.428263
0
LINE
8
DEFAULT_255_2_778
10
177.0020436
20
11.428263
11
176.7898436
21
12.405163
0
LINE
8
DEFAULT_255_2_778
10
176.7898436
20
12.405163
11
176.6509436
21
13.056063
0
LINE
8
DEFAULT_255_2_778
10
176.6509436
20
13.056063
11
176.5146436
21
13.706863
0
LINE
8
DEFAULT_255_2_778
10
176.5146436
20
13.706863
11
176.4479436
21
14.032863
0
LINE
8
DEFAULT_255_2_778
10
176.4479436
20
14.032863
11
176.3799436
21
14.357463
0
LINE
8
DEFAULT_255_2_778
10
176.3799436
20
14.357463
11
176.1183436
21
15.661863
0
LINE
8
DEFAULT_255_2_778
10
176.1183436
20
15.661863
11
176.0542436
21
15.987863
0
LINE
8
DEFAULT_255_2_778
10
176.0542436
20
15.987863
11
175.9915436
21
16.313863
0
LINE
8
DEFAULT_255_2_778
10
175.9915436
20
16.313863
11
175.9275436
21
16.639763
0
LINE
8
DEFAULT_255_2_778
10
175.9275436
20
16.639763
11
175.8661436
21
16.965763
0
LINE
8
DEFAULT_255_2_778
10
175.8661436
20
16.965763
11
175.8034436
21
17.293063
0
LINE
8
DEFAULT_255_2_778
10
175.8034436
20
17.293063
11
175.7420436
21
17.619063
0
LINE
8
DEFAULT_255_2_778
10
175.7420436
20
17.619063
11
175.5618436
21
18.598463
0
LINE
8
DEFAULT_255_2_778
10
175.5618436
20
18.598463
11
175.3856436
21
19.577963
0
LINE
8
DEFAULT_255_2_778
10
175.3856436
20
19.577963
11
175.3282436
21
19.905263
0
LINE
8
DEFAULT_255_2_778
10
175.3282436
20
19.905263
11
175.2721436
21
20.231263
0
LINE
8
DEFAULT_255_2_778
10
175.2721436
20
20.231263
11
175.2147436
21
20.558563
0
LINE
8
DEFAULT_255_2_778
10
175.2147436
20
20.558563
11
175.1586436
21
20.885863
0
LINE
8
DEFAULT_255_2_778
10
175.1586436
20
20.885863
11
174.9943436
21
21.866663
0
LINE
8
DEFAULT_255_2_778
10
174.9943436
20
21.866663
11
174.8874436
21
22.521463
0
LINE
8
DEFAULT_255_2_778
10
174.8874436
20
22.521463
11
174.7832436
21
23.174963
0
LINE
8
DEFAULT_255_2_778
10
174.7832436
20
23.174963
11
174.6310436
21
24.157163
0
LINE
8
DEFAULT_255_2_778
10
174.6310436
20
24.157163
11
174.4829436
21
25.140563
0
LINE
8
DEFAULT_255_2_778
10
174.4829436
20
25.140563
11
174.3868436
21
25.795463
0
LINE
8
DEFAULT_255_2_778
10
174.3868436
20
25.795463
11
174.3400436
21
26.124063
0
LINE
8
DEFAULT_255_2_778
10
174.3400436
20
26.124063
11
174.2786436
21
26.007363
0
LINE
8
DEFAULT_255_2_778
10
174.2786436
20
26.007363
11
174.2466436
21
25.954463
0
LINE
8
DEFAULT_255_2_778
10
174.2466436
20
25.954463
11
174.3868436
21
24.932363
0
LINE
8
DEFAULT_255_2_778
10
174.3868436
20
24.932363
11
174.4829436
21
24.252363
0
LINE
8
DEFAULT_255_2_778
10
174.4829436
20
24.252363
11
174.5324436
21
23.911563
0
LINE
8
DEFAULT_255_2_778
10
174.5324436
20
23.911563
11
174.5832436
21
23.570863
0
LINE
8
DEFAULT_255_2_778
10
174.5832436
20
23.570863
11
174.6326436
21
23.231663
0
LINE
8
DEFAULT_255_2_778
10
174.6326436
20
23.231663
11
174.6834436
21
22.890863
0
LINE
8
DEFAULT_255_2_778
10
174.6834436
20
22.890863
11
174.8395436
21
21.871663
0
LINE
8
DEFAULT_255_2_778
10
174.8395436
20
21.871663
11
174.8930436
21
21.530863
0
LINE
8
DEFAULT_255_2_778
10
174.8930436
20
21.530863
11
175.0573436
21
20.511663
0
LINE
8
DEFAULT_255_2_778
10
175.0573436
20
20.511663
11
175.1880436
21
19.766863
0
LINE
8
DEFAULT_255_2_778
10
175.1880436
20
19.766863
11
175.3216436
21
19.020763
0
LINE
8
DEFAULT_255_2_778
10
175.3216436
20
19.020763
11
175.3896436
21
18.648263
0
LINE
8
DEFAULT_255_2_778
10
175.3896436
20
18.648263
11
175.4589436
21
18.275663
0
LINE
8
DEFAULT_255_2_778
10
175.4589436
20
18.275663
11
175.5269436
21
17.904463
0
LINE
8
DEFAULT_255_2_778
10
175.5269436
20
17.904463
11
175.6685436
21
17.159663
0
LINE
8
DEFAULT_255_2_778
10
175.6685436
20
17.159663
11
175.8846436
21
16.044963
0
LINE
8
DEFAULT_255_2_778
10
175.8846436
20
16.044963
11
175.9595436
21
15.673763
0
LINE
8
DEFAULT_255_2_778
10
175.9595436
20
15.673763
11
176.0328436
21
15.302563
0
LINE
8
DEFAULT_255_2_778
10
176.0328436
20
15.302563
11
176.1090436
21
14.931363
0
LINE
8
DEFAULT_255_2_778
10
176.1090436
20
14.931363
11
176.1839436
21
14.560163
0
LINE
8
DEFAULT_255_2_778
10
176.1839436
20
14.560163
11
176.2614436
21
14.188963
0
LINE
8
DEFAULT_255_2_778
10
176.2614436
20
14.188963
11
176.3376436
21
13.817763
0
LINE
8
DEFAULT_255_2_778
10
176.3376436
20
13.817763
11
176.5739436
21
12.707063
0
LINE
8
DEFAULT_255_2_778
10
176.5739436
20
12.707063
11
176.6046436
21
12.569163
0
LINE
8
DEFAULT_255_2_778
10
176.6046436
20
12.569163
11
176.6313436
21
12.569163
0
LINE
8
DEFAULT_255_2_778
10
176.6313436
20
12.569163
11
176.7115436
21
12.195363
0
LINE
8
DEFAULT_255_2_778
10
176.7115436
20
12.195363
11
176.7930436
21
11.822763
0
LINE
8
DEFAULT_255_2_778
10
176.7930436
20
11.822763
11
176.9586436
21
11.077963
0
LINE
8
DEFAULT_255_2_778
10
176.9586436
20
11.077963
11
177.0427436
21
10.705463
0
LINE
8
DEFAULT_255_2_778
10
177.0427436
20
10.705463
11
177.2991436
21
9.589463
0
LINE
8
DEFAULT_255_2_778
10
177.2991436
20
9.589463
11
177.4017436
21
9.590763
0
LINE
8
DEFAULT_255_2_778
10
177.4017436
20
9.590763
11
177.4004436
21
9.605263
0
LINE
8
DEFAULT_255_2_778
10
177.4004436
20
9.605263
11
177.3885436
21
9.677063
0
LINE
8
DEFAULT_255_2_778
10
177.3885436
20
9.677063
11
177.3859436
21
9.686263
0
LINE
8
DEFAULT_255_2_778
10
177.3859436
20
9.686263
11
177.3846436
21
9.696863
0
LINE
8
DEFAULT_255_2_778
10
177.3846436
20
9.696863
11
177.3819436
21
9.706163
0
LINE
8
DEFAULT_255_2_778
10
177.3819436
20
9.706163
11
177.3806436
21
9.718063
0
LINE
8
DEFAULT_255_2_778
10
177.3806436
20
9.718063
11
177.3700436
21
9.764363
0
LINE
8
DEFAULT_255_2_778
10
177.3700436
20
9.764363
11
177.3539436
21
9.847963
0
LINE
8
DEFAULT_255_2_778
10
177.3539436
20
9.847963
11
177.3499436
21
9.862463
0
LINE
8
DEFAULT_255_2_778
10
177.3499436
20
9.862463
11
177.3472436
21
9.878363
0
LINE
8
DEFAULT_255_2_778
10
177.3472436
20
9.878363
11
177.3393436
21
9.910163
0
LINE
8
DEFAULT_255_2_778
10
177.3393436
20
9.910163
11
177.3367436
21
9.927263
0
LINE
8
DEFAULT_255_2_778
10
177.3367436
20
9.927263
11
177.3205436
21
9.997663
0
LINE
8
DEFAULT_255_2_778
10
177.3205436
20
9.997663
11
177.3179436
21
10.014863
0
LINE
8
DEFAULT_255_2_778
10
177.3179436
20
10.014863
11
177.3126436
21
10.033363
0
LINE
8
DEFAULT_255_2_778
10
177.3126436
20
10.033363
11
177.2925436
21
10.130263
0
LINE
8
DEFAULT_255_2_778
10
177.2925436
20
10.130263
11
177.2779436
21
10.191063
0
LINE
8
DEFAULT_255_2_778
10
177.2779436
20
10.191063
11
177.2700436
21
10.233463
0
LINE
8
DEFAULT_255_2_778
10
177.2700436
20
10.233463
11
177.2594436
21
10.275763
0
LINE
8
DEFAULT_255_2_778
10
177.2594436
20
10.275763
11
177.2406436
21
10.363363
0
LINE
8
DEFAULT_255_2_778
10
177.2406436
20
10.363363
11
177.2300436
21
10.406963
0
LINE
8
DEFAULT_255_2_778
10
177.2300436
20
10.406963
11
177.2261436
21
10.429463
0
LINE
8
DEFAULT_255_2_778
10
173.3288436
20
25.421263
11
50.8333436
21
25.421263
0
LINE
8
DEFAULT_255_2_778
10
174.9808436
20
15.574263
11
52.5835436
21
15.574263
0
LINE
8
DEFAULT_255_2_778
10
133.0838436
20
54.276263
11
173.2542436
21
54.276263
0
LINE
8
DEFAULT_255_2_778
10
174.0402436
20
80.337963
11
179.2070436
21
80.337963
0
LINE
8
DEFAULT_255_2_778
10
133.0838436
20
44.187663
11
172.4792436
21
44.187663
0
LINE
8
DEFAULT_255_2_778
10
133.0838436
20
64.364763
11
172.4667436
21
64.364763
0
LINE
8
DEFAULT_255_2_778
10
179.9510436
20
74.210463
11
179.9478436
21
73.585763
0
LINE
8
DEFAULT_255_2_778
10
179.9478436
20
73.585763
11
179.9478436
21
71.097363
0
LINE
8
DEFAULT_255_2_778
10
179.9478436
20
71.097363
11
179.9444436
21
70.476163
0
LINE
8
DEFAULT_255_2_778
10
179.9444436
20
70.476163
11
179.9444436
21
66.738363
0
LINE
8
DEFAULT_255_2_778
10
179.9444436
20
66.738363
11
179.9412436
21
66.117163
0
LINE
8
DEFAULT_255_2_778
10
179.9412436
20
66.117163
11
179.9412436
21
58.638463
0
LINE
8
DEFAULT_255_2_778
10
179.9412436
20
58.638463
11
179.9378436
21
58.017163
0
LINE
8
DEFAULT_255_2_778
10
179.9378436
20
58.017163
11
179.9378436
21
50.535263
0
LINE
8
DEFAULT_255_2_778
10
179.9378436
20
50.535263
11
179.9412436
21
49.914063
0
LINE
8
DEFAULT_255_2_778
10
179.9412436
20
49.914063
11
179.9412436
21
42.435363
0
LINE
8
DEFAULT_255_2_778
10
179.9412436
20
42.435363
11
179.9444436
21
41.814063
0
LINE
8
DEFAULT_255_2_778
10
179.9444436
20
41.814063
11
179.9444436
21
38.076363
0
LINE
8
DEFAULT_255_2_778
10
179.9444436
20
38.076363
11
179.9478436
21
37.455063
0
LINE
8
DEFAULT_255_2_778
10
179.9478436
20
37.455063
11
179.9478436
21
34.966663
0
LINE
8
DEFAULT_255_2_778
10
179.9478436
20
34.966663
11
179.9510436
21
34.341963
0
LINE
8
DEFAULT_255_2_778
10
179.9510436
20
34.341963
11
178.9498436
21
34.341963
0
LINE
8
DEFAULT_255_2_778
10
178.9498436
20
34.341963
11
178.9498436
21
36.209163
0
LINE
8
DEFAULT_255_2_778
10
178.9498436
20
36.209163
11
178.9467436
21
36.833863
0
LINE
8
DEFAULT_255_2_778
10
178.9467436
20
36.833863
11
178.9467436
21
39.946363
0
LINE
8
DEFAULT_255_2_778
10
178.9467436
20
39.946363
11
178.9435436
21
40.567663
0
LINE
8
DEFAULT_255_2_778
10
178.9435436
20
40.567663
11
178.9435436
21
45.551363
0
LINE
8
DEFAULT_255_2_778
10
178.9435436
20
45.551363
11
178.9403436
21
46.172563
0
LINE
8
DEFAULT_255_2_778
10
178.9403436
20
46.172563
11
178.9403436
21
62.379063
0
LINE
8
DEFAULT_255_2_778
10
178.9403436
20
62.379063
11
178.9435436
21
63.000363
0
LINE
8
DEFAULT_255_2_778
10
178.9435436
20
63.000363
11
178.9435436
21
67.984263
0
LINE
8
DEFAULT_255_2_778
10
178.9435436
20
67.984263
11
178.9467436
21
68.605563
0
LINE
8
DEFAULT_255_2_778
10
178.9467436
20
68.605563
11
178.9467436
21
71.718663
0
LINE
8
DEFAULT_255_2_778
10
178.9467436
20
71.718663
11
178.9498436
21
72.343263
0
LINE
8
DEFAULT_255_2_778
10
178.9498436
20
72.343263
11
178.9498436
21
74.210463
0
LINE
8
DEFAULT_255_2_778
10
178.9498436
20
74.210463
11
179.9476436
21
74.210463
0
LINE
8
DEFAULT_255_2_778
10
172.5673436
20
44.304363
11
178.9387436
21
44.304363
0
LINE
8
DEFAULT_255_2_778
10
178.1214049
20
54.2762
11
178.9390049
21
54.2762
0
LINE
8
DEFAULT_255_2_778
10
172.2924049
20
54.2762
11
174.6872049
21
54.2762
0
LINE
8
DEFAULT_255_2_778
10
172.567325
20
64.2477366
11
178.938725
21
64.2477366
0
LINE
8
DEFAULT_255_2_778
10
178.123025
20
53.0334366
11
178.123025
21
55.5157366
0
LINE
8
DEFAULT_255_2_778
10
178.123025
20
55.5157366
11
174.688725
21
54.2745366
0
LINE
8
DEFAULT_255_2_778
10
174.688725
20
54.2745366
11
178.123025
21
53.0334366
0
LINE
8
DEFAULT_255_2_778
10
179.222625
20
86.3288366
11
180.022725
21
86.2907366
0
LINE
8
DEFAULT_255_2_778
10
180.022725
20
86.2907366
11
180.191325
21
86.2566366
0
LINE
8
DEFAULT_255_2_778
10
180.191325
20
86.2566366
11
180.212425
21
86.2470366
0
LINE
8
DEFAULT_255_2_778
10
180.212425
20
86.2470366
11
180.221925
21
86.2338366
0
LINE
8
DEFAULT_255_2_778
10
179.222625
20
22.2221366
11
180.022725
21
22.2602366
0
LINE
8
DEFAULT_255_2_778
10
180.022725
20
22.2602366
11
180.191325
21
22.2943366
0
LINE
8
DEFAULT_255_2_778
10
180.191325
20
22.2943366
11
180.212425
21
22.3039366
0
LINE
8
DEFAULT_255_2_778
10
180.212425
20
22.3039366
11
180.221925
21
22.3171366
0
LINE
8
DEFAULT_255_2_778
10
0.232825
20
35.4092366
11
32.712525
21
35.4092366
0
LINE
8
DEFAULT_255_2_778
10
32.712525
20
35.4092366
11
32.712525
21
73.1425366
0
LINE
8
DEFAULT_255_2_778
10
32.712525
20
73.1425366
11
0.232825
21
73.1425366
0
LINE
8
DEFAULT_255_2_778
10
0.232825
20
73.1425366
11
0.232825
21
35.4092366
0
LINE
8
DEFAULT_255_2_778
10
28.139525
20
32.7568366
11
28.139525
21
32.8322366
0
LINE
8
DEFAULT_255_2_778
10
28.139525
20
32.8322366
11
18.976925
21
32.8322366
0
LINE
8
DEFAULT_255_2_778
10
18.976925
20
32.8322366
11
18.705525
21
35.3907366
0
LINE
8
DEFAULT_255_2_778
10
175.968825
20
16.3613366
11
179.206825
21
16.3613366
0
LINE
8
DEFAULT_255_2_778
10
174.913125
20
22.2819366
11
179.207025
21
22.2819366
0
LINE
8
DEFAULT_255_2_778
10
174.040225
20
28.2131366
11
179.207025
21
28.2131366
0
LINE
8
DEFAULT_255_2_778
10
174.328425
20
26.1250366
11
174.341325
21
26.2083366
0
LINE
8
DEFAULT_255_2_778
10
174.341325
20
26.2083366
11
174.345625
21
26.2488366
0
LINE
8
DEFAULT_255_2_778
10
174.345625
20
26.2488366
11
174.351925
21
26.2893366
0
LINE
8
DEFAULT_255_2_778
10
174.351925
20
26.2893366
11
174.364925
21
26.4131366
0
LINE
8
DEFAULT_255_2_778
10
174.364925
20
26.4131366
11
174.373625
21
26.5774366
0
LINE
8
DEFAULT_255_2_778
10
174.373625
20
26.5774366
11
174.371525
21
26.8251366
0
LINE
8
DEFAULT_255_2_778
10
174.371525
20
26.8251366
11
174.369425
21
26.8656366
0
LINE
8
DEFAULT_255_2_778
10
174.369425
20
26.8656366
11
174.365125
21
26.9060366
0
LINE
8
DEFAULT_255_2_778
10
174.365125
20
26.9060366
11
174.363025
21
26.9465366
0
LINE
8
DEFAULT_255_2_778
10
174.363025
20
26.9465366
11
174.350125
21
27.0703366
0
LINE
8
DEFAULT_255_2_778
10
174.350125
20
27.0703366
11
174.343725
21
27.1108366
0
LINE
8
DEFAULT_255_2_778
10
174.343725
20
27.1108366
11
174.339525
21
27.1534366
0
LINE
8
DEFAULT_255_2_778
10
174.339525
20
27.1534366
11
174.333125
21
27.1939366
0
LINE
8
DEFAULT_255_2_778
10
174.333125
20
27.1939366
11
174.324425
21
27.2344366
0
LINE
8
DEFAULT_255_2_778
10
174.324425
20
27.2344366
11
174.318025
21
27.2749366
0
LINE
8
DEFAULT_255_2_778
10
174.318025
20
27.2749366
11
174.283625
21
27.4349366
0
LINE
8
DEFAULT_255_2_778
10
174.283625
20
27.4349366
11
174.240525
21
27.5950366
0
LINE
8
DEFAULT_255_2_778
10
174.240525
20
27.5950366
11
174.188925
21
27.7508366
0
LINE
8
DEFAULT_255_2_778
10
174.188925
20
27.7508366
11
174.173925
21
27.7892366
0
LINE
8
DEFAULT_255_2_778
10
174.173925
20
27.7892366
11
174.160925
21
27.8276366
0
LINE
8
DEFAULT_255_2_778
10
174.160925
20
27.8276366
11
174.113525
21
27.9429366
0
LINE
8
DEFAULT_255_2_778
10
174.113525
20
27.9429366
11
174.061925
21
28.0562366
0
LINE
8
DEFAULT_255_2_778
10
174.061925
20
28.0562366
11
174.029625
21
28.2932366
0
LINE
8
DEFAULT_255_2_778
10
174.029625
20
28.2932366
11
174.033925
21
31.5386366
0
LINE
8
DEFAULT_255_2_778
10
174.033925
20
31.5386366
11
174.036025
21
33.4878366
0
LINE
8
DEFAULT_255_2_778
10
174.036025
20
33.4878366
11
133.142525
21
33.4878366
0
LINE
8
DEFAULT_255_2_778
10
133.142525
20
33.4878366
11
133.142525
21
34.1519366
0
LINE
8
DEFAULT_255_2_778
10
174.9131303
20
86.2690543
11
179.2070303
21
86.2690543
0
LINE
8
DEFAULT_255_2_778
10
175.9688303
20
92.1896543
11
179.2068303
21
92.1896543
0
LINE
8
DEFAULT_255_2_778
10
34.2530303
20
52.2902543
11
32.9488303
21
52.2902543
0
LINE
8
DEFAULT_255_2_778
10
32.9488303
20
52.2902543
11
32.9488303
21
44.3953543
0
LINE
8
DEFAULT_255_2_778
10
32.9488303
20
44.3953543
11
32.9441303
21
43.8291543
0
LINE
8
DEFAULT_255_2_778
10
32.9441303
20
43.8291543
11
32.9441303
21
37.6283543
0
LINE
8
DEFAULT_255_2_778
10
32.9441303
20
37.6283543
11
32.9393303
21
37.0666543
0
LINE
8
DEFAULT_255_2_778
10
32.9393303
20
37.0666543
11
32.9393303
21
34.2493543
0
LINE
8
DEFAULT_255_2_778
10
32.9393303
20
34.2493543
11
133.0759303
21
34.2493543
0
LINE
8
DEFAULT_255_2_778
10
133.0759303
20
34.2493543
11
133.0759303
21
41.7590543
0
LINE
8
DEFAULT_255_2_778
10
133.0759303
20
41.7590543
11
133.0711303
21
42.3855543
0
LINE
8
DEFAULT_255_2_778
10
133.0711303
20
42.3855543
11
133.0711303
21
66.1673543
0
LINE
8
DEFAULT_255_2_778
10
133.0711303
20
66.1673543
11
133.0759303
21
66.7938543
0
LINE
8
DEFAULT_255_2_778
10
133.0759303
20
66.7938543
11
133.0759303
21
74.3035543
0
LINE
8
DEFAULT_255_2_778
10
133.0759303
20
74.3035543
11
32.9396303
21
74.3035543
0
LINE
8
DEFAULT_255_2_778
10
32.9396303
20
74.3035543
11
32.9396303
21
71.4862543
0
LINE
8
DEFAULT_255_2_778
10
32.9396303
20
71.4862543
11
32.9443303
21
70.9245543
0
LINE
8
DEFAULT_255_2_778
10
32.9443303
20
70.9245543
11
32.9443303
21
64.7237543
0
LINE
8
DEFAULT_255_2_778
10
32.9443303
20
64.7237543
11
32.9491303
21
64.1575543
0
LINE
8
DEFAULT_255_2_778
10
32.9491303
20
64.1575543
11
32.9491303
21
56.2626543
0
LINE
8
DEFAULT_255_2_778
10
32.9491303
20
56.2626543
11
34.2532303
21
56.2626543
0
LINE
8
DEFAULT_255_2_778
10
34.2532303
20
56.2626543
11
34.2532303
21
52.2830543
0
LINE
8
DEFAULT_255_2_778
10
133.1288135
20
75.0610734
11
133.1111135
21
74.3030734
0
LINE
8
DEFAULT_255_2_778
10
133.1111135
20
74.3030734
11
32.9092135
21
74.3030734
0
LINE
8
DEFAULT_255_2_778
10
32.9092135
20
74.3030734
11
32.8729135
21
75.0784734
0
LINE
8
DEFAULT_255_2_778
10
32.8729135
20
75.0784734
11
18.9987135
21
75.0784734
0
LINE
8
DEFAULT_255_2_778
10
18.9987135
20
75.0784734
11
19.0302135
21
75.7486734
0
LINE
8
DEFAULT_255_2_778
10
19.0302135
20
75.7486734
11
174.0170135
21
75.7486734
0
LINE
8
DEFAULT_255_2_778
10
177.4000135
20
98.9137734
11
177.2214135
21
98.0964734
0
LINE
8
DEFAULT_255_2_778
10
177.2214135
20
98.0964734
11
179.2071135
21
98.0964734
0
LINE
8
DEFAULT_255_2_778
10
179.2071135
20
98.0964734
11
179.2071135
21
98.9084734
0
LINE
8
DEFAULT_255_2_778
10
177.3568166
20
98.7125179
11
179.1972166
21
98.7125179
0
LINE
8
DEFAULT_255_2_778
10
177.2967166
20
98.4347179
11
179.1972166
21
98.4347179
0
LINE
8
DEFAULT_255_2_778
10
179.2226166
20
80.3629179
11
180.1050166
21
80.3229179
0
LINE
8
DEFAULT_255_2_778
10
180.1050166
20
80.3229179
11
180.2103166
21
80.2983179
0
LINE
8
DEFAULT_255_2_778
10
180.2103166
20
80.2983179
11
180.2217166
21
80.2888179
0
LINE
8
DEFAULT_255_2_778
10
180.2217166
20
80.2888179
11
180.2217166
21
80.2851179
0
LINE
8
DEFAULT_255_2_778
10
179.2226166
20
92.2834032
11
179.8311166
21
92.2606032
0
LINE
8
DEFAULT_255_2_778
10
179.8311166
20
92.2606032
11
180.0590166
21
92.2321032
0
LINE
8
DEFAULT_255_2_778
10
180.0590166
20
92.2321032
11
180.1968166
21
92.1961032
0
LINE
8
DEFAULT_255_2_778
10
180.1968166
20
92.1961032
11
180.2217166
21
92.1733032
0
LINE
8
DEFAULT_255_2_778
10
180.2217166
20
92.1733032
11
180.2217166
21
92.1696032
0
LINE
8
DEFAULT_255_2_778
10
179.2223166
20
10.1147032
11
177.2967166
21
10.1147032
0
LINE
8
DEFAULT_255_2_778
10
179.2223166
20
9.8366032
11
177.3568166
21
9.8366032
0
ARC
8
DEFAULT_255_2_778
10
1.2105675
20
10.5826341
40
0.9862466
50
179.9567821
51
224.6356234
0
ARC
8
DEFAULT_255_2_778
10
1.2221949
20
10.5904303
40
1.0000016
50
224.4854141
51
268.2402494
0
ARC
8
DEFAULT_255_2_778
10
1.2241981
20
10.6156097
40
1.0252315
50
268.1715599
51
270.0012878
0
LINE
8
DEFAULT_255_2_778
10
179.2221212
20
10.452678
11
177.2213212
21
10.452678
0
LINE
8
DEFAULT_255_2_778
10
177.2213212
20
10.452678
11
179.2221212
21
10.452678
0
LINE
8
DEFAULT_255_2_778
10
179.2221212
20
10.452678
11
179.2221212
21
9.590678
0
LINE
8
DEFAULT_255_2_778
10
179.2221212
20
9.590678
11
177.4023212
21
9.591778
0
LINE
8
DEFAULT_255_2_778
10
177.4023212
20
9.591778
11
177.4007212
21
9.610578
0
LINE
8
DEFAULT_255_2_778
10
177.4007212
20
9.610578
11
177.3361212
21
9.932278
0
LINE
8
DEFAULT_255_2_778
10
177.3361212
20
9.932278
11
177.2223212
21
10.447178
0
LINE
8
DEFAULT_255_2_778
10
179.2226212
20
16.267478
11
179.8311212
21
16.290178
0
LINE
8
DEFAULT_255_2_778
10
179.8311212
20
16.290178
11
180.0589212
21
16.318778
0
LINE
8
DEFAULT_255_2_778
10
180.0589212
20
16.318778
11
180.1968212
21
16.354778
0
LINE
8
DEFAULT_255_2_778
10
180.1968212
20
16.354778
11
180.2217212
21
16.377478
0
LINE
8
DEFAULT_255_2_778
10
180.2217212
20
16.377478
11
180.2217212
21
16.381178
0
LINE
8
DEFAULT_255_2_778
10
179.2226212
20
28.187678
11
180.1050212
21
28.227678
0
LINE
8
DEFAULT_255_2_778
10
180.1050212
20
28.227678
11
180.2103212
21
28.252278
0
LINE
8
DEFAULT_255_2_778
10
180.2103212
20
28.252278
11
180.2217212
21
28.261778
0
LINE
8
DEFAULT_255_2_778
10
180.2217212
20
28.261778
11
180.2217212
21
28.265478
0
LINE
8
DEFAULT_255_2_778
10
176.0635212
20
94.857978
11
175.5721212
21
94.953978
0
LINE
8
DEFAULT_255_2_778
10
20.1913212
20
81.092778
11
23.1544212
21
97.896178
0
LINE
8
DEFAULT_255_2_778
10
23.1544212
20
97.896178
11
176.1825212
21
97.896178
0
LINE
8
DEFAULT_255_2_778
10
176.1825212
20
97.896178
11
175.3115212
21
93.726878
0
LINE
8
DEFAULT_255_2_778
10
175.3115212
20
93.726878
11
173.2494212
21
81.159378
0
LINE
8
DEFAULT_255_2_778
10
173.2494212
20
81.159378
11
173.2494212
21
78.202478
0
LINE
8
DEFAULT_255_2_778
10
176.3090212
20
98.894178
11
158.1289212
21
98.894178
0
LINE
8
DEFAULT_255_2_778
10
158.1289212
20
98.894178
11
157.9800212
21
98.842278
0
LINE
8
DEFAULT_255_2_778
10
1.2242212
20
9.590378
11
6.5478212
21
9.590378
0
LINE
8
DEFAULT_255_2_778
10
6.5478212
20
9.590378
11
6.5478212
21
10.496578
0
LINE
8
DEFAULT_255_2_778
10
6.5478212
20
10.496578
11
1.7242212
21
10.496578
0
LINE
8
DEFAULT_255_2_778
10
1.7242212
20
10.496578
11
1.6234212
21
10.505078
0
LINE
8
DEFAULT_255_2_778
10
1.6234212
20
10.505078
11
1.4655212
21
10.565378
0
LINE
8
DEFAULT_255_2_778
10
1.4655212
20
10.565378
11
1.3707212
21
10.641878
0
LINE
8
DEFAULT_255_2_778
10
1.3707212
20
10.641878
11
1.3263212
21
10.690878
0
LINE
8
DEFAULT_255_2_778
10
1.3263212
20
10.690878
11
1.2355212
21
10.879978
0
LINE
8
DEFAULT_255_2_778
10
1.2355212
20
10.879978
11
1.2244212
21
10.992978
0
ARC
8
DEFAULT_255_2_778
10
116.7631747
20
54.2674956
40
3.0274547
50
32.6257699
51
44.8715209
0
ARC
8
DEFAULT_255_2_778
10
116.788285
20
54.2851963
40
2.9967636
50
15.0577164
51
32.5995853
0
ARC
8
DEFAULT_255_2_778
10
116.7586494
20
54.2771223
40
3.0274793
50
359.9924548
51
15.0595651
0
ARC
8
DEFAULT_255_2_778
10
116.7687627
20
54.275148
40
3.0173661
50
334.7047394
51
0.0299205
0
ARC
8
DEFAULT_255_2_778
10
116.7856614
20
54.269741
40
2.9997786
50
320.677547
51
334.6601978
0
ARC
8
DEFAULT_255_2_778
10
116.7446507
20
54.3025703
40
3.0523076
50
315.1527246
51
320.6886478
0
ARC
8
DEFAULT_255_2_778
10
110.7028287
20
48.1233592
40
2.980836
50
270.0225807
51
315.2098431
0
ARC
8
DEFAULT_255_2_778
10
110.7059879
20
48.1253033
40
2.9827803
50
224.8057015
51
269.9618811
0
ARC
8
DEFAULT_255_2_778
10
104.6449016
20
54.2858333
40
3.0274204
50
212.623526
51
224.869005
0
ARC
8
DEFAULT_255_2_778
10
104.6199336
20
54.2682205
40
2.9968964
50
195.0564305
51
212.5972697
0
ARC
8
DEFAULT_255_2_778
10
104.6496734
20
54.2763226
40
3.0277198
50
179.9924102
51
195.0582936
0
ARC
8
DEFAULT_255_2_778
10
104.6395352
20
54.2783034
40
3.0175822
50
154.7067616
51
180.0299944
0
ARC
8
DEFAULT_255_2_778
10
104.6224762
20
54.2837818
40
2.9998188
50
140.6800402
51
154.6621591
0
ARC
8
DEFAULT_255_2_778
10
104.663352
20
54.2510622
40
3.052174
50
135.1551337
51
140.6910867
0
ARC
8
DEFAULT_255_2_778
10
110.7041392
20
60.4307482
40
3.3126754
50
89.998888
51
135.1646196
0
ARC
8
DEFAULT_255_2_778
10
110.7041919
20
60.4308064
40
3.3126173
50
44.834961
51
89.9997998
0
ARC
8
DEFAULT_255_2_778
10
116.7569463
20
54.2651832
40
3.3669696
50
33.3241937
51
44.8493881
0
ARC
8
DEFAULT_255_2_778
10
116.7880412
20
54.2870826
40
3.3289567
50
17.4546476
51
33.3032685
0
ARC
8
DEFAULT_255_2_778
10
116.7557079
20
54.2774338
40
3.3626955
50
359.9885383
51
17.4462311
0
LINE
8
DEFAULT_255_2_778
10
120.1184035
20
54.2767612
11
120.1184035
21
54.2766017
0
ARC
8
DEFAULT_255_2_778
10
116.7633941
20
54.2751568
40
3.3550097
50
335.5927778
51
0.0246753
0
ARC
8
DEFAULT_255_2_778
10
116.7852931
20
54.2677619
40
3.3320128
50
321.7544313
51
335.5529683
0
ARC
8
DEFAULT_255_2_778
10
116.7416592
20
54.3017802
40
3.3873398
50
315.170888
51
321.7594055
0
ARC
8
DEFAULT_255_2_778
10
110.7040181
20
48.1230584
40
3.3130349
50
270.0032056
51
315.1620384
0
ARC
8
DEFAULT_255_2_778
10
110.7043124
20
48.1231155
40
3.3130918
50
224.838374
51
269.9981162
0
ARC
8
DEFAULT_255_2_778
10
104.6517204
20
54.2884415
40
3.3673497
50
213.3235904
51
224.8472109
0
ARC
8
DEFAULT_255_2_778
10
104.6205503
20
54.2664967
40
3.329249
50
197.4559749
51
213.3027174
0
ARC
8
DEFAULT_255_2_778
10
104.6527099
20
54.276094
40
3.3628064
50
179.9913504
51
197.4475983
0
LINE
8
DEFAULT_255_2_778
10
101.2899035
20
54.2766017
11
101.2899035
21
54.2767612
0
ARC
8
DEFAULT_255_2_778
10
104.6447565
20
54.2783764
40
3.3548534
50
155.5934377
51
180.027585
0
ARC
8
DEFAULT_255_2_778
10
104.6226888
20
54.2858388
40
3.3316749
50
141.7531865
51
155.5534881
0
ARC
8
DEFAULT_255_2_778
10
104.6662926
20
54.2518394
40
3.3869666
50
135.1687199
51
141.7581175
0
ARC
8
DEFAULT_255_2_778
10
110.7040185
20
61.2659895
40
3.3130341
50
44.837959
51
89.9968018
0
ARC
8
DEFAULT_255_2_778
10
110.7043127
20
61.2659309
40
3.3130927
50
90.001889
51
135.1616187
0
ARC
8
DEFAULT_255_2_778
10
103.8207436
20
54.2654173
40
3.3669331
50
135.1484127
51
146.6741406
0
ARC
8
DEFAULT_255_2_778
10
103.7896269
20
54.2873302
40
3.3288946
50
146.6950352
51
162.5444132
0
ARC
8
DEFAULT_255_2_778
10
103.821911
20
54.277694
40
3.3625825
50
162.5527907
51
180.0114216
0
ARC
8
DEFAULT_255_2_778
10
103.8140839
20
54.2754126
40
3.3547558
50
179.9724851
51
204.4078819
0
ARC
8
DEFAULT_255_2_778
10
103.7920571
20
54.2679641
40
3.3316206
50
204.4477688
51
218.2487355
0
ARC
8
DEFAULT_255_2_778
10
103.8356859
20
54.3019826
40
3.3869437
50
218.2437655
51
224.8334489
0
ARC
8
DEFAULT_255_2_778
10
110.7041391
20
47.2876991
40
3.3126754
50
224.8353802
51
270.0011125
0
ARC
8
DEFAULT_255_2_778
10
110.7041919
20
47.287641
40
3.3126173
50
270.0002002
51
315.165039
0
ARC
8
DEFAULT_255_2_778
10
117.5875633
20
54.28863
40
3.3669331
50
315.1484127
51
326.6741406
0
ARC
8
DEFAULT_255_2_778
10
117.6186801
20
54.2667171
40
3.3288946
50
326.6950352
51
342.5444132
0
ARC
8
DEFAULT_255_2_778
10
117.586396
20
54.2763533
40
3.3625825
50
342.5527907
51
0.0114216
0
ARC
8
DEFAULT_255_2_778
10
117.594223
20
54.2786347
40
3.3547558
50
359.9724851
51
24.4078819
0
ARC
8
DEFAULT_255_2_778
10
117.6162498
20
54.2860832
40
3.3316206
50
24.4477688
51
38.2487355
0
ARC
8
DEFAULT_255_2_778
10
117.5726211
20
54.2520647
40
3.3869437
50
38.2437655
51
44.8334489
0
ARC
8
DEFAULT_255_2_778
10
110.7026244
20
60.4303177
40
2.9806062
50
44.7883199
51
89.9773355
0
ARC
8
DEFAULT_255_2_778
10
110.7054695
20
60.4289087
40
2.9820154
50
90.032011
51
135.200412
0
ARC
8
DEFAULT_255_2_778
10
117.1963679
20
67.7321419
40
1.8682441
50
196.5671808
51
224.8168369
0
ARC
8
DEFAULT_255_2_778
10
117.2103439
20
67.7372048
40
1.8830837
50
180.002316
51
196.5935803
0
ARC
8
DEFAULT_255_2_778
10
117.2068681
20
67.7371366
40
1.879608
50
176.6921359
51
180.0002409
0
ARC
8
DEFAULT_255_2_778
10
117.203381
20
67.737391
40
1.8761121
50
160.3444294
51
176.6937462
0
ARC
8
DEFAULT_255_2_778
10
117.2125294
20
67.7342969
40
1.8857684
50
157.6356082
51
160.3493943
0
ARC
8
DEFAULT_255_2_778
10
117.1932565
20
67.7437036
40
1.8643665
50
121.8632048
51
157.6775852
0
ARC
8
DEFAULT_255_2_778
10
117.1834556
20
67.7604745
40
1.844949
50
89.9923029
51
121.8796403
0
ARC
8
DEFAULT_255_2_778
10
122.4214547
20
67.766737
40
1.8386883
50
64.1281738
51
90.0763825
0
ARC
8
DEFAULT_255_2_778
10
122.4052728
20
67.7398061
40
1.8699831
50
11.3858896
51
64.0421212
0
ARC
8
DEFAULT_255_2_778
10
122.3856763
20
67.7376141
40
1.8896275
50
359.9699671
51
11.3337431
0
ARC
8
DEFAULT_255_2_778
10
122.3999528
20
62.4658606
40
1.875351
50
323.0616547
51
0.0324778
0
ARC
8
DEFAULT_255_2_778
10
122.4149973
20
62.4532444
40
1.8557448
50
292.641882
51
323.0938524
0
ARC
8
DEFAULT_255_2_778
10
122.4187165
20
62.4432223
40
1.8450633
50
277.803672
51
292.6550989
0
ARC
8
DEFAULT_255_2_778
10
122.4195521
20
62.4392308
40
1.8409953
50
273.3131081
51
277.7947748
0
ARC
8
DEFAULT_255_2_778
10
122.4194371
20
62.4411728
40
1.8429405
50
269.9997045
51
273.3131894
0
ARC
8
DEFAULT_255_2_778
10
122.4197039
20
62.4470731
40
1.8488408
50
229.8291012
51
269.9914369
0
ARC
8
DEFAULT_255_2_778
10
122.4298223
20
62.4594656
40
1.8648374
50
224.7919379
51
229.8371603
0
ARC
8
DEFAULT_255_2_778
10
117.1862545
20
67.7470099
40
1.5470159
50
90.0944825
51
157.7524669
0
ARC
8
DEFAULT_255_2_778
10
117.2000731
20
67.737221
40
1.5635166
50
157.6121745
51
174.3531327
0
ARC
8
DEFAULT_255_2_778
10
117.2005744
20
67.737237
40
1.5640139
50
174.3555257
51
176.7102404
0
ARC
8
DEFAULT_255_2_778
10
117.2023804
20
67.7371357
40
1.5658228
50
176.710329
51
180.0001182
0
ARC
8
DEFAULT_255_2_778
10
117.198465
20
67.7359711
40
1.5619078
50
179.9573994
51
223.3371385
0
ARC
8
DEFAULT_255_2_778
10
117.1969831
20
67.7363497
40
1.5610903
50
223.3845723
51
224.8325129
0
ARC
8
DEFAULT_255_2_778
10
122.4180887
20
62.4483006
40
1.5380902
50
224.7205709
51
256.0170701
0
ARC
8
DEFAULT_255_2_778
10
122.4194695
20
62.4520462
40
1.5420585
50
256.000912
51
269.9962721
0
ARC
8
DEFAULT_255_2_778
10
122.4193736
20
62.4484917
40
1.5385039
50
269.9998359
51
273.343499
0
ARC
8
DEFAULT_255_2_778
10
122.4194167
20
62.4469779
40
1.5369902
50
273.3451872
51
290.7983989
0
ARC
8
DEFAULT_255_2_778
10
122.4157438
20
62.4575816
40
1.5482072
50
290.7861272
51
292.6156709
0
ARC
8
DEFAULT_255_2_778
10
122.4092784
20
62.4641136
40
1.556727
50
292.7428824
51
0.0868181
0
ARC
8
DEFAULT_255_2_778
10
123.260584
20
62.4666602
40
0.7054197
50
359.9847458
51
0.0457637
0
ARC
8
DEFAULT_255_2_778
10
122.4035087
20
67.7377348
40
1.562495
50
359.9702565
51
44.7690774
0
ARC
8
DEFAULT_255_2_778
10
122.4177181
20
67.7515377
40
1.5426863
50
44.776787
51
89.9634019
0
ARC
8
DEFAULT_255_2_778
10
116.9814357
20
67.8556324
40
2.0613932
50
90.0787202
51
152.3352427
0
ARC
8
DEFAULT_255_2_778
10
117.0047592
20
67.8401859
40
2.0892239
50
152.2570412
51
157.6267999
0
ARC
8
DEFAULT_255_2_778
10
117.0014397
20
67.8411943
40
2.0857703
50
157.6177056
51
171.8352735
0
ARC
8
DEFAULT_255_2_778
10
117.0010053
20
67.8414275
40
2.0853071
50
171.8399191
51
176.7017416
0
ARC
8
DEFAULT_255_2_778
10
117.0036933
20
67.8412593
40
2.0880004
50
176.7013785
51
180.0003159
0
ARC
8
DEFAULT_255_2_778
10
116.9995751
20
67.8399437
40
2.0838825
50
179.9641438
51
220.4541461
0
ARC
8
DEFAULT_255_2_778
10
116.9936257
20
67.837497
40
2.0777689
50
220.5092557
51
224.8274569
0
ARC
8
DEFAULT_255_2_778
10
122.4164918
20
62.3386957
40
2.0493349
50
224.7110426
51
249.356888
0
ARC
8
DEFAULT_255_2_778
10
122.4190404
20
62.3452967
40
2.0564107
50
249.355276
51
269.9956597
0
ARC
8
DEFAULT_255_2_778
10
122.4189003
20
62.340301
40
2.051415
50
269.999562
51
273.3472972
0
ARC
8
DEFAULT_255_2_778
10
122.4190275
20
62.3380483
40
2.0491587
50
273.3474256
51
288.967778
0
ARC
8
DEFAULT_255_2_778
10
122.4149555
20
62.350526
40
2.0622824
50
288.9620892
51
292.6157283
0
ARC
8
DEFAULT_255_2_778
10
122.405564
20
62.3606848
40
2.0752767
50
292.747221
51
327.9520466
0
ARC
8
DEFAULT_255_2_778
10
122.406843
20
62.3613816
40
2.0745627
50
327.9169911
51
0.01785
0
ARC
8
DEFAULT_255_2_778
10
122.2373917
20
62.3618779
40
2.2440139
50
0.0038305
51
0.0803207
0
ARC
8
DEFAULT_255_2_778
10
122.4004263
20
67.8438709
40
2.0809793
50
359.9188533
51
23.2852893
0
ARC
8
DEFAULT_255_2_778
10
122.4126902
20
67.8511492
40
2.0668378
50
23.2343536
51
81.691253
0
ARC
8
DEFAULT_255_2_778
10
122.4193034
20
67.8493665
40
2.0676573
50
81.8797228
51
90.0166249
0
ARC
8
DEFAULT_255_2_778
10
122.4087489
20
46.0888824
40
1.5575562
50
359.916912
51
67.236817
0
ARC
8
DEFAULT_255_2_778
10
122.419379
20
46.1049546
40
1.5386271
50
67.3702574
51
84.1093621
0
ARC
8
DEFAULT_255_2_778
10
122.4197022
20
46.1065105
40
1.5370463
50
84.1153928
51
86.64126
0
ARC
8
DEFAULT_255_2_778
10
122.4196057
20
46.1048388
40
1.5387207
50
86.6413234
51
90.0002456
0
ARC
8
DEFAULT_255_2_778
10
122.4192486
20
46.1036832
40
1.5398764
50
89.9869583
51
132.713316
0
ARC
8
DEFAULT_255_2_778
10
122.4248431
20
46.0980059
40
1.5478425
50
132.7229224
51
135.2597036
0
ARC
8
DEFAULT_255_2_778
10
117.1968103
20
40.8190969
40
1.5594872
50
135.2073154
51
168.9722128
0
ARC
8
DEFAULT_255_2_778
10
117.2061589
20
40.8160892
40
1.569239
50
168.9297163
51
179.9976091
0
ARC
8
DEFAULT_255_2_778
10
117.2030145
20
40.8161484
40
1.5660945
50
179.9997721
51
183.2961383
0
ARC
8
DEFAULT_255_2_778
10
117.1996313
20
40.8159123
40
1.5627032
50
183.2946279
51
201.0200761
0
ARC
8
DEFAULT_255_2_778
10
117.2070985
20
40.8185186
40
1.5706083
50
201.0111162
51
202.3716997
0
ARC
8
DEFAULT_255_2_778
10
117.1864292
20
40.8064119
40
1.5468902
50
202.2484157
51
269.9064471
0
ARC
8
DEFAULT_255_2_778
10
122.4180444
20
40.8026261
40
1.5431028
50
270.0430355
51
315.2167788
0
ARC
8
DEFAULT_255_2_778
10
122.4040085
20
40.8160125
40
1.5624951
50
315.2309278
51
0.0297434
0
ARC
8
DEFAULT_255_2_778
10
122.4217139
20
46.1032716
40
1.8522536
50
109.6099668
51
135.2221947
0
ARC
8
DEFAULT_255_2_778
10
122.4203266
20
46.1065304
40
1.8487183
50
90.0076482
51
109.6033595
0
ARC
8
DEFAULT_255_2_778
10
122.4200923
20
46.1124442
40
1.8428044
50
86.681422
51
90.0003886
0
ARC
8
DEFAULT_255_2_778
10
122.4200599
20
46.1132696
40
1.8419822
50
70.4087243
51
86.6789302
0
ARC
8
DEFAULT_255_2_778
10
122.4153294
20
46.0989971
40
1.8570145
50
67.3688476
51
70.4188763
0
ARC
8
DEFAULT_255_2_778
10
122.4073637
20
46.0900771
40
1.868317
50
2.3307237
51
67.2486327
0
ARC
8
DEFAULT_255_2_778
10
122.3850487
20
46.0866497
40
1.8907547
50
359.9992107
51
2.4069998
0
ARC
8
DEFAULT_255_2_778
10
122.4036101
20
40.8139973
40
1.8721955
50
335.1472782
51
0.086496
0
ARC
8
DEFAULT_255_2_778
10
122.4145729
20
40.8064771
40
1.8590885
50
277.5840973
51
335.2155805
0
ARC
8
DEFAULT_255_2_778
10
122.4199659
20
40.8101594
40
1.8620358
50
269.9857709
51
277.4046503
0
ARC
8
DEFAULT_255_2_778
10
117.1868707
20
40.8033353
40
1.8552136
50
205.5165976
51
269.9176264
0
ARC
8
DEFAULT_255_2_778
10
117.2112521
20
40.8183976
40
1.8837078
50
202.3621297
51
205.610594
0
ARC
8
DEFAULT_255_2_778
10
117.2044957
20
40.8164505
40
1.8767188
50
187.4225556
51
202.385632
0
ARC
8
DEFAULT_255_2_778
10
117.2045929
20
40.8163259
40
1.8767991
50
183.2942712
51
187.4184006
0
ARC
8
DEFAULT_255_2_778
10
117.2068488
20
40.8164589
40
1.8790589
50
179.9997241
51
183.294369
0
ARC
8
DEFAULT_255_2_778
10
117.2034624
20
40.8176447
40
1.8756728
50
138.4770756
51
180.035946
0
ARC
8
DEFAULT_255_2_778
10
117.1999109
20
40.8185712
40
1.8724004
50
135.1872745
51
138.4262583
0
ARC
8
DEFAULT_255_2_778
10
122.4221489
20
40.6809573
40
2.0442353
50
269.9258543
51
294.279311
0
ARC
8
DEFAULT_255_2_778
10
122.4051016
20
40.7092526
40
2.0770413
50
294.3870284
51
348.0764588
0
ARC
8
DEFAULT_255_2_778
10
122.384111
20
40.7117359
40
2.0980928
50
348.1285366
51
0.0324354
0
ARC
8
DEFAULT_255_2_778
10
122.3985299
20
46.189948
40
2.0836739
50
359.9663346
51
33.0546485
0
ARC
8
DEFAULT_255_2_778
10
122.4140295
20
46.2019033
40
2.0641628
50
33.0111705
51
67.3541153
0
ARC
8
DEFAULT_255_2_778
10
122.4190412
20
46.2123225
40
2.0526174
50
67.3712416
51
81.2825361
0
ARC
8
DEFAULT_255_2_778
10
122.4198256
20
46.2157001
40
2.0491599
50
81.2899017
51
86.6525223
0
ARC
8
DEFAULT_255_2_778
10
122.4196688
20
46.2131899
40
2.051675
50
86.6522445
51
90.000337
0
ARC
8
DEFAULT_255_2_778
10
122.4192218
20
46.2116307
40
2.0532342
50
89.9878632
51
130.0846879
0
ARC
8
DEFAULT_255_2_778
10
122.4237008
20
46.2075996
40
2.0592029
50
130.1078135
51
135.2650833
0
ARC
8
DEFAULT_255_2_778
10
116.9918693
20
40.7187086
40
2.0742228
50
135.1709219
51
161.0001374
0
ARC
8
DEFAULT_255_2_778
10
117.0081744
20
40.7124376
40
2.0916814
50
160.9831298
51
179.9983046
0
ARC
8
DEFAULT_255_2_778
10
117.0044933
20
40.712488
40
2.0880003
50
179.9996841
51
183.2986215
0
ARC
8
DEFAULT_255_2_778
10
117.0005294
20
40.7121857
40
2.0840257
50
183.2965939
51
199.0565569
0
ARC
8
DEFAULT_255_2_778
10
117.0098187
20
40.71527
40
2.0938129
50
199.0533372
51
202.3720699
0
ARC
8
DEFAULT_255_2_778
10
116.9903535
20
40.7056817
40
2.072164
50
202.3317612
51
234.5003643
0
ARC
8
DEFAULT_255_2_778
10
116.9793159
20
40.6884483
40
2.0517247
50
234.4718391
51
270.0024441
0
ARC
8
DEFAULT_255_2_778
10
11.591538
20
1.5911459
40
1.7501346
50
180.0040012
51
239.9974572
0
ARC
8
DEFAULT_255_2_778
10
11.5910568
20
1.5899749
40
1.7488799
50
239.9919284
51
266.2970851
0
ARC
8
DEFAULT_255_2_778
10
11.5914941
20
1.5932913
40
1.7522175
50
266.2898188
51
269.9954016
0
LINE
8
DEFAULT_255_2_778
10
11.5913535
20
-0.1589263
11
11.5914985
21
-0.1589263
0
ARC
8
DEFAULT_255_2_778
10
11.5919131
20
1.5888207
40
1.7477471
50
269.9864091
51
298.5813216
0
ARC
8
DEFAULT_255_2_778
10
11.5889955
20
1.5941756
40
1.7538451
50
298.5813297
51
300.0145382
0
ARC
8
DEFAULT_255_2_778
10
11.5911364
20
1.5911647
40
1.7501672
50
300.0031561
51
359.9953831
0
ARC
8
DEFAULT_255_2_778
10
11.5915687
20
1.5911354
40
1.2500652
50
179.9913709
51
239.9929829
0
ARC
8
DEFAULT_255_2_778
10
11.5912777
20
1.5906355
40
1.2494868
50
239.9930726
51
270.0103523
0
ARC
8
DEFAULT_255_2_778
10
11.5917292
20
1.5906355
40
1.2494868
50
269.9896477
51
300.0069274
0
ARC
8
DEFAULT_255_2_778
10
11.5915592
20
1.5910655
40
1.2499443
50
300.0038191
51
359.9980811
0
ARC
8
DEFAULT_255_2_778
10
3.0916281
20
1.5910247
40
1.7499246
50
180.0000346
51
240.0014263
0
ARC
8
DEFAULT_255_2_778
10
3.0913568
20
1.5899749
40
1.7488799
50
239.9919284
51
266.2970851
0
ARC
8
DEFAULT_255_2_778
10
3.0917941
20
1.5932913
40
1.7522175
50
266.2898188
51
269.9954016
0
LINE
8
DEFAULT_255_2_778
10
3.0916535
20
-0.1589263
11
3.0917985
21
-0.1589263
0
ARC
8
DEFAULT_255_2_778
10
3.0922131
20
1.5888207
40
1.7477471
50
269.9864091
51
298.5813216
0
ARC
8
DEFAULT_255_2_778
10
3.0892955
20
1.5941756
40
1.7538451
50
298.5813297
51
300.0145382
0
ARC
8
DEFAULT_255_2_778
10
3.0912267
20
1.5912858
40
1.7503769
50
300.0071175
51
359.9914192
0
ARC
8
DEFAULT_255_2_778
10
3.091862
20
1.591247
40
1.2501585
50
179.9964858
51
239.9958068
0
ARC
8
DEFAULT_255_2_778
10
3.0915473
20
1.5905219
40
1.2493733
50
239.9916782
51
270.0094564
0
ARC
8
DEFAULT_255_2_778
10
3.0919597
20
1.5905219
40
1.2493733
50
269.9905436
51
300.0083218
0
ARC
8
DEFAULT_255_2_778
10
3.0919752
20
1.5910563
40
1.2498282
50
299.9954528
51
359.9985054
0
ARC
8
DEFAULT_255_2_778
10
7.343688
20
4.5911193
40
2.9980155
50
0.0019942
51
30.4821348
0
ARC
8
DEFAULT_255_2_778
10
7.3428558
20
4.5918687
40
2.9983527
50
30.4617265
51
60.0116661
0
ARC
8
DEFAULT_255_2_778
10
7.3422136
20
4.5929501
40
2.9977374
50
59.9907055
51
77.6934607
0
ARC
8
DEFAULT_255_2_778
10
7.3414402
20
4.5884465
40
3.0023023
50
77.6973587
51
89.9961686
0
LINE
8
DEFAULT_255_2_778
10
7.341641
20
7.5907487
11
7.3412802
21
7.5907487
0
ARC
8
DEFAULT_255_2_778
10
7.3409108
20
4.5917274
40
2.9990213
50
89.9929433
51
114.1554062
0
ARC
8
DEFAULT_255_2_778
10
7.3436079
20
4.5865874
40
3.0048149
50
114.1622241
51
119.9889263
0
ARC
8
DEFAULT_255_2_778
10
7.3406485
20
4.5923472
40
2.9983469
50
119.9949593
51
150.4765272
0
ARC
8
DEFAULT_255_2_778
10
7.3401479
20
4.5914685
40
2.9983444
50
150.457203
51
180.0104123
0
ARC
8
DEFAULT_255_2_778
10
7.3469187
20
4.5935113
40
2.4947862
50
359.9405721
51
20.7925967
0
ARC
8
DEFAULT_255_2_778
10
7.3391364
20
4.5875424
40
2.504182
50
20.8570611
51
79.5431969
0
ARC
8
DEFAULT_255_2_778
10
7.3425338
20
4.5761118
40
2.5148119
50
79.6665817
51
90.0211954
0
ARC
8
DEFAULT_255_2_778
10
7.3388456
20
4.5965221
40
2.4944031
50
89.9366533
51
110.7907551
0
ARC
8
DEFAULT_255_2_778
10
7.344949
20
4.5884141
40
2.5041512
50
110.855459
51
169.5420821
0
ARC
8
DEFAULT_255_2_778
10
7.356244
20
4.5918508
40
2.5146407
50
169.6657994
51
180.0211239
0
LINE
8
DEFAULT_255_2_778
10
1.2242035
20
16.8959237
11
1.2242035
21
10.9930237
0
LINE
8
DEFAULT_255_2_778
10
1.2242035
20
10.9930237
11
1.2353035
21
10.8800237
0
LINE
8
DEFAULT_255_2_778
10
1.2353035
20
10.8800237
11
1.3261035
21
10.6909237
0
LINE
8
DEFAULT_255_2_778
10
1.3261035
20
10.6909237
11
1.3705035
21
10.6419237
0
LINE
8
DEFAULT_255_2_778
10
1.3705035
20
10.6419237
11
1.4652035
21
10.5654237
0
LINE
8
DEFAULT_255_2_778
10
1.4652035
20
10.5654237
11
1.6232035
21
10.5051237
0
LINE
8
DEFAULT_255_2_778
10
1.6232035
20
10.5051237
11
1.7240035
21
10.4967237
0
LINE
8
DEFAULT_255_2_778
10
14.2242035
20
98.1118237
11
14.2242035
21
98.9585237
0
LINE
8
DEFAULT_255_2_778
10
113.4684035
20
63.1842237
11
112.8183035
21
62.5301237
0
LINE
8
DEFAULT_255_2_778
10
112.8183035
20
62.5301237
11
118.9087035
21
56.4034237
0
LINE
8
DEFAULT_255_2_778
10
118.9087035
20
52.1500237
11
112.8183035
21
46.0233237
0
LINE
8
DEFAULT_255_2_778
10
108.5897035
20
46.0233237
11
102.4993035
21
52.1500237
0
LINE
8
DEFAULT_255_2_778
10
102.4993035
20
56.4034237
11
108.5897035
21
62.5301237
0
LINE
8
DEFAULT_255_2_778
10
108.5897035
20
62.5301237
11
107.9397035
21
63.1842237
0
LINE
8
DEFAULT_255_2_778
10
113.0533035
20
62.7664237
11
119.1440035
21
56.6397237
0
LINE
8
DEFAULT_255_2_778
10
119.1440035
20
51.9137237
11
113.0533035
21
45.7870237
0
LINE
8
DEFAULT_255_2_778
10
108.3550035
20
45.7870237
11
102.2643035
21
51.9137237
0
LINE
8
DEFAULT_255_2_778
10
102.2643035
20
56.6397237
11
108.3550035
21
62.7664237
0
LINE
8
DEFAULT_255_2_778
10
108.3550035
20
63.6020237
11
101.4338035
21
56.6400237
0
LINE
8
DEFAULT_255_2_778
10
101.4338035
20
51.9140237
11
108.3550035
21
44.9520237
0
LINE
8
DEFAULT_255_2_778
10
113.0533035
20
44.9520237
11
119.9745035
21
51.9140237
0
LINE
8
DEFAULT_255_2_778
10
119.9745035
20
56.6400237
11
113.0533035
21
63.6020237
0
LINE
8
DEFAULT_255_2_778
10
101.8492035
20
57.0575237
11
102.4993035
21
56.4034237
0
LINE
8
DEFAULT_255_2_778
10
102.4993035
20
52.1500237
11
101.8492035
21
51.4960237
0
LINE
8
DEFAULT_255_2_778
10
119.5591035
20
51.4960237
11
118.9090035
21
52.1500237
0
LINE
8
DEFAULT_255_2_778
10
118.9090035
20
56.4034237
11
119.5591035
21
57.0575237
0
LINE
8
DEFAULT_255_2_778
10
112.8183035
20
46.0233237
11
113.4684035
21
45.3693237
0
LINE
8
DEFAULT_255_2_778
10
107.9397035
20
45.3693237
11
108.5897035
21
46.0233237
0
LINE
8
DEFAULT_255_2_778
10
122.4192035
20
69.2940237
11
117.1839035
21
69.2940237
0
LINE
8
DEFAULT_255_2_778
10
123.9663035
20
62.4669237
11
124.4819035
21
62.4669237
0
LINE
8
DEFAULT_255_2_778
10
124.4819035
20
67.7366237
11
123.9663035
21
67.7366237
0
LINE
8
DEFAULT_255_2_778
10
117.1837035
20
69.6054237
11
122.4190035
21
69.6054237
0
LINE
8
DEFAULT_255_2_778
10
124.2753035
20
67.7366237
11
124.2753035
21
62.4669237
0
LINE
8
DEFAULT_255_2_778
10
121.1064035
20
61.1456237
11
115.8711035
21
66.4153237
0
LINE
8
DEFAULT_255_2_778
10
116.0899035
20
66.6354237
11
115.6745035
21
66.2171237
0
LINE
8
DEFAULT_255_2_778
10
120.9098035
20
60.9474237
11
121.3252035
21
61.3657237
0
LINE
8
DEFAULT_255_2_778
10
117.1837035
20
69.9168237
11
117.1837035
21
69.2940237
0
LINE
8
DEFAULT_255_2_778
10
116.0899035
20
66.6357237
11
121.3252035
21
61.3660237
0
LINE
8
DEFAULT_255_2_778
10
123.9660035
20
62.4672237
11
123.9660035
21
67.7369237
0
LINE
8
DEFAULT_255_2_778
10
122.4187035
20
69.2942237
11
122.4187035
21
69.9170237
0
LINE
8
DEFAULT_255_2_778
10
122.4187035
20
69.9170237
11
116.9786035
21
69.9170237
0
LINE
8
DEFAULT_255_2_778
10
115.5200035
20
66.3727237
11
120.9601035
21
60.8969237
0
LINE
8
DEFAULT_255_2_778
10
124.4814035
20
62.3650237
11
124.4814035
21
67.8409237
0
LINE
8
DEFAULT_255_2_778
10
123.9663035
20
40.8168237
11
124.4819035
21
40.8168237
0
LINE
8
DEFAULT_255_2_778
10
124.4819035
20
46.0866237
11
123.9663035
21
46.0866237
0
LINE
8
DEFAULT_255_2_778
10
121.3254035
20
47.1875237
11
116.0901035
21
41.9178237
0
LINE
8
DEFAULT_255_2_778
10
117.1839035
20
39.2595237
11
122.4192035
21
39.2595237
0
LINE
8
DEFAULT_255_2_778
10
123.9665035
20
40.8168237
11
123.9665035
21
46.0866237
0
LINE
8
DEFAULT_255_2_778
10
124.2758035
20
46.0866237
11
124.2758035
21
40.8168237
0
LINE
8
DEFAULT_255_2_778
10
122.4195035
20
38.9481237
11
117.1842035
21
38.9481237
0
LINE
8
DEFAULT_255_2_778
10
115.8716035
20
42.1382237
11
121.1069035
21
47.4079237
0
LINE
8
DEFAULT_255_2_778
10
117.1842035
20
39.2595237
11
117.1842035
21
38.6367237
0
LINE
8
DEFAULT_255_2_778
10
124.4822035
20
40.7129237
11
124.4822035
21
46.1887237
0
LINE
8
DEFAULT_255_2_778
10
120.9609035
20
47.6569237
11
115.5208035
21
42.1810237
0
LINE
8
DEFAULT_255_2_778
10
116.9794035
20
38.6367237
11
122.4195035
21
38.6367237
0
LINE
8
DEFAULT_255_2_778
10
122.4195035
20
38.6367237
11
122.4195035
21
39.2595237
0
LINE
8
DEFAULT_255_2_778
10
121.3257035
20
47.1877237
11
120.9103035
21
47.6060237
0
LINE
8
DEFAULT_255_2_778
10
115.6750035
20
42.3363237
11
116.0904035
21
41.9180237
0
LINE
8
DEFAULT_255_2_778
10
11.9311035
20
9.5907237
11
11.9319035
21
9.3153237
0
LINE
8
DEFAULT_255_2_778
10
11.9319035
20
9.3153237
11
2.7397035
21
9.3153237
0
LINE
8
DEFAULT_255_2_778
10
2.7397035
20
9.3153237
11
2.7405035
21
9.5907237
0
LINE
8
DEFAULT_255_2_778
10
2.3415035
20
9.5910237
11
2.3415035
21
4.5909237
0
LINE
8
DEFAULT_255_2_778
10
2.3415035
20
4.5909237
11
1.3414035
21
4.5909237
0
LINE
8
DEFAULT_255_2_778
10
2.3415035
20
8.7909237
11
1.3414035
21
8.7909237
0
LINE
8
DEFAULT_255_2_778
10
12.3415035
20
9.5910237
11
12.3415035
21
4.5909237
0
LINE
8
DEFAULT_255_2_778
10
12.3415035
20
4.5909237
11
13.3413035
21
4.5909237
0
LINE
8
DEFAULT_255_2_778
10
12.3415035
20
8.7909237
11
13.3413035
21
8.7909237
0
LINE
8
DEFAULT_255_2_778
10
4.3413035
20
4.5909237
11
4.8413035
21
4.5909237
0
LINE
8
DEFAULT_255_2_778
10
4.8413035
20
4.5909237
11
4.8413035
21
1.5908237
0
LINE
8
DEFAULT_255_2_778
10
4.8413035
20
1.5908237
11
4.3413035
21
1.5908237
0
LINE
8
DEFAULT_255_2_778
10
4.3413035
20
1.5908237
11
4.3413035
21
4.5909237
0
LINE
8
DEFAULT_255_2_778
10
1.8412035
20
4.5909237
11
1.8412035
21
1.5910237
0
LINE
8
DEFAULT_255_2_778
10
1.8412035
20
1.5910237
11
1.3411035
21
1.5910237
0
LINE
8
DEFAULT_255_2_778
10
1.3411035
20
1.5910237
11
1.3411035
21
9.5910237
0
LINE
8
DEFAULT_255_2_778
10
10.3412035
20
1.5910237
11
9.8412035
21
1.5910237
0
LINE
8
DEFAULT_255_2_778
10
9.8412035
20
1.5910237
11
9.8412035
21
4.5912237
0
LINE
8
DEFAULT_255_2_778
10
9.8412035
20
4.5912237
11
10.3412035
21
4.5912237
0
LINE
8
DEFAULT_255_2_778
10
10.3412035
20
4.5912237
11
10.3412035
21
1.5910237
0
LINE
8
DEFAULT_255_2_778
10
13.3413035
20
9.5910237
11
13.3413035
21
1.5910237
0
LINE
8
DEFAULT_255_2_778
10
13.3413035
20
1.5910237
11
12.8413035
21
1.5910237
0
LINE
8
DEFAULT_255_2_778
10
12.8413035
20
1.5910237
11
12.8413035
21
4.5912237
0
LINE
8
DEFAULT_255_2_778
10
23.1206037
20
10.954943
11
22.7788037
21
12.775843
0
LINE
8
DEFAULT_255_2_778
10
12.7664037
20
12.775843
11
22.7788037
21
12.775843
0
LINE
8
DEFAULT_255_2_778
10
23.0375037
20
12.775843
11
19.6921037
21
30.564043
0
LINE
8
DEFAULT_255_2_778
10
19.6921037
20
30.564043
11
19.4437037
21
30.535943
0
LINE
8
DEFAULT_255_2_778
10
19.4437037
20
30.535943
11
22.7788037
21
12.775843
0
LINE
8
DEFAULT_255_2_778
10
23.3844037
20
10.931943
11
23.0375037
21
12.775843
0
ARC
8
DEFAULT_255_2_778
10
7.298856
20
103.9718336
40
6.0225958
50
359.9668139
51
12.2590519
0
ARC
8
DEFAULT_255_2_778
10
7.3596457
20
103.9822023
40
5.9609915
50
12.285728
51
29.8656809
0
ARC
8
DEFAULT_255_2_778
10
7.3082692
20
103.9540613
40
6.0195585
50
29.8544478
51
70.1249482
0
ARC
8
DEFAULT_255_2_778
10
7.3339577
20
104.0016466
40
5.9660794
50
70.2015929
51
84.3979194
0
ARC
8
DEFAULT_255_2_778
10
7.3224779
20
103.8966767
40
6.0716688
50
84.3868043
51
90.0087489
0
ARC
8
DEFAULT_255_2_778
10
7.3180616
20
103.9457676
40
6.0225787
50
89.966805
51
102.2590784
0
ARC
8
DEFAULT_255_2_778
10
7.3076824
20
104.0065948
40
5.9609355
50
102.2857327
51
119.8658636
0
ARC
8
DEFAULT_255_2_778
10
7.3358647
20
103.9551642
40
6.0195699
50
119.8547137
51
160.125482
0
ARC
8
DEFAULT_255_2_778
10
7.2884837
20
103.9807651
40
5.966313
50
160.2020046
51
174.3980993
0
ARC
8
DEFAULT_255_2_778
10
7.3935559
20
103.969273
40
6.0720054
50
174.3869594
51
180.0087535
0
ARC
8
DEFAULT_255_2_778
10
7.3038485
20
103.9711066
40
5.517803
50
359.9713273
51
12.9790064
0
ARC
8
DEFAULT_255_2_778
10
7.3524914
20
103.9791465
40
5.468598
50
13.0113847
51
32.0427884
0
ARC
8
DEFAULT_255_2_778
10
7.3095971
20
103.9553171
40
5.5176008
50
32.0162197
51
70.1476458
0
ARC
8
DEFAULT_255_2_778
10
7.332039
20
103.9962503
40
5.4714836
50
70.2231199
51
85.0242583
0
ARC
8
DEFAULT_255_2_778
10
7.3217992
20
103.8962691
40
5.5719762
50
85.0085312
51
89.9994697
0
ARC
8
DEFAULT_255_2_778
10
7.3183733
20
103.9512235
40
5.5170229
50
89.9638847
51
102.9739614
0
ARC
8
DEFAULT_255_2_778
10
7.3105423
20
103.9991225
40
5.4685895
50
103.0066785
51
122.1886458
0
ARC
8
DEFAULT_255_2_778
10
7.3341262
20
103.9565436
40
5.5171879
50
122.1603662
51
160.1994914
0
ARC
8
DEFAULT_255_2_778
10
7.2926416
20
103.979206
40
5.4704839
50
160.2756323
51
175.0431214
0
ARC
8
DEFAULT_255_2_778
10
7.3922831
20
103.9690291
40
5.5706323
50
175.027393
51
180.007033
0
ARC
8
DEFAULT_255_2_778
10
7.3162493
20
103.9647831
40
2.3053043
50
338.5929557
51
0.0885339
0
ARC
8
DEFAULT_255_2_778
10
7.3267778
20
103.9635302
40
2.2950465
50
280.5049991
51
338.5261407
0
ARC
8
DEFAULT_255_2_778
10
7.3227814
20
103.9987985
40
2.3304535
50
269.969746
51
280.4435177
0
ARC
8
DEFAULT_255_2_778
10
7.3179886
20
103.9736468
40
2.3053043
50
248.5929557
51
270.0885339
0
ARC
8
DEFAULT_255_2_778
10
7.3167357
20
103.9631183
40
2.2950465
50
190.5049991
51
248.5261407
0
ARC
8
DEFAULT_255_2_778
10
7.352004
20
103.9671147
40
2.3304535
50
179.969746
51
190.4435177
0
ARC
8
DEFAULT_255_2_778
10
7.327107
20
103.9719145
40
2.3055589
50
158.5941526
51
180.0886985
0
ARC
8
DEFAULT_255_2_778
10
7.316328
20
103.9732816
40
2.2950262
50
100.505199
51
158.5277145
0
ARC
8
DEFAULT_255_2_778
10
7.3203235
20
103.9379685
40
2.3304772
50
89.9698261
51
100.4434915
0
ARC
8
DEFAULT_255_2_778
10
7.3251139
20
103.9631651
40
2.305283
50
68.5927731
51
90.0885586
0
ARC
8
DEFAULT_255_2_778
10
7.3263315
20
103.9736594
40
2.2950699
50
10.5034509
51
68.5254477
0
ARC
8
DEFAULT_255_2_778
10
7.2907845
20
103.9695775
40
2.3307666
50
359.969709
51
10.4428162
0
LINE
8
DEFAULT_255_2_778
10
6.5100508
20
9.5912453
11
27.4412508
21
9.5912453
0
LINE
8
DEFAULT_255_2_778
10
27.4412508
20
9.5912453
11
27.3848508
21
12.7757453
0
LINE
8
DEFAULT_255_2_778
10
27.3848508
20
12.7757453
11
23.0375508
21
12.7757453
0
LINE
8
DEFAULT_255_2_778
10
9.6215508
20
103.9683453
11
9.6215508
21
103.9683453
0
LINE
8
DEFAULT_255_2_778
10
12.3216508
20
98.9682453
11
12.3216508
21
103.9683453
0
LINE
8
DEFAULT_255_2_778
10
12.3216508
20
103.9683453
11
13.3214508
21
103.9683453
0
LINE
8
DEFAULT_255_2_778
10
13.3214508
20
103.9683453
11
13.3214508
21
98.9682453
0
LINE
8
DEFAULT_255_2_778
10
12.3216508
20
99.7683453
11
13.3214508
21
99.7683453
0
LINE
8
DEFAULT_255_2_778
10
2.3214508
20
99.7683453
11
1.3215508
21
99.7683453
0
LINE
8
DEFAULT_255_2_778
10
2.3214508
20
98.9682453
11
2.3214508
21
103.9683453
0
LINE
8
DEFAULT_255_2_778
10
2.3214508
20
103.9683453
11
1.3215508
21
103.9683453
0
LINE
8
DEFAULT_255_2_778
10
1.3215508
20
103.9683453
11
1.3215508
21
98.9682453
0
LINE
8
DEFAULT_255_2_778
10
1.2308508
20
98.9587453
11
1.2239508
21
98.0972453
0
ARC
8
DEFAULT_255_2_778
10
1.1931248
20
98.1331808
40
0.8219895
50
87.7954187
51
90.0024927
0
ARC
8
DEFAULT_255_2_778
10
1.1931076
20
98.122291
40
0.8328793
50
90.0012742
51
91.4195088
0
ARC
8
DEFAULT_255_2_778
10
1.2177188
20
97.9683156
40
0.9876359
50
92.6256481
51
139.3597808
0
ARC
8
DEFAULT_255_2_778
10
1.1983233
20
97.9669345
40
0.9739139
50
138.5549298
51
175.0456611
0
ARC
8
DEFAULT_255_2_778
10
1.2033678
20
97.9687872
40
0.9787823
50
175.1792119
51
179.3692597
0
LINE
8
DEFAULT_255_2_778
10
22.4525449
20
98.9529619
11
1.2305449
21
98.9587619
0
LINE
8
DEFAULT_255_2_778
10
22.2318449
20
98.0758619
11
22.4522449
21
98.9513619
0
LINE
8
DEFAULT_255_2_778
10
0.2246449
20
97.9795619
11
0.2246449
21
74.4546619
0
ARC
8
DEFAULT_255_2_778
10
1.8142839
20
97.270762
40
0.8357422
50
98.7426428
51
111.1484062
0
ARC
8
DEFAULT_255_2_778
10
1.6595842
20
97.6734719
40
0.4043432
50
111.2916846
51
166.4959678
0
ARC
8
DEFAULT_255_2_778
10
2.7456591
20
97.3038659
40
1.5503126
50
162.583771
51
168.8224573
0
LINE
8
DEFAULT_255_2_778
10
1.2239868
20
98.0973075
11
1.2310868
21
75.0619075
0
LINE
8
DEFAULT_255_2_778
10
1.2310868
20
75.0619075
11
18.8965868
21
75.0619075
0
LINE
8
DEFAULT_255_2_778
10
18.8965868
20
75.0619075
11
18.9764868
21
75.7932075
0
LINE
8
DEFAULT_255_2_778
10
18.9764868
20
75.7932075
11
18.9986868
21
80.2657075
0
LINE
8
DEFAULT_255_2_778
10
18.9986868
20
80.2657075
11
20.2763868
21
88.4593075
0
LINE
8
DEFAULT_255_2_778
10
20.2763868
20
88.4593075
11
22.2382868
21
98.0970075
0
LINE
8
DEFAULT_255_2_778
10
22.2382868
20
98.0970075
11
1.2239868
21
98.0973075
0
LINE
8
DEFAULT_255_2_778
10
24.0553868
20
97.1866075
11
23.9288868
21
96.5804075
0
LINE
8
DEFAULT_255_2_778
10
23.9288868
20
96.5804075
11
23.7950868
21
95.9743075
0
LINE
8
DEFAULT_255_2_778
10
23.7950868
20
95.9743075
11
23.5418868
21
94.7620075
0
LINE
8
DEFAULT_255_2_778
10
23.5418868
20
94.7620075
11
23.4227868
21
94.1558075
0
LINE
8
DEFAULT_255_2_778
10
23.4227868
20
94.1558075
11
23.2962868
21
93.5496075
0
LINE
8
DEFAULT_255_2_778
10
23.2962868
20
93.5496075
11
23.0581868
21
92.3373075
0
LINE
8
DEFAULT_255_2_778
10
23.0581868
20
92.3373075
11
22.9838868
21
91.9158075
0
LINE
8
DEFAULT_255_2_778
10
22.9838868
20
91.9158075
11
22.9020868
21
91.5018075
0
LINE
8
DEFAULT_255_2_778
10
22.9020868
20
91.5018075
11
22.8277868
21
91.0803075
0
LINE
8
DEFAULT_255_2_778
10
22.8277868
20
91.0803075
11
22.7456868
21
90.6662075
0
LINE
8
DEFAULT_255_2_778
10
22.7456868
20
90.6662075
11
22.6713868
21
90.2447075
0
LINE
8
DEFAULT_255_2_778
10
22.6713868
20
90.2447075
11
22.5969868
21
89.8307075
0
LINE
8
DEFAULT_255_2_778
10
22.5969868
20
89.8307075
11
22.5226868
21
89.4092075
0
LINE
8
DEFAULT_255_2_778
10
22.5226868
20
89.4092075
11
22.4482868
21
88.9951075
0
LINE
8
DEFAULT_255_2_778
10
22.4482868
20
88.9951075
11
22.3739868
21
88.5736075
0
LINE
8
DEFAULT_255_2_778
10
22.3739868
20
88.5736075
11
22.3070868
21
88.1521075
0
LINE
8
DEFAULT_255_2_778
10
22.3070868
20
88.1521075
11
22.2326868
21
87.7381075
0
LINE
8
DEFAULT_255_2_778
10
22.2326868
20
87.7381075
11
22.1657868
21
87.3166075
0
LINE
8
DEFAULT_255_2_778
10
22.1657868
20
87.3166075
11
22.0913868
21
86.8951075
0
LINE
8
DEFAULT_255_2_778
10
22.0913868
20
86.8951075
11
22.0244868
21
86.4810075
0
LINE
8
DEFAULT_255_2_778
10
22.0244868
20
86.4810075
11
21.8905868
21
85.6383075
0
LINE
8
DEFAULT_255_2_778
10
21.8905868
20
85.6383075
11
21.8310868
21
85.2243075
0
LINE
8
DEFAULT_255_2_778
10
21.8310868
20
85.2243075
11
21.6968868
21
84.3816075
0
LINE
8
DEFAULT_255_2_778
10
21.6968868
20
84.3816075
11
21.6373868
21
83.9675075
0
LINE
8
DEFAULT_255_2_778
10
21.6373868
20
83.9675075
11
21.5778868
21
83.5460075
0
LINE
8
DEFAULT_255_2_778
10
21.5778868
20
83.5460075
11
21.5108868
21
83.1245075
0
LINE
8
DEFAULT_255_2_778
10
21.5108868
20
83.1245075
11
21.4513868
21
82.7030075
0
LINE
8
DEFAULT_255_2_778
10
21.4513868
20
82.7030075
11
21.3992868
21
82.2890075
0
LINE
8
DEFAULT_255_2_778
10
21.3992868
20
82.2890075
11
21.2206868
21
80.9878075
0
ARC
8
DEFAULT_255_2_778
10
23.3821185
20
98.0892916
40
0.8031273
50
87.8564346
51
108.5086052
0
ARC
8
DEFAULT_255_2_778
10
23.2897485
20
98.4231217
40
0.4576109
50
110.8106551
51
145.1451758
0
ARC
8
DEFAULT_255_2_778
10
23.5886179
20
98.2069424
40
0.8264364
50
144.6880326
51
158.5002465
0
ARC
8
DEFAULT_255_2_778
10
24.2946458
20
97.918636
40
1.58903
50
158.1581154
51
165.7091411
0
ARC
8
DEFAULT_255_2_778
10
25.4173881
20
97.6227745
40
2.7500775
50
165.509893
51
169.6499688
0
LINE
8
DEFAULT_255_2_778
10
22.1675583
20
95.1387569
11
23.5788583
21
95.1387569
0
ARC
8
DEFAULT_255_2_778
10
23.2971339
20
98.3032178
40
0.4650591
50
94.3115545
51
109.897603
0
ARC
8
DEFAULT_255_2_778
10
23.3116773
20
98.2573628
40
0.51313
50
109.6819699
51
112.8173013
0
ARC
8
DEFAULT_255_2_778
10
23.339205
20
98.2012295
40
0.5755569
50
113.176219
51
135.2539566
0
ARC
8
DEFAULT_255_2_778
10
23.4399843
20
98.1007519
40
0.7178668
50
135.2206337
51
152.6555911
0
ARC
8
DEFAULT_255_2_778
10
23.5780728
20
98.0239562
40
0.8758136
50
152.3425314
51
158.7025123
0
LINE
8
DEFAULT_255_2_778
10
23.252141
20
98.7545325
11
23.274641
21
98.8794325
0
LINE
8
DEFAULT_255_2_778
10
174.730841
20
97.3787325
11
24.300941
21
97.3787325
0
LINE
8
DEFAULT_255_2_778
10
23.549841
20
94.7979325
11
23.660941
21
96.2031325
0
LINE
8
DEFAULT_255_2_778
10
23.660941
20
96.2031325
11
23.914141
21
97.3639325
0
LINE
8
DEFAULT_255_2_778
10
39.004641
20
97.4824325
11
38.855641
21
97.5562325
0
LINE
8
DEFAULT_255_2_778
10
38.855641
20
97.5562325
11
24.159641
21
97.5562325
0
ARC
8
DEFAULT_255_2_778
10
24.1737631
20
97.0762851
40
0.4785074
50
87.6348679
51
89.9799623
0
ARC
8
DEFAULT_255_2_778
10
24.1590089
20
97.2858791
40
0.269327
50
86.8240121
51
129.5787835
0
ARC
8
DEFAULT_255_2_778
10
24.1773527
20
97.2959788
40
0.2740037
50
133.8848477
51
170.3179612
0
ARC
8
DEFAULT_255_2_778
10
24.3393826
20
97.2491321
40
0.4420098
50
167.8634976
51
168.7207863
0
ARC
8
DEFAULT_255_2_778
10
24.3235351
20
96.9000191
40
0.4798734
50
87.6382509
51
89.9818794
0
ARC
8
DEFAULT_255_2_778
10
24.3081227
20
97.1047762
40
0.2755562
50
86.762053
51
131.5231572
0
ARC
8
DEFAULT_255_2_778
10
24.3240255
20
97.1166265
40
0.2779299
50
135.6005885
51
170.878786
0
LINE
8
DEFAULT_255_2_778
10
20.19141
20
84.5831849
11
19.69271
21
81.0856849
0
LINE
8
DEFAULT_255_2_778
10
20.19141
20
81.0943849
11
20.19141
21
84.5831849
0
LINE
8
DEFAULT_255_2_778
10
22.71321
20
98.1155849
11
20.19141
21
84.5829849
0
LINE
8
DEFAULT_255_2_778
10
20.45951
20
76.1323849
11
21.21911
21
76.1323849
0
LINE
8
DEFAULT_255_2_778
10
20.19141
20
76.1323849
11
20.45951
21
76.1323849
0
LINE
8
DEFAULT_255_2_778
10
20.4593923
20
76.5020309
11
20.4593923
21
76.7533309
0
LINE
8
DEFAULT_255_2_778
10
20.4593923
20
76.7533309
11
21.2041923
21
76.7533309
0
LINE
8
DEFAULT_255_2_778
10
21.2187923
20
76.1376309
11
21.2187923
21
80.9893309
0
LINE
8
DEFAULT_255_2_778
10
172.2219923
20
76.2064309
11
21.2187923
21
76.2064309
0
LINE
8
DEFAULT_255_2_778
10
20.4593923
20
76.3025309
11
21.2052923
21
76.3025309
0
ARC
8
DEFAULT_255_2_778
10
20.2225296
20
76.6260699
40
0.530403
50
180.3150747
51
204.5169892
0
ARC
8
DEFAULT_255_2_778
10
20.164934
20
76.6099562
40
0.4714043
50
205.6400079
51
256.2921339
0
ARC
8
DEFAULT_255_2_778
10
20.1867969
20
76.6628793
40
0.5280725
50
255.3482649
51
262.852398
0
ARC
8
DEFAULT_255_2_778
10
20.1858106
20
76.6539687
40
0.5191084
50
262.838041
51
269.9768172
0
ARC
8
DEFAULT_255_2_778
10
20.1856502
20
76.6374675
40
0.5026072
50
269.9943463
51
273.0091297
0
ARC
8
DEFAULT_255_2_778
10
0.4935648
20
75.4854638
40
0.2715061
50
187.8986384
51
239.413496
0
ARC
8
DEFAULT_255_2_778
10
0.7790418
20
75.894505
40
0.7698157
50
236.6123772
51
252.8289104
0
ARC
8
DEFAULT_255_2_778
10
1.0768653
20
76.8220298
40
1.7439564
50
252.4767367
51
262.8893397
0
ARC
8
DEFAULT_255_2_778
10
1.2315615
20
77.9085434
40
2.8413263
50
262.5059743
51
268.3019664
0
ARC
8
DEFAULT_255_2_778
10
1.2494483
20
78.3010176
40
3.2341644
50
268.1912573
51
270.0032996
0
ARC
8
DEFAULT_255_2_778
10
0.4935648
20
74.7229638
40
0.2715061
50
187.8986384
51
239.413496
0
ARC
8
DEFAULT_255_2_778
10
0.7790418
20
75.132005
40
0.7698157
50
236.6123772
51
252.8289104
0
ARC
8
DEFAULT_255_2_778
10
1.0768653
20
76.0595298
40
1.7439564
50
252.4767367
51
262.8893397
0
ARC
8
DEFAULT_255_2_778
10
1.2315615
20
77.1460434
40
2.8413263
50
262.5059743
51
268.3019664
0
ARC
8
DEFAULT_255_2_778
10
1.2494483
20
77.5385176
40
3.2341644
50
268.1912573
51
270.0032996
0
LINE
8
DEFAULT_255_2_778
10
20.4594346
20
76.5019532
11
21.2042346
21
76.5019532
0
LINE
8
DEFAULT_255_2_778
10
20.4594346
20
76.3024532
11
20.4594346
21
76.5019532
0
LINE
8
DEFAULT_255_2_778
10
20.4594346
20
76.1355532
11
20.4594346
21
76.3024532
0
LINE
8
DEFAULT_255_2_778
10
1.2247346
20
74.3043532
11
18.7997346
21
74.3043532
0
LINE
8
DEFAULT_255_2_778
10
176.2199346
20
98.0570532
11
176.3850346
21
98.7510532
0
LINE
8
DEFAULT_255_2_778
10
176.6731346
20
97.7212532
11
176.7633346
21
98.1623532
0
LINE
8
DEFAULT_255_2_778
10
176.6739346
20
97.7263532
11
176.5175346
21
97.0389532
0
LINE
8
DEFAULT_255_2_778
10
176.5175346
20
97.0389532
11
176.3686346
21
96.3515532
0
LINE
8
DEFAULT_255_2_778
10
176.3686346
20
96.3515532
11
176.2270346
21
95.6567532
0
LINE
8
DEFAULT_255_2_778
10
176.2270346
20
95.6567532
11
176.0855346
21
94.9690532
0
LINE
8
DEFAULT_255_2_778
10
176.0855346
20
94.9690532
11
175.9439346
21
94.2742532
0
LINE
8
DEFAULT_255_2_778
10
175.9439346
20
94.2742532
11
175.8024346
21
93.5866532
0
LINE
8
DEFAULT_255_2_778
10
175.8024346
20
93.5866532
11
175.6685346
21
92.8918532
0
LINE
8
DEFAULT_255_2_778
10
175.6685346
20
92.8918532
11
175.5346346
21
92.2041532
0
LINE
8
DEFAULT_255_2_778
10
175.5346346
20
92.2041532
11
175.4081346
21
91.5094532
0
LINE
8
DEFAULT_255_2_778
10
175.4081346
20
91.5094532
11
175.2740346
21
90.8146532
0
LINE
8
DEFAULT_255_2_778
10
175.2740346
20
90.8146532
11
175.1475346
21
90.1198532
0
LINE
8
DEFAULT_255_2_778
10
175.1475346
20
90.1198532
11
175.0285346
21
89.4250532
0
LINE
8
DEFAULT_255_2_778
10
175.0285346
20
89.4250532
11
174.9094346
21
88.7376532
0
LINE
8
DEFAULT_255_2_778
10
174.9094346
20
88.7376532
11
174.6713346
21
87.3477532
0
LINE
8
DEFAULT_255_2_778
10
174.6713346
20
87.3477532
11
174.4480346
21
85.9579532
0
LINE
8
DEFAULT_255_2_778
10
174.4480346
20
85.9579532
11
174.0310346
21
83.1782532
0
LINE
8
DEFAULT_255_2_778
10
174.0310346
20
83.1782532
11
173.8373346
21
81.7883532
0
LINE
8
DEFAULT_255_2_778
10
173.8373346
20
81.7883532
11
173.7479346
21
81.0861532
0
ARC
8
DEFAULT_255_2_778
10
176.2871541
20
98.2438122
40
0.5104569
50
86.2608715
51
89.9980025
0
ARC
8
DEFAULT_255_2_778
10
176.2964968
20
98.2809941
40
0.4727954
50
31.3216887
51
87.0968391
0
ARC
8
DEFAULT_255_2_778
10
176.2349508
20
98.2556479
40
0.538647
50
5.3493058
51
30.2215456
0
ARC
8
DEFAULT_255_2_778
10
176.065769
20
98.2310749
40
0.7094362
50
359.9233487
51
6.0514434
0
ARC
8
DEFAULT_255_2_778
10
175.9895049
20
98.2302323
40
0.7856996
50
358.0990327
51
359.9922267
0
ARC
8
DEFAULT_255_2_778
10
176.2974887
20
98.4173002
40
0.4745749
50
78.8943882
51
89.7122643
0
ARC
8
DEFAULT_255_2_778
10
176.2837747
20
98.3393814
40
0.5536784
50
69.9786243
51
79.0549297
0
ARC
8
DEFAULT_255_2_778
10
176.304031
20
98.3791381
40
0.509418
50
38.8400081
51
70.5883079
0
ARC
8
DEFAULT_255_2_778
10
176.3401729
20
98.4166135
40
0.457811
50
12.423845
51
38.0235807
0
ARC
8
DEFAULT_255_2_778
10
176.2411482
20
98.39378
40
0.5594301
50
359.7418981
51
12.5256958
0
ARC
8
DEFAULT_255_2_778
10
176.1039478
20
98.3926333
40
0.6966261
50
352.7694557
51
359.8870488
0
ARC
8
DEFAULT_255_2_778
10
175.9531465
20
98.4115477
40
0.848609
50
346.8143191
51
352.7840486
0
ARC
8
DEFAULT_255_2_778
10
175.7953758
20
98.447524
40
1.0104271
50
343.1402045
51
346.868807
0
LINE
8
DEFAULT_255_2_778
10
176.2794719
20
98.7611691
11
176.1826719
21
97.8962691
0
LINE
8
DEFAULT_255_2_778
10
176.1826719
20
97.8962691
11
176.6739719
21
97.7260691
0
LINE
8
DEFAULT_255_2_778
10
22.6819719
20
97.9343691
11
23.1544719
21
97.8962691
0
LINE
8
DEFAULT_255_2_778
10
23.1544719
20
97.8962691
11
23.2513719
21
98.7611691
0
LINE
8
DEFAULT_255_2_778
10
23.2513719
20
98.7611691
11
176.2794719
21
98.7611691
0
LINE
8
DEFAULT_255_2_778
10
179.2232719
20
74.3983691
11
179.2070719
21
98.0917691
0
LINE
8
DEFAULT_255_2_778
10
177.2237838
20
98.102314
11
176.8784838
21
96.617714
0
LINE
8
DEFAULT_255_2_778
10
176.8784838
20
96.617714
11
176.6397838
21
95.507514
0
LINE
8
DEFAULT_255_2_778
10
176.6397838
20
95.507514
11
176.4850838
21
94.766714
0
LINE
8
DEFAULT_255_2_778
10
176.4850838
20
94.766714
11
176.4098838
21
94.395214
0
LINE
8
DEFAULT_255_2_778
10
176.4098838
20
94.395214
11
176.3326838
21
94.023714
0
LINE
8
DEFAULT_255_2_778
10
176.3326838
20
94.023714
11
176.2595838
21
93.654414
0
LINE
8
DEFAULT_255_2_778
10
176.2595838
20
93.654414
11
176.1844838
21
93.282914
0
LINE
8
DEFAULT_255_2_778
10
176.1844838
20
93.282914
11
175.9650838
21
92.170614
0
LINE
8
DEFAULT_255_2_778
10
175.9650838
20
92.170614
11
175.7521838
21
91.056214
0
LINE
8
DEFAULT_255_2_778
10
175.7521838
20
91.056214
11
175.6145838
21
90.313214
0
LINE
8
DEFAULT_255_2_778
10
175.6145838
20
90.313214
11
175.5478838
21
89.941814
0
LINE
8
DEFAULT_255_2_778
10
175.5478838
20
89.941814
11
175.4790838
21
89.570314
0
LINE
8
DEFAULT_255_2_778
10
175.4790838
20
89.570314
11
175.4123838
21
89.198814
0
LINE
8
DEFAULT_255_2_778
10
175.4123838
20
89.198814
11
175.1544838
21
87.710814
0
LINE
8
DEFAULT_255_2_778
10
175.1544838
20
87.710814
11
174.9673838
21
86.594214
0
LINE
8
DEFAULT_255_2_778
10
174.9673838
20
86.594214
11
174.7866838
21
85.477714
0
LINE
8
DEFAULT_255_2_778
10
174.7866838
20
85.477714
11
174.6704838
21
84.732614
0
LINE
8
DEFAULT_255_2_778
10
174.6704838
20
84.732614
11
174.6146838
21
84.361214
0
LINE
8
DEFAULT_255_2_778
10
174.6146838
20
84.361214
11
174.5567838
21
83.987614
0
LINE
8
DEFAULT_255_2_778
10
174.5567838
20
83.987614
11
174.5008838
21
83.616114
0
LINE
8
DEFAULT_255_2_778
10
174.5008838
20
83.616114
11
174.4471838
21
83.242514
0
LINE
8
DEFAULT_255_2_778
10
174.4471838
20
83.242514
11
174.3913838
21
82.871014
0
LINE
8
DEFAULT_255_2_778
10
174.3913838
20
82.871014
11
174.3376838
21
82.497414
0
LINE
8
DEFAULT_255_2_778
10
174.3376838
20
82.497414
11
174.2860838
21
82.123814
0
LINE
8
DEFAULT_255_2_778
10
174.2860838
20
82.123814
11
174.2323838
21
81.750314
0
LINE
8
DEFAULT_255_2_778
10
174.2323838
20
81.750314
11
174.1807838
21
81.378814
0
LINE
8
DEFAULT_255_2_778
10
174.1807838
20
81.378814
11
174.1312838
21
81.005214
0
LINE
8
DEFAULT_255_2_778
10
174.1312838
20
81.005214
11
174.0796838
21
80.631614
0
LINE
8
DEFAULT_255_2_778
10
174.0796838
20
80.631614
11
174.0302838
21
80.258014
0
LINE
8
DEFAULT_255_2_778
10
174.0302838
20
80.258014
11
174.0323838
21
79.933414
0
LINE
8
DEFAULT_255_2_778
10
174.0323838
20
79.933414
11
174.0344838
21
78.310714
0
LINE
8
DEFAULT_255_2_778
10
174.0344838
20
78.310714
11
174.0365838
21
75.063214
0
LINE
8
DEFAULT_255_2_778
10
174.0365838
20
75.063214
11
133.1425838
21
75.063214
0
LINE
8
DEFAULT_255_2_778
10
133.1425838
20
75.063214
11
133.1425838
21
74.399114
0
LINE
8
DEFAULT_255_2_778
10
133.1425838
20
74.399114
11
179.2231838
21
74.399114
0
ARC
8
DEFAULT_255_2_778
10
178.6246591
20
97.5774779
40
0.5193223
50
87.6622739
51
89.9933093
0
ARC
8
DEFAULT_255_2_778
10
178.603833
20
97.4429971
40
0.65472
50
34.4693859
51
86.3211804
0
ARC
8
DEFAULT_255_2_778
10
178.8342337
20
97.6038191
40
0.3737577
50
4.3433795
51
34.1340701
0
ARC
8
DEFAULT_255_2_778
10
178.9171481
20
97.6168639
40
0.2901717
50
0.0071614
51
3.0147977
0
ARC
8
DEFAULT_255_2_778
10
179.2248403
20
10.5405732
40
1.0000748
50
269.8899699
51
310.0354222
0
ARC
8
DEFAULT_255_2_778
10
179.2346282
20
10.5332701
40
0.988191
50
309.8732913
51
358.7760116
0
ARC
8
DEFAULT_255_2_778
10
179.2177496
20
10.5334837
40
1.0050701
50
358.7843918
51
0.0009399
0
ARC
8
DEFAULT_255_2_778
10
179.2367334
20
97.916361
40
0.9860867
50
359.9557964
51
44.639438
0
ARC
8
DEFAULT_255_2_778
10
179.2249755
20
97.9083963
40
1.0000526
50
44.4907983
51
88.2420258
0
ARC
8
DEFAULT_255_2_778
10
179.2229428
20
97.8832686
40
1.0252315
50
88.1715599
51
90.0012878
0
ARC
8
DEFAULT_255_2_778
10
172.9021249
20
103.9329885
40
6.0225958
50
359.9668139
51
12.2590519
0
ARC
8
DEFAULT_255_2_778
10
172.9629147
20
103.9433572
40
5.9609915
50
12.285728
51
29.8656809
0
ARC
8
DEFAULT_255_2_778
10
172.9115381
20
103.9152162
40
6.0195585
50
29.8544478
51
70.1249482
0
ARC
8
DEFAULT_255_2_778
10
172.9372266
20
103.9628015
40
5.9660794
50
70.2015929
51
84.3979194
0
ARC
8
DEFAULT_255_2_778
10
172.9257469
20
103.8578316
40
6.0716688
50
84.3868043
51
90.0087489
0
ARC
8
DEFAULT_255_2_778
10
172.9213305
20
103.9069225
40
6.0225787
50
89.966805
51
102.2590784
0
ARC
8
DEFAULT_255_2_778
10
172.9109513
20
103.9677497
40
5.9609355
50
102.2857327
51
119.8658636
0
ARC
8
DEFAULT_255_2_778
10
172.9391336
20
103.9163191
40
6.0195699
50
119.8547137
51
160.125482
0
ARC
8
DEFAULT_255_2_778
10
172.8917527
20
103.94192
40
5.966313
50
160.2020046
51
174.3980993
0
ARC
8
DEFAULT_255_2_778
10
172.9968249
20
103.9304279
40
6.0720054
50
174.3869594
51
180.0087535
0
ARC
8
DEFAULT_255_2_778
10
172.9073158
20
103.9322606
40
5.5176046
50
359.9713353
51
12.9794903
0
ARC
8
DEFAULT_255_2_778
10
172.9556025
20
103.9401893
40
5.4687718
50
13.0121694
51
32.1922956
0
ARC
8
DEFAULT_255_2_778
10
172.91284
20
103.9164174
40
5.5176255
50
32.1646233
51
70.1983108
0
ARC
8
DEFAULT_255_2_778
10
172.9351704
20
103.957156
40
5.4717356
50
70.2737998
51
85.037133
0
ARC
8
DEFAULT_255_2_778
10
172.9249702
20
103.857368
40
5.572032
50
85.0214072
51
89.9994905
0
ARC
8
DEFAULT_255_2_778
10
172.9215396
20
103.9128168
40
5.5165845
50
89.963855
51
102.9744789
0
ARC
8
DEFAULT_255_2_778
10
172.9136989
20
103.960766
40
5.4681
50
103.0072224
51
122.1901079
0
ARC
8
DEFAULT_255_2_778
10
172.9377182
20
103.9176819
40
5.5173578
50
122.162848
51
159.9739996
0
ARC
8
DEFAULT_255_2_778
10
172.8959219
20
103.9404833
40
5.470285
50
160.0484668
51
174.9851118
0
ARC
8
DEFAULT_255_2_778
10
172.9956504
20
103.9302008
40
5.5705307
50
174.9694226
51
180.0072062
0
ARC
8
DEFAULT_255_2_778
10
172.9197182
20
103.925938
40
2.3053043
50
338.5929557
51
0.0885339
0
ARC
8
DEFAULT_255_2_778
10
172.9302467
20
103.9246851
40
2.2950465
50
280.5049991
51
338.5261407
0
ARC
8
DEFAULT_255_2_778
10
172.9262503
20
103.9599534
40
2.3304535
50
269.969746
51
280.4435177
0
ARC
8
DEFAULT_255_2_778
10
172.9214576
20
103.9348017
40
2.3053043
50
248.5929557
51
270.0885339
0
ARC
8
DEFAULT_255_2_778
10
172.9202046
20
103.9242732
40
2.2950465
50
190.5049991
51
248.5261407
0
ARC
8
DEFAULT_255_2_778
10
172.9554729
20
103.9282696
40
2.3304535
50
179.969746
51
190.4435177
0
ARC
8
DEFAULT_255_2_778
10
172.9305759
20
103.9330694
40
2.3055589
50
158.5941526
51
180.0886985
0
ARC
8
DEFAULT_255_2_778
10
172.9197969
20
103.9344365
40
2.2950262
50
100.505199
51
158.5277145
0
ARC
8
DEFAULT_255_2_778
10
172.9237924
20
103.8991234
40
2.3304772
50
89.9698261
51
100.4434915
0
ARC
8
DEFAULT_255_2_778
10
172.9285829
20
103.92432
40
2.305283
50
68.5927731
51
90.0885586
0
ARC
8
DEFAULT_255_2_778
10
172.9298004
20
103.9348143
40
2.2950699
50
10.5034509
51
68.5254477
0
ARC
8
DEFAULT_255_2_778
10
172.8942534
20
103.9307324
40
2.3307666
50
359.969709
51
10.4428162
0
ARC
8
DEFAULT_255_2_778
10
174.6867109
20
96.980107
40
0.3993934
50
77.8098689
51
89.9413486
0
ARC
8
DEFAULT_255_2_778
10
174.7397088
20
97.1357027
40
0.2368742
50
15.4073849
51
82.3979479
0
ARC
8
DEFAULT_255_2_778
10
174.7226121
20
97.1445102
40
0.2513547
50
359.7149893
51
12.4351554
0
ARC
8
DEFAULT_255_2_778
10
174.6434409
20
97.144421
40
0.3305246
50
350.9929899
51
359.7987128
0
ARC
8
DEFAULT_255_2_778
10
174.5526053
20
97.1579998
40
0.4223666
50
345.8293826
51
351.1027879
0
LINE
8
DEFAULT_255_2_778
10
175.8995197
20
98.8985002
11
177.9370197
21
98.9085002
0
LINE
8
DEFAULT_255_2_778
10
179.2232197
20
74.3483002
11
179.2232197
21
10.9433002
0
LINE
8
DEFAULT_255_2_778
10
179.2232197
20
10.9433002
11
179.2144197
21
10.8433002
0
LINE
8
DEFAULT_255_2_778
10
179.2144197
20
10.8433002
11
179.1536197
21
10.6864002
0
LINE
8
DEFAULT_255_2_778
10
179.1536197
20
10.6864002
11
179.0766197
21
10.5922002
0
LINE
8
DEFAULT_255_2_778
10
179.0766197
20
10.5922002
11
179.0274197
21
10.5480002
0
LINE
8
DEFAULT_255_2_778
10
179.0274197
20
10.5480002
11
178.8369197
21
10.4578002
0
LINE
8
DEFAULT_255_2_778
10
178.8369197
20
10.4578002
11
178.7231197
21
10.4467002
0
LINE
8
DEFAULT_255_2_778
10
178.7231197
20
10.4467002
11
173.8995197
21
10.4467002
0
LINE
8
DEFAULT_255_2_778
10
173.8995197
20
10.4467002
11
173.8995197
21
9.5405002
0
LINE
8
DEFAULT_255_2_778
10
173.8995197
20
9.5405002
11
179.2229197
21
9.5405002
0
LINE
8
DEFAULT_255_2_778
10
180.2228197
20
10.5335002
11
180.2228197
21
97.9156002
0
LINE
8
DEFAULT_255_2_778
10
179.2229197
20
98.9085002
11
177.9370197
21
98.9085002
0
LINE
8
DEFAULT_255_2_778
10
175.2250197
20
103.9295002
11
175.2250197
21
103.9295002
0
LINE
8
DEFAULT_255_2_778
10
177.9251197
20
98.9294002
11
177.9251197
21
103.9295002
0
LINE
8
DEFAULT_255_2_778
10
177.9251197
20
103.9295002
11
178.9250197
21
103.9295002
0
LINE
8
DEFAULT_255_2_778
10
178.9250197
20
103.9295002
11
178.9250197
21
98.9294002
0
LINE
8
DEFAULT_255_2_778
10
177.9251197
20
99.7295002
11
178.9250197
21
99.7295002
0
LINE
8
DEFAULT_255_2_778
10
167.9249197
20
99.7295002
11
166.9251197
21
99.7295002
0
LINE
8
DEFAULT_255_2_778
10
167.9249197
20
98.9294002
11
167.9249197
21
103.9295002
0
LINE
8
DEFAULT_255_2_778
10
167.9249197
20
103.9295002
11
166.9251197
21
103.9295002
0
LINE
8
DEFAULT_255_2_778
10
166.9251197
20
103.9295002
11
166.9251197
21
98.9294002
0
LINE
8
DEFAULT_255_2_778
10
175.1967197
20
97.2816002
11
175.0210197
21
96.4326002
0
LINE
8
DEFAULT_255_2_778
10
175.0210197
20
96.4326002
11
174.8499197
21
95.6121002
0
LINE
8
DEFAULT_255_2_778
10
174.8499197
20
95.6121002
11
174.3585197
21
93.1282002
0
LINE
8
DEFAULT_255_2_778
10
174.3585197
20
93.1282002
11
174.2022197
21
92.3003002
0
LINE
8
DEFAULT_255_2_778
10
174.2022197
20
92.3003002
11
174.0162197
21
92.3374002
0
ARC
8
DEFAULT_255_2_778
10
174.9119619
20
97.1579976
40
0.396397
50
77.6599602
51
84.4602379
0
ARC
8
DEFAULT_255_2_778
10
174.9660404
20
97.3126476
40
0.234598
50
12.3141347
51
82.496167
0
ARC
8
DEFAULT_255_2_778
10
174.9411555
20
97.3188749
40
0.2578341
50
359.8170118
51
9.7819382
0
ARC
8
DEFAULT_255_2_778
10
174.8809815
20
97.3186463
40
0.3180073
50
353.3179724
51
359.8928338
0
ARC
8
DEFAULT_255_2_778
10
173.2421405
20
76.6347477
40
0.5077392
50
328.3396787
51
0.8120046
0
ARC
8
DEFAULT_255_2_778
10
173.231253
20
76.6597773
40
0.5303731
50
269.3059628
51
326.655265
0
ARC
8
DEFAULT_255_2_778
10
448.8894667
20
61.992287
40
277.0437627
50
185.3598255
51
185.7763291
0
ARC
8
DEFAULT_255_2_778
10
388.4316132
20
56.2974596
40
216.3182948
50
184.9184791
51
185.3538537
0
ARC
8
DEFAULT_255_2_778
10
363.9755776
20
54.1852518
40
191.7712168
50
184.4653983
51
184.9162049
0
ARC
8
DEFAULT_255_2_778
10
352.4281253
20
53.2796623
40
180.1883099
50
183.9910357
51
184.464193
0
ARC
8
DEFAULT_255_2_778
10
347.8437387
20
52.9569989
40
175.5925832
50
183.5164879
51
183.9901202
0
ARC
8
DEFAULT_255_2_778
10
347.7084754
20
52.9469399
40
175.4569575
50
183.0863444
51
183.5159186
0
ARC
8
DEFAULT_255_2_778
10
350.2339502
20
53.082483
40
177.9860669
50
182.7032219
51
183.0861425
0
ARC
8
DEFAULT_255_2_778
10
354.2792027
20
53.2734409
40
182.0358241
50
182.3655524
51
182.7032095
0
ARC
8
DEFAULT_255_2_778
10
359.1361742
20
53.474291
40
186.8969469
50
182.0698389
51
182.365616
0
ARC
8
DEFAULT_255_2_778
10
365.7511448
20
53.7111291
40
193.5161557
50
181.6825847
51
182.0691776
0
ARC
8
DEFAULT_255_2_778
10
375.0005821
20
53.9820683
40
202.7695602
50
181.2938942
51
181.6823689
0
ARC
8
DEFAULT_255_2_778
10
385.0705761
20
54.2112356
40
212.8421614
50
180.9817148
51
181.2943573
0
ARC
8
DEFAULT_255_2_778
10
396.209525
20
54.4005265
40
223.9827185
50
180.6358562
51
180.9813096
0
ARC
8
DEFAULT_255_2_778
10
408.423191
20
54.5379066
40
236.1971569
50
180.3542773
51
180.6363
0
ARC
8
DEFAULT_255_2_778
10
420.8516241
20
54.6146042
40
248.6258268
50
180.0781596
51
180.3542422
0
LINE
8
DEFAULT_255_2_778
10
156.9826287
20
98.8278432
11
157.9801287
21
98.8426432
0
LINE
8
DEFAULT_255_2_778
10
157.9801287
20
98.8426432
11
157.9801287
21
97.4824432
0
LINE
8
DEFAULT_255_2_778
10
157.9801287
20
97.4824432
11
158.1290287
21
97.5562432
0
LINE
8
DEFAULT_255_2_778
10
158.1290287
20
97.5562432
11
174.9467287
21
97.5562432
0
ARC
8
DEFAULT_255_2_778
10
454.601548
20
45.9296553
40
282.7884126
50
174.222237
51
174.6431454
0
ARC
8
DEFAULT_255_2_778
10
387.5566925
20
52.2397515
40
215.4472718
50
174.6493481
51
175.1153254
0
ARC
8
DEFAULT_255_2_778
10
361.443766
20
54.4807946
40
189.2383589
50
175.1181645
51
175.6016643
0
ARC
8
DEFAULT_255_2_778
10
350.0206908
20
55.3643909
40
177.7811621
50
175.6032621
51
176.0891779
0
ARC
8
DEFAULT_255_2_778
10
346.0169101
20
55.6411717
40
173.767827
50
176.090188
51
176.5575555
0
ARC
8
DEFAULT_255_2_778
10
346.3224561
20
55.6243942
40
174.0738291
50
176.558082
51
176.9807682
0
ARC
8
DEFAULT_255_2_778
10
349.1479939
20
55.4759067
40
176.9032658
50
176.980944
51
177.3569334
0
ARC
8
DEFAULT_255_2_778
10
353.3809532
20
55.2804535
40
181.1407353
50
177.3569185
51
177.6879884
0
ARC
8
DEFAULT_255_2_778
10
358.4099585
20
55.077192
40
186.1738466
50
177.6879208
51
177.9775549
0
ARC
8
DEFAULT_255_2_778
10
365.135739
20
54.8418835
40
192.9037418
50
177.9782076
51
178.3564071
0
ARC
8
DEFAULT_255_2_778
10
374.7087429
20
54.5682548
40
202.4806555
50
178.3567066
51
178.7488572
0
ARC
8
DEFAULT_255_2_778
10
385.0885945
20
54.3393254
40
212.8630312
50
178.7482562
51
179.0501611
0
ARC
8
DEFAULT_255_2_778
10
396.2279393
20
54.1562134
40
224.0038808
50
179.0505629
51
179.3839614
0
ARC
8
DEFAULT_255_2_778
10
408.4352458
20
54.0231164
40
236.2119128
50
179.383515
51
179.6555505
0
ARC
8
DEFAULT_255_2_778
10
420.7922762
20
53.9489272
40
248.5691658
50
179.6555734
51
179.921817
0
ARC
8
DEFAULT_255_2_778
10
434.2829607
20
60.7640072
40
262.3027507
50
185.3262621
51
185.7781874
0
ARC
8
DEFAULT_255_2_778
10
374.3522718
20
55.1576085
40
202.1104032
50
184.7957944
51
185.3208738
0
ARC
8
DEFAULT_255_2_778
10
351.3024726
20
53.2121998
40
178.9786564
50
184.2739606
51
184.7921045
0
ARC
8
DEFAULT_255_2_778
10
342.5823226
20
52.5551909
40
170.2337923
50
183.7648365
51
184.2721741
0
ARC
8
DEFAULT_255_2_778
10
340.8712027
20
52.4396479
40
168.5187784
50
183.2949752
51
183.7638373
0
ARC
8
DEFAULT_255_2_778
10
343.150359
20
52.5696358
40
170.8016381
50
182.8753986
51
183.2945643
0
ARC
8
DEFAULT_255_2_778
10
347.7522342
20
52.8005125
40
175.4093012
50
182.5061626
51
182.8753128
0
ARC
8
DEFAULT_255_2_778
10
353.6369636
20
53.0583459
40
181.2996764
50
182.1840018
51
182.5062467
0
ARC
8
DEFAULT_255_2_778
10
360.2347538
20
53.3103504
40
187.9022774
50
181.9043345
51
182.18412
0
ARC
8
DEFAULT_255_2_778
10
368.8294929
20
53.5934513
40
196.5016773
50
181.5412084
51
181.9035573
0
ARC
8
DEFAULT_255_2_778
10
380.8524396
20
53.9158257
40
208.5289452
50
181.1687733
51
181.5409033
0
ARC
8
DEFAULT_255_2_778
10
393.7352467
20
54.1814604
40
221.4144902
50
180.8854502
51
181.1694984
0
ARC
8
DEFAULT_255_2_778
10
407.6099861
20
54.3943439
40
235.2908627
50
180.5740055
51
180.8850718
0
ARC
8
DEFAULT_255_2_778
10
422.7738784
20
54.5485467
40
250.4555388
50
180.3227238
51
180.5745274
0
ARC
8
DEFAULT_255_2_778
10
438.1954027
20
54.6354498
40
265.877308
50
180.0781043
51
180.3227322
0
ARC
8
DEFAULT_255_2_778
10
447.6814349
20
46.4478334
40
275.7577155
50
174.221756
51
174.6519594
0
ARC
8
DEFAULT_255_2_778
10
380.2694813
20
52.7784009
40
208.0491705
50
174.6574258
51
175.1684326
0
ARC
8
DEFAULT_255_2_778
10
354.5305552
20
54.9661772
40
182.217436
50
175.1722352
51
175.6823702
0
ARC
8
DEFAULT_255_2_778
10
344.4049041
20
55.7362427
40
172.0625466
50
175.6842232
51
176.1834449
0
ARC
8
DEFAULT_255_2_778
10
341.6945843
20
55.9200444
40
169.3460035
50
176.1844563
51
176.6526536
0
ARC
8
DEFAULT_255_2_778
10
343.1855354
20
55.8342037
40
170.839423
50
176.65311
51
177.0736167
0
ARC
8
DEFAULT_255_2_778
10
347.0763185
20
55.6357132
40
174.7352657
50
177.0737491
51
177.445543
0
ARC
8
DEFAULT_255_2_778
10
352.3508241
20
55.4002682
40
180.0150238
50
177.4455009
51
177.7710604
0
ARC
8
DEFAULT_255_2_778
10
358.323204
20
55.1674465
40
185.99194
50
177.7709481
51
178.054441
0
ARC
8
DEFAULT_255_2_778
10
366.2725304
20
54.8998538
40
193.9457688
50
178.0551619
51
178.4232867
0
ARC
8
DEFAULT_255_2_778
10
377.3884618
20
54.594969
40
205.0658806
50
178.4235911
51
178.8029254
0
ARC
8
DEFAULT_255_2_778
10
389.4165498
20
54.3409919
40
217.0966494
50
178.802229
51
179.0925455
0
ARC
8
DEFAULT_255_2_778
10
402.3199292
20
54.1381954
40
230.0016223
50
179.0929403
51
179.4117458
0
ARC
8
DEFAULT_255_2_778
10
416.5028947
20
53.9905256
40
244.1853564
50
179.4112652
51
179.6699326
0
ARC
8
DEFAULT_255_2_778
10
430.859634
20
53.9080306
40
258.5423326
50
179.6699795
51
179.9218641
0
LINE
8
DEFAULT_255_2_778
10
178.9485416
20
34.3419122
11
173.3158416
21
34.3419122
0
LINE
8
DEFAULT_255_2_778
10
173.3158416
20
34.3419122
11
173.3113416
21
34.3851122
0
LINE
8
DEFAULT_255_2_778
10
133.0748416
20
34.2792122
11
133.0751416
21
34.1086122
0
LINE
8
DEFAULT_255_2_778
10
133.0751416
20
34.1086122
11
173.2542416
21
34.1086122
0
ARC
8
DEFAULT_255_2_778
10
7.377889
20
48.3999366
40
3.3418903
50
240.4046946
51
252.9805033
0
ARC
8
DEFAULT_255_2_778
10
7.1697043
20
48.0372239
40
2.923683
50
221.7659035
51
240.441749
0
ARC
8
DEFAULT_255_2_778
10
7.1291369
20
47.9817545
40
2.8565133
50
191.2777702
51
221.478038
0
ARC
8
DEFAULT_255_2_778
10
7.4827307
20
48.0678545
40
3.2201539
50
182.5746207
51
191.5497648
0
ARC
8
DEFAULT_255_2_778
10
7.3857753
20
58.7119411
40
3.3008587
50
107.0393959
51
120.3319221
0
ARC
8
DEFAULT_255_2_778
10
7.2097916
20
59.0091114
40
2.955494
50
120.296631
51
140.969301
0
ARC
8
DEFAULT_255_2_778
10
7.1958913
20
59.0368061
40
2.9272835
50
141.219051
51
170.2298107
0
ARC
8
DEFAULT_255_2_778
10
7.4599765
20
58.9785087
40
3.1974566
50
170.0033571
51
177.3937434
0
ARC
8
DEFAULT_255_2_778
10
11.2194638
20
47.2397547
40
2.9490957
50
257.9069305
51
260.7877553
0
ARC
8
DEFAULT_255_2_778
10
11.2184082
20
47.2332791
40
2.9425346
50
260.7878577
51
266.8589883
0
ARC
8
DEFAULT_255_2_778
10
11.2186832
20
47.2383526
40
2.9476156
50
266.8590537
51
270.0007411
0
ARC
8
DEFAULT_255_2_778
10
11.2123236
20
47.3061603
40
3.01543
50
270.121563
51
305.6139697
0
ARC
8
DEFAULT_255_2_778
10
11.2776081
20
47.2327184
40
2.9177265
50
305.4115727
51
336.0834254
0
ARC
8
DEFAULT_255_2_778
10
11.310713
20
47.2077286
40
2.8773485
50
336.2710668
51
352.5627901
0
ARC
8
DEFAULT_255_2_778
10
11.1691392
20
47.2286329
40
3.0204381
50
352.517203
51
358.9067431
0
ARC
8
DEFAULT_255_2_778
10
11.2159953
20
59.8436101
40
2.931746
50
99.2158265
51
102.0923971
0
ARC
8
DEFAULT_255_2_778
10
11.2150205
20
59.8495417
40
2.9257348
50
93.1414777
51
99.2155855
0
ARC
8
DEFAULT_255_2_778
10
11.2153532
20
59.8433835
40
2.9319019
50
89.999192
51
93.1413749
0
ARC
8
DEFAULT_255_2_778
10
11.2065981
20
59.7598958
40
3.0154025
50
49.9528141
51
89.8328574
0
ARC
8
DEFAULT_255_2_778
10
11.276553
20
59.8303128
40
2.9164986
50
22.4972174
51
50.114769
0
ARC
8
DEFAULT_255_2_778
10
11.2916762
20
59.8446497
40
2.8970499
50
6.3773378
51
22.3496974
0
ARC
8
DEFAULT_255_2_778
10
11.1552224
20
59.826521
40
3.0346745
50
1.1099083
51
6.4313319
0
ARC
8
DEFAULT_255_2_778
10
9.2037043
20
65.9465005
40
2.4398794
50
159.1693872
51
180.0821161
0
ARC
8
DEFAULT_255_2_778
10
9.2138308
20
65.935651
40
2.4532108
50
102.6743641
51
159.0166609
0
ARC
8
DEFAULT_255_2_778
10
9.2249717
20
65.8863224
40
2.5037818
50
89.9575365
51
102.675424
0
ARC
8
DEFAULT_255_2_778
10
9.2305275
20
65.9054562
40
2.4846502
50
69.7752619
51
90.0853247
0
ARC
8
DEFAULT_255_2_778
10
9.2446494
20
65.9414672
40
2.4459776
50
10.2577636
51
69.7940505
0
ARC
8
DEFAULT_255_2_778
10
9.2247238
20
65.9442123
40
2.4651038
50
359.9719069
51
10.1125072
0
ARC
8
DEFAULT_255_2_778
10
9.2498377
20
65.9395053
40
2.4399922
50
339.1690841
51
0.0821486
0
ARC
8
DEFAULT_255_2_778
10
9.2397178
20
65.9503458
40
2.4533143
50
282.6756219
51
339.0165051
0
ARC
8
DEFAULT_255_2_778
10
9.2286799
20
65.9993178
40
2.5035148
50
269.9576029
51
282.6761461
0
ARC
8
DEFAULT_255_2_778
10
9.223114
20
65.9805848
40
2.4847839
50
249.7757314
51
270.0856246
0
ARC
8
DEFAULT_255_2_778
10
9.2089493
20
65.9443636
40
2.4458994
50
190.2545927
51
249.7937662
0
ARC
8
DEFAULT_255_2_778
10
9.2294472
20
65.9417934
40
2.4656201
50
179.9718755
51
190.1110221
0
ARC
8
DEFAULT_255_2_778
10
9.2037043
20
41.1238005
40
2.4398794
50
159.1693872
51
180.0821161
0
ARC
8
DEFAULT_255_2_778
10
9.2138308
20
41.112951
40
2.4532108
50
102.6743641
51
159.0166609
0
ARC
8
DEFAULT_255_2_778
10
9.2249717
20
41.0636224
40
2.5037818
50
89.9575365
51
102.675424
0
ARC
8
DEFAULT_255_2_778
10
9.2305275
20
41.0827562
40
2.4846502
50
69.7752619
51
90.0853247
0
ARC
8
DEFAULT_255_2_778
10
9.2446494
20
41.1187672
40
2.4459776
50
10.2577636
51
69.7940505
0
ARC
8
DEFAULT_255_2_778
10
9.2247238
20
41.1215123
40
2.4651038
50
359.9719069
51
10.1125072
0
ARC
8
DEFAULT_255_2_778
10
9.2500952
20
41.1168117
40
2.4397347
50
339.167971
51
0.0820056
0
ARC
8
DEFAULT_255_2_778
10
9.2397236
20
41.1277655
40
2.4533325
50
282.6753874
51
339.0150185
0
ARC
8
DEFAULT_255_2_778
10
9.2286781
20
41.1767499
40
2.5035468
50
269.9576443
51
282.6760231
0
ARC
8
DEFAULT_255_2_778
10
9.2231151
20
41.158009
40
2.4848082
50
249.7759106
51
270.0855997
0
ARC
8
DEFAULT_255_2_778
10
9.2089165
20
41.1217513
40
2.4458775
50
190.2560746
51
249.7943963
0
ARC
8
DEFAULT_255_2_778
10
9.2291342
20
41.119095
40
2.4653071
50
179.9719102
51
190.1116657
0
LINE
8
DEFAULT_255_2_778
10
178.9871274
20
74.2104036
11
173.3245274
21
74.2104036
0
LINE
8
DEFAULT_255_2_778
10
51.3865274
20
30.3890036
11
51.3865274
21
30.3536036
0
LINE
8
DEFAULT_255_2_778
10
173.0555274
20
27.3948036
11
173.0555274
21
30.3536036
0
LINE
8
DEFAULT_255_2_778
10
173.0555274
20
30.3536036
11
51.3865274
21
30.3536036
0
LINE
8
DEFAULT_255_2_778
10
173.0555274
20
27.3945036
11
173.1486274
21
26.6976036
0
LINE
8
DEFAULT_255_2_778
10
173.1486274
20
26.6976036
11
173.2475274
21
25.9988036
0
LINE
8
DEFAULT_255_2_778
10
173.2475274
20
25.9988036
11
173.3465274
21
25.2942036
0
LINE
8
DEFAULT_255_2_778
10
173.3465274
20
25.2942036
11
173.4454274
21
24.5955036
0
LINE
8
DEFAULT_255_2_778
10
173.4454274
20
24.5955036
11
173.6547274
21
23.1979036
0
LINE
8
DEFAULT_255_2_778
10
173.6547274
20
23.1979036
11
173.9863274
21
21.1014036
0
LINE
8
DEFAULT_255_2_778
10
173.9863274
20
21.1014036
11
174.1027274
21
20.4026036
0
LINE
8
DEFAULT_255_2_778
10
174.1027274
20
20.4026036
11
174.2249274
21
19.7038036
0
LINE
8
DEFAULT_255_2_778
10
174.2249274
20
19.7038036
11
174.3472274
21
19.0109036
0
LINE
8
DEFAULT_255_2_778
10
174.3472274
20
19.0109036
11
174.4694274
21
18.3121036
0
LINE
8
DEFAULT_255_2_778
10
174.4694274
20
18.3121036
11
174.7252274
21
16.9143036
0
LINE
8
DEFAULT_255_2_778
10
174.7252274
20
16.9143036
11
174.8533274
21
16.2214036
0
LINE
8
DEFAULT_255_2_778
10
174.8533274
20
16.2214036
11
174.9872274
21
15.5226036
0
LINE
8
DEFAULT_255_2_778
10
174.9872274
20
15.5226036
11
175.1269274
21
14.8297036
0
LINE
8
DEFAULT_255_2_778
10
175.1269274
20
14.8297036
11
175.2608274
21
14.1309036
0
LINE
8
DEFAULT_255_2_778
10
175.2608274
20
14.1309036
11
175.4063274
21
13.4380036
0
LINE
8
DEFAULT_255_2_778
10
175.4063274
20
13.4380036
11
175.5460274
21
12.7392036
0
LINE
8
DEFAULT_255_2_778
10
175.5460274
20
12.7392036
11
175.6973274
21
12.0463036
0
LINE
8
DEFAULT_255_2_778
10
175.6973274
20
12.0463036
11
175.8428274
21
11.3533036
0
LINE
8
DEFAULT_255_2_778
10
175.8428274
20
11.3533036
11
175.9942274
21
10.6604036
0
LINE
8
DEFAULT_255_2_778
10
175.9942274
20
10.6604036
11
54.3470274
21
10.6604036
0
LINE
8
DEFAULT_255_2_778
10
54.3470274
20
10.6604036
11
54.1956274
21
11.3592036
0
LINE
8
DEFAULT_255_2_778
10
54.1956274
20
11.3592036
11
54.0443274
21
12.0521036
0
LINE
8
DEFAULT_255_2_778
10
54.0443274
20
12.0521036
11
53.8929274
21
12.7509036
0
LINE
8
DEFAULT_255_2_778
10
53.8929274
20
12.7509036
11
53.7474274
21
13.4496036
0
LINE
8
DEFAULT_255_2_778
10
53.7474274
20
13.4496036
11
53.6077274
21
14.1484036
0
LINE
8
DEFAULT_255_2_778
10
53.6077274
20
14.1484036
11
53.4680274
21
14.8413036
0
LINE
8
DEFAULT_255_2_778
10
53.4680274
20
14.8413036
11
53.3283274
21
15.5401036
0
LINE
8
DEFAULT_255_2_778
10
53.3283274
20
15.5401036
11
53.1944274
21
16.2389036
0
LINE
8
DEFAULT_255_2_778
10
53.1944274
20
16.2389036
11
53.0606274
21
16.9435036
0
LINE
8
DEFAULT_255_2_778
10
53.0606274
20
16.9435036
11
52.8047274
21
18.3410036
0
LINE
8
DEFAULT_255_2_778
10
52.8047274
20
18.3410036
11
52.5605274
21
19.7385036
0
LINE
8
DEFAULT_255_2_778
10
52.5605274
20
19.7385036
11
52.4383274
21
20.4431036
0
LINE
8
DEFAULT_255_2_778
10
52.4383274
20
20.4431036
11
52.3219274
21
21.1419036
0
LINE
8
DEFAULT_255_2_778
10
52.3219274
20
21.1419036
11
52.2054274
21
21.8465036
0
LINE
8
DEFAULT_255_2_778
10
52.2054274
20
21.8465036
11
52.0948274
21
22.5452036
0
LINE
8
DEFAULT_255_2_778
10
52.0948274
20
22.5452036
11
51.9842274
21
23.2498036
0
LINE
8
DEFAULT_255_2_778
10
51.9842274
20
23.2498036
11
51.8795274
21
23.9486036
0
LINE
8
DEFAULT_255_2_778
10
51.8795274
20
23.9486036
11
51.7747274
21
24.6532036
0
LINE
8
DEFAULT_255_2_778
10
51.7747274
20
24.6532036
11
51.6757274
21
25.3519036
0
LINE
8
DEFAULT_255_2_778
10
51.6757274
20
25.3519036
11
51.4781274
21
26.7611036
0
LINE
8
DEFAULT_255_2_778
10
51.4781274
20
26.7611036
11
51.3850274
21
27.4599036
0
LINE
8
DEFAULT_255_2_778
10
51.3850274
20
27.4599036
11
51.3850274
21
30.3533036
0
LINE
8
DEFAULT_255_2_778
10
173.0560274
20
27.4630036
11
173.5457274
21
27.4625036
0
LINE
8
DEFAULT_255_2_778
10
173.5457274
20
27.4625036
11
173.5481274
21
30.3525036
0
LINE
8
DEFAULT_255_2_778
10
173.5481274
20
30.3525036
11
173.0483274
21
30.3533036
0
LINE
8
DEFAULT_255_2_778
10
0.2333274
20
35.4542036
11
0.2246274
21
33.1293036
0
LINE
8
DEFAULT_255_2_778
10
10.6450274
20
44.3479036
11
6.3997274
21
45.2041036
0
LINE
8
DEFAULT_255_2_778
10
4.2714274
20
59.2199036
11
4.2661274
21
59.1006036
0
LINE
8
DEFAULT_255_2_778
10
4.2661274
20
59.1006036
11
4.2661274
21
47.9598036
0
LINE
8
DEFAULT_255_2_778
10
4.2661274
20
47.9598036
11
4.2703274
21
47.8666036
0
LINE
8
DEFAULT_255_2_778
10
14.1748274
20
60.1160036
11
14.1819274
21
60.0353036
0
LINE
8
DEFAULT_255_2_778
10
14.1819274
20
60.0353036
11
14.1880274
21
59.8962036
0
LINE
8
DEFAULT_255_2_778
10
14.1880274
20
59.8962036
11
14.1880274
21
47.1546036
0
LINE
8
DEFAULT_255_2_778
10
10.6635274
20
62.7180036
11
6.4185274
21
61.8668036
0
LINE
8
DEFAULT_255_2_778
10
6.7638274
20
65.9430036
11
6.7638274
21
65.9430036
0
LINE
8
DEFAULT_255_2_778
10
6.7638274
20
41.1203036
11
6.7638274
21
41.1203036
0
ARC
8
DEFAULT_255_2_778
10
29.1881281
20
41.1333911
40
2.4746309
50
270.6293095
51
313.7389022
0
ARC
8
DEFAULT_255_2_778
10
29.2065851
20
41.1303048
40
2.4596659
50
313.4779754
51
337.7219418
0
ARC
8
DEFAULT_255_2_778
10
29.1608545
20
41.1438378
40
2.5071181
50
337.8319521
51
354.2145387
0
ARC
8
DEFAULT_255_2_778
10
29.0061687
20
41.1641136
40
2.6630638
50
354.1160094
51
358.0610429
0
ARC
8
DEFAULT_255_2_778
10
21.4534734
20
41.1332369
40
2.4797795
50
226.9803222
51
269.3653868
0
ARC
8
DEFAULT_255_2_778
10
21.4333355
20
41.1291891
40
2.4631099
50
202.668504
51
227.2585693
0
ARC
8
DEFAULT_255_2_778
10
21.4689317
20
41.1384901
40
2.4995462
50
186.0364105
51
202.5507684
0
ARC
8
DEFAULT_255_2_778
10
21.6211493
20
41.1589735
40
2.6530775
50
181.9497153
51
186.1306252
0
ARC
8
DEFAULT_255_2_778
10
25.1588374
20
38.4554028
40
3.3717189
50
1.9210008
51
3.3751853
0
ARC
8
DEFAULT_255_2_778
10
25.2971093
20
38.4600851
40
3.2333675
50
0.4888155
51
1.9202119
0
ARC
8
DEFAULT_255_2_778
10
25.3824893
20
38.4610919
40
3.147982
50
0.0003954
51
0.4837483
0
ARC
8
DEFAULT_255_2_778
10
25.6927275
20
38.4550796
40
2.8377504
50
352.3781542
51
0.1218299
0
ARC
8
DEFAULT_255_2_778
10
26.1504754
20
38.3931067
40
2.3758271
50
342.806748
51
352.3953324
0
ARC
8
DEFAULT_255_2_778
10
26.4534012
20
38.2993789
40
2.0587326
50
330.8119933
51
342.8066334
0
ARC
8
DEFAULT_255_2_778
10
26.585004
20
38.2277595
40
1.9089137
50
315.591028
51
330.7623456
0
ARC
8
DEFAULT_255_2_778
10
26.5555087
20
38.2618126
40
1.953817
50
297.7811491
51
315.4829287
0
ARC
8
DEFAULT_255_2_778
10
26.5060348
20
38.3501246
40
2.0550109
50
286.2416462
51
297.8539011
0
ARC
8
DEFAULT_255_2_778
10
26.5113923
20
38.3282217
40
2.0324839
50
279.2611175
51
286.2693399
0
ARC
8
DEFAULT_255_2_778
10
26.529268
20
38.2152005
40
1.9180593
50
272.7067771
51
279.2774343
0
ARC
8
DEFAULT_255_2_778
10
26.5364216
20
38.0889302
40
1.7915926
50
270.0105831
51
272.6689584
0
ARC
8
DEFAULT_255_2_778
10
26.5367257
20
38.0326795
40
1.7353417
50
269.1937656
51
270.0008868
0
ARC
8
DEFAULT_255_2_778
10
25.4634782
20
38.46273
40
3.3710068
50
176.6279688
51
178.0812072
0
ARC
8
DEFAULT_255_2_778
10
25.3258943
20
38.4673674
40
3.2333447
50
178.0817041
51
179.5120784
0
ARC
8
DEFAULT_255_2_778
10
25.2365506
20
38.4683405
40
3.143996
50
179.5159466
51
179.9996081
0
ARC
8
DEFAULT_255_2_778
10
24.9346384
20
38.4623784
40
2.84209
50
179.8793728
51
187.6161533
0
ARC
8
DEFAULT_255_2_778
10
24.4804285
20
38.4009402
40
2.3837442
50
187.5993978
51
197.1680819
0
ARC
8
DEFAULT_255_2_778
10
24.1794075
20
38.3079498
40
2.0686874
50
197.1682768
51
209.126681
0
ARC
8
DEFAULT_255_2_778
10
24.0478493
20
38.2365029
40
1.9189899
50
209.1751329
51
224.2061414
0
ARC
8
DEFAULT_255_2_778
10
24.0732812
20
38.2659726
40
1.9577708
50
224.3054344
51
241.5910234
0
ARC
8
DEFAULT_255_2_778
10
24.1201283
20
38.3478693
40
2.0520942
50
241.5284206
51
253.6453052
0
ARC
8
DEFAULT_255_2_778
10
24.1130493
20
38.3203502
40
2.0236955
50
253.6182294
51
260.663946
0
ARC
8
DEFAULT_255_2_778
10
24.0947837
20
38.2067424
40
1.9086295
50
260.651747
51
266.9788006
0
ARC
8
DEFAULT_255_2_778
10
24.0870778
20
38.0796005
40
1.7812586
50
267.0107775
51
269.9868243
0
ARC
8
DEFAULT_255_2_778
10
24.0866791
20
38.0209117
40
1.7225697
50
269.9996366
51
270.7992615
0
ARC
8
DEFAULT_255_2_778
10
29.190242
20
67.4077822
40
2.4797795
50
46.9803222
51
89.3653868
0
ARC
8
DEFAULT_255_2_778
10
29.2103799
20
67.4118299
40
2.4631099
50
22.668504
51
47.2585693
0
ARC
8
DEFAULT_255_2_778
10
29.1747837
20
67.4025289
40
2.4995462
50
6.0364105
51
22.5507684
0
ARC
8
DEFAULT_255_2_778
10
29.0225662
20
67.3820455
40
2.6530775
50
1.9497153
51
6.1306252
0
ARC
8
DEFAULT_255_2_778
10
21.4510734
20
67.4130822
40
2.4797795
50
90.6346132
51
133.0196778
0
ARC
8
DEFAULT_255_2_778
10
21.4309355
20
67.4171299
40
2.4631099
50
132.7414307
51
157.331496
0
ARC
8
DEFAULT_255_2_778
10
21.4665317
20
67.4078289
40
2.4995462
50
157.4492316
51
173.9635895
0
ARC
8
DEFAULT_255_2_778
10
21.6187493
20
67.3873455
40
2.6530775
50
173.8693748
51
178.0502847
0
ARC
8
DEFAULT_255_2_778
10
25.1766079
20
70.095723
40
3.371737
50
356.6281215
51
358.081042
0
ARC
8
DEFAULT_255_2_778
10
25.3153902
20
70.0910451
40
3.2328757
50
358.0815395
51
359.5119452
0
ARC
8
DEFAULT_255_2_778
10
25.4054927
20
70.0900633
40
3.1427681
50
359.5158517
51
359.999604
0
ARC
8
DEFAULT_255_2_778
10
25.7100091
20
70.0960783
40
2.838258
50
359.8781362
51
7.6213171
0
ARC
8
DEFAULT_255_2_778
10
26.1678849
20
70.1580639
40
2.3762061
50
7.6041435
51
17.1922194
0
ARC
8
DEFAULT_255_2_778
10
26.4709542
20
70.251829
40
2.0589635
50
17.1923652
51
29.1867702
0
ARC
8
DEFAULT_255_2_778
10
26.6026788
20
70.3235163
40
1.9090053
50
29.2363246
51
44.4080174
0
ARC
8
DEFAULT_255_2_778
10
26.5732738
20
70.2895556
40
1.9537794
50
44.5160568
51
62.2190857
0
ARC
8
DEFAULT_255_2_778
10
26.5238423
20
70.2013164
40
2.054889
50
62.1464171
51
73.7598248
0
ARC
8
DEFAULT_255_2_778
10
26.5292063
20
70.2232372
40
2.0323429
50
73.7321812
51
80.7398106
0
ARC
8
DEFAULT_255_2_778
10
26.5470733
20
70.3362196
40
1.917958
50
80.7234782
51
87.293557
0
ARC
8
DEFAULT_255_2_778
10
26.5542262
20
70.4624867
40
1.7914945
50
87.3313815
51
89.9895628
0
ARC
8
DEFAULT_255_2_778
10
26.5545257
20
70.5186413
40
1.7353399
50
89.9991133
51
90.8062345
0
ARC
8
DEFAULT_255_2_778
10
25.451653
20
70.0886001
40
3.3713816
50
181.9186838
51
183.371844
0
ARC
8
DEFAULT_255_2_778
10
25.3140632
20
70.083963
40
3.2337136
50
180.487901
51
181.9181903
0
ARC
8
DEFAULT_255_2_778
10
25.2246585
20
70.0829893
40
3.1443039
50
180.0003919
51
180.4840316
0
ARC
8
DEFAULT_255_2_778
10
24.9226755
20
70.0889529
40
2.8423271
50
172.3841642
51
180.1206496
0
ARC
8
DEFAULT_255_2_778
10
24.4683154
20
70.1504095
40
2.3838301
50
162.8323236
51
172.4009386
0
ARC
8
DEFAULT_255_2_778
10
24.167178
20
70.2434334
40
2.068652
50
150.8733988
51
162.8321251
0
ARC
8
DEFAULT_255_2_778
10
24.0355423
20
70.3149237
40
1.9188657
50
135.793089
51
150.824953
0
ARC
8
DEFAULT_255_2_778
10
24.0609697
20
70.2854557
40
1.9576423
50
118.4073039
51
135.6937506
0
ARC
8
DEFAULT_255_2_778
10
24.107862
20
70.2034717
40
2.0520639
50
106.3530139
51
118.4699339
0
ARC
8
DEFAULT_255_2_778
10
24.1008335
20
70.2308265
40
2.0238371
50
99.334988
51
106.3801259
0
ARC
8
DEFAULT_255_2_778
10
24.0825808
20
70.3443631
40
1.9088434
50
93.0208637
51
99.3471587
0
ARC
8
DEFAULT_255_2_778
10
24.074882
20
70.4711477
40
1.7818294
50
90.0134203
51
92.9884956
0
ARC
8
DEFAULT_255_2_778
10
24.0744758
20
70.529942
40
1.7230351
50
89.2008435
51
90.0003682
0
ARC
8
DEFAULT_255_2_778
10
177.2653114
20
1.5408138
40
1.7502036
50
180.000139
51
239.9923706
0
ARC
8
DEFAULT_255_2_778
10
177.2648921
20
1.5407797
40
1.7499645
50
240.0037011
51
266.2841863
0
ARC
8
DEFAULT_255_2_778
10
177.2652629
20
1.5435264
40
1.7527295
50
266.2779085
51
269.9811208
0
LINE
8
DEFAULT_255_2_778
10
177.2646853
20
-0.2092029
11
177.2652628
21
-0.209203
0
ARC
8
DEFAULT_255_2_778
10
177.2657214
20
1.5384039
40
1.7476069
50
269.9849629
51
298.5800534
0
ARC
8
DEFAULT_255_2_778
10
177.263158
20
1.5430709
40
1.7529315
50
298.5806557
51
300.0144943
0
ARC
8
DEFAULT_255_2_778
10
177.264348
20
1.5411348
40
1.7506597
50
300.0124659
51
359.989354
0
ARC
8
DEFAULT_255_2_778
10
177.2651046
20
1.5409395
40
1.2499969
50
179.9967925
51
240.000083
0
ARC
8
DEFAULT_255_2_778
10
177.2649658
20
1.5398006
40
1.2489413
50
239.9794716
51
270.0088026
0
ARC
8
DEFAULT_255_2_778
10
177.2653496
20
1.5398006
40
1.2489411
50
269.9911974
51
300.0205284
0
ARC
8
DEFAULT_255_2_778
10
177.2655014
20
1.5407718
40
1.2497064
50
299.9922263
51
0.00173
0
ARC
8
DEFAULT_255_2_778
10
168.7656038
20
1.5409248
40
1.7502961
50
180.0037729
51
239.9944019
0
ARC
8
DEFAULT_255_2_778
10
168.7651741
20
1.5407028
40
1.7498888
50
240.0029514
51
266.2938702
0
ARC
8
DEFAULT_255_2_778
10
168.7655228
20
1.5434122
40
1.752615
50
266.288218
51
269.9929676
0
LINE
8
DEFAULT_255_2_778
10
168.7653077
20
-0.209203
11
168.7655253
21
-0.209203
0
ARC
8
DEFAULT_255_2_778
10
168.7659444
20
1.5386799
40
1.7478829
50
269.9862609
51
298.5777494
0
ARC
8
DEFAULT_255_2_778
10
168.763043
20
1.5440683
40
1.7540028
50
298.5767799
51
300.0099338
0
ARC
8
DEFAULT_255_2_778
10
168.7646412
20
1.5410233
40
1.7505666
50
300.0144852
51
359.9930016
0
ARC
8
DEFAULT_255_2_778
10
168.7653113
20
1.540828
40
1.2499036
50
179.9916771
51
239.9972591
0
ARC
8
DEFAULT_255_2_778
10
168.7652675
20
1.5401821
40
1.2493225
50
239.9841889
51
269.9403035
0
ARC
8
DEFAULT_255_2_778
10
168.7650472
20
1.1570753
40
0.8662156
50
269.9284763
51
270.02385
0
ARC
8
DEFAULT_255_2_778
10
168.7656845
20
1.5385521
40
1.2476926
50
269.9872916
51
300.0358975
0
ARC
8
DEFAULT_255_2_778
10
168.7648715
20
1.5411356
40
1.2503364
50
300.0088934
51
359.9850594
0
ARC
8
DEFAULT_255_2_778
10
173.0171317
20
4.5408529
40
2.9979761
50
0.0010821
51
30.4823389
0
ARC
8
DEFAULT_255_2_778
10
173.016291
20
4.541534
40
2.9983552
50
30.4629745
51
60.0123757
0
ARC
8
DEFAULT_255_2_778
10
173.0155673
20
4.5430505
40
2.9974037
50
59.9859041
51
77.6910796
0
ARC
8
DEFAULT_255_2_778
10
173.0148435
20
4.5387427
40
3.0017668
50
77.6951107
51
89.9961493
0
LINE
8
DEFAULT_255_2_778
10
173.0150452
20
7.5405095
11
173.0146844
21
7.5405095
0
ARC
8
DEFAULT_255_2_778
10
173.0143222
20
4.5419654
40
2.9985442
50
89.9930784
51
114.1596448
0
ARC
8
DEFAULT_255_2_778
10
173.017116
20
4.5365867
40
3.0045951
50
114.1662738
51
119.9936281
0
ARC
8
DEFAULT_255_2_778
10
173.0140527
20
4.5420331
40
2.9983469
50
119.9949593
51
150.4765272
0
ARC
8
DEFAULT_255_2_778
10
173.0135521
20
4.5411544
40
2.9983444
50
150.457203
51
180.0104123
0
ARC
8
DEFAULT_255_2_778
10
173.0203121
20
4.5431963
40
2.494797
50
359.9405912
51
20.7925511
0
ARC
8
DEFAULT_255_2_778
10
173.0123816
20
4.5371464
40
2.5043601
50
20.8575408
51
79.5402498
0
ARC
8
DEFAULT_255_2_778
10
173.0157521
20
4.5256566
40
2.5150531
50
79.6632767
51
90.0169566
0
ARC
8
DEFAULT_255_2_778
10
173.0124201
20
4.5459247
40
2.4947862
50
89.9405721
51
110.7925967
0
ARC
8
DEFAULT_255_2_778
10
173.0183889
20
4.5381424
40
2.504182
50
110.8570611
51
169.5431969
0
ARC
8
DEFAULT_255_2_778
10
173.0298195
20
4.5415398
40
2.5148119
50
169.6665817
51
180.0211954
0
LINE
8
DEFAULT_255_2_778
10
28.5451077
20
38.6581095
11
29.2518077
21
38.6581095
0
LINE
8
DEFAULT_255_2_778
10
29.2518077
20
38.6581095
11
29.4590077
21
38.6732095
0
LINE
8
DEFAULT_255_2_778
10
29.4590077
20
38.6732095
11
29.5310077
21
38.6848095
0
LINE
8
DEFAULT_255_2_778
10
31.6675077
20
41.0600095
11
31.6675077
21
67.4948095
0
LINE
8
DEFAULT_255_2_778
10
29.2272077
20
69.8935095
11
28.5451077
21
69.8935095
0
LINE
8
DEFAULT_255_2_778
10
22.0901077
20
69.8935095
11
21.4186077
21
69.8935095
0
LINE
8
DEFAULT_255_2_778
10
18.9675077
20
67.4609095
11
18.9675077
21
41.0481095
0
LINE
8
DEFAULT_255_2_778
10
21.2685077
20
38.6674095
11
21.3802077
21
38.6578095
0
LINE
8
DEFAULT_255_2_778
10
21.3802077
20
38.6578095
11
22.0901077
21
38.6578095
0
LINE
8
DEFAULT_255_2_778
10
22.0901077
20
38.6578095
11
22.0901077
21
38.5200095
0
LINE
8
DEFAULT_255_2_778
10
26.5864077
20
36.2983095
11
24.0459077
21
36.2983095
0
LINE
8
DEFAULT_255_2_778
10
24.0985077
20
72.2528095
11
26.5369077
21
72.2538095
0
LINE
8
DEFAULT_255_2_778
10
168.0149077
20
9.5407095
11
168.0149077
21
4.5406095
0
LINE
8
DEFAULT_255_2_778
10
168.0149077
20
4.5406095
11
167.0151077
21
4.5406095
0
LINE
8
DEFAULT_255_2_778
10
168.0149077
20
8.7406095
11
167.0151077
21
8.7406095
0
LINE
8
DEFAULT_255_2_778
10
178.0151077
20
9.5407095
11
178.0151077
21
4.5406095
0
LINE
8
DEFAULT_255_2_778
10
178.0151077
20
4.5406095
11
179.0150077
21
4.5406095
0
LINE
8
DEFAULT_255_2_778
10
178.0151077
20
8.7406095
11
179.0150077
21
8.7406095
0
LINE
8
DEFAULT_255_2_778
10
170.0149077
20
4.5406095
11
170.5150077
21
4.5406095
0
LINE
8
DEFAULT_255_2_778
10
170.5150077
20
4.5406095
11
170.5150077
21
1.5405095
0
LINE
8
DEFAULT_255_2_778
10
170.5150077
20
1.5405095
11
170.0149077
21
1.5405095
0
LINE
8
DEFAULT_255_2_778
10
170.0149077
20
1.5405095
11
170.0149077
21
4.5406095
0
LINE
8
DEFAULT_255_2_778
10
167.5149077
20
4.5406095
11
167.5149077
21
1.5408095
0
LINE
8
DEFAULT_255_2_778
10
167.5149077
20
1.5408095
11
167.0148077
21
1.5408095
0
LINE
8
DEFAULT_255_2_778
10
167.0148077
20
1.5408095
11
167.0148077
21
9.5407095
0
LINE
8
DEFAULT_255_2_778
10
176.0149077
20
1.5408095
11
175.5148077
21
1.5408095
0
LINE
8
DEFAULT_255_2_778
10
175.5148077
20
1.5408095
11
175.5148077
21
4.5409095
0
LINE
8
DEFAULT_255_2_778
10
175.5148077
20
4.5409095
11
176.0149077
21
4.5409095
0
LINE
8
DEFAULT_255_2_778
10
176.0149077
20
4.5409095
11
176.0149077
21
1.5408095
0
LINE
8
DEFAULT_255_2_778
10
179.0150077
20
9.5407095
11
179.0150077
21
1.5408095
0
LINE
8
DEFAULT_255_2_778
10
179.0150077
20
1.5408095
11
178.5149077
21
1.5408095
0
LINE
8
DEFAULT_255_2_778
10
178.5149077
20
1.5408095
11
178.5149077
21
4.5409095
0
ENDSEC
0
EOF