0
SECTION
2
HEADER
9
$MEASUREMENT
70
1
0
ENDSEC
0
SECTION
2
TABLES
0
TABLE
2
LTYPE
0
LTYPE
72
65
70
64
2
CONTINUOUS
3
______
73
0
40
0
0
ENDTAB
0
TABLE
2
LAYER
0
LAYER
2
DEFAULT_255_2_778
70
0
62
255
6
CONTINUOUS
0
LAYER
2
DEFAULT_255_1_234
70
0
62
255
6
CONTINUOUS
0
ENDTAB
0
ENDSEC
0
SECTION
2
ENTITIES
0
ARC
8
DEFAULT_255_2_778
10
3.5700693
20
44.0552035
40
0.7914215
50
129.1312896
51
180.1450914
0
ARC
8
DEFAULT_255_2_778
10
3.5703345
20
44.0556906
40
0.7912112
50
89.854026
51
129.1684493
0
ARC
8
DEFAULT_255_2_778
10
25.7993937
20
44.0553771
40
0.7915249
50
39.4792447
51
90.147911
0
ARC
8
DEFAULT_255_2_778
10
25.7999935
20
44.0552238
40
0.7911595
50
359.8533901
51
39.5154338
0
ARC
8
DEFAULT_255_2_778
10
25.7996693
20
-1.9863488
40
0.7914836
50
309.4761667
51
0.1482649
0
ARC
8
DEFAULT_255_2_778
10
25.799398
20
-1.9867799
40
0.7913235
50
269.8517415
51
309.511178
0
ARC
8
DEFAULT_255_2_778
10
3.570342
20
-1.9867217
40
0.7913815
50
219.1282118
51
270.1454017
0
ARC
8
DEFAULT_255_2_778
10
3.5700247
20
-1.9863392
40
0.7913769
50
179.8524075
51
219.1641908
0
LINE
8
DEFAULT_255_2_778
10
3.5723503
20
44.8468993
11
25.7973503
21
44.8468993
0
LINE
8
DEFAULT_255_2_778
10
26.5911503
20
44.0531993
11
26.5911503
21
-1.9843007
0
LINE
8
DEFAULT_255_2_778
10
25.7973503
20
-2.7781007
11
3.5723503
21
-2.7781007
0
LINE
8
DEFAULT_255_2_778
10
2.7786503
20
-1.9843007
11
2.7786503
21
44.0531993
0
LINE
8
DEFAULT_255_1_234
10
9.1777657
20
-0.0296435
11
9.1777657
21
-0.1043386
0
LINE
8
DEFAULT_255_1_234
10
8.9729563
20
-0.5878493
11
9.1817815
21
-0.7516967
0
LINE
8
DEFAULT_255_1_234
10
9.1817815
20
-0.7516967
11
9.0765658
21
-0.8488808
0
LINE
8
DEFAULT_255_1_234
10
9.0765658
20
-0.8488808
11
8.8299914
21
-0.6529063
0
LINE
8
DEFAULT_255_1_234
10
8.2364459
20
-0.1147799
11
8.2364459
21
-0.0304466
0
LINE
8
DEFAULT_255_1_234
10
9.0235563
20
-0.1155831
11
9.0235563
21
-0.0288403
0
LINE
8
DEFAULT_255_1_234
10
8.3906553
20
-0.018399
11
8.3906553
21
-0.1043386
0
ARC
8
DEFAULT_255_1_234
10
8.2823909
20
-0.1082293
40
0.8953833
50
351.453011
51
0.2489685
0
ARC
8
DEFAULT_255_1_234
10
8.5408709
20
-0.1482067
40
0.6338333
50
338.6861641
51
351.5540711
0
ARC
8
DEFAULT_255_1_234
10
8.6342593
20
-0.1812172
40
0.5348431
50
336.2887631
51
338.3442418
0
ARC
8
DEFAULT_255_1_234
10
8.6682215
20
-0.1998302
40
0.4962747
50
321.1170344
51
336.6795229
0
ARC
8
DEFAULT_255_1_234
10
8.7314044
20
-0.2484794
40
0.4165565
50
305.4419708
51
320.8705636
0
ARC
8
DEFAULT_255_1_234
10
8.7117514
20
-0.1737293
40
0.4935497
50
271.6373023
51
283.8611969
0
ARC
8
DEFAULT_255_1_234
10
8.7079767
20
-0.1081428
40
0.5592206
50
269.9930596
51
271.8318864
0
ARC
8
DEFAULT_255_1_234
10
8.704221
20
-0.1889319
40
0.4784458
50
252.5219675
51
270.4416499
0
ARC
8
DEFAULT_255_1_234
10
8.6898469
20
-0.2428408
40
0.422716
50
237.5352116
51
252.1857531
0
ARC
8
DEFAULT_255_1_234
10
8.6987665
20
-0.2314637
40
0.4371052
50
209.063312
51
237.3492538
0
ARC
8
DEFAULT_255_1_234
10
8.7857513
20
-0.1768315
40
0.5397041
50
205.1183774
51
209.6470015
0
ARC
8
DEFAULT_255_1_234
10
8.865455
20
-0.143017
40
0.6262326
50
188.7215458
51
204.8240747
0
ARC
8
DEFAULT_255_1_234
10
9.0652078
20
-0.1093933
40
0.8287794
50
180.3723947
51
188.9252049
0
ARC
8
DEFAULT_255_1_234
10
9.062483
20
-0.0264598
40
0.8260467
50
169.5253763
51
180.2765336
0
ARC
8
DEFAULT_255_1_234
10
8.8722279
20
0.0085309
40
0.6326007
50
155.8315255
51
169.5089989
0
ARC
8
DEFAULT_255_1_234
10
8.744178
20
0.0679348
40
0.4914567
50
139.6258461
51
156.0379525
0
ARC
8
DEFAULT_255_1_234
10
8.6852113
20
0.1153799
40
0.4158054
50
122.6416387
51
139.3430715
0
ARC
8
DEFAULT_255_1_234
10
8.6952733
20
0.0970451
40
0.4366739
50
93.0223692
51
122.455762
0
ARC
8
DEFAULT_255_1_234
10
8.706073
20
0.0005709
40
0.5336137
50
89.975342
51
93.6341897
0
ARC
8
DEFAULT_255_1_234
10
8.7099616
20
0.0385375
40
0.4956606
50
73.9665422
51
90.4229648
0
ARC
8
DEFAULT_255_1_234
10
8.7283263
20
0.1100451
40
0.4218674
50
57.5178019
51
73.6813337
0
ARC
8
DEFAULT_255_1_234
10
8.7239046
20
0.1064462
40
0.4272816
50
28.7261108
51
57.2767933
0
ARC
8
DEFAULT_255_1_234
10
8.6328378
20
0.0501688
40
0.534218
50
24.2448911
51
29.3248482
0
ARC
8
DEFAULT_255_1_234
10
8.5402479
20
0.0118819
40
0.6343711
50
9.064382
51
23.9639114
0
ARC
8
DEFAULT_255_1_234
10
8.3146807
20
-0.0260075
40
0.8630926
50
359.7586264
51
9.1891435
0
ARC
8
DEFAULT_255_1_234
10
8.1892287
20
-0.0246657
40
0.834338
50
359.7133237
51
7.96545
0
ARC
8
DEFAULT_255_1_234
10
8.4854504
20
0.0180681
40
0.5350538
50
7.8291991
51
20.0421623
0
ARC
8
DEFAULT_255_1_234
10
8.6479067
20
0.0771606
40
0.3621841
50
20.0677553
51
35.9161685
0
ARC
8
DEFAULT_255_1_234
10
8.7254105
20
0.134767
40
0.2656263
50
35.6594382
51
85.1578074
0
ARC
8
DEFAULT_255_1_234
10
8.7069361
20
0.0232378
40
0.3784238
50
83.7959068
51
90.095906
0
ARC
8
DEFAULT_255_1_234
10
8.7026295
20
0.0965601
40
0.3051229
50
89.3102392
51
109.9889877
0
ARC
8
DEFAULT_255_1_234
10
8.6943778
20
0.1321433
40
0.2688988
50
110.9285147
51
143.9411762
0
ARC
8
DEFAULT_255_1_234
10
8.7874724
20
0.0609236
40
0.3860887
50
143.5289163
51
163.2980757
0
ARC
8
DEFAULT_255_1_234
10
8.9782545
20
0.0009433
40
0.5860659
50
163.0418846
51
174.3140048
0
ARC
8
DEFAULT_255_1_234
10
9.2186657
20
-0.0268146
40
0.8280531
50
174.0509143
51
179.4176892
0
ARC
8
DEFAULT_255_1_234
10
9.1672992
20
-0.1086366
40
0.7766558
50
179.6829237
51
188.9631324
0
ARC
8
DEFAULT_255_1_234
10
8.9002553
20
-0.1521248
40
0.5060992
50
188.8100743
51
202.9300012
0
ARC
8
DEFAULT_255_1_234
10
8.7786182
20
-0.2016145
40
0.3747967
50
203.2069261
51
215.7876482
0
ARC
8
DEFAULT_255_1_234
10
8.6937579
20
-0.2687329
40
0.2667526
50
214.7521006
51
264.2834488
0
ARC
8
DEFAULT_255_1_234
10
8.7073234
20
-0.183222
40
0.3532247
50
263.4755397
51
270.0949833
0
ARC
8
DEFAULT_255_1_234
10
8.7115345
20
-0.2093626
40
0.3271036
50
269.3649385
51
287.5152008
0
ARC
8
DEFAULT_255_1_234
10
8.7293503
20
-0.2740762
40
0.2600406
50
288.0630309
51
323.8113348
0
ARC
8
DEFAULT_255_1_234
10
8.6422345
20
-0.2090951
40
0.3687189
50
323.6547608
51
342.6590488
0
ARC
8
DEFAULT_255_1_234
10
8.439096
20
-0.1430048
40
0.5823286
50
342.4091907
51
353.6451149
0
ARC
8
DEFAULT_255_1_234
10
8.1559471
20
-0.107781
40
0.8676442
50
353.4029884
51
359.4847795
0
LINE
8
DEFAULT_255_1_234
10
10.191371
20
0.1799849
11
10.0363585
21
0.1799849
0
LINE
8
DEFAULT_255_1_234
10
9.3440227
20
-0.3123606
11
9.4990352
21
-0.3123606
0
ARC
8
DEFAULT_255_1_234
10
10.1022398
20
1.0746768
40
1.252368
50
248.9199003
51
254.1439814
0
ARC
8
DEFAULT_255_1_234
10
9.9341893
20
0.6420234
40
0.788226
50
241.633709
51
249.0064503
0
ARC
8
DEFAULT_255_1_234
10
9.7813287
20
0.3619317
40
0.4691427
50
230.498225
51
241.8087113
0
ARC
8
DEFAULT_255_1_234
10
9.7028861
20
0.2619906
40
0.3421437
50
227.4064532
51
229.9881192
0
ARC
8
DEFAULT_255_1_234
10
9.6541382
20
0.2144088
40
0.2741476
50
200.6781896
51
228.1763934
0
ARC
8
DEFAULT_255_1_234
10
9.6613693
20
0.2129077
40
0.2804109
50
179.5061581
51
199.8694617
0
ARC
8
DEFAULT_255_1_234
10
9.6604444
20
0.220321
40
0.2795204
50
132.4834203
51
181.0242172
0
ARC
8
DEFAULT_255_1_234
10
9.7200027
20
0.1640704
40
0.3612768
50
129.2532479
51
133.4242687
0
ARC
8
DEFAULT_255_1_234
10
9.7346476
20
0.1420965
40
0.3875675
50
101.98776
51
128.8742646
0
ARC
8
DEFAULT_255_1_234
10
9.7745087
20
-0.0300259
40
0.5642249
50
89.5906553
51
102.3169264
0
ARC
8
DEFAULT_255_1_234
10
9.7815579
20
0.0018148
40
0.5323783
50
77.2360837
51
90.3248275
0
ARC
8
DEFAULT_255_1_234
10
9.8022658
20
0.09854
40
0.4334697
50
63.837784
51
77.0809408
0
ARC
8
DEFAULT_255_1_234
10
9.830042
20
0.1502911
40
0.3747796
50
45.9864267
51
64.1607727
0
ARC
8
DEFAULT_255_1_234
10
9.8561301
20
0.1800866
40
0.3352302
50
32.2747395
51
45.6547121
0
ARC
8
DEFAULT_255_1_234
10
9.8627742
20
0.181988
40
0.328603
50
359.6507365
51
32.6130309
0
ARC
8
DEFAULT_255_1_234
10
9.7684837
20
0.182466
40
0.2678863
50
359.469343
51
14.9832209
0
ARC
8
DEFAULT_255_1_234
10
9.83899
20
0.2013539
40
0.1948938
50
14.9781179
51
48.2004265
0
ARC
8
DEFAULT_255_1_234
10
9.8225544
20
0.1806983
40
0.2212521
50
48.5927837
51
74.1241538
0
ARC
8
DEFAULT_255_1_234
10
9.7892033
20
0.0706248
40
0.3362561
50
73.7888341
51
86.6652678
0
ARC
8
DEFAULT_255_1_234
10
9.7789599
20
-0.0501119
40
0.4573953
50
86.2640471
51
90.0526343
0
ARC
8
DEFAULT_255_1_234
10
9.7761311
20
-0.0105808
40
0.4178709
50
89.6697524
51
99.2309573
0
ARC
8
DEFAULT_255_1_234
10
9.7518762
20
0.1338964
40
0.2713749
50
99.069534
51
113.7658566
0
ARC
8
DEFAULT_255_1_234
10
9.7244953
20
0.1984677
40
0.2012469
50
114.0401004
51
127.9850673
0
ARC
8
DEFAULT_255_1_234
10
9.7004517
20
0.228073
40
0.1631167
50
127.7287463
51
176.7105154
0
ARC
8
DEFAULT_255_1_234
10
9.7683235
20
0.2179693
40
0.2315392
50
175.1779447
51
180.0581938
0
ARC
8
DEFAULT_255_1_234
10
9.6840082
20
0.2167428
40
0.1472271
50
179.6142195
51
228.1246017
0
ARC
8
DEFAULT_255_1_234
10
9.728175
20
0.2576308
40
0.2072299
50
226.5779593
51
230.8800004
0
ARC
8
DEFAULT_255_1_234
10
9.7752829
20
0.3201636
40
0.2854818
50
231.4635071
51
241.9260842
0
ARC
8
DEFAULT_255_1_234
10
9.8950007
20
0.54048
40
0.53622
50
241.7178533
51
248.3259551
0
ARC
8
DEFAULT_255_1_234
10
10.0335379
20
0.8837064
40
0.9063478
50
248.2007737
51
252.4528373
0
ARC
8
DEFAULT_255_1_234
10
10.1539104
20
1.2558441
40
1.2974635
50
252.3391078
51
254.3469452
0
ARC
8
DEFAULT_255_1_234
10
9.3996806
20
-1.4418852
40
1.5037162
50
71.0197183
51
74.4087047
0
ARC
8
DEFAULT_255_1_234
10
9.5691491
20
-0.9526889
40
0.9859993
50
66.1847285
51
71.086374
0
ARC
8
DEFAULT_255_1_234
10
9.7247804
20
-0.60228
40
0.6025855
50
59.3536294
51
66.2691831
0
ARC
8
DEFAULT_255_1_234
10
9.8136456
20
-0.4519391
40
0.4279449
50
49.1020879
51
59.3293958
0
ARC
8
DEFAULT_255_1_234
10
9.8955196
20
-0.3586166
40
0.3038015
50
32.7919921
51
49.2505539
0
ARC
8
DEFAULT_255_1_234
10
9.9276286
20
-0.3357809
40
0.264448
50
31.1181161
51
32.4005348
0
ARC
8
DEFAULT_255_1_234
10
9.9187824
20
-0.3393221
40
0.2738556
50
8.1116974
51
30.7958831
0
ARC
8
DEFAULT_255_1_234
10
9.8377492
20
-0.3531247
40
0.3560327
50
359.8389159
51
8.4706516
0
ARC
8
DEFAULT_255_1_234
10
9.9003283
20
-0.3579863
40
0.2934776
50
337.4731098
51
0.7537279
0
ARC
8
DEFAULT_255_1_234
10
9.9181978
20
-0.3599613
40
0.2762607
50
307.5917067
51
336.4315538
0
ARC
8
DEFAULT_255_1_234
10
9.8721806
20
-0.3086898
40
0.3449979
50
307.6551545
51
308.4529766
0
ARC
8
DEFAULT_255_1_234
10
9.8491525
20
-0.273175
40
0.3871988
50
284.3734338
51
307.1424381
0
ARC
8
DEFAULT_255_1_234
10
9.7996355
20
-0.0910068
40
0.5759636
50
272.4382747
51
284.646547
0
ARC
8
DEFAULT_255_1_234
10
9.7869564
20
0.0889893
40
0.7563528
50
269.9708387
51
272.8178037
0
ARC
8
DEFAULT_255_1_234
10
9.7826604
20
-0.1148284
40
0.5525489
50
248.2707594
51
270.4055579
0
ARC
8
DEFAULT_255_1_234
10
9.7772345
20
-0.1338808
40
0.5328452
50
246.1383403
51
248.0542782
0
ARC
8
DEFAULT_255_1_234
10
9.7353724
20
-0.2218157
40
0.4355005
50
233.1670131
51
246.4950969
0
ARC
8
DEFAULT_255_1_234
10
9.6799629
20
-0.2966188
40
0.3424126
50
215.3403242
51
233.0843104
0
ARC
8
DEFAULT_255_1_234
10
9.652706
20
-0.3164451
40
0.3087104
50
179.2419209
51
215.2648451
0
ARC
8
DEFAULT_255_1_234
10
9.7294654
20
-0.3150334
40
0.2304457
50
179.335461
51
199.1045811
0
ARC
8
DEFAULT_255_1_234
10
9.696233
20
-0.3237234
40
0.1962176
50
199.8828939
51
232.7063202
0
ARC
8
DEFAULT_255_1_234
10
9.7434599
20
-0.2643212
40
0.2720938
50
232.3738199
51
255.5136649
0
ARC
8
DEFAULT_255_1_234
10
9.7775465
20
-0.1399165
40
0.4010747
50
255.2446292
51
267.5320849
0
ARC
8
DEFAULT_255_1_234
10
9.7863089
20
-0.0166298
40
0.5246356
50
267.1557994
51
270.0286766
0
ARC
8
DEFAULT_255_1_234
10
9.7890861
20
-0.061005
40
0.4802668
50
269.7000017
51
278.1660162
0
ARC
8
DEFAULT_255_1_234
10
9.8146866
20
-0.2340485
40
0.3053425
50
278.0231263
51
290.625471
0
ARC
8
DEFAULT_255_1_234
10
9.8494553
20
-0.3267975
40
0.206291
50
290.6619762
51
307.0370976
0
ARC
8
DEFAULT_255_1_234
10
9.8794942
20
-0.3636496
40
0.1587906
50
306.3943566
51
355.3030547
0
ARC
8
DEFAULT_255_1_234
10
9.8282873
20
-0.3559887
40
0.2104809
50
354.3660432
51
0.0698737
0
ARC
8
DEFAULT_255_1_234
10
9.8425219
20
-0.3537383
40
0.1962563
50
359.417946
51
16.1971788
0
ARC
8
DEFAULT_255_1_234
10
9.8880529
20
-0.3412582
40
0.149053
50
16.4723299
51
52.6262157
0
ARC
8
DEFAULT_255_1_234
10
9.8059583
20
-0.4496567
40
0.2850296
50
52.7386432
51
62.4979148
0
ARC
8
DEFAULT_255_1_234
10
9.667466
20
-0.7102717
40
0.5801521
50
62.2515216
51
68.1220564
0
ARC
8
DEFAULT_255_1_234
10
9.4954571
20
-1.1330128
40
1.0365451
50
68.0062803
51
71.8053402
0
ARC
8
DEFAULT_255_1_234
10
9.3158942
20
-1.6715242
40
1.6042013
50
71.7183119
51
73.9258742
0
LINE
8
DEFAULT_255_1_234
10
11.0861067
20
0.0402327
11
11.0861067
21
-0.1525291
0
LINE
8
DEFAULT_255_1_234
10
10.3479899
20
-0.1726084
11
10.3479899
21
0.0257755
0
LINE
8
DEFAULT_255_1_234
10
10.9375195
20
-0.1926877
11
10.9375195
21
0.0506739
0
LINE
8
DEFAULT_255_1_234
10
10.4965771
20
0.0619184
11
10.4965771
21
-0.1758211
0
ARC
8
DEFAULT_255_1_234
10
9.8613956
20
-0.1574195
40
1.2247208
50
353.8441951
51
0.2287902
0
ARC
8
DEFAULT_255_1_234
10
10.325346
20
-0.2092194
40
0.7578929
50
344.4934747
51
353.9765454
0
ARC
8
DEFAULT_255_1_234
10
10.624605
20
-0.2943019
40
0.4467846
50
329.2803592
51
344.7472793
0
ARC
8
DEFAULT_255_1_234
10
10.7238875
20
-0.3487982
40
0.3336173
50
324.9352394
51
328.6160465
0
ARC
8
DEFAULT_255_1_234
10
10.7615984
20
-0.3751573
40
0.2876076
50
280.580143
51
324.9173126
0
ARC
8
DEFAULT_255_1_234
10
10.7214776
20
-0.2080901
40
0.4592847
50
269.5977311
51
281.6734359
0
ARC
8
DEFAULT_255_1_234
10
10.7142682
20
-0.2200827
40
0.4472986
50
256.6228859
51
270.51044
0
ARC
8
DEFAULT_255_1_234
10
10.674066
20
-0.3749123
40
0.2873874
50
215.8618325
51
257.2788573
0
ARC
8
DEFAULT_255_1_234
10
10.7761692
20
-0.3064023
40
0.4102928
50
197.9693508
51
215.2623606
0
ARC
8
DEFAULT_255_1_234
10
11.0246807
20
-0.2225291
40
0.6725652
50
187.8816417
51
198.2346507
0
ARC
8
DEFAULT_255_1_234
10
11.4205015
20
-0.1653921
40
1.0724845
50
180.8976217
51
188.0055519
0
ARC
8
DEFAULT_255_1_234
10
11.7005204
20
-0.1550223
40
1.3526448
50
180.7449369
51
181.1510016
0
ARC
8
DEFAULT_255_1_234
10
11.5427933
20
0.0306042
40
1.1948131
50
173.7675579
51
180.231553
0
ARC
8
DEFAULT_255_1_234
10
11.0910079
20
0.0816666
40
0.7401564
50
164.3058563
51
173.9002247
0
ARC
8
DEFAULT_255_1_234
10
10.7998148
20
0.1655656
40
0.4371288
50
148.7922025
51
164.568378
0
ARC
8
DEFAULT_255_1_234
10
10.70466
20
0.2186929
40
0.3282386
50
144.5883898
51
148.1176286
0
ARC
8
DEFAULT_255_1_234
10
10.6703498
20
0.2426315
40
0.2864044
50
101.6440918
51
144.514236
0
ARC
8
DEFAULT_255_1_234
10
10.7128565
20
0.0737069
40
0.4604934
50
89.5284041
51
102.5819763
0
ARC
8
DEFAULT_255_1_234
10
10.7207653
20
0.0698018
40
0.464401
50
77.0437873
51
90.5081339
0
ARC
8
DEFAULT_255_1_234
10
10.7609654
20
0.2340615
40
0.2953195
50
48.2778575
51
77.4994676
0
ARC
8
DEFAULT_255_1_234
10
10.7682286
20
0.2469746
40
0.2808655
50
36.3142134
51
47.6305865
0
ARC
8
DEFAULT_255_1_234
10
10.6813593
20
0.1884515
40
0.3855453
50
18.2931786
51
35.6769206
0
ARC
8
DEFAULT_255_1_234
10
10.4270351
20
0.1011593
40
0.654423
50
8.024666
51
18.5605216
0
ARC
8
DEFAULT_255_1_234
10
10.0107272
20
0.0396792
40
1.0752407
50
1.1274072
51
8.1718305
0
ARC
8
DEFAULT_255_1_234
10
9.6871462
20
0.0269885
40
1.3990231
50
0.5424119
51
1.3863029
0
ARC
8
DEFAULT_255_1_234
10
9.869284
20
0.0542342
40
1.0682415
50
359.8090433
51
4.9407866
0
ARC
8
DEFAULT_255_1_234
10
10.2902854
20
0.0918113
40
0.6455691
50
4.8362157
51
12.2904523
0
ARC
8
DEFAULT_255_1_234
10
10.5657969
20
0.1531965
40
0.3633074
50
12.0805627
51
23.8173984
0
ARC
8
DEFAULT_255_1_234
10
10.6831674
20
0.2028919
40
0.2358723
50
24.2871213
51
31.3935614
0
ARC
8
DEFAULT_255_1_234
10
10.7356371
20
0.2372233
40
0.1732111
50
30.7407893
51
82.4657128
0
ARC
8
DEFAULT_255_1_234
10
10.7176506
20
0.1488691
40
0.263235
50
81.1060089
51
90.2184952
0
ARC
8
DEFAULT_255_1_234
10
10.7140804
20
0.1746924
40
0.2374236
50
89.3806855
51
105.6762551
0
ARC
8
DEFAULT_255_1_234
10
10.6957435
20
0.2413567
40
0.1682847
50
105.7981136
51
149.7388061
0
ARC
8
DEFAULT_255_1_234
10
10.8021513
20
0.177395
40
0.2924306
50
149.4208916
51
163.6286378
0
ARC
8
DEFAULT_255_1_234
10
11.0112401
20
0.113625
40
0.5110213
50
163.3763315
51
172.1410975
0
ARC
8
DEFAULT_255_1_234
10
11.341312
20
0.0663518
40
0.8444586
50
172.0259487
51
178.0703232
0
ARC
8
DEFAULT_255_1_234
10
11.644321
20
0.0519906
40
1.1477868
50
177.8631668
51
179.5044149
0
ARC
8
DEFAULT_255_1_234
10
11.5370614
20
-0.1794611
40
1.0404907
50
179.7995573
51
185.2460446
0
ARC
8
DEFAULT_255_1_234
10
11.1327654
20
-0.2177487
40
0.6343885
50
185.1411642
51
193.0079639
0
ARC
8
DEFAULT_255_1_234
10
10.8684126
20
-0.2802359
40
0.3627568
50
192.7897626
51
205.2507664
0
ARC
8
DEFAULT_255_1_234
10
10.7637673
20
-0.3269585
40
0.2481908
50
205.8005384
51
211.2537509
0
ARC
8
DEFAULT_255_1_234
10
10.7114114
20
-0.362042
40
0.1852521
50
210.3789793
51
238.4008143
0
ARC
8
DEFAULT_255_1_234
10
10.7094636
20
-0.3573624
40
0.1882621
50
239.6520629
51
265.9793761
0
ARC
8
DEFAULT_255_1_234
10
10.7179836
20
-0.2901573
40
0.2559272
50
265.1315437
51
270.060332
0
ARC
8
DEFAULT_255_1_234
10
10.7208615
20
-0.3225466
40
0.2235528
50
269.3314664
51
287.2178029
0
ARC
8
DEFAULT_255_1_234
10
10.7346467
20
-0.3728721
40
0.1714108
50
287.7958004
51
329.080874
0
ARC
8
DEFAULT_255_1_234
10
10.6388923
20
-0.313107
40
0.2842745
50
328.6634704
51
343.3325132
0
ARC
8
DEFAULT_255_1_234
10
10.4215943
20
-0.2454137
40
0.5118644
50
343.0499468
51
351.9393422
0
ARC
8
DEFAULT_255_1_234
10
10.0749243
20
-0.1943051
40
0.8622784
50
351.8069023
51
357.7959224
0
ARC
8
DEFAULT_255_1_234
10
9.7513799
20
-0.1775279
40
1.1862365
50
357.5871873
51
359.2677531
0
LINE
8
DEFAULT_255_1_234
10
11.8049473
20
-0.3123606
11
11.8049473
21
0.5181211
0
LINE
8
DEFAULT_255_1_234
10
11.8049473
20
0.5181211
11
11.9599598
21
0.5181211
0
LINE
8
DEFAULT_255_1_234
10
11.9599598
20
0.5181211
11
11.9599598
21
-0.3099511
0
LINE
8
DEFAULT_255_1_234
10
11.2218431
20
-0.3284241
11
11.3760524
21
-0.3284241
0
ARC
8
DEFAULT_255_1_234
10
11.5108783
20
-0.3137911
40
0.4490979
50
346.3129415
51
0.4899112
0
ARC
8
DEFAULT_255_1_234
10
11.6477132
20
-0.3488271
40
0.3078632
50
313.3793358
51
346.6225026
0
ARC
8
DEFAULT_255_1_234
10
11.6276319
20
-0.3235478
40
0.3400404
50
281.1587967
51
312.9131091
0
ARC
8
DEFAULT_255_1_234
10
11.5935783
20
-0.1740815
40
0.4932916
50
269.6424364
51
281.6795951
0
ARC
8
DEFAULT_255_1_234
10
11.5867148
20
-0.1191618
40
0.5482147
50
258.9990078
51
270.3955952
0
ARC
8
DEFAULT_255_1_234
10
11.5492451
20
-0.3040254
40
0.359601
50
239.6256123
51
259.238693
0
ARC
8
DEFAULT_255_1_234
10
11.5203534
20
-0.3585331
40
0.2979777
50
227.4959765
51
239.1188186
0
ARC
8
DEFAULT_255_1_234
10
11.51661
20
-0.3646311
40
0.2909561
50
191.339631
51
227.2280909
0
ARC
8
DEFAULT_255_1_234
10
11.6570741
20
-0.3313969
40
0.4352412
50
179.6086538
51
191.9934722
0
ARC
8
DEFAULT_255_1_234
10
11.6704763
20
-0.3306573
40
0.2944324
50
179.5654258
51
192.070398
0
ARC
8
DEFAULT_255_1_234
10
11.5733253
20
-0.3524921
40
0.194866
50
191.7656467
51
215.6461951
0
ARC
8
DEFAULT_255_1_234
10
11.5554754
20
-0.3632454
40
0.1741017
50
216.1938368
51
224.3931108
0
ARC
8
DEFAULT_255_1_234
10
11.556164
20
-0.3605527
40
0.1764834
50
224.8613677
51
254.362656
0
ARC
8
DEFAULT_255_1_234
10
11.5832354
20
-0.271099
40
0.2699302
50
253.9471729
51
267.3949949
0
ARC
8
DEFAULT_255_1_234
10
11.5902861
20
-0.1786933
40
0.362572
50
266.9456419
51
270.0337791
0
ARC
8
DEFAULT_255_1_234
10
11.5928242
20
-0.294877
40
0.2463991
50
269.4595111
51
286.1822844
0
ARC
8
DEFAULT_255_1_234
10
11.6069531
20
-0.3466953
40
0.1926982
50
286.4416479
51
315.8044008
0
ARC
8
DEFAULT_255_1_234
10
11.6015338
20
-0.3424793
40
0.1995241
50
316.0212565
51
345.4794351
0
ARC
8
DEFAULT_255_1_234
10
11.5044845
20
-0.3151425
40
0.3003349
50
345.0729543
51
358.325089
0
ARC
8
DEFAULT_255_1_234
10
11.4168816
20
-0.3095432
40
0.3880759
50
357.8767804
51
359.5840246
0
LINE
8
DEFAULT_255_1_234
10
12.7406448
20
0.5189243
11
12.7671495
21
0.5189243
0
LINE
8
DEFAULT_255_1_234
10
12.7671495
20
0.5189243
11
12.7671495
21
0.392826
0
LINE
8
DEFAULT_255_1_234
10
12.7671495
20
0.392826
11
12.7398416
21
0.392826
0
LINE
8
DEFAULT_255_1_234
10
12.1928802
20
-0.2063417
11
12.1928802
21
-0.1493164
0
LINE
8
DEFAULT_255_1_234
10
12.3422706
20
-0.1685925
11
12.3422706
21
-0.2232083
0
ARC
8
DEFAULT_255_1_234
10
12.7450764
20
-0.1069545
40
0.4998079
50
90.6001036
51
104.514704
0
ARC
8
DEFAULT_255_1_234
10
12.7062279
20
0.0375131
40
0.3502176
50
104.2855254
51
133.862935
0
ARC
8
DEFAULT_255_1_234
10
12.7226037
20
0.026683
40
0.3693984
50
134.5302688
51
161.6210873
0
ARC
8
DEFAULT_255_1_234
10
12.8879225
20
-0.0316105
40
0.5446739
50
161.2849839
51
174.2076652
0
ARC
8
DEFAULT_255_1_234
10
13.0286163
20
-0.0510213
40
0.6866274
50
173.7810589
51
174.9254635
0
ARC
8
DEFAULT_255_1_234
10
12.5735994
20
-0.1893161
40
0.3033419
50
95.8330959
51
138.9954921
0
ARC
8
DEFAULT_255_1_234
10
12.595935
20
-0.3171625
40
0.4328947
50
89.8753725
51
97.0544009
0
ARC
8
DEFAULT_255_1_234
10
12.6006817
20
-0.2336252
40
0.3493769
50
71.6407809
51
90.6240094
0
ARC
8
DEFAULT_255_1_234
10
12.615739
20
-0.1781918
40
0.2920396
50
39.6367836
51
71.019018
0
ARC
8
DEFAULT_255_1_234
10
12.5520863
20
-0.2332002
40
0.3761538
50
10.658731
51
39.9043955
0
ARC
8
DEFAULT_255_1_234
10
12.3972946
20
-0.2668314
40
0.5345136
50
359.682601
51
11.132623
0
ARC
8
DEFAULT_255_1_234
10
12.3933077
20
-0.273899
40
0.5385081
50
347.2486944
51
0.4369317
0
ARC
8
DEFAULT_255_1_234
10
12.5600554
20
-0.3140193
40
0.3670249
50
318.1409698
51
347.6118597
0
ARC
8
DEFAULT_255_1_234
10
12.5925547
20
-0.3407298
40
0.3250007
50
275.6342139
51
317.8248465
0
ARC
8
DEFAULT_255_1_234
10
12.5704658
20
-0.2107781
40
0.4565864
50
269.8874292
51
276.7917694
0
ARC
8
DEFAULT_255_1_234
10
12.5649729
20
-0.3133257
40
0.3540676
50
246.9140195
51
270.7437342
0
ARC
8
DEFAULT_255_1_234
10
12.5656119
20
-0.3275616
40
0.3412781
50
218.1665114
51
245.878116
0
ARC
8
DEFAULT_255_1_234
10
12.653558
20
-0.2539721
40
0.455911
50
191.4115814
51
218.6077802
0
ARC
8
DEFAULT_255_1_234
10
12.8473669
20
-0.2105167
40
0.6545001
50
179.6345085
51
191.7836486
0
ARC
8
DEFAULT_255_1_234
10
13.4056006
20
-0.1426303
40
1.2127388
50
171.4525249
51
180.3158839
0
ARC
8
DEFAULT_255_1_234
10
12.9660881
20
-0.0742392
40
0.7679464
50
157.9802646
51
171.6246686
0
ARC
8
DEFAULT_255_1_234
10
12.7446902
20
0.0140421
40
0.5296008
50
141.4298019
51
157.854097
0
ARC
8
DEFAULT_255_1_234
10
12.6805223
20
0.0594381
40
0.4511509
50
102.8715806
51
140.8564722
0
ARC
8
DEFAULT_255_1_234
10
12.7452838
20
-0.1845448
40
0.7034845
50
90.3778349
51
103.5869322
0
ARC
8
DEFAULT_255_1_234
10
12.5714615
20
-0.245027
40
0.2370698
50
89.8751008
51
126.2071704
0
ARC
8
DEFAULT_255_1_234
10
12.5760404
20
-0.2604697
40
0.2522934
50
124.9745049
51
144.895901
0
ARC
8
DEFAULT_255_1_234
10
12.5584595
20
-0.246144
40
0.2296779
50
145.2974905
51
160.2660252
0
ARC
8
DEFAULT_255_1_234
10
12.8657134
20
-0.2263929
40
0.5234525
50
179.6514266
51
190.2855912
0
ARC
8
DEFAULT_255_1_234
10
12.6963271
20
-0.2583214
40
0.3510893
50
190.0945431
51
207.5098196
0
ARC
8
DEFAULT_255_1_234
10
12.6397541
20
-0.2852377
40
0.288489
50
207.9583163
51
216.3251085
0
ARC
8
DEFAULT_255_1_234
10
12.6057649
20
-0.3131895
40
0.2445587
50
215.7661442
51
232.5456785
0
ARC
8
DEFAULT_255_1_234
10
12.5674632
20
-0.3618518
40
0.1826382
50
232.8005391
51
270.6605633
0
ARC
8
DEFAULT_255_1_234
10
12.5720332
20
-0.3254388
40
0.2190529
50
269.35537
51
288.4744281
0
ARC
8
DEFAULT_255_1_234
10
12.581323
20
-0.3603882
40
0.1829749
50
289.1833337
51
322.9683818
0
ARC
8
DEFAULT_255_1_234
10
12.5201752
20
-0.3121609
40
0.2608399
50
322.6007884
51
346.5182367
0
ARC
8
DEFAULT_255_1_234
10
12.4044348
20
-0.2826384
40
0.3802777
50
346.2582162
51
358.7741648
0
ARC
8
DEFAULT_255_1_234
10
12.3026017
20
-0.2771035
40
0.4822176
50
358.3755224
51
0.0098023
0
ARC
8
DEFAULT_255_1_234
10
12.3782204
20
-0.2743343
40
0.4066078
50
359.6214041
51
11.2839074
0
ARC
8
DEFAULT_255_1_234
10
12.5059351
20
-0.2476934
40
0.2761514
50
11.0482309
51
31.8146458
0
ARC
8
DEFAULT_255_1_234
10
12.5368394
20
-0.2309416
40
0.2410679
50
32.3035391
51
38.082671
0
ARC
8
DEFAULT_255_1_234
10
12.5789054
20
-0.1928338
40
0.1844966
50
36.825067
51
85.7415724
0
ARC
8
DEFAULT_255_1_234
10
12.5721887
20
-0.2428699
40
0.2349122
50
85.0140713
51
90.0513278
0
LINE
8
DEFAULT_255_1_234
10
13.2948347
20
-0.0955037
11
13.175965
21
-0.0649831
0
LINE
8
DEFAULT_255_1_234
10
13.175965
20
-0.0649831
11
13.2353999
21
0.5181211
0
LINE
8
DEFAULT_255_1_234
10
13.2353999
20
0.5181211
11
13.8345675
21
0.5181211
0
LINE
8
DEFAULT_255_1_234
10
13.8345675
20
0.5181211
11
13.8345675
21
0.3807784
0
LINE
8
DEFAULT_255_1_234
10
13.8345675
20
0.3807784
11
13.3614981
21
0.3807784
0
LINE
8
DEFAULT_255_1_234
10
13.3614981
20
0.3807784
11
13.3261585
21
0.0619184
0
LINE
8
DEFAULT_255_1_234
10
13.1342
20
-0.3436844
11
13.2747554
21
-0.3436844
0
LINE
8
DEFAULT_255_1_234
10
13.3341902
20
-0.0633768
11
13.2948347
21
-0.0955037
0
ARC
8
DEFAULT_255_1_234
10
13.5116369
20
-0.256077
40
0.3681349
50
93.7182161
51
120.2538958
0
ARC
8
DEFAULT_255_1_234
10
13.5210632
20
-0.3368606
40
0.449379
50
89.9660152
51
94.2496022
0
ARC
8
DEFAULT_255_1_234
10
13.5251366
20
-0.2779451
40
0.390482
50
73.8043271
51
90.5585896
0
ARC
8
DEFAULT_255_1_234
10
13.5486263
20
-0.1921398
40
0.3015334
50
41.3071453
51
73.5430202
0
ARC
8
DEFAULT_255_1_234
10
13.507009
20
-0.2279676
40
0.3564457
50
13.5075983
51
41.2174222
0
ARC
8
DEFAULT_255_1_234
10
13.3428294
20
-0.2709514
40
0.5261351
50
1.1331335
51
13.8829381
0
ARC
8
DEFAULT_255_1_234
10
13.2016663
20
-0.2785335
40
0.6674378
50
359.9919444
51
1.544251
0
ARC
8
DEFAULT_255_1_234
10
13.3293489
20
-0.282672
40
0.5397702
50
347.8572367
51
0.4293338
0
ARC
8
DEFAULT_255_1_234
10
13.5043807
20
-0.3223264
40
0.3603188
50
323.673004
51
348.1672506
0
ARC
8
DEFAULT_255_1_234
10
13.5338315
20
-0.3402832
40
0.3259678
50
316.8171152
51
323.1492751
0
ARC
8
DEFAULT_255_1_234
10
13.5399504
20
-0.343954
40
0.3189975
50
281.8396411
51
316.5457803
0
ARC
8
DEFAULT_255_1_234
10
13.5023767
20
-0.1884238
40
0.4789527
50
269.5770101
51
282.4214771
0
ARC
8
DEFAULT_255_1_234
10
13.4952579
20
-0.2097875
40
0.45759
50
256.2427136
51
270.4486331
0
ARC
8
DEFAULT_255_1_234
10
13.4653481
20
-0.3297771
40
0.3339303
50
228.9023911
51
256.3314342
0
ARC
8
DEFAULT_255_1_234
10
13.4579714
20
-0.3414254
40
0.32031
50
193.753695
51
228.5271154
0
ARC
8
DEFAULT_255_1_234
10
13.5817668
20
-0.30512
40
0.4492253
50
184.924711
51
194.497588
0
ARC
8
DEFAULT_255_1_234
10
13.6010235
20
-0.3015409
40
0.3289787
50
187.3600538
51
198.6732863
0
ARC
8
DEFAULT_255_1_234
10
13.4960529
20
-0.3379326
40
0.217884
50
198.4451669
51
217.794479
0
ARC
8
DEFAULT_255_1_234
10
13.4664704
20
-0.3588915
40
0.1816698
50
218.2887171
51
228.5612368
0
ARC
8
DEFAULT_255_1_234
10
13.4762491
20
-0.3457037
40
0.1980329
50
228.9654866
51
258.1234728
0
ARC
8
DEFAULT_255_1_234
10
13.4968201
20
-0.2576167
40
0.2884748
50
257.7258293
51
270.401361
0
ARC
8
DEFAULT_255_1_234
10
13.5013087
20
-0.3021179
40
0.2439788
50
269.4204404
51
286.4209037
0
ARC
8
DEFAULT_255_1_234
10
13.5161575
20
-0.3560343
40
0.1880666
50
286.7251356
51
320.600362
0
ARC
8
DEFAULT_255_1_234
10
13.47784
20
-0.3249405
40
0.2374121
50
320.6712579
51
344.5441685
0
ARC
8
DEFAULT_255_1_234
10
13.3621726
20
-0.2909955
40
0.3579479
50
344.2412205
51
356.7357071
0
ARC
8
DEFAULT_255_1_234
10
13.2372875
20
-0.2806556
40
0.4832297
50
356.3548756
51
0.0500261
0
ARC
8
DEFAULT_255_1_234
10
13.3709384
20
-0.277535
40
0.3495889
50
359.5576869
51
12.953486
0
ARC
8
DEFAULT_255_1_234
10
13.4764281
20
-0.2519566
40
0.2410532
50
12.6490276
51
41.6081334
0
ARC
8
DEFAULT_255_1_234
10
13.4994652
20
-0.2323679
40
0.2108218
50
41.7850273
51
85.9892764
0
ARC
8
DEFAULT_255_1_234
10
13.4871389
20
-0.3136538
40
0.2928454
50
84.6957577
51
90.0676183
0
ARC
8
DEFAULT_255_1_234
10
13.4847873
20
-0.3805284
40
0.3597255
50
89.6804936
51
99.1614436
0
ARC
8
DEFAULT_255_1_234
10
13.4642504
20
-0.2577869
40
0.235281
50
98.9830931
51
113.8908934
0
ARC
8
DEFAULT_255_1_234
10
13.4412914
20
-0.2036413
40
0.176479
50
114.1950727
51
127.3641004
0
LINE
8
DEFAULT_255_1_234
10
14.4755002
20
-0.6513
11
14.0698975
21
-0.6513
0
LINE
8
DEFAULT_255_1_234
10
14.0698975
20
-0.6513
11
14.0698975
21
0.5181211
0
LINE
8
DEFAULT_255_1_234
10
14.0698975
20
0.5181211
11
14.4522082
21
0.5181211
0
LINE
8
DEFAULT_255_1_234
10
14.4811225
20
-0.1043386
11
14.2241068
21
-0.1043386
0
LINE
8
DEFAULT_255_1_234
10
14.2241068
20
-0.1043386
11
14.2241068
21
-0.5252017
0
LINE
8
DEFAULT_255_1_234
10
14.2241068
20
-0.5252017
11
14.4787129
21
-0.5252017
0
LINE
8
DEFAULT_255_1_234
10
14.2241068
20
0.3912196
11
14.2241068
21
0.0193501
0
LINE
8
DEFAULT_255_1_234
10
14.2241068
20
0.0193501
11
14.4570272
21
0.0193501
0
LINE
8
DEFAULT_255_1_234
10
14.4522082
20
0.3912196
11
14.2241068
21
0.3912196
0
ARC
8
DEFAULT_255_1_234
10
14.4559791
20
-0.2186099
40
0.7367406
50
82.1257326
51
90.2932599
0
ARC
8
DEFAULT_255_1_234
10
14.4948745
20
0.0532013
40
0.4621653
50
69.9044149
51
82.2857423
0
ARC
8
DEFAULT_255_1_234
10
14.5519423
20
0.2074637
40
0.2976871
50
51.1838526
51
70.0181538
0
ARC
8
DEFAULT_255_1_234
10
14.5774389
20
0.244524
40
0.2528517
50
12.1017251
51
50.4214761
0
ARC
8
DEFAULT_255_1_234
10
14.4390263
20
0.2097676
40
0.3955061
50
359.5251267
51
12.8211707
0
ARC
8
DEFAULT_255_1_234
10
14.597019
20
0.2028344
40
0.2375281
50
323.4908128
51
0.8817314
0
ARC
8
DEFAULT_255_1_234
10
14.5551877
20
0.235155
40
0.2903817
50
298.6825083
51
323.2756573
0
ARC
8
DEFAULT_255_1_234
10
14.519024
20
0.2952649
40
0.3604842
50
293.1999386
51
299.1396394
0
ARC
8
DEFAULT_255_1_234
10
14.5863213
20
-0.3132874
40
0.2871098
50
54.0011765
51
74.9167975
0
ARC
8
DEFAULT_255_1_234
10
14.5979572
20
-0.2935668
40
0.2643248
50
36.3580696
51
53.5291921
0
ARC
8
DEFAULT_255_1_234
10
14.5852814
20
-0.3026002
40
0.2798884
50
4.8189881
51
36.3089977
0
ARC
8
DEFAULT_255_1_234
10
14.5073649
20
-0.313573
40
0.358478
50
359.9370252
51
5.5204067
0
ARC
8
DEFAULT_255_1_234
10
14.4749171
20
-0.3176333
40
0.3909429
50
344.7478609
51
0.5373281
0
ARC
8
DEFAULT_255_1_234
10
14.5740142
20
-0.3443456
40
0.2883093
50
311.1786488
51
344.6886812
0
ARC
8
DEFAULT_255_1_234
10
14.5448189
20
-0.3080013
40
0.3348923
50
286.0418249
51
310.8441291
0
ARC
8
DEFAULT_255_1_234
10
14.4941021
20
-0.1433193
40
0.5071869
50
274.1042341
51
286.4071509
0
ARC
8
DEFAULT_255_1_234
10
14.4764277
20
0.0450229
40
0.6963234
50
269.9236873
51
274.445647
0
ARC
8
DEFAULT_255_1_234
10
14.4810278
20
-0.1889463
40
0.3362634
50
269.6055768
51
281.3740047
0
ARC
8
DEFAULT_255_1_234
10
14.5040916
20
-0.2982647
40
0.224546
50
281.1055983
51
302.5132223
0
ARC
8
DEFAULT_255_1_234
10
14.5187815
20
-0.3246177
40
0.1944357
50
303.0368945
51
311.8811219
0
ARC
8
DEFAULT_255_1_234
10
14.5259222
20
-0.333111
40
0.1833454
50
311.9916004
51
351.7143462
0
ARC
8
DEFAULT_255_1_234
10
14.4442452
20
-0.316607
40
0.2665871
50
350.7339597
51
0.2221581
0
ARC
8
DEFAULT_255_1_234
10
14.4334898
20
-0.3109533
40
0.2773789
50
359.0456241
51
17.2296242
0
ARC
8
DEFAULT_255_1_234
10
14.5374015
20
-0.2800837
40
0.1689915
50
17.6685481
51
78.9940892
0
ARC
8
DEFAULT_255_1_234
10
14.4857179
20
-0.4655776
40
0.3612658
50
76.5635957
51
90.6980921
0
LINE
8
DEFAULT_255_1_234
10
14.4813163
20
-0.1043387
11
14.4811225
21
-0.1043386
0
ARC
8
DEFAULT_255_1_234
10
14.4592839
20
0.3479036
40
0.3285612
50
269.6064736
51
281.4533503
0
ARC
8
DEFAULT_255_1_234
10
14.4815659
20
0.2427688
40
0.2210975
50
281.2041486
51
302.5148063
0
ARC
8
DEFAULT_255_1_234
10
14.4952509
20
0.2181241
40
0.1929674
50
303.021671
51
309.8369575
0
ARC
8
DEFAULT_255_1_234
10
14.513597
20
0.1975488
40
0.1654181
50
309.5228395
51
356.9509836
0
ARC
8
DEFAULT_255_1_234
10
14.4472552
20
0.2070932
40
0.2322512
50
355.4701227
51
0.0492546
0
ARC
8
DEFAULT_255_1_234
10
14.4193644
20
0.2093094
40
0.2601498
50
359.5558597
51
11.2096359
0
ARC
8
DEFAULT_255_1_234
10
14.5150934
20
0.229123
40
0.1623975
50
10.9182341
51
31.3230275
0
ARC
8
DEFAULT_255_1_234
10
14.5436667
20
0.2450214
40
0.1297302
50
31.8852677
51
52.1412565
0
ARC
8
DEFAULT_255_1_234
10
14.51624
20
0.206275
40
0.1771663
50
52.8285564
51
71.9850297
0
ARC
8
DEFAULT_255_1_234
10
14.4786576
20
0.0956664
40
0.2939794
50
71.6863486
51
82.8455995
0
ARC
8
DEFAULT_255_1_234
10
14.4547112
20
-0.0852851
40
0.476506
50
82.6984714
51
90.1729175
0
ARC
8
DEFAULT_255_1_234
10
14.4524747
20
0.0370623
40
0.3541573
50
89.8708275
51
90.0431131
0
LINE
8
DEFAULT_255_1_234
10
15.8802513
20
0.5181211
11
15.8802513
21
0.3912196
0
LINE
8
DEFAULT_255_1_234
10
15.8802513
20
0.3912196
11
15.5043659
21
0.3912196
0
LINE
8
DEFAULT_255_1_234
10
15.5043659
20
0.3912196
11
15.5043659
21
-0.6513
0
LINE
8
DEFAULT_255_1_234
10
15.5043659
20
-0.6513
11
15.3509597
21
-0.6513
0
LINE
8
DEFAULT_255_1_234
10
15.3509597
20
-0.6513
11
15.3509597
21
0.3912196
0
LINE
8
DEFAULT_255_1_234
10
15.3509597
20
0.3912196
11
14.9758775
21
0.3912196
0
LINE
8
DEFAULT_255_1_234
10
14.9758775
20
0.3912196
11
14.9758775
21
0.5181211
0
LINE
8
DEFAULT_255_1_234
10
14.9758775
20
0.5181211
11
15.8802513
21
0.5181211
0
LINE
8
DEFAULT_255_1_234
10
16.816752
20
0.1799849
11
16.6617394
21
0.1799849
0
LINE
8
DEFAULT_255_1_234
10
15.9694036
20
-0.3123606
11
16.1244161
21
-0.3123606
0
ARC
8
DEFAULT_255_1_234
10
16.7276207
20
1.0746768
40
1.252368
50
248.9199003
51
254.1439814
0
ARC
8
DEFAULT_255_1_234
10
16.5595702
20
0.6420234
40
0.788226
50
241.633709
51
249.0064503
0
ARC
8
DEFAULT_255_1_234
10
16.4067096
20
0.3619317
40
0.4691427
50
230.498225
51
241.8087113
0
ARC
8
DEFAULT_255_1_234
10
16.328267
20
0.2619906
40
0.3421437
50
227.4064532
51
229.9881192
0
ARC
8
DEFAULT_255_1_234
10
16.2795191
20
0.2144088
40
0.2741476
50
200.6781896
51
228.1763934
0
ARC
8
DEFAULT_255_1_234
10
16.2867502
20
0.2129077
40
0.2804109
50
179.5061581
51
199.8694617
0
ARC
8
DEFAULT_255_1_234
10
16.2858253
20
0.220321
40
0.2795204
50
132.4834203
51
181.0242172
0
ARC
8
DEFAULT_255_1_234
10
16.3453836
20
0.1640704
40
0.3612768
50
129.2532479
51
133.4242687
0
ARC
8
DEFAULT_255_1_234
10
16.3600285
20
0.1420965
40
0.3875675
50
101.98776
51
128.8742646
0
ARC
8
DEFAULT_255_1_234
10
16.3998896
20
-0.0300259
40
0.5642249
50
89.5906553
51
102.3169264
0
ARC
8
DEFAULT_255_1_234
10
16.4069388
20
0.0018148
40
0.5323783
50
77.2360837
51
90.3248275
0
ARC
8
DEFAULT_255_1_234
10
16.4276467
20
0.09854
40
0.4334697
50
63.837784
51
77.0809408
0
ARC
8
DEFAULT_255_1_234
10
16.4554229
20
0.1502911
40
0.3747796
50
45.9864267
51
64.1607727
0
ARC
8
DEFAULT_255_1_234
10
16.481511
20
0.1800866
40
0.3352302
50
32.2747395
51
45.6547121
0
ARC
8
DEFAULT_255_1_234
10
16.4881551
20
0.181988
40
0.328603
50
359.6507365
51
32.6130309
0
ARC
8
DEFAULT_255_1_234
10
16.3938646
20
0.182466
40
0.2678863
50
359.469343
51
14.9832209
0
ARC
8
DEFAULT_255_1_234
10
16.4643709
20
0.2013539
40
0.1948938
50
14.9781179
51
48.2004265
0
ARC
8
DEFAULT_255_1_234
10
16.4479353
20
0.1806983
40
0.2212521
50
48.5927837
51
74.1241538
0
ARC
8
DEFAULT_255_1_234
10
16.4145842
20
0.0706248
40
0.3362561
50
73.7888341
51
86.6652678
0
ARC
8
DEFAULT_255_1_234
10
16.4043408
20
-0.0501119
40
0.4573953
50
86.2640471
51
90.0526343
0
ARC
8
DEFAULT_255_1_234
10
16.401512
20
-0.0105808
40
0.4178709
50
89.6697524
51
99.2309573
0
ARC
8
DEFAULT_255_1_234
10
16.3772571
20
0.1338964
40
0.2713749
50
99.069534
51
113.7658566
0
ARC
8
DEFAULT_255_1_234
10
16.3498763
20
0.1984677
40
0.2012469
50
114.0401004
51
127.9850673
0
ARC
8
DEFAULT_255_1_234
10
16.3258326
20
0.228073
40
0.1631167
50
127.7287463
51
176.7105154
0
ARC
8
DEFAULT_255_1_234
10
16.3937044
20
0.2179693
40
0.2315392
50
175.1779447
51
180.0581938
0
ARC
8
DEFAULT_255_1_234
10
16.3093891
20
0.2167428
40
0.1472271
50
179.6142195
51
228.1246017
0
ARC
8
DEFAULT_255_1_234
10
16.3535559
20
0.2576308
40
0.2072299
50
226.5779593
51
230.8800004
0
ARC
8
DEFAULT_255_1_234
10
16.4006638
20
0.3201636
40
0.2854818
50
231.4635071
51
241.9260842
0
ARC
8
DEFAULT_255_1_234
10
16.5203816
20
0.54048
40
0.53622
50
241.7178533
51
248.3259551
0
ARC
8
DEFAULT_255_1_234
10
16.6589188
20
0.8837064
40
0.9063478
50
248.2007737
51
252.4528373
0
ARC
8
DEFAULT_255_1_234
10
16.7792913
20
1.2558441
40
1.2974635
50
252.3391078
51
254.3469452
0
ARC
8
DEFAULT_255_1_234
10
16.0250615
20
-1.4418852
40
1.5037162
50
71.0197183
51
74.4087047
0
ARC
8
DEFAULT_255_1_234
10
16.1945301
20
-0.9526889
40
0.9859993
50
66.1847285
51
71.086374
0
ARC
8
DEFAULT_255_1_234
10
16.3501613
20
-0.60228
40
0.6025855
50
59.3536294
51
66.2691831
0
ARC
8
DEFAULT_255_1_234
10
16.4390265
20
-0.4519391
40
0.4279449
50
49.1020879
51
59.3293958
0
ARC
8
DEFAULT_255_1_234
10
16.5209005
20
-0.3586166
40
0.3038015
50
32.7919921
51
49.2505539
0
ARC
8
DEFAULT_255_1_234
10
16.5530095
20
-0.3357809
40
0.264448
50
31.1181161
51
32.4005348
0
ARC
8
DEFAULT_255_1_234
10
16.5441633
20
-0.3393221
40
0.2738556
50
8.1116974
51
30.7958831
0
ARC
8
DEFAULT_255_1_234
10
16.4631301
20
-0.3531247
40
0.3560327
50
359.8389159
51
8.4706516
0
ARC
8
DEFAULT_255_1_234
10
16.5257092
20
-0.3579863
40
0.2934776
50
337.4731098
51
0.7537279
0
ARC
8
DEFAULT_255_1_234
10
16.5435787
20
-0.3599613
40
0.2762607
50
307.5917067
51
336.4315538
0
ARC
8
DEFAULT_255_1_234
10
16.4975615
20
-0.3086898
40
0.3449979
50
307.6551545
51
308.4529766
0
ARC
8
DEFAULT_255_1_234
10
16.4745334
20
-0.273175
40
0.3871988
50
284.3734338
51
307.1424381
0
ARC
8
DEFAULT_255_1_234
10
16.4250164
20
-0.0910068
40
0.5759636
50
272.4382747
51
284.646547
0
ARC
8
DEFAULT_255_1_234
10
16.4123373
20
0.0889893
40
0.7563528
50
269.9708387
51
272.8178037
0
ARC
8
DEFAULT_255_1_234
10
16.4080413
20
-0.1148284
40
0.5525489
50
248.2707594
51
270.4055579
0
ARC
8
DEFAULT_255_1_234
10
16.4026154
20
-0.1338808
40
0.5328452
50
246.1383403
51
248.0542782
0
ARC
8
DEFAULT_255_1_234
10
16.3607533
20
-0.2218157
40
0.4355005
50
233.1670131
51
246.4950969
0
ARC
8
DEFAULT_255_1_234
10
16.3053438
20
-0.2966188
40
0.3424126
50
215.3403242
51
233.0843104
0
ARC
8
DEFAULT_255_1_234
10
16.2780869
20
-0.3164451
40
0.3087104
50
179.2419209
51
215.2648451
0
ARC
8
DEFAULT_255_1_234
10
16.3548463
20
-0.3150334
40
0.2304457
50
179.335461
51
199.1045811
0
ARC
8
DEFAULT_255_1_234
10
16.3216139
20
-0.3237234
40
0.1962176
50
199.8828939
51
232.7063202
0
ARC
8
DEFAULT_255_1_234
10
16.3688408
20
-0.2643212
40
0.2720938
50
232.3738199
51
255.5136649
0
ARC
8
DEFAULT_255_1_234
10
16.4029274
20
-0.1399165
40
0.4010747
50
255.2446292
51
267.5320849
0
ARC
8
DEFAULT_255_1_234
10
16.4116898
20
-0.0166298
40
0.5246356
50
267.1557994
51
270.0286766
0
ARC
8
DEFAULT_255_1_234
10
16.414467
20
-0.061005
40
0.4802668
50
269.7000017
51
278.1660162
0
ARC
8
DEFAULT_255_1_234
10
16.4400675
20
-0.2340485
40
0.3053425
50
278.0231263
51
290.625471
0
ARC
8
DEFAULT_255_1_234
10
16.4748362
20
-0.3267975
40
0.206291
50
290.6619762
51
307.0370976
0
ARC
8
DEFAULT_255_1_234
10
16.5048751
20
-0.3636496
40
0.1587906
50
306.3943566
51
355.3030547
0
ARC
8
DEFAULT_255_1_234
10
16.4536683
20
-0.3559887
40
0.2104809
50
354.3660432
51
0.0698737
0
ARC
8
DEFAULT_255_1_234
10
16.4679028
20
-0.3537383
40
0.1962563
50
359.417946
51
16.1971788
0
ARC
8
DEFAULT_255_1_234
10
16.5134338
20
-0.3412582
40
0.149053
50
16.4723299
51
52.6262157
0
ARC
8
DEFAULT_255_1_234
10
16.4313392
20
-0.4496567
40
0.2850296
50
52.7386432
51
62.4979148
0
ARC
8
DEFAULT_255_1_234
10
16.2928469
20
-0.7102717
40
0.5801521
50
62.2515216
51
68.1220564
0
ARC
8
DEFAULT_255_1_234
10
16.120838
20
-1.1330128
40
1.0365451
50
68.0062803
51
71.8053402
0
ARC
8
DEFAULT_255_1_234
10
15.9412751
20
-1.6715242
40
1.6042013
50
71.7183119
51
73.9258742
0
LINE
8
DEFAULT_255_1_234
10
17.7444177
20
-0.5300208
11
17.7444177
21
-0.6513
0
LINE
8
DEFAULT_255_1_234
10
17.7444177
20
-0.6513
11
16.9781899
21
-0.6513
0
LINE
8
DEFAULT_255_1_234
10
16.9781899
20
-0.6513
11
16.9781899
21
-0.5444779
0
LINE
8
DEFAULT_255_1_234
10
16.9781899
20
-0.5444779
11
17.3829895
21
-0.0947005
0
LINE
8
DEFAULT_255_1_234
10
17.1042882
20
0.1735595
11
16.955701
21
0.1735595
0
LINE
8
DEFAULT_255_1_234
10
17.4705354
20
-0.1902782
11
17.1572977
21
-0.5300208
0
LINE
8
DEFAULT_255_1_234
10
17.1572977
20
-0.5300208
11
17.7444177
21
-0.5300208
0
ARC
8
DEFAULT_255_1_234
10
16.0339728
20
1.0982527
40
1.8008286
50
318.5132453
51
320.7828378
0
ARC
8
DEFAULT_255_1_234
10
16.5626703
20
0.6679426
40
1.1191493
50
320.7372736
51
323.9737074
0
ARC
8
DEFAULT_255_1_234
10
16.9546559
20
0.3839361
40
0.6350923
50
323.8961724
51
328.6421089
0
ARC
8
DEFAULT_255_1_234
10
17.1593155
20
0.2577031
40
0.3946393
50
328.8299013
51
331.789948
0
ARC
8
DEFAULT_255_1_234
10
17.2590333
20
0.2062509
40
0.2824501
50
331.4255242
51
352.9364833
0
ARC
8
DEFAULT_255_1_234
10
17.2726834
20
0.2031976
40
0.2685315
50
353.2248685
51
0.0169286
0
ARC
8
DEFAULT_255_1_234
10
17.293671
20
0.205495
40
0.2475536
50
359.4866256
51
15.9339782
0
ARC
8
DEFAULT_255_1_234
10
17.3443696
20
0.2191286
40
0.1950618
50
16.1714718
51
43.5284424
0
ARC
8
DEFAULT_255_1_234
10
17.3521004
20
0.2268573
40
0.184134
50
43.4415429
51
83.1661404
0
ARC
8
DEFAULT_255_1_234
10
17.3386923
20
0.1531771
40
0.258926
50
82.160215
51
90.1505798
0
ARC
8
DEFAULT_255_1_234
10
17.335535
20
0.0994865
40
0.3126255
50
89.5460705
51
102.5418777
0
ARC
8
DEFAULT_255_1_234
10
17.3112436
20
0.2025665
40
0.2067346
50
102.1739365
51
129.2061916
0
ARC
8
DEFAULT_255_1_234
10
17.3033508
20
0.2150094
40
0.1921118
50
129.7279328
51
135.7542026
0
ARC
8
DEFAULT_255_1_234
10
17.3155035
20
0.2053045
40
0.2075944
50
136.175737
51
166.3674722
0
ARC
8
DEFAULT_255_1_234
10
17.4161955
20
0.1783182
40
0.3118201
50
165.9092917
51
178.8683903
0
ARC
8
DEFAULT_255_1_234
10
17.5026816
20
0.1736179
40
0.3983935
50
178.438168
51
180.0083905
0
ARC
8
DEFAULT_255_1_234
10
17.3625418
20
0.1775231
40
0.4068601
50
163.2878735
51
180.5581814
0
ARC
8
DEFAULT_255_1_234
10
17.2823679
20
0.199584
40
0.3237344
50
133.454115
51
162.9470031
0
ARC
8
DEFAULT_255_1_234
10
17.3002221
20
0.1806
40
0.349795
50
100.7869394
51
133.4384016
0
ARC
8
DEFAULT_255_1_234
10
17.3349992
20
0.0257319
40
0.5084616
50
89.6605301
51
101.3704185
0
ARC
8
DEFAULT_255_1_234
10
17.3416331
20
0.0318496
40
0.502348
50
78.2171172
51
90.4130393
0
ARC
8
DEFAULT_255_1_234
10
17.3771409
20
0.1942637
40
0.3361092
50
55.9268222
51
78.4888551
0
ARC
8
DEFAULT_255_1_234
10
17.396785
20
0.2281324
40
0.2970617
50
47.9292255
51
55.4054003
0
ARC
8
DEFAULT_255_1_234
10
17.406941
20
0.2384502
40
0.2825983
50
4.3347696
51
48.0560701
0
ARC
8
DEFAULT_255_1_234
10
17.2973804
20
0.2214601
40
0.393225
50
359.925209
51
5.5967654
0
ARC
8
DEFAULT_255_1_234
10
17.3402696
20
0.2270816
40
0.3503892
50
337.8914096
51
358.9967724
0
ARC
8
DEFAULT_255_1_234
10
17.0689108
20
0.3317706
40
0.6412172
50
326.9135351
51
338.3505194
0
ARC
8
DEFAULT_255_1_234
10
16.6703411
20
0.5872284
40
1.1146189
50
319.6472867
51
327.095818
0
ARC
8
DEFAULT_255_1_234
10
16.2870415
20
0.9034
40
1.6114559
50
317.2586784
51
319.9046139
0
LINE
8
DEFAULT_255_1_234
10
18.226322
20
-0.0938974
11
18.226322
21
-0.2151766
0
LINE
8
DEFAULT_255_1_234
10
18.226322
20
-0.2151766
11
17.8343732
21
-0.2151766
0
LINE
8
DEFAULT_255_1_234
10
17.8343732
20
-0.2151766
11
17.8343732
21
-0.0938974
0
LINE
8
DEFAULT_255_1_234
10
17.8343732
20
-0.0938974
11
18.226322
21
-0.0938974
0
LINE
8
DEFAULT_255_1_234
10
18.9829118
20
0.5181211
11
18.9829118
21
-0.258548
0
LINE
8
DEFAULT_255_1_234
10
18.9829118
20
-0.258548
11
19.1451529
21
-0.258548
0
LINE
8
DEFAULT_255_1_234
10
19.1451529
20
-0.258548
11
19.1451529
21
-0.3798272
0
LINE
8
DEFAULT_255_1_234
10
19.1451529
20
-0.3798272
11
18.9829118
21
-0.3798272
0
LINE
8
DEFAULT_255_1_234
10
18.9829118
20
-0.3798272
11
18.9829118
21
-0.6513
0
LINE
8
DEFAULT_255_1_234
10
18.9829118
20
-0.6513
11
18.8335214
21
-0.6513
0
LINE
8
DEFAULT_255_1_234
10
18.8335214
20
-0.6513
11
18.8335214
21
-0.3798272
0
LINE
8
DEFAULT_255_1_234
10
18.8335214
20
-0.3798272
11
18.3010172
21
-0.3798272
0
LINE
8
DEFAULT_255_1_234
10
18.3010172
20
-0.3798272
11
18.3010172
21
-0.2922813
0
LINE
8
DEFAULT_255_1_234
10
18.3010172
20
-0.2922813
11
18.8246865
21
0.5181211
0
LINE
8
DEFAULT_255_1_234
10
18.8246865
20
0.5181211
11
18.9829118
21
0.5181211
0
LINE
8
DEFAULT_255_1_234
10
18.8158516
20
0.2827912
11
18.4696837
21
-0.258548
0
LINE
8
DEFAULT_255_1_234
10
18.4696837
20
-0.258548
11
18.8335214
21
-0.258548
0
LINE
8
DEFAULT_255_1_234
10
18.8335214
20
-0.258548
11
18.8335214
21
0.3149181
0
LINE
8
DEFAULT_255_1_234
10
18.8335214
20
0.3149181
11
18.8158516
21
0.2827912
0
LINE
8
DEFAULT_255_1_234
10
20.1258281
20
0.5181211
11
20.1258281
21
0.3912196
0
LINE
8
DEFAULT_255_1_234
10
20.1258281
20
0.3912196
11
19.7499428
21
0.3912196
0
LINE
8
DEFAULT_255_1_234
10
19.7499428
20
0.3912196
11
19.7499428
21
-0.6513
0
LINE
8
DEFAULT_255_1_234
10
19.7499428
20
-0.6513
11
19.5965366
21
-0.6513
0
LINE
8
DEFAULT_255_1_234
10
19.5965366
20
-0.6513
11
19.5965366
21
0.3912196
0
LINE
8
DEFAULT_255_1_234
10
19.5965366
20
0.3912196
11
19.2214544
21
0.3912196
0
LINE
8
DEFAULT_255_1_234
10
19.2214544
20
0.3912196
11
19.2214544
21
0.5181211
0
LINE
8
DEFAULT_255_1_234
10
19.2214544
20
0.5181211
11
20.1258281
21
0.5181211
0
LINE
8
DEFAULT_255_2_778
10
10.5738396
20
40.8993073
11
9.3932396
21
40.8993073
0
LINE
8
DEFAULT_255_2_778
10
9.3932396
20
40.8993073
11
9.9837396
21
41.9219073
0
LINE
8
DEFAULT_255_2_778
10
9.9837396
20
41.9219073
11
11.1643396
21
41.9219073
0
LINE
8
DEFAULT_255_2_778
10
11.1643396
20
41.9219073
11
10.5738396
21
40.8993073
0
LINE
8
DEFAULT_255_2_778
10
10.5738396
20
40.8993073
11
10.5738396
21
40.8993073
0
LINE
8
DEFAULT_255_2_778
10
11.7546396
20
40.8993073
11
12.9354396
21
40.8993073
0
LINE
8
DEFAULT_255_2_778
10
12.9354396
20
40.8993073
11
12.3451396
21
41.9219073
0
LINE
8
DEFAULT_255_2_778
10
12.3451396
20
41.9219073
11
11.1643396
21
41.9219073
0
LINE
8
DEFAULT_255_2_778
10
11.1643396
20
41.9219073
11
11.7546396
21
40.8993073
0
LINE
8
DEFAULT_255_2_778
10
11.7546396
20
40.8993073
11
11.7546396
21
40.8993073
0
LINE
8
DEFAULT_255_2_778
10
11.7545823
20
42.9445146
11
11.1642823
21
43.9671146
0
LINE
8
DEFAULT_255_2_778
10
11.1642823
20
43.9671146
11
10.5737823
21
42.9445146
0
LINE
8
DEFAULT_255_2_778
10
10.5737823
20
42.9445146
11
11.1642823
21
41.9219146
0
LINE
8
DEFAULT_255_2_778
10
11.1642823
20
41.9219146
11
11.7545823
21
42.9445146
0
LINE
8
DEFAULT_255_2_778
10
11.7545823
20
42.9445146
11
11.7545823
21
42.9445146
0
ARC
8
DEFAULT_255_2_778
10
16.5183731
20
42.5907426
40
0.5650491
50
268.7543645
51
289.1417717
0
ARC
8
DEFAULT_255_2_778
10
16.606208
20
42.3355531
40
0.2951681
50
289.2776255
51
3.7648372
0
ARC
8
DEFAULT_255_2_778
10
16.3901618
20
42.3621085
40
0.5106278
50
359.1949826
51
0.0020862
0
ARC
8
DEFAULT_255_2_778
10
16.547449
20
42.3480832
40
0.1541914
50
280.2616216
51
358.5297855
0
ARC
8
DEFAULT_255_2_778
10
16.5080075
20
42.460655
40
0.2726346
50
269.5969454
51
284.2065679
0
ARC
8
DEFAULT_255_2_778
10
16.4981883
20
42.4448788
40
0.2569732
50
246.5218562
51
271.7619895
0
ARC
8
DEFAULT_255_2_778
10
16.4527498
20
42.3369164
40
0.1398527
50
188.0764216
51
245.9747848
0
ARC
8
DEFAULT_255_2_778
10
16.4833113
20
42.3439608
40
0.1711218
50
179.9443312
51
188.9740498
0
ARC
8
DEFAULT_255_2_778
10
16.4924507
20
42.3507849
40
0.3763411
50
178.2272621
51
205.8283807
0
ARC
8
DEFAULT_255_2_778
10
16.4132476
20
42.3330833
40
0.2979176
50
209.4028057
51
263.0375728
0
ARC
8
DEFAULT_255_2_778
10
16.5005111
20
42.7077629
40
0.6816586
50
259.5722942
51
270.4689037
0
ARC
8
DEFAULT_255_2_778
10
17.411252
20
42.7639767
40
0.1217154
50
2.0482843
51
87.015299
0
ARC
8
DEFAULT_255_2_778
10
17.4057913
20
42.7683868
40
0.1270984
50
353.0742102
51
359.9730821
0
ARC
8
DEFAULT_255_2_778
10
17.4111345
20
42.7651717
40
0.1214332
50
270.7420557
51
354.2761882
0
ARC
8
DEFAULT_255_2_778
10
17.4065072
20
42.8017509
40
0.1581238
50
269.9936646
51
272.2471507
0
ARC
8
DEFAULT_255_2_778
10
17.414084
20
42.3505295
40
0.1400686
50
358.2807293
51
95.6106825
0
ARC
8
DEFAULT_255_2_778
10
17.4103233
20
42.3466963
40
0.1437669
50
266.9962473
51
359.8528392
0
ARC
8
DEFAULT_255_2_778
10
17.4725249
20
42.3869988
40
0.3335288
50
268.2414507
51
302.0223478
0
ARC
8
DEFAULT_255_2_778
10
17.5091261
20
42.311683
40
0.2504234
50
304.0600275
51
2.0468005
0
ARC
8
DEFAULT_255_2_778
10
17.4832788
20
42.3183521
40
0.2761203
50
0.4720601
51
65.8403529
0
ARC
8
DEFAULT_255_2_778
10
17.5191655
20
42.3831061
40
0.2024466
50
67.606893
51
75.8693222
0
ARC
8
DEFAULT_255_2_778
10
17.5042026
20
42.790722
40
0.2208874
50
286.9473417
51
358.0074963
0
ARC
8
DEFAULT_255_2_778
10
17.4710866
20
42.7995045
40
0.2544031
50
356.2897886
51
0.0050857
0
ARC
8
DEFAULT_255_2_778
10
17.497262
20
42.8045946
40
0.2282839
50
358.7280137
51
81.8073164
0
ARC
8
DEFAULT_255_2_778
10
17.4216369
20
42.5531283
40
0.4895182
50
77.2355086
51
90.5088275
0
ARC
8
DEFAULT_255_2_778
10
17.5842747
20
41.5885989
40
0.1302704
50
89.9972707
51
92.6773048
0
ARC
8
DEFAULT_255_2_778
10
17.5844071
20
41.58937
40
0.1294993
50
45.0546048
51
90.0558451
0
ARC
8
DEFAULT_255_2_778
10
17.5844118
20
41.589219
40
0.1296029
50
0.001866
51
45.1031959
0
ARC
8
DEFAULT_255_2_778
10
17.5845123
20
41.5892202
40
0.1295026
50
357.4803735
51
0.0013544
0
ARC
8
DEFAULT_255_2_778
10
17.5901979
20
41.5853512
40
0.1237052
50
339.8672523
51
359.1550732
0
ARC
8
DEFAULT_255_2_778
10
17.5794513
20
41.5825079
40
0.1329691
50
272.0853006
51
342.6124646
0
ARC
8
DEFAULT_255_2_778
10
17.6596145
20
41.6207661
40
0.2575135
50
286.787355
51
290.6121696
0
ARC
8
DEFAULT_255_2_778
10
17.6689461
20
41.6064533
40
0.24086
50
289.7330405
51
342.3216972
0
ARC
8
DEFAULT_255_2_778
10
17.641261
20
41.6112954
40
0.268735
50
343.130572
51
0.3905272
0
ARC
8
DEFAULT_255_2_778
10
17.6578783
20
41.6286767
40
0.2525904
50
356.4706028
51
80.1788963
0
ARC
8
DEFAULT_255_2_778
10
17.5921649
20
41.4017163
40
0.4881286
50
77.1212301
51
90.4900821
0
ARC
8
DEFAULT_255_2_778
10
17.5166337
20
41.104036
40
0.1865405
50
50.1507009
51
92.9634648
0
ARC
8
DEFAULT_255_2_778
10
17.5301354
20
41.1323678
40
0.1563319
50
12.621233
51
47.2950617
0
ARC
8
DEFAULT_255_2_778
10
16.8485884
20
40.9994726
40
0.8506657
50
2.8173892
51
11.3253986
0
ARC
8
DEFAULT_255_2_778
10
-29.2295733
20
37.5031175
40
47.060992
50
4.3048394
51
4.3117143
0
ARC
8
DEFAULT_255_2_778
10
18.5500859
20
41.075584
40
0.8523717
50
182.6850102
51
191.2954256
0
ARC
8
DEFAULT_255_2_778
10
17.9656837
20
40.9692399
40
0.2586603
50
193.5512904
51
195.3825538
0
ARC
8
DEFAULT_255_2_778
10
19.3507425
20
41.2281408
40
1.4700994
50
182.6283124
51
192.8725697
0
ARC
8
DEFAULT_255_2_778
10
17.6207606
20
41.1552215
40
0.261487
50
1.2064311
51
30.4123358
0
ARC
8
DEFAULT_255_2_778
10
17.6663626
20
41.170276
40
0.2147766
50
33.1081154
51
71.7312197
0
LINE
8
DEFAULT_255_2_778
10
13.4657897
20
41.3348271
11
13.9385897
21
41.3348271
0
LINE
8
DEFAULT_255_2_778
10
13.9385897
20
41.3348271
11
13.9385897
21
41.5062271
0
LINE
8
DEFAULT_255_2_778
10
13.9385897
20
41.5062271
11
13.4657897
21
41.5062271
0
LINE
8
DEFAULT_255_2_778
10
13.4657897
20
41.5062271
11
13.4657897
21
41.7171271
0
LINE
8
DEFAULT_255_2_778
10
13.4657897
20
41.7171271
11
13.9977897
21
41.7171271
0
LINE
8
DEFAULT_255_2_778
10
13.9977897
20
41.7171271
11
13.9977897
21
41.8885271
0
LINE
8
DEFAULT_255_2_778
10
13.9977897
20
41.8885271
11
13.4657897
21
41.8885271
0
LINE
8
DEFAULT_255_2_778
10
13.4657897
20
41.8885271
11
13.2651897
21
41.8885271
0
LINE
8
DEFAULT_255_2_778
10
13.2651897
20
41.8885271
11
13.2651897
21
41.7171271
0
LINE
8
DEFAULT_255_2_778
10
13.2651897
20
41.7171271
11
13.2651897
21
41.0707271
0
LINE
8
DEFAULT_255_2_778
10
13.2651897
20
41.0707271
11
13.2651897
21
40.8992271
0
LINE
8
DEFAULT_255_2_778
10
13.2651897
20
40.8992271
11
13.4657897
21
40.8992271
0
LINE
8
DEFAULT_255_2_778
10
13.4657897
20
40.8992271
11
14.0118897
21
40.8992271
0
LINE
8
DEFAULT_255_2_778
10
14.0118897
20
40.8992271
11
14.0118897
21
41.0707271
0
LINE
8
DEFAULT_255_2_778
10
14.0118897
20
41.0707271
11
13.4657897
21
41.0707271
0
LINE
8
DEFAULT_255_2_778
10
13.4657897
20
41.0707271
11
13.4657897
21
41.3345271
0
LINE
8
DEFAULT_255_2_778
10
13.4657897
20
41.3345271
11
13.4657897
21
41.3348271
0
LINE
8
DEFAULT_255_2_778
10
13.4519897
20
42.7889271
11
13.6620897
21
42.0536271
0
LINE
8
DEFAULT_255_2_778
10
13.6620897
20
42.0536271
11
13.6704897
21
42.0536271
0
LINE
8
DEFAULT_255_2_778
10
13.6704897
20
42.0536271
11
13.8464897
21
42.0536271
0
LINE
8
DEFAULT_255_2_778
10
13.8464897
20
42.0536271
11
13.8546897
21
42.0536271
0
LINE
8
DEFAULT_255_2_778
10
13.8546897
20
42.0536271
11
14.0647897
21
42.7889271
0
LINE
8
DEFAULT_255_2_778
10
14.0647897
20
42.7889271
11
14.0647897
21
42.0536271
0
LINE
8
DEFAULT_255_2_778
10
14.0647897
20
42.0536271
11
14.2515897
21
42.0536271
0
LINE
8
DEFAULT_255_2_778
10
14.2515897
20
42.0536271
11
14.2515897
21
43.0429271
0
LINE
8
DEFAULT_255_2_778
10
14.2515897
20
43.0429271
11
14.1496897
21
43.0429271
0
LINE
8
DEFAULT_255_2_778
10
14.1496897
20
43.0429271
11
14.0615897
21
43.0429271
0
LINE
8
DEFAULT_255_2_778
10
14.0615897
20
43.0429271
11
13.9655897
21
43.0429271
0
LINE
8
DEFAULT_255_2_778
10
13.9655897
20
43.0429271
11
13.7583897
21
42.3486271
0
LINE
8
DEFAULT_255_2_778
10
13.7583897
20
42.3486271
11
13.5511897
21
43.0429271
0
LINE
8
DEFAULT_255_2_778
10
13.5511897
20
43.0429271
11
13.4551897
21
43.0429271
0
LINE
8
DEFAULT_255_2_778
10
13.4551897
20
43.0429271
11
13.3670897
21
43.0429271
0
LINE
8
DEFAULT_255_2_778
10
13.3670897
20
43.0429271
11
13.2651897
21
43.0429271
0
LINE
8
DEFAULT_255_2_778
10
13.2651897
20
43.0429271
11
13.2651897
21
42.0536271
0
LINE
8
DEFAULT_255_2_778
10
13.2651897
20
42.0536271
11
13.4519897
21
42.0536271
0
LINE
8
DEFAULT_255_2_778
10
13.4519897
20
42.0536271
11
13.4519897
21
42.7889271
0
LINE
8
DEFAULT_255_2_778
10
13.4519897
20
42.7889271
11
13.4519897
21
42.7889271
0
LINE
8
DEFAULT_255_2_778
10
18.0056897
20
43.0429271
11
17.8064897
21
43.0429271
0
LINE
8
DEFAULT_255_2_778
10
17.8064897
20
43.0429271
11
17.8064897
21
42.0536271
0
LINE
8
DEFAULT_255_2_778
10
17.8064897
20
42.0536271
11
18.0056897
21
42.0536271
0
LINE
8
DEFAULT_255_2_778
10
18.0056897
20
42.0536271
11
18.0056897
21
43.0429271
0
LINE
8
DEFAULT_255_2_778
10
18.0056897
20
43.0429271
11
18.0056897
21
43.0429271
0
LINE
8
DEFAULT_255_2_778
10
18.1681897
20
41.8888271
11
17.9689897
21
41.8888271
0
LINE
8
DEFAULT_255_2_778
10
17.9689897
20
41.8888271
11
17.9689897
21
40.8995271
0
LINE
8
DEFAULT_255_2_778
10
17.9689897
20
40.8995271
11
18.1681897
21
40.8995271
0
LINE
8
DEFAULT_255_2_778
10
18.1681897
20
40.8995271
11
18.1681897
21
41.8888271
0
LINE
8
DEFAULT_255_2_778
10
18.1681897
20
41.8888271
11
18.1681897
21
41.8888271
0
LINE
8
DEFAULT_255_2_778
10
19.9765897
20
43.0429271
11
19.7773897
21
43.0429271
0
LINE
8
DEFAULT_255_2_778
10
19.7773897
20
43.0429271
11
19.7773897
21
42.0536271
0
LINE
8
DEFAULT_255_2_778
10
19.7773897
20
42.0536271
11
19.9765897
21
42.0536271
0
LINE
8
DEFAULT_255_2_778
10
19.9765897
20
42.0536271
11
19.9765897
21
43.0429271
0
LINE
8
DEFAULT_255_2_778
10
19.9765897
20
43.0429271
11
19.9765897
21
43.0429271
0
LINE
8
DEFAULT_255_2_778
10
14.5298897
20
43.0429271
11
14.3306897
21
43.0429271
0
LINE
8
DEFAULT_255_2_778
10
14.3306897
20
43.0429271
11
14.3306897
21
42.0536271
0
LINE
8
DEFAULT_255_2_778
10
14.3306897
20
42.0536271
11
14.5298897
21
42.0536271
0
LINE
8
DEFAULT_255_2_778
10
14.5298897
20
42.0536271
11
14.5298897
21
43.0429271
0
LINE
8
DEFAULT_255_2_778
10
14.5298897
20
43.0429271
11
14.5298897
21
43.0429271
0
LINE
8
DEFAULT_255_2_778
10
19.4989897
20
42.6569271
11
19.1029897
21
42.6569271
0
LINE
8
DEFAULT_255_2_778
10
19.1029897
20
42.6569271
11
19.1029897
21
43.0426271
0
LINE
8
DEFAULT_255_2_778
10
19.1029897
20
43.0426271
11
18.9068897
21
43.0426271
0
LINE
8
DEFAULT_255_2_778
10
18.9068897
20
43.0426271
11
18.9068897
21
42.0536271
0
LINE
8
DEFAULT_255_2_778
10
18.9068897
20
42.0536271
11
19.1029897
21
42.0536271
0
LINE
8
DEFAULT_255_2_778
10
19.1029897
20
42.0536271
11
19.1029897
21
42.4854271
0
LINE
8
DEFAULT_255_2_778
10
19.1029897
20
42.4854271
11
19.4989897
21
42.4854271
0
LINE
8
DEFAULT_255_2_778
10
19.4989897
20
42.4854271
11
19.4989897
21
42.0536271
0
LINE
8
DEFAULT_255_2_778
10
19.4989897
20
42.0536271
11
19.6950897
21
42.0536271
0
LINE
8
DEFAULT_255_2_778
10
19.6950897
20
42.0536271
11
19.6950897
21
43.0426271
0
LINE
8
DEFAULT_255_2_778
10
19.6950897
20
43.0426271
11
19.4989897
21
43.0426271
0
LINE
8
DEFAULT_255_2_778
10
19.4989897
20
43.0426271
11
19.4989897
21
42.6569271
0
LINE
8
DEFAULT_255_2_778
10
19.4989897
20
42.6569271
11
19.4989897
21
42.6569271
0
LINE
8
DEFAULT_255_2_778
10
14.8246897
20
42.0536271
11
15.0280897
21
42.0536271
0
LINE
8
DEFAULT_255_2_778
10
15.0280897
20
42.0536271
11
15.0280897
21
42.8715271
0
LINE
8
DEFAULT_255_2_778
10
15.0280897
20
42.8715271
11
15.2696897
21
42.8715271
0
LINE
8
DEFAULT_255_2_778
10
15.2696897
20
42.8715271
11
15.2696897
21
43.0429271
0
LINE
8
DEFAULT_255_2_778
10
15.2696897
20
43.0429271
11
15.0280897
21
43.0429271
0
LINE
8
DEFAULT_255_2_778
10
15.0280897
20
43.0429271
11
14.8246897
21
43.0429271
0
LINE
8
DEFAULT_255_2_778
10
14.8246897
20
43.0429271
11
14.5830897
21
43.0429271
0
LINE
8
DEFAULT_255_2_778
10
14.5830897
20
43.0429271
11
14.5830897
21
42.8715271
0
LINE
8
DEFAULT_255_2_778
10
14.5830897
20
42.8715271
11
14.8246897
21
42.8715271
0
LINE
8
DEFAULT_255_2_778
10
14.8246897
20
42.8715271
11
14.8246897
21
42.0536271
0
LINE
8
DEFAULT_255_2_778
10
14.8246897
20
42.0536271
11
14.8246897
21
42.0536271
0
LINE
8
DEFAULT_255_2_778
10
16.6422897
20
40.8995271
11
16.8454897
21
40.8995271
0
LINE
8
DEFAULT_255_2_778
10
16.8454897
20
40.8995271
11
16.8454897
21
41.7173271
0
LINE
8
DEFAULT_255_2_778
10
16.8454897
20
41.7173271
11
17.0873897
21
41.7173271
0
LINE
8
DEFAULT_255_2_778
10
17.0873897
20
41.7173271
11
17.0873897
21
41.8891271
0
LINE
8
DEFAULT_255_2_778
10
17.0873897
20
41.8891271
11
16.8454897
21
41.8891271
0
LINE
8
DEFAULT_255_2_778
10
16.8454897
20
41.8891271
11
16.6422897
21
41.8891271
0
LINE
8
DEFAULT_255_2_778
10
16.6422897
20
41.8891271
11
16.4004897
21
41.8891271
0
LINE
8
DEFAULT_255_2_778
10
16.4004897
20
41.8891271
11
16.4004897
21
41.7173271
0
LINE
8
DEFAULT_255_2_778
10
16.4004897
20
41.7173271
11
16.6422897
21
41.7173271
0
LINE
8
DEFAULT_255_2_778
10
16.6422897
20
41.7173271
11
16.6422897
21
40.8995271
0
LINE
8
DEFAULT_255_2_778
10
16.6422897
20
40.8995271
11
16.6422897
21
40.8995271
0
LINE
8
DEFAULT_255_2_778
10
16.9007897
20
42.3621271
11
16.9007897
21
43.0426271
0
LINE
8
DEFAULT_255_2_778
10
16.9007897
20
43.0426271
11
16.7015897
21
43.0426271
0
LINE
8
DEFAULT_255_2_778
10
16.7015897
20
43.0426271
11
16.7015897
21
42.3441271
0
LINE
8
DEFAULT_255_2_778
10
16.3121897
20
42.3441271
11
16.3121897
21
43.0426271
0
LINE
8
DEFAULT_255_2_778
10
16.3121897
20
43.0426271
11
16.1162897
21
43.0426271
0
LINE
8
DEFAULT_255_2_778
10
16.1162897
20
43.0426271
11
16.1162897
21
42.3624271
0
LINE
8
DEFAULT_255_2_778
10
15.0000897
20
41.3348271
11
15.4730897
21
41.3348271
0
LINE
8
DEFAULT_255_2_778
10
15.4730897
20
41.3348271
11
15.4730897
21
41.5062271
0
LINE
8
DEFAULT_255_2_778
10
15.4730897
20
41.5062271
11
15.0000897
21
41.5062271
0
LINE
8
DEFAULT_255_2_778
10
15.0000897
20
41.5062271
11
15.0000897
21
41.7171271
0
LINE
8
DEFAULT_255_2_778
10
15.0000897
20
41.7171271
11
15.5321897
21
41.7171271
0
LINE
8
DEFAULT_255_2_778
10
15.5321897
20
41.7171271
11
15.5321897
21
41.8885271
0
LINE
8
DEFAULT_255_2_778
10
15.5321897
20
41.8885271
11
15.0000897
21
41.8885271
0
LINE
8
DEFAULT_255_2_778
10
15.0000897
20
41.8885271
11
14.7997897
21
41.8885271
0
LINE
8
DEFAULT_255_2_778
10
14.7997897
20
41.8885271
11
14.7997897
21
41.7171271
0
LINE
8
DEFAULT_255_2_778
10
14.7997897
20
41.7171271
11
14.7997897
21
41.0707271
0
LINE
8
DEFAULT_255_2_778
10
14.7997897
20
41.0707271
11
14.7997897
21
40.8992271
0
LINE
8
DEFAULT_255_2_778
10
14.7997897
20
40.8992271
11
15.0000897
21
40.8992271
0
LINE
8
DEFAULT_255_2_778
10
15.0000897
20
40.8992271
11
15.5461897
21
40.8992271
0
LINE
8
DEFAULT_255_2_778
10
15.5461897
20
40.8992271
11
15.5461897
21
41.0707271
0
LINE
8
DEFAULT_255_2_778
10
15.5461897
20
41.0707271
11
15.0000897
21
41.0707271
0
LINE
8
DEFAULT_255_2_778
10
15.0000897
20
41.0707271
11
15.0000897
21
41.3345271
0
LINE
8
DEFAULT_255_2_778
10
15.0000897
20
41.3345271
11
15.0000897
21
41.3348271
0
LINE
8
DEFAULT_255_2_778
10
17.4064897
20
42.6436271
11
17.1690897
21
42.6436271
0
LINE
8
DEFAULT_255_2_778
10
17.1690897
20
42.6436271
11
17.1690897
21
42.8852271
0
LINE
8
DEFAULT_255_2_778
10
17.1690897
20
42.8852271
11
17.4175897
21
42.8852271
0
LINE
8
DEFAULT_255_2_778
10
17.4175897
20
42.8852271
11
17.4175897
21
42.8855271
0
LINE
8
DEFAULT_255_2_778
10
17.4027897
20
42.2028271
11
17.1690897
21
42.2028271
0
LINE
8
DEFAULT_255_2_778
10
17.1690897
20
42.2028271
11
17.1690897
21
42.4899271
0
LINE
8
DEFAULT_255_2_778
10
17.1690897
20
42.4899271
11
17.4003897
21
42.4899271
0
LINE
8
DEFAULT_255_2_778
10
17.1767897
20
42.0536271
11
17.4622897
21
42.0536271
0
LINE
8
DEFAULT_255_2_778
10
17.4172897
20
43.0426271
11
17.1770897
21
43.0426271
0
LINE
8
DEFAULT_255_2_778
10
17.1770897
20
43.0426271
11
16.9722897
21
43.0426271
0
LINE
8
DEFAULT_255_2_778
10
16.9722897
20
43.0426271
11
16.9711897
21
43.0426271
0
LINE
8
DEFAULT_255_2_778
10
16.9711897
20
43.0426271
11
16.9711897
21
42.0536271
0
LINE
8
DEFAULT_255_2_778
10
16.9711897
20
42.0536271
11
16.9722897
21
42.0536271
0
LINE
8
DEFAULT_255_2_778
10
16.9722897
20
42.0536271
11
17.1770897
21
42.0536271
0
LINE
8
DEFAULT_255_2_778
10
17.1770897
20
42.0536271
11
17.1767897
21
42.0536271
0
LINE
8
DEFAULT_255_2_778
10
17.3368897
20
41.4493271
11
17.3368897
21
41.7187271
0
LINE
8
DEFAULT_255_2_778
10
17.3368897
20
41.7187271
11
17.5781897
21
41.7187271
0
LINE
8
DEFAULT_255_2_778
10
17.5842897
20
41.4496271
11
17.3370897
21
41.4496271
0
LINE
8
DEFAULT_255_2_778
10
17.3370897
20
41.4496271
11
17.3368897
21
41.4493271
0
LINE
8
DEFAULT_255_2_778
10
17.5879897
20
41.8898271
11
17.3368897
21
41.8898271
0
LINE
8
DEFAULT_255_2_778
10
17.3368897
20
41.8898271
11
17.1383897
21
41.8898271
0
LINE
8
DEFAULT_255_2_778
10
17.1383897
20
41.8898271
11
17.1362897
21
41.8898271
0
LINE
8
DEFAULT_255_2_778
10
17.1362897
20
41.8898271
11
17.1362897
21
40.9006271
0
LINE
8
DEFAULT_255_2_778
10
17.1362897
20
40.9006271
11
17.3368897
21
40.9006271
0
LINE
8
DEFAULT_255_2_778
10
17.3368897
20
40.9006271
11
17.3368897
21
41.2903271
0
LINE
8
DEFAULT_255_2_778
10
17.3368897
20
41.2903271
11
17.5069897
21
41.2903271
0
LINE
8
DEFAULT_255_2_778
10
17.7162897
20
40.9006271
11
17.9175897
21
40.9006271
0
LINE
8
DEFAULT_255_2_778
10
14.2763897
20
41.8888271
11
14.0760897
21
41.8888271
0
LINE
8
DEFAULT_255_2_778
10
14.0760897
20
41.8888271
11
14.0760897
21
41.0710271
0
LINE
8
DEFAULT_255_2_778
10
14.0760897
20
41.0710271
11
14.0760897
21
40.8995271
0
LINE
8
DEFAULT_255_2_778
10
14.0760897
20
40.8995271
11
14.2763897
21
40.8995271
0
LINE
8
DEFAULT_255_2_778
10
14.2763897
20
40.8995271
11
14.7428897
21
40.8995271
0
LINE
8
DEFAULT_255_2_778
10
14.7428897
20
40.8995271
11
14.7428897
21
41.0710271
0
LINE
8
DEFAULT_255_2_778
10
14.7428897
20
41.0710271
11
14.2763897
21
41.0710271
0
LINE
8
DEFAULT_255_2_778
10
14.2763897
20
41.0710271
11
14.2763897
21
41.8888271
0
LINE
8
DEFAULT_255_2_778
10
14.2763897
20
41.8888271
11
14.2763897
21
41.8888271
0
ARC
8
DEFAULT_255_2_778
10
15.4584271
20
41.5146969
40
0.9681224
50
72.4822103
51
81.3184214
0
ARC
8
DEFAULT_255_2_778
10
15.7160297
20
42.2913918
40
0.1503783
50
28.8883513
51
77.0092434
0
ARC
8
DEFAULT_255_2_778
10
15.7432379
20
42.3203196
40
0.113238
50
358.9917455
51
22.7117017
0
ARC
8
DEFAULT_255_2_778
10
15.7394861
20
42.3244918
40
0.1171346
50
289.2958104
51
356.9831562
0
ARC
8
DEFAULT_255_2_778
10
15.6668261
20
42.4819882
40
0.2902651
50
268.4665462
51
292.5613311
0
ARC
8
DEFAULT_255_2_778
10
15.6496856
20
42.4229179
40
0.2312808
50
236.4956947
51
272.3225735
0
ARC
8
DEFAULT_255_2_778
10
15.6106646
20
42.3546839
40
0.1529307
50
178.9722202
51
234.5742435
0
ARC
8
DEFAULT_255_2_778
10
15.5656113
20
42.3451079
40
0.3002058
50
177.6481608
51
245.5596397
0
ARC
8
DEFAULT_255_2_778
10
15.6409971
20
42.5173561
40
0.488217
50
245.8690375
51
267.169035
0
ARC
8
DEFAULT_255_2_778
10
15.6671503
20
42.7683916
40
0.7403648
50
266.1069867
51
270.0547972
0
ARC
8
DEFAULT_255_2_778
10
15.6772894
20
42.5996135
40
0.5716642
50
269.0547216
51
287.7147747
0
ARC
8
DEFAULT_255_2_778
10
15.7598889
20
42.3539091
40
0.3125017
50
286.995984
51
325.1221533
0
ARC
8
DEFAULT_255_2_778
10
15.7678294
20
42.337361
40
0.2966627
50
326.8673922
51
0.8625726
0
ARC
8
DEFAULT_255_2_778
10
15.7898286
20
42.3459409
40
0.2746606
50
359.1417932
51
76.9739731
0
ARC
8
DEFAULT_255_2_778
10
15.6705461
20
42.0650719
40
0.577616
50
71.7185727
51
79.1315439
0
ARC
8
DEFAULT_255_2_778
10
14.2492968
20
34.711467
40
8.0673056
50
79.0662148
51
79.6216572
0
ARC
8
DEFAULT_255_2_778
10
16.4356585
20
46.5891581
40
4.0099443
50
259.1227669
51
259.4665204
0
ARC
8
DEFAULT_255_2_778
10
15.7836732
20
43.2941142
40
0.6513291
50
249.9945768
51
260.7485895
0
ARC
8
DEFAULT_255_2_778
10
15.5880401
20
42.7830999
40
0.1046098
50
178.6705173
51
254.9333545
0
ARC
8
DEFAULT_255_2_778
10
15.6049957
20
42.7796688
40
0.1216785
50
93.288632
51
177.2403935
0
ARC
8
DEFAULT_255_2_778
10
15.6585677
20
42.5926752
40
0.3143588
50
89.6189463
51
101.1057977
0
ARC
8
DEFAULT_255_2_778
10
15.6722733
20
42.704516
40
0.2028439
50
53.5634072
51
93.2825843
0
ARC
8
DEFAULT_255_2_778
10
15.7018505
20
42.7627144
40
0.1388739
50
357.1985816
51
49.1152298
0
ARC
8
DEFAULT_255_2_778
10
15.7254907
20
42.7559274
40
0.3087677
50
359.9999335
51
2.3703878
0
ARC
8
DEFAULT_255_2_778
10
15.7353555
20
42.7574337
40
0.298851
50
2.1600756
51
60.1092229
0
ARC
8
DEFAULT_255_2_778
10
15.6766212
20
42.6508133
40
0.4205645
50
60.4106856
51
86.1444419
0
ARC
8
DEFAULT_255_2_778
10
15.6536151
20
42.4741228
40
0.5985046
50
85.0843314
51
90.0628677
0
ARC
8
DEFAULT_255_2_778
10
15.6529718
20
42.5975466
40
0.4750804
50
90.001616
51
92.2300394
0
ARC
8
DEFAULT_255_2_778
10
15.6281193
20
42.702687
40
0.3696351
50
89.0131319
51
149.6364996
0
ARC
8
DEFAULT_255_2_778
10
15.5505461
20
42.7749055
40
0.2671974
50
154.5962367
51
180.4885883
0
ARC
8
DEFAULT_255_2_778
10
15.5651524
20
42.773384
40
0.281795
50
180.1539064
51
255.1120325
0
ARC
8
DEFAULT_255_2_778
10
15.7094242
20
43.096232
40
0.6333958
50
249.9962237
51
260.4976723
0
ARC
8
DEFAULT_255_2_778
10
18.2470963
20
41.5158351
40
0.967002
50
72.4685023
51
81.3064395
0
ARC
8
DEFAULT_255_2_778
10
18.5045397
20
42.291427
40
0.1503535
50
28.8782248
51
76.9904304
0
ARC
8
DEFAULT_255_2_778
10
18.5317197
20
42.3203189
40
0.1132561
50
358.9922779
51
22.7082666
0
ARC
8
DEFAULT_255_2_778
10
18.5280402
20
42.3244088
40
0.1170763
50
289.2761556
51
357.0223042
0
ARC
8
DEFAULT_255_2_778
10
18.4553612
20
42.4822836
40
0.2905613
50
268.4611814
51
292.5289055
0
ARC
8
DEFAULT_255_2_778
10
18.4381801
20
42.4238175
40
0.2321799
50
236.6698634
51
272.3149402
0
ARC
8
DEFAULT_255_2_778
10
18.39878
20
42.3546762
40
0.1528464
50
178.9687581
51
234.7686008
0
ARC
8
DEFAULT_255_2_778
10
18.3540113
20
42.3451079
40
0.3002058
50
177.6481608
51
245.5596397
0
ARC
8
DEFAULT_255_2_778
10
18.4293971
20
42.5173561
40
0.488217
50
245.8690375
51
267.169035
0
ARC
8
DEFAULT_255_2_778
10
18.4555503
20
42.7683916
40
0.7403648
50
266.1069867
51
270.0547972
0
ARC
8
DEFAULT_255_2_778
10
18.4656836
20
42.6002451
40
0.5722957
50
269.0563423
51
287.7048702
0
ARC
8
DEFAULT_255_2_778
10
18.548344
20
42.3542682
40
0.312856
50
286.9832601
51
325.0871916
0
ARC
8
DEFAULT_255_2_778
10
18.5567708
20
42.3373856
40
0.2964208
50
326.8311942
51
0.8585267
0
ARC
8
DEFAULT_255_2_778
10
18.5785756
20
42.3460282
40
0.2746149
50
359.1234265
51
76.9343785
0
ARC
8
DEFAULT_255_2_778
10
18.4596421
20
42.0661965
40
0.5764934
50
71.6999697
51
79.1198353
0
ARC
8
DEFAULT_255_2_778
10
17.0173657
20
34.5894392
40
8.1910887
50
79.0843627
51
79.6321368
0
ARC
8
DEFAULT_255_2_778
10
19.2200266
20
46.5689177
40
3.9892176
50
259.1314419
51
259.4772924
0
ARC
8
DEFAULT_255_2_778
10
18.5723251
20
43.2935131
40
0.6507003
50
249.9919323
51
260.7592458
0
ARC
8
DEFAULT_255_2_778
10
18.376901
20
42.7830546
40
0.1045718
50
178.6452075
51
254.9151907
0
ARC
8
DEFAULT_255_2_778
10
18.3939581
20
42.7796016
40
0.121744
50
93.2745253
51
177.21023
0
ARC
8
DEFAULT_255_2_778
10
18.4475726
20
42.5925052
40
0.3145287
50
89.6200387
51
101.1027534
0
ARC
8
DEFAULT_255_2_778
10
18.4613489
20
42.7058453
40
0.2015212
50
53.1490002
51
93.3256649
0
ARC
8
DEFAULT_255_2_778
10
18.4902753
20
42.7626519
40
0.1391457
50
357.2298288
51
48.6469881
0
ARC
8
DEFAULT_255_2_778
10
18.5137232
20
42.7559226
40
0.3092351
50
0.0008291
51
2.3676985
0
ARC
8
DEFAULT_255_2_778
10
18.5240744
20
42.7574868
40
0.2988304
50
2.1500394
51
60.0956838
0
ARC
8
DEFAULT_255_2_778
10
18.4654399
20
42.6509909
40
0.4203859
50
60.40452
51
86.1455285
0
ARC
8
DEFAULT_255_2_778
10
18.4424157
20
42.4741686
40
0.5984588
50
85.0841409
51
90.0629301
0
ARC
8
DEFAULT_255_2_778
10
18.4417778
20
42.5971392
40
0.4754878
50
90.0023409
51
92.3231329
0
ARC
8
DEFAULT_255_2_778
10
18.4167555
20
42.7024604
40
0.3698206
50
89.1093915
51
149.6400816
0
ARC
8
DEFAULT_255_2_778
10
18.338761
20
42.7748917
40
0.2669122
50
154.6001925
51
180.486137
0
ARC
8
DEFAULT_255_2_778
10
18.3537607
20
42.7735152
40
0.2819037
50
180.1805176
51
255.132702
0
ARC
8
DEFAULT_255_2_778
10
18.4982264
20
43.0967784
40
0.6339516
50
250.0026216
51
260.4967164
0
ARC
8
DEFAULT_255_2_778
10
16.008917
20
41.3039283
40
0.2519711
50
190.2626864
51
267.3480013
0
ARC
8
DEFAULT_255_2_778
10
16.2443543
20
41.3952548
40
0.5022041
50
179.6723028
51
195.7380858
0
ARC
8
DEFAULT_255_2_778
10
16.1790511
20
41.4107671
40
0.4370755
50
148.7005643
51
181.6572045
0
ARC
8
DEFAULT_255_2_778
10
15.9957576
20
41.5208723
40
0.2232598
50
89.6148479
51
148.4074796
0
ARC
8
DEFAULT_255_2_778
10
16.0060936
20
41.542949
40
0.201372
50
41.9769772
51
92.5146611
0
ARC
8
DEFAULT_255_2_778
10
15.9522078
20
41.5052523
40
0.2667646
50
15.1848537
51
40.2549591
0
ARC
8
DEFAULT_255_2_778
10
16.028123
20
41.5155326
40
0.3935735
50
8.7091682
51
82.0550801
0
ARC
8
DEFAULT_255_2_778
10
15.9931241
20
41.3690871
40
0.543642
50
80.5350289
51
90.1544743
0
ARC
8
DEFAULT_255_2_778
10
15.9818804
20
41.4577192
40
0.4551129
50
88.7689246
51
119.6437418
0
ARC
8
DEFAULT_255_2_778
10
16.0077717
20
41.4614647
40
0.4653013
50
122.644121
51
173.3997839
0
ARC
8
DEFAULT_255_2_778
10
16.2711934
20
41.3971568
40
0.7351371
50
170.7798304
51
180.1348114
0
ARC
8
DEFAULT_255_2_778
10
16.1377257
20
41.3817615
40
0.6018225
50
178.6988735
51
210.5289552
0
ARC
8
DEFAULT_255_2_778
10
15.970325
20
41.2909953
40
0.4115783
50
211.4828222
51
265.8686737
0
ARC
8
DEFAULT_255_2_778
10
15.9909864
20
41.4157011
40
0.5375742
50
264.6297133
51
270.0503073
0
ARC
8
DEFAULT_255_2_778
10
16.0020995
20
41.3475749
40
0.4695684
50
268.7014824
51
300.1403067
0
ARC
8
DEFAULT_255_2_778
10
16.0350333
20
41.2691852
40
0.385394
50
301.7580058
51
353.77968
0
ARC
8
DEFAULT_255_2_778
10
16.0012256
20
41.2635219
40
0.2113379
50
268.8430278
51
350.1661143
0
ARC
8
DEFAULT_255_2_778
10
18.6896799
20
41.3038824
40
0.2519281
50
190.2538303
51
267.3332171
0
ARC
8
DEFAULT_255_2_778
10
18.9252249
20
41.3952581
40
0.5022746
50
179.672724
51
195.7362088
0
ARC
8
DEFAULT_255_2_778
10
18.8600432
20
41.4107917
40
0.4372682
50
148.7196987
51
181.6596982
0
ARC
8
DEFAULT_255_2_778
10
18.676443
20
41.5209906
40
0.2231415
50
89.6108896
51
148.4244661
0
ARC
8
DEFAULT_255_2_778
10
18.686876
20
41.542967
40
0.2013576
50
42.5913083
51
92.5383066
0
ARC
8
DEFAULT_255_2_778
10
18.6345542
20
41.5065973
40
0.2646316
50
15.0085433
51
40.7215892
0
ARC
8
DEFAULT_255_2_778
10
18.708623
20
41.5155326
40
0.3935735
50
8.7091682
51
82.0550801
0
ARC
8
DEFAULT_255_2_778
10
18.6736241
20
41.3690871
40
0.543642
50
80.5350289
51
90.1544743
0
ARC
8
DEFAULT_255_2_778
10
18.6623804
20
41.4577192
40
0.4551129
50
88.7689246
51
119.6437418
0
ARC
8
DEFAULT_255_2_778
10
18.6882717
20
41.4614647
40
0.4653013
50
122.644121
51
173.3997839
0
ARC
8
DEFAULT_255_2_778
10
18.9516934
20
41.3971568
40
0.7351371
50
170.7798304
51
180.1348114
0
ARC
8
DEFAULT_255_2_778
10
18.8177822
20
41.38182
40
0.6013778
50
178.7034849
51
210.5604279
0
ARC
8
DEFAULT_255_2_778
10
18.6511312
20
41.2913377
40
0.4119265
50
211.5090145
51
265.8592607
0
ARC
8
DEFAULT_255_2_778
10
18.6716883
20
41.4154521
40
0.5373252
50
264.628472
51
270.0501277
0
ARC
8
DEFAULT_255_2_778
10
18.682837
20
41.3473685
40
0.4693629
50
268.6963312
51
300.2191972
0
ARC
8
DEFAULT_255_2_778
10
18.7155684
20
41.2694124
40
0.3856821
50
301.8465101
51
353.7503927
0
ARC
8
DEFAULT_255_2_778
10
18.6820648
20
41.2633604
40
0.2111733
50
268.8857714
51
350.2028431
0
LINE
8
DEFAULT_255_2_778
10
15.4577584
20
42.3574271
11
15.2656584
21
42.3574271
0
LINE
8
DEFAULT_255_2_778
10
15.8405584
20
42.7559271
11
16.0342584
21
42.7559271
0
LINE
8
DEFAULT_255_2_778
10
18.2459584
20
42.3574271
11
18.0540584
21
42.3574271
0
LINE
8
DEFAULT_255_2_778
10
18.6292584
20
42.7559271
11
18.8229584
21
42.7559271
0
LINE
8
DEFAULT_255_2_778
10
16.2096584
20
41.5751271
11
16.4171584
21
41.5751271
0
LINE
8
DEFAULT_255_2_778
10
16.4181584
20
41.2274271
11
16.2094584
21
41.2274271
0
LINE
8
DEFAULT_255_2_778
10
18.8901584
20
41.5751271
11
19.0976584
21
41.5751271
0
LINE
8
DEFAULT_255_2_778
10
19.0989584
20
41.2274271
11
18.8901584
21
41.2274271
0
LINE
8
DEFAULT_255_1_234
10
11.6664657
20
38.9963565
11
11.6664657
21
38.9216614
0
LINE
8
DEFAULT_255_1_234
10
11.4616563
20
38.4381507
11
11.6704815
21
38.2743033
0
LINE
8
DEFAULT_255_1_234
10
11.6704815
20
38.2743033
11
11.5652658
21
38.1771192
0
LINE
8
DEFAULT_255_1_234
10
11.5652658
20
38.1771192
11
11.3186914
21
38.3730937
0
LINE
8
DEFAULT_255_1_234
10
10.7251459
20
38.9112201
11
10.7251459
21
38.9955534
0
LINE
8
DEFAULT_255_1_234
10
11.5122563
20
38.9104169
11
11.5122563
21
38.9971597
0
LINE
8
DEFAULT_255_1_234
10
10.8793553
20
39.007601
11
10.8793553
21
38.9216614
0
ARC
8
DEFAULT_255_1_234
10
10.7710909
20
38.9177707
40
0.8953833
50
351.453011
51
0.2489685
0
ARC
8
DEFAULT_255_1_234
10
11.0295709
20
38.8777933
40
0.6338333
50
338.6861641
51
351.5540711
0
ARC
8
DEFAULT_255_1_234
10
11.1229593
20
38.8447828
40
0.5348431
50
336.2887631
51
338.3442418
0
ARC
8
DEFAULT_255_1_234
10
11.1569215
20
38.8261698
40
0.4962747
50
321.1170344
51
336.6795229
0
ARC
8
DEFAULT_255_1_234
10
11.2201044
20
38.7775206
40
0.4165565
50
305.4419708
51
320.8705636
0
ARC
8
DEFAULT_255_1_234
10
11.2004514
20
38.8522707
40
0.4935497
50
271.6373023
51
283.8611969
0
ARC
8
DEFAULT_255_1_234
10
11.1966767
20
38.9178572
40
0.5592206
50
269.9930596
51
271.8318864
0
ARC
8
DEFAULT_255_1_234
10
11.192921
20
38.8370681
40
0.4784458
50
252.5219675
51
270.4416499
0
ARC
8
DEFAULT_255_1_234
10
11.1785469
20
38.7831592
40
0.422716
50
237.5352116
51
252.1857531
0
ARC
8
DEFAULT_255_1_234
10
11.1874665
20
38.7945363
40
0.4371052
50
209.063312
51
237.3492538
0
ARC
8
DEFAULT_255_1_234
10
11.2744513
20
38.8491685
40
0.5397041
50
205.1183774
51
209.6470015
0
ARC
8
DEFAULT_255_1_234
10
11.354155
20
38.882983
40
0.6262326
50
188.7215458
51
204.8240747
0
ARC
8
DEFAULT_255_1_234
10
11.5539078
20
38.9166067
40
0.8287794
50
180.3723947
51
188.9252049
0
ARC
8
DEFAULT_255_1_234
10
11.551183
20
38.9995402
40
0.8260467
50
169.5253763
51
180.2765336
0
ARC
8
DEFAULT_255_1_234
10
11.3609279
20
39.0345309
40
0.6326007
50
155.8315255
51
169.5089989
0
ARC
8
DEFAULT_255_1_234
10
11.232878
20
39.0939348
40
0.4914567
50
139.6258461
51
156.0379525
0
ARC
8
DEFAULT_255_1_234
10
11.1739113
20
39.1413799
40
0.4158054
50
122.6416387
51
139.3430715
0
ARC
8
DEFAULT_255_1_234
10
11.1839733
20
39.1230451
40
0.4366739
50
93.0223692
51
122.455762
0
ARC
8
DEFAULT_255_1_234
10
11.194773
20
39.0265709
40
0.5336137
50
89.975342
51
93.6341897
0
ARC
8
DEFAULT_255_1_234
10
11.1986616
20
39.0645375
40
0.4956606
50
73.9665422
51
90.4229648
0
ARC
8
DEFAULT_255_1_234
10
11.2170263
20
39.1360451
40
0.4218674
50
57.5178019
51
73.6813337
0
ARC
8
DEFAULT_255_1_234
10
11.2126046
20
39.1324462
40
0.4272816
50
28.7261108
51
57.2767933
0
ARC
8
DEFAULT_255_1_234
10
11.1215378
20
39.0761688
40
0.534218
50
24.2448911
51
29.3248482
0
ARC
8
DEFAULT_255_1_234
10
11.0289479
20
39.0378819
40
0.6343711
50
9.064382
51
23.9639114
0
ARC
8
DEFAULT_255_1_234
10
10.8033807
20
38.9999925
40
0.8630926
50
359.7586264
51
9.1891435
0
ARC
8
DEFAULT_255_1_234
10
10.6779287
20
39.0013343
40
0.834338
50
359.7133237
51
7.96545
0
ARC
8
DEFAULT_255_1_234
10
10.9741504
20
39.0440681
40
0.5350538
50
7.8291991
51
20.0421623
0
ARC
8
DEFAULT_255_1_234
10
11.1366067
20
39.1031606
40
0.3621841
50
20.0677553
51
35.9161685
0
ARC
8
DEFAULT_255_1_234
10
11.2141105
20
39.160767
40
0.2656263
50
35.6594382
51
85.1578074
0
ARC
8
DEFAULT_255_1_234
10
11.1956361
20
39.0492378
40
0.3784238
50
83.7959068
51
90.095906
0
ARC
8
DEFAULT_255_1_234
10
11.1913295
20
39.1225601
40
0.3051229
50
89.3102392
51
109.9889877
0
ARC
8
DEFAULT_255_1_234
10
11.1830778
20
39.1581433
40
0.2688988
50
110.9285147
51
143.9411762
0
ARC
8
DEFAULT_255_1_234
10
11.2761724
20
39.0869236
40
0.3860887
50
143.5289163
51
163.2980757
0
ARC
8
DEFAULT_255_1_234
10
11.4669545
20
39.0269433
40
0.5860659
50
163.0418846
51
174.3140048
0
ARC
8
DEFAULT_255_1_234
10
11.7073657
20
38.9991854
40
0.8280531
50
174.0509143
51
179.4176892
0
ARC
8
DEFAULT_255_1_234
10
11.6559992
20
38.9173634
40
0.7766558
50
179.6829237
51
188.9631324
0
ARC
8
DEFAULT_255_1_234
10
11.3889553
20
38.8738752
40
0.5060992
50
188.8100743
51
202.9300012
0
ARC
8
DEFAULT_255_1_234
10
11.2673182
20
38.8243855
40
0.3747967
50
203.2069261
51
215.7876482
0
ARC
8
DEFAULT_255_1_234
10
11.1824579
20
38.7572671
40
0.2667526
50
214.7521006
51
264.2834488
0
ARC
8
DEFAULT_255_1_234
10
11.1960234
20
38.842778
40
0.3532247
50
263.4755397
51
270.0949833
0
ARC
8
DEFAULT_255_1_234
10
11.2002345
20
38.8166374
40
0.3271036
50
269.3649385
51
287.5152008
0
ARC
8
DEFAULT_255_1_234
10
11.2180503
20
38.7519238
40
0.2600406
50
288.0630309
51
323.8113348
0
ARC
8
DEFAULT_255_1_234
10
11.1309345
20
38.8169049
40
0.3687189
50
323.6547608
51
342.6590488
0
ARC
8
DEFAULT_255_1_234
10
10.927796
20
38.8829952
40
0.5823286
50
342.4091907
51
353.6451149
0
ARC
8
DEFAULT_255_1_234
10
10.6446471
20
38.918219
40
0.8676442
50
353.4029884
51
359.4847795
0
LINE
8
DEFAULT_255_1_234
10
12.680071
20
39.2059849
11
12.5250585
21
39.2059849
0
LINE
8
DEFAULT_255_1_234
10
11.8327227
20
38.7136394
11
11.9877352
21
38.7136394
0
ARC
8
DEFAULT_255_1_234
10
12.5909398
20
40.1006768
40
1.252368
50
248.9199003
51
254.1439814
0
ARC
8
DEFAULT_255_1_234
10
12.4228893
20
39.6680234
40
0.788226
50
241.633709
51
249.0064503
0
ARC
8
DEFAULT_255_1_234
10
12.2700287
20
39.3879317
40
0.4691427
50
230.498225
51
241.8087113
0
ARC
8
DEFAULT_255_1_234
10
12.1915861
20
39.2879906
40
0.3421437
50
227.4064532
51
229.9881192
0
ARC
8
DEFAULT_255_1_234
10
12.1428382
20
39.2404088
40
0.2741476
50
200.6781896
51
228.1763934
0
ARC
8
DEFAULT_255_1_234
10
12.1500693
20
39.2389077
40
0.2804109
50
179.5061581
51
199.8694617
0
ARC
8
DEFAULT_255_1_234
10
12.1491444
20
39.246321
40
0.2795204
50
132.4834203
51
181.0242172
0
ARC
8
DEFAULT_255_1_234
10
12.2087027
20
39.1900704
40
0.3612768
50
129.2532479
51
133.4242687
0
ARC
8
DEFAULT_255_1_234
10
12.2233476
20
39.1680965
40
0.3875675
50
101.98776
51
128.8742646
0
ARC
8
DEFAULT_255_1_234
10
12.2632087
20
38.9959741
40
0.5642249
50
89.5906553
51
102.3169264
0
ARC
8
DEFAULT_255_1_234
10
12.2702579
20
39.0278148
40
0.5323783
50
77.2360837
51
90.3248275
0
ARC
8
DEFAULT_255_1_234
10
12.2909658
20
39.12454
40
0.4334697
50
63.837784
51
77.0809408
0
ARC
8
DEFAULT_255_1_234
10
12.318742
20
39.1762911
40
0.3747796
50
45.9864267
51
64.1607727
0
ARC
8
DEFAULT_255_1_234
10
12.3448301
20
39.2060866
40
0.3352302
50
32.2747395
51
45.6547121
0
ARC
8
DEFAULT_255_1_234
10
12.3514742
20
39.207988
40
0.328603
50
359.6507365
51
32.6130309
0
ARC
8
DEFAULT_255_1_234
10
12.2571837
20
39.208466
40
0.2678863
50
359.469343
51
14.9832209
0
ARC
8
DEFAULT_255_1_234
10
12.32769
20
39.2273539
40
0.1948938
50
14.9781179
51
48.2004265
0
ARC
8
DEFAULT_255_1_234
10
12.3112544
20
39.2066983
40
0.2212521
50
48.5927837
51
74.1241538
0
ARC
8
DEFAULT_255_1_234
10
12.2779033
20
39.0966248
40
0.3362561
50
73.7888341
51
86.6652678
0
ARC
8
DEFAULT_255_1_234
10
12.2676599
20
38.9758881
40
0.4573953
50
86.2640471
51
90.0526343
0
ARC
8
DEFAULT_255_1_234
10
12.2648311
20
39.0154192
40
0.4178709
50
89.6697524
51
99.2309573
0
ARC
8
DEFAULT_255_1_234
10
12.2405762
20
39.1598964
40
0.2713749
50
99.069534
51
113.7658566
0
ARC
8
DEFAULT_255_1_234
10
12.2131953
20
39.2244677
40
0.2012469
50
114.0401004
51
127.9850673
0
ARC
8
DEFAULT_255_1_234
10
12.1891517
20
39.254073
40
0.1631167
50
127.7287463
51
176.7105154
0
ARC
8
DEFAULT_255_1_234
10
12.2570235
20
39.2439693
40
0.2315392
50
175.1779447
51
180.0581938
0
ARC
8
DEFAULT_255_1_234
10
12.1727082
20
39.2427428
40
0.1472271
50
179.6142195
51
228.1246017
0
ARC
8
DEFAULT_255_1_234
10
12.216875
20
39.2836308
40
0.2072299
50
226.5779593
51
230.8800004
0
ARC
8
DEFAULT_255_1_234
10
12.2639829
20
39.3461636
40
0.2854818
50
231.4635071
51
241.9260842
0
ARC
8
DEFAULT_255_1_234
10
12.3837007
20
39.56648
40
0.53622
50
241.7178533
51
248.3259551
0
ARC
8
DEFAULT_255_1_234
10
12.5222379
20
39.9097064
40
0.9063478
50
248.2007737
51
252.4528373
0
ARC
8
DEFAULT_255_1_234
10
12.6426104
20
40.2818441
40
1.2974635
50
252.3391078
51
254.3469452
0
ARC
8
DEFAULT_255_1_234
10
11.8883806
20
37.5841148
40
1.5037162
50
71.0197183
51
74.4087047
0
ARC
8
DEFAULT_255_1_234
10
12.0578491
20
38.0733111
40
0.9859993
50
66.1847285
51
71.086374
0
ARC
8
DEFAULT_255_1_234
10
12.2134804
20
38.42372
40
0.6025855
50
59.3536294
51
66.2691831
0
ARC
8
DEFAULT_255_1_234
10
12.3023456
20
38.5740609
40
0.4279449
50
49.1020879
51
59.3293958
0
ARC
8
DEFAULT_255_1_234
10
12.3842196
20
38.6673834
40
0.3038015
50
32.7919921
51
49.2505539
0
ARC
8
DEFAULT_255_1_234
10
12.4163286
20
38.6902191
40
0.264448
50
31.1181161
51
32.4005348
0
ARC
8
DEFAULT_255_1_234
10
12.4074824
20
38.6866779
40
0.2738556
50
8.1116974
51
30.7958831
0
ARC
8
DEFAULT_255_1_234
10
12.3264492
20
38.6728753
40
0.3560327
50
359.8389159
51
8.4706516
0
ARC
8
DEFAULT_255_1_234
10
12.3890283
20
38.6680137
40
0.2934776
50
337.4731098
51
0.7537279
0
ARC
8
DEFAULT_255_1_234
10
12.4068978
20
38.6660387
40
0.2762607
50
307.5917067
51
336.4315538
0
ARC
8
DEFAULT_255_1_234
10
12.3608806
20
38.7173102
40
0.3449979
50
307.6551545
51
308.4529766
0
ARC
8
DEFAULT_255_1_234
10
12.3378525
20
38.752825
40
0.3871988
50
284.3734338
51
307.1424381
0
ARC
8
DEFAULT_255_1_234
10
12.2883355
20
38.9349932
40
0.5759636
50
272.4382747
51
284.646547
0
ARC
8
DEFAULT_255_1_234
10
12.2756564
20
39.1149893
40
0.7563528
50
269.9708387
51
272.8178037
0
ARC
8
DEFAULT_255_1_234
10
12.2713604
20
38.9111716
40
0.5525489
50
248.2707594
51
270.4055579
0
ARC
8
DEFAULT_255_1_234
10
12.2659345
20
38.8921192
40
0.5328452
50
246.1383403
51
248.0542782
0
ARC
8
DEFAULT_255_1_234
10
12.2240724
20
38.8041843
40
0.4355005
50
233.1670131
51
246.4950969
0
ARC
8
DEFAULT_255_1_234
10
12.1686629
20
38.7293812
40
0.3424126
50
215.3403242
51
233.0843104
0
ARC
8
DEFAULT_255_1_234
10
12.141406
20
38.7095549
40
0.3087104
50
179.2419209
51
215.2648451
0
ARC
8
DEFAULT_255_1_234
10
12.2181654
20
38.7109666
40
0.2304457
50
179.335461
51
199.1045811
0
ARC
8
DEFAULT_255_1_234
10
12.184933
20
38.7022766
40
0.1962176
50
199.8828939
51
232.7063202
0
ARC
8
DEFAULT_255_1_234
10
12.2321599
20
38.7616788
40
0.2720938
50
232.3738199
51
255.5136649
0
ARC
8
DEFAULT_255_1_234
10
12.2662465
20
38.8860835
40
0.4010747
50
255.2446292
51
267.5320849
0
ARC
8
DEFAULT_255_1_234
10
12.2750089
20
39.0093702
40
0.5246356
50
267.1557994
51
270.0286766
0
ARC
8
DEFAULT_255_1_234
10
12.2777861
20
38.964995
40
0.4802668
50
269.7000017
51
278.1660162
0
ARC
8
DEFAULT_255_1_234
10
12.3033866
20
38.7919515
40
0.3053425
50
278.0231263
51
290.625471
0
ARC
8
DEFAULT_255_1_234
10
12.3381553
20
38.6992025
40
0.206291
50
290.6619762
51
307.0370976
0
ARC
8
DEFAULT_255_1_234
10
12.3681942
20
38.6623504
40
0.1587906
50
306.3943566
51
355.3030547
0
ARC
8
DEFAULT_255_1_234
10
12.3169873
20
38.6700113
40
0.2104809
50
354.3660432
51
0.0698737
0
ARC
8
DEFAULT_255_1_234
10
12.3312219
20
38.6722617
40
0.1962563
50
359.417946
51
16.1971788
0
ARC
8
DEFAULT_255_1_234
10
12.3767529
20
38.6847418
40
0.149053
50
16.4723299
51
52.6262157
0
ARC
8
DEFAULT_255_1_234
10
12.2946583
20
38.5763433
40
0.2850296
50
52.7386432
51
62.4979148
0
ARC
8
DEFAULT_255_1_234
10
12.156166
20
38.3157283
40
0.5801521
50
62.2515216
51
68.1220564
0
ARC
8
DEFAULT_255_1_234
10
11.9841571
20
37.8929872
40
1.0365451
50
68.0062803
51
71.8053402
0
ARC
8
DEFAULT_255_1_234
10
11.8045942
20
37.3544758
40
1.6042013
50
71.7183119
51
73.9258742
0
LINE
8
DEFAULT_255_1_234
10
14.0631364
20
39.2059849
11
13.9081238
21
39.2059849
0
LINE
8
DEFAULT_255_1_234
10
13.215788
20
38.7136394
11
13.3708005
21
38.7136394
0
ARC
8
DEFAULT_255_1_234
10
13.9740051
20
40.1006768
40
1.252368
50
248.9199003
51
254.1439814
0
ARC
8
DEFAULT_255_1_234
10
13.8059546
20
39.6680234
40
0.788226
50
241.633709
51
249.0064503
0
ARC
8
DEFAULT_255_1_234
10
13.653094
20
39.3879317
40
0.4691427
50
230.498225
51
241.8087113
0
ARC
8
DEFAULT_255_1_234
10
13.5746515
20
39.2879906
40
0.3421437
50
227.4064532
51
229.9881192
0
ARC
8
DEFAULT_255_1_234
10
13.5259035
20
39.2404088
40
0.2741476
50
200.6781896
51
228.1763934
0
ARC
8
DEFAULT_255_1_234
10
13.5331346
20
39.2389077
40
0.2804109
50
179.5061581
51
199.8694617
0
ARC
8
DEFAULT_255_1_234
10
13.5322098
20
39.246321
40
0.2795204
50
132.4834203
51
181.0242172
0
ARC
8
DEFAULT_255_1_234
10
13.591768
20
39.1900704
40
0.3612768
50
129.2532479
51
133.4242687
0
ARC
8
DEFAULT_255_1_234
10
13.606413
20
39.1680965
40
0.3875675
50
101.98776
51
128.8742646
0
ARC
8
DEFAULT_255_1_234
10
13.646274
20
38.9959741
40
0.5642249
50
89.5906553
51
102.3169264
0
ARC
8
DEFAULT_255_1_234
10
13.6533232
20
39.0278148
40
0.5323783
50
77.2360837
51
90.3248275
0
ARC
8
DEFAULT_255_1_234
10
13.6740311
20
39.12454
40
0.4334697
50
63.837784
51
77.0809408
0
ARC
8
DEFAULT_255_1_234
10
13.7018073
20
39.1762911
40
0.3747796
50
45.9864267
51
64.1607727
0
ARC
8
DEFAULT_255_1_234
10
13.7278954
20
39.2060866
40
0.3352302
50
32.2747395
51
45.6547121
0
ARC
8
DEFAULT_255_1_234
10
13.7345395
20
39.207988
40
0.328603
50
359.6507365
51
32.6130309
0
ARC
8
DEFAULT_255_1_234
10
13.640249
20
39.208466
40
0.2678863
50
359.469343
51
14.9832209
0
ARC
8
DEFAULT_255_1_234
10
13.7107553
20
39.2273539
40
0.1948938
50
14.9781179
51
48.2004265
0
ARC
8
DEFAULT_255_1_234
10
13.6943197
20
39.2066983
40
0.2212521
50
48.5927837
51
74.1241538
0
ARC
8
DEFAULT_255_1_234
10
13.6609687
20
39.0966248
40
0.3362561
50
73.7888341
51
86.6652678
0
ARC
8
DEFAULT_255_1_234
10
13.6507252
20
38.9758881
40
0.4573953
50
86.2640471
51
90.0526343
0
ARC
8
DEFAULT_255_1_234
10
13.6478965
20
39.0154192
40
0.4178709
50
89.6697524
51
99.2309573
0
ARC
8
DEFAULT_255_1_234
10
13.6236416
20
39.1598964
40
0.2713749
50
99.069534
51
113.7658566
0
ARC
8
DEFAULT_255_1_234
10
13.5962607
20
39.2244677
40
0.2012469
50
114.0401004
51
127.9850673
0
ARC
8
DEFAULT_255_1_234
10
13.5722171
20
39.254073
40
0.1631167
50
127.7287463
51
176.7105154
0
ARC
8
DEFAULT_255_1_234
10
13.6400888
20
39.2439693
40
0.2315392
50
175.1779447
51
180.0581938
0
ARC
8
DEFAULT_255_1_234
10
13.5557735
20
39.2427428
40
0.1472271
50
179.6142195
51
228.1246017
0
ARC
8
DEFAULT_255_1_234
10
13.5999404
20
39.2836308
40
0.2072299
50
226.5779593
51
230.8800004
0
ARC
8
DEFAULT_255_1_234
10
13.6470482
20
39.3461636
40
0.2854818
50
231.4635071
51
241.9260842
0
ARC
8
DEFAULT_255_1_234
10
13.766766
20
39.56648
40
0.53622
50
241.7178533
51
248.3259551
0
ARC
8
DEFAULT_255_1_234
10
13.9053032
20
39.9097064
40
0.9063478
50
248.2007737
51
252.4528373
0
ARC
8
DEFAULT_255_1_234
10
14.0256757
20
40.2818441
40
1.2974635
50
252.3391078
51
254.3469452
0
ARC
8
DEFAULT_255_1_234
10
13.271446
20
37.5841148
40
1.5037162
50
71.0197183
51
74.4087047
0
ARC
8
DEFAULT_255_1_234
10
13.4409145
20
38.0733111
40
0.9859993
50
66.1847285
51
71.086374
0
ARC
8
DEFAULT_255_1_234
10
13.5965457
20
38.42372
40
0.6025855
50
59.3536294
51
66.2691831
0
ARC
8
DEFAULT_255_1_234
10
13.685411
20
38.5740609
40
0.4279449
50
49.1020879
51
59.3293958
0
ARC
8
DEFAULT_255_1_234
10
13.7672849
20
38.6673834
40
0.3038015
50
32.7919921
51
49.2505539
0
ARC
8
DEFAULT_255_1_234
10
13.7993939
20
38.6902191
40
0.264448
50
31.1181161
51
32.4005348
0
ARC
8
DEFAULT_255_1_234
10
13.7905477
20
38.6866779
40
0.2738556
50
8.1116974
51
30.7958831
0
ARC
8
DEFAULT_255_1_234
10
13.7095145
20
38.6728753
40
0.3560327
50
359.8389159
51
8.4706516
0
ARC
8
DEFAULT_255_1_234
10
13.7720937
20
38.6680137
40
0.2934776
50
337.4731098
51
0.7537279
0
ARC
8
DEFAULT_255_1_234
10
13.7899632
20
38.6660387
40
0.2762607
50
307.5917067
51
336.4315538
0
ARC
8
DEFAULT_255_1_234
10
13.7439459
20
38.7173102
40
0.3449979
50
307.6551545
51
308.4529766
0
ARC
8
DEFAULT_255_1_234
10
13.7209178
20
38.752825
40
0.3871988
50
284.3734338
51
307.1424381
0
ARC
8
DEFAULT_255_1_234
10
13.6714009
20
38.9349932
40
0.5759636
50
272.4382747
51
284.646547
0
ARC
8
DEFAULT_255_1_234
10
13.6587217
20
39.1149893
40
0.7563528
50
269.9708387
51
272.8178037
0
ARC
8
DEFAULT_255_1_234
10
13.6544257
20
38.9111716
40
0.5525489
50
248.2707594
51
270.4055579
0
ARC
8
DEFAULT_255_1_234
10
13.6489998
20
38.8921192
40
0.5328452
50
246.1383403
51
248.0542782
0
ARC
8
DEFAULT_255_1_234
10
13.6071377
20
38.8041843
40
0.4355005
50
233.1670131
51
246.4950969
0
ARC
8
DEFAULT_255_1_234
10
13.5517282
20
38.7293812
40
0.3424126
50
215.3403242
51
233.0843104
0
ARC
8
DEFAULT_255_1_234
10
13.5244713
20
38.7095549
40
0.3087104
50
179.2419209
51
215.2648451
0
ARC
8
DEFAULT_255_1_234
10
13.6012307
20
38.7109666
40
0.2304457
50
179.335461
51
199.1045811
0
ARC
8
DEFAULT_255_1_234
10
13.5679984
20
38.7022766
40
0.1962176
50
199.8828939
51
232.7063202
0
ARC
8
DEFAULT_255_1_234
10
13.6152252
20
38.7616788
40
0.2720938
50
232.3738199
51
255.5136649
0
ARC
8
DEFAULT_255_1_234
10
13.6493119
20
38.8860835
40
0.4010747
50
255.2446292
51
267.5320849
0
ARC
8
DEFAULT_255_1_234
10
13.6580742
20
39.0093702
40
0.5246356
50
267.1557994
51
270.0286766
0
ARC
8
DEFAULT_255_1_234
10
13.6608514
20
38.964995
40
0.4802668
50
269.7000017
51
278.1660162
0
ARC
8
DEFAULT_255_1_234
10
13.6864519
20
38.7919515
40
0.3053425
50
278.0231263
51
290.625471
0
ARC
8
DEFAULT_255_1_234
10
13.7212206
20
38.6992025
40
0.206291
50
290.6619762
51
307.0370976
0
ARC
8
DEFAULT_255_1_234
10
13.7512595
20
38.6623504
40
0.1587906
50
306.3943566
51
355.3030547
0
ARC
8
DEFAULT_255_1_234
10
13.7000527
20
38.6700113
40
0.2104809
50
354.3660432
51
0.0698737
0
ARC
8
DEFAULT_255_1_234
10
13.7142872
20
38.6722617
40
0.1962563
50
359.417946
51
16.1971788
0
ARC
8
DEFAULT_255_1_234
10
13.7598182
20
38.6847418
40
0.149053
50
16.4723299
51
52.6262157
0
ARC
8
DEFAULT_255_1_234
10
13.6777236
20
38.5763433
40
0.2850296
50
52.7386432
51
62.4979148
0
ARC
8
DEFAULT_255_1_234
10
13.5392313
20
38.3157283
40
0.5801521
50
62.2515216
51
68.1220564
0
ARC
8
DEFAULT_255_1_234
10
13.3672224
20
37.8929872
40
1.0365451
50
68.0062803
51
71.8053402
0
ARC
8
DEFAULT_255_1_234
10
13.1876596
20
37.3544758
40
1.6042013
50
71.7183119
51
73.9258742
0
LINE
8
DEFAULT_255_1_234
10
14.2020854
20
38.7851218
11
14.2020854
21
38.8124297
0
LINE
8
DEFAULT_255_1_234
10
14.939399
20
38.8284932
11
14.939399
21
38.7666488
0
LINE
8
DEFAULT_255_1_234
10
14.939399
20
38.7666488
11
14.3506726
21
38.7666488
0
LINE
8
DEFAULT_255_1_234
10
14.8373959
20
38.5971792
11
14.9281546
21
38.5264999
0
LINE
8
DEFAULT_255_1_234
10
14.3554917
20
38.8887313
11
14.7908119
21
38.8887313
0
LINE
8
DEFAULT_255_1_234
10
14.7908119
20
38.8887313
11
14.7908119
21
38.8999757
0
ARC
8
DEFAULT_255_1_234
10
14.596022
20
38.7962332
40
0.4376191
50
252.3266134
51
270.5810217
0
ARC
8
DEFAULT_255_1_234
10
14.5755309
20
38.7221644
40
0.3608374
50
223.3000567
51
251.8561855
0
ARC
8
DEFAULT_255_1_234
10
14.5966669
20
38.7426937
40
0.3902993
50
190.9374509
51
223.3654032
0
ARC
8
DEFAULT_255_1_234
10
14.7691642
20
38.7816885
40
0.5670891
50
179.6531105
51
191.4989439
0
ARC
8
DEFAULT_255_1_234
10
14.7813654
20
38.8156417
40
0.5792888
50
167.4007466
51
180.3176909
0
ARC
8
DEFAULT_255_1_234
10
14.6761715
20
38.8378885
40
0.471777
50
154.1835823
51
167.250763
0
ARC
8
DEFAULT_255_1_234
10
14.6130183
20
38.8711417
40
0.4004528
50
134.3149965
51
154.5315275
0
ARC
8
DEFAULT_255_1_234
10
14.5912678
20
38.8902228
40
0.371612
50
122.8616532
51
133.9707695
0
ARC
8
DEFAULT_255_1_234
10
14.5809252
20
38.9124703
40
0.3473289
50
89.8249009
51
123.4199222
0
ARC
8
DEFAULT_255_1_234
10
14.5859293
20
38.8477967
40
0.4120197
50
74.7876118
51
90.5482747
0
ARC
8
DEFAULT_255_1_234
10
14.6153036
20
38.956303
40
0.2996077
50
39.8178249
51
74.7633718
0
ARC
8
DEFAULT_255_1_234
10
14.5640357
20
38.9163351
40
0.3645855
50
16.8990863
51
39.4829761
0
ARC
8
DEFAULT_255_1_234
10
14.3745653
20
38.8556526
40
0.5635218
50
4.9636328
51
17.2026414
0
ARC
8
DEFAULT_255_1_234
10
14.1327723
20
38.830134
40
0.8066286
50
359.8834553
51
5.2834307
0
ARC
8
DEFAULT_255_1_234
10
14.7365248
20
38.7732803
40
0.3859091
50
180.9846213
51
194.9401313
0
ARC
8
DEFAULT_255_1_234
10
14.6315525
20
38.7445849
40
0.2770883
50
194.80314
51
222.0412631
0
ARC
8
DEFAULT_255_1_234
10
14.6011407
20
38.7144116
40
0.2343055
50
221.5417084
51
268.8614402
0
ARC
8
DEFAULT_255_1_234
10
14.6084402
20
38.7820686
40
0.3021528
50
267.732405
51
270.0097136
0
ARC
8
DEFAULT_255_1_234
10
14.6102212
20
38.8022105
40
0.3222994
50
269.6924892
51
280.4117579
0
ARC
8
DEFAULT_255_1_234
10
14.6278619
20
38.7103193
40
0.2287344
50
280.2255091
51
298.6338936
0
ARC
8
DEFAULT_255_1_234
10
14.6395411
20
38.6859223
40
0.2017294
50
299.0430333
51
300.4643464
0
ARC
8
DEFAULT_255_1_234
10
14.5715416
20
38.7993038
40
0.3339357
50
300.6577328
51
322.0378878
0
ARC
8
DEFAULT_255_1_234
10
14.5364955
20
38.8297021
40
0.3802736
50
321.6750233
51
322.3046845
0
ARC
8
DEFAULT_255_1_234
10
14.6295917
20
38.713037
40
0.3520454
50
276.9728461
51
328.0035423
0
ARC
8
DEFAULT_255_1_234
10
14.6018969
20
38.8610841
40
0.5024498
50
269.8361028
51
278.0581756
0
ARC
8
DEFAULT_255_1_234
10
14.5791707
20
38.9355757
40
0.202159
50
89.2018686
51
117.2851756
0
ARC
8
DEFAULT_255_1_234
10
14.5844876
20
38.9313752
40
0.2083484
50
118.0551165
51
137.4540413
0
ARC
8
DEFAULT_255_1_234
10
14.6219616
20
38.8973304
40
0.2589774
50
137.5109581
51
158.8516286
0
ARC
8
DEFAULT_255_1_234
10
14.7357451
20
38.8514074
40
0.38167
50
158.5845963
51
170.1721436
0
ARC
8
DEFAULT_255_1_234
10
14.8526841
20
38.8281823
40
0.5008657
50
169.8376422
51
173.0566086
0
ARC
8
DEFAULT_255_1_234
10
14.3829914
20
38.8792509
40
0.4083467
50
2.9091802
51
12.8847116
0
ARC
8
DEFAULT_255_1_234
10
14.5200591
20
38.9115101
40
0.2675383
50
12.6957781
51
28.6404489
0
ARC
8
DEFAULT_255_1_234
10
14.5742262
20
38.9395458
40
0.2065654
50
29.0169854
51
41.1487595
0
ARC
8
DEFAULT_255_1_234
10
14.5945047
20
38.9572003
40
0.1796786
50
41.1646065
51
85.0013516
0
ARC
8
DEFAULT_255_1_234
10
14.5824144
20
38.8837431
40
0.2539726
50
83.7280015
51
90.0964893
0
LINE
8
DEFAULT_255_1_234
10
15.5313381
20
39.2485531
11
15.5313381
21
39.1104072
0
LINE
8
DEFAULT_255_1_234
10
15.2598654
20
38.9915375
11
15.2598654
21
38.3747
0
LINE
8
DEFAULT_255_1_234
10
15.2598654
20
38.3747
11
15.1112782
21
38.3747
0
LINE
8
DEFAULT_255_1_234
10
15.1112782
20
38.3747
11
15.1112782
21
39.2437341
0
LINE
8
DEFAULT_255_1_234
10
15.1112782
20
39.2437341
11
15.2558495
21
39.2437341
0
LINE
8
DEFAULT_255_1_234
10
15.2558495
20
39.2437341
11
15.258259
21
39.1433374
0
ARC
8
DEFAULT_255_1_234
10
15.4646787
20
38.7044342
40
0.4114092
50
80.6754243
51
86.8932892
0
ARC
8
DEFAULT_255_1_234
10
15.4586321
20
38.60767
40
0.5083596
50
86.8038578
51
90.0431435
0
ARC
8
DEFAULT_255_1_234
10
15.4549302
20
38.8533866
40
0.2626638
50
89.2759698
51
106.6213787
0
ARC
8
DEFAULT_255_1_234
10
15.4344866
20
38.927683
40
0.1856317
50
107.1346045
51
157.6458115
0
ARC
8
DEFAULT_255_1_234
10
15.5036467
20
38.8893311
40
0.2643398
50
155.6586782
51
157.2539184
0
ARC
8
DEFAULT_255_1_234
10
15.483167
20
39.0062157
40
0.2634121
50
127.8165941
51
148.6302098
0
ARC
8
DEFAULT_255_1_234
10
15.4578139
20
39.0322218
40
0.2273596
50
91.3329982
51
126.7875809
0
ARC
8
DEFAULT_255_1_234
10
15.4654079
20
38.9607195
40
0.299078
50
89.986594
51
92.4688449
0
ARC
8
DEFAULT_255_1_234
10
15.4662474
20
38.9882078
40
0.2715908
50
85.3589899
51
90.1623399
0
ARC
8
DEFAULT_255_1_234
10
15.474699
20
39.0886164
40
0.1708278
50
78.401942
51
85.4594656
0
ARC
8
DEFAULT_255_1_234
10
15.4891874
20
39.1577236
40
0.1002194
50
67.7858312
51
78.5728455
0
ARC
8
DEFAULT_255_1_234
10
15.4999726
20
39.1856887
40
0.0702548
50
63.4835954
51
67.3062642
0
LINE
8
DEFAULT_255_1_234
10
15.8293156
20
39.2437341
11
15.8293156
21
38.3747
0
LINE
8
DEFAULT_255_1_234
10
15.8293156
20
38.3747
11
15.6807285
21
38.3747
0
LINE
8
DEFAULT_255_1_234
10
15.6807285
20
38.3747
11
15.6807285
21
39.2437341
0
LINE
8
DEFAULT_255_1_234
10
15.6807285
20
39.2437341
11
15.8293156
21
39.2437341
0
ARC
8
DEFAULT_255_1_234
10
15.7665433
20
39.4751889
40
0.097867
50
161.415052
51
180.5526306
0
ARC
8
DEFAULT_255_1_234
10
15.7541212
20
39.4786077
40
0.0850062
50
138.1827368
51
160.9307106
0
ARC
8
DEFAULT_255_1_234
10
15.7431157
20
39.4881588
40
0.0704362
50
104.6368899
51
138.0039868
0
ARC
8
DEFAULT_255_1_234
10
15.7538312
20
39.4514963
40
0.1086221
50
92.0600725
51
105.2189128
0
ARC
8
DEFAULT_255_1_234
10
15.756166
20
39.4172117
40
0.1429728
50
89.9756393
51
92.5012496
0
ARC
8
DEFAULT_255_1_234
10
15.7571679
20
39.4397731
40
0.1204151
50
78.0235316
51
90.4478182
0
ARC
8
DEFAULT_255_1_234
10
15.7663771
20
39.4811295
40
0.0780493
50
55.051506
51
78.3369085
0
ARC
8
DEFAULT_255_1_234
10
15.7714046
20
39.4895711
40
0.0682538
50
42.0501187
51
54.4513741
0
ARC
8
DEFAULT_255_1_234
10
15.7578913
20
39.4771798
40
0.0865878
50
1.7497075
51
42.1496013
0
ARC
8
DEFAULT_255_1_234
10
15.7324246
20
39.4742738
40
0.1121515
50
359.9852656
51
2.8364544
0
ARC
8
DEFAULT_255_1_234
10
15.7490238
20
39.4733229
40
0.0955566
50
342.1070653
51
0.552888
0
ARC
8
DEFAULT_255_1_234
10
15.7632935
20
39.4693904
40
0.0807713
50
316.7107116
51
341.6516965
0
ARC
8
DEFAULT_255_1_234
10
15.7699972
20
39.4633823
40
0.0717724
50
285.4397031
51
316.5324284
0
ARC
8
DEFAULT_255_1_234
10
15.758989
20
39.4999554
40
0.1099597
50
272.3547054
51
285.8953117
0
ARC
8
DEFAULT_255_1_234
10
15.7563047
20
39.5365048
40
0.1465932
50
269.9695369
51
272.8160237
0
ARC
8
DEFAULT_255_1_234
10
15.7553229
20
39.5145863
40
0.1246779
50
258.8431134
51
270.4153935
0
ARC
8
DEFAULT_255_1_234
10
15.7463271
20
39.4710414
40
0.0802162
50
238.5431189
51
259.1288175
0
ARC
8
DEFAULT_255_1_234
10
15.7395156
20
39.4586856
40
0.0661247
50
222.5062634
51
237.9906969
0
ARC
8
DEFAULT_255_1_234
10
15.7522744
20
39.4702889
40
0.0833707
50
184.1069131
51
222.460413
0
ARC
8
DEFAULT_255_1_234
10
15.7791984
20
39.4741349
40
0.1105176
50
179.9429482
51
185.0960898
0
LINE
8
DEFAULT_255_1_234
10
16.0293059
20
38.7851218
11
16.0293059
21
38.8124297
0
LINE
8
DEFAULT_255_1_234
10
16.7666195
20
38.8284932
11
16.7666195
21
38.7666488
0
LINE
8
DEFAULT_255_1_234
10
16.7666195
20
38.7666488
11
16.1778931
21
38.7666488
0
LINE
8
DEFAULT_255_1_234
10
16.6646164
20
38.5971792
11
16.755375
21
38.5264999
0
LINE
8
DEFAULT_255_1_234
10
16.1827121
20
38.8887313
11
16.6180323
21
38.8887313
0
LINE
8
DEFAULT_255_1_234
10
16.6180323
20
38.8887313
11
16.6180323
21
38.8999757
0
ARC
8
DEFAULT_255_1_234
10
16.4232424
20
38.7962332
40
0.4376191
50
252.3266134
51
270.5810217
0
ARC
8
DEFAULT_255_1_234
10
16.4027513
20
38.7221644
40
0.3608374
50
223.3000567
51
251.8561855
0
ARC
8
DEFAULT_255_1_234
10
16.4238874
20
38.7426937
40
0.3902993
50
190.9374509
51
223.3654032
0
ARC
8
DEFAULT_255_1_234
10
16.5963846
20
38.7816885
40
0.5670891
50
179.6531105
51
191.4989439
0
ARC
8
DEFAULT_255_1_234
10
16.6085858
20
38.8156417
40
0.5792888
50
167.4007466
51
180.3176909
0
ARC
8
DEFAULT_255_1_234
10
16.503392
20
38.8378885
40
0.471777
50
154.1835823
51
167.250763
0
ARC
8
DEFAULT_255_1_234
10
16.4402387
20
38.8711417
40
0.4004528
50
134.3149965
51
154.5315275
0
ARC
8
DEFAULT_255_1_234
10
16.4184882
20
38.8902228
40
0.371612
50
122.8616532
51
133.9707695
0
ARC
8
DEFAULT_255_1_234
10
16.4081457
20
38.9124703
40
0.3473289
50
89.8249009
51
123.4199222
0
ARC
8
DEFAULT_255_1_234
10
16.4131498
20
38.8477967
40
0.4120197
50
74.7876118
51
90.5482747
0
ARC
8
DEFAULT_255_1_234
10
16.4425241
20
38.956303
40
0.2996077
50
39.8178249
51
74.7633718
0
ARC
8
DEFAULT_255_1_234
10
16.3912561
20
38.9163351
40
0.3645855
50
16.8990863
51
39.4829761
0
ARC
8
DEFAULT_255_1_234
10
16.2017858
20
38.8556526
40
0.5635218
50
4.9636328
51
17.2026414
0
ARC
8
DEFAULT_255_1_234
10
15.9599928
20
38.830134
40
0.8066286
50
359.8834553
51
5.2834307
0
ARC
8
DEFAULT_255_1_234
10
16.5637452
20
38.7732803
40
0.3859091
50
180.9846213
51
194.9401313
0
ARC
8
DEFAULT_255_1_234
10
16.458773
20
38.7445849
40
0.2770883
50
194.80314
51
222.0412631
0
ARC
8
DEFAULT_255_1_234
10
16.4283612
20
38.7144116
40
0.2343055
50
221.5417084
51
268.8614402
0
ARC
8
DEFAULT_255_1_234
10
16.4356606
20
38.7820686
40
0.3021528
50
267.732405
51
270.0097136
0
ARC
8
DEFAULT_255_1_234
10
16.4374417
20
38.8022105
40
0.3222994
50
269.6924892
51
280.4117579
0
ARC
8
DEFAULT_255_1_234
10
16.4550823
20
38.7103193
40
0.2287344
50
280.2255091
51
298.6338936
0
ARC
8
DEFAULT_255_1_234
10
16.4667615
20
38.6859223
40
0.2017294
50
299.0430333
51
300.4643464
0
ARC
8
DEFAULT_255_1_234
10
16.3987621
20
38.7993038
40
0.3339357
50
300.6577328
51
322.0378878
0
ARC
8
DEFAULT_255_1_234
10
16.363716
20
38.8297021
40
0.3802736
50
321.6750233
51
322.3046845
0
ARC
8
DEFAULT_255_1_234
10
16.4568121
20
38.713037
40
0.3520454
50
276.9728461
51
328.0035423
0
ARC
8
DEFAULT_255_1_234
10
16.4291174
20
38.8610841
40
0.5024498
50
269.8361028
51
278.0581756
0
ARC
8
DEFAULT_255_1_234
10
16.4063911
20
38.9355757
40
0.202159
50
89.2018686
51
117.2851756
0
ARC
8
DEFAULT_255_1_234
10
16.411708
20
38.9313752
40
0.2083484
50
118.0551165
51
137.4540413
0
ARC
8
DEFAULT_255_1_234
10
16.449182
20
38.8973304
40
0.2589774
50
137.5109581
51
158.8516286
0
ARC
8
DEFAULT_255_1_234
10
16.5629656
20
38.8514074
40
0.38167
50
158.5845963
51
170.1721436
0
ARC
8
DEFAULT_255_1_234
10
16.6799045
20
38.8281823
40
0.5008657
50
169.8376422
51
173.0566086
0
ARC
8
DEFAULT_255_1_234
10
16.2102119
20
38.8792509
40
0.4083467
50
2.9091802
51
12.8847116
0
ARC
8
DEFAULT_255_1_234
10
16.3472796
20
38.9115101
40
0.2675383
50
12.6957781
51
28.6404489
0
ARC
8
DEFAULT_255_1_234
10
16.4014466
20
38.9395458
40
0.2065654
50
29.0169854
51
41.1487595
0
ARC
8
DEFAULT_255_1_234
10
16.4217252
20
38.9572003
40
0.1796786
50
41.1646065
51
85.0013516
0
ARC
8
DEFAULT_255_1_234
10
16.4096348
20
38.8837431
40
0.2539726
50
83.7280015
51
90.0964893
0
LINE
8
DEFAULT_255_1_234
10
17.5850536
20
38.9883248
11
17.4356633
21
38.9883248
0
LINE
8
DEFAULT_255_1_234
10
16.9023559
20
38.6421569
11
17.050943
21
38.6421569
0
ARC
8
DEFAULT_255_1_234
10
17.3168451
20
38.6066959
40
0.1276617
50
359.3334982
51
18.5871358
0
ARC
8
DEFAULT_255_1_234
10
17.3377089
20
38.6122133
40
0.1061371
50
19.3540742
51
54.6485071
0
ARC
8
DEFAULT_255_1_234
10
17.2872991
20
38.5426919
40
0.1920087
50
54.3827097
51
65.0622807
0
ARC
8
DEFAULT_255_1_234
10
17.2104387
20
38.38099
40
0.3710447
50
64.8282493
51
71.4200025
0
ARC
8
DEFAULT_255_1_234
10
17.1202262
20
38.1163107
40
0.6506741
50
71.3164301
51
75.8006402
0
ARC
8
DEFAULT_255_1_234
10
17.0361082
20
37.7922561
40
0.9854641
50
75.6809531
51
78.0061883
0
ARC
8
DEFAULT_255_1_234
10
17.4809616
20
39.890177
40
1.1591028
50
254.6901892
51
258.0466452
0
ARC
8
DEFAULT_255_1_234
10
17.3771524
20
39.5142781
40
0.7691345
50
249.9010773
51
254.755261
0
ARC
8
DEFAULT_255_1_234
10
17.2767866
20
39.2416982
40
0.478665
50
243.3097214
51
249.9709442
0
ARC
8
DEFAULT_255_1_234
10
17.2138887
20
39.1162778
40
0.3383568
50
234.4047477
51
243.2862168
0
ARC
8
DEFAULT_255_1_234
10
17.1516411
20
39.0303232
40
0.2322322
50
220.8667099
51
234.5493881
0
ARC
8
DEFAULT_255_1_234
10
17.1174351
20
38.9991817
40
0.1859923
50
214.3062465
51
220.5065136
0
ARC
8
DEFAULT_255_1_234
10
17.1148431
20
38.996088
40
0.1821108
50
186.912965
51
213.9618616
0
ARC
8
DEFAULT_255_1_234
10
17.1680526
20
39.0047009
40
0.2359799
50
179.8808832
51
187.4339886
0
ARC
8
DEFAULT_255_1_234
10
17.1525659
20
39.0067088
40
0.2204978
50
132.005434
51
180.3942919
0
ARC
8
DEFAULT_255_1_234
10
17.2182272
20
38.9461083
40
0.3095791
50
129.2319861
51
133.5302299
0
ARC
8
DEFAULT_255_1_234
10
17.2235781
20
38.9366928
40
0.3202615
50
100.4410011
51
128.9081242
0
ARC
8
DEFAULT_255_1_234
10
17.2509664
20
38.8081455
40
0.4516583
50
89.6985377
51
100.9026564
0
ARC
8
DEFAULT_255_1_234
10
17.2566706
20
38.7921166
40
0.4676928
50
77.6965325
51
90.4076836
0
ARC
8
DEFAULT_255_1_234
10
17.2897691
20
38.9348413
40
0.3211988
50
50.7276602
51
78.0399361
0
ARC
8
DEFAULT_255_1_234
10
17.3342149
20
38.9866296
40
0.2529778
50
25.7545084
51
51.0957453
0
ARC
8
DEFAULT_255_1_234
10
17.3343374
20
38.9916206
40
0.250738
50
359.2468627
51
24.7394243
0
ARC
8
DEFAULT_255_1_234
10
17.3058826
20
38.9887664
40
0.1297815
50
359.8050318
51
45.1544908
0
ARC
8
DEFAULT_255_1_234
10
17.2651967
20
38.9539794
40
0.1831883
50
43.8047702
51
49.6271585
0
ARC
8
DEFAULT_255_1_234
10
17.2659869
20
38.9540678
40
0.18261
50
49.7980766
51
82.1218353
0
ARC
8
DEFAULT_255_1_234
10
17.2540841
20
38.8893998
40
0.2483163
50
81.4465357
51
90.1710293
0
ARC
8
DEFAULT_255_1_234
10
17.2516444
20
38.836788
40
0.300932
50
89.6766211
51
99.1264602
0
ARC
8
DEFAULT_255_1_234
10
17.2344905
20
38.9401537
40
0.1961547
50
98.968313
51
113.4570237
0
ARC
8
DEFAULT_255_1_234
10
17.214899
20
38.9869965
40
0.1453859
50
113.722589
51
127.4763106
0
ARC
8
DEFAULT_255_1_234
10
17.1980637
20
39.0070124
40
0.1192639
50
126.9083309
51
150.3165862
0
ARC
8
DEFAULT_255_1_234
10
17.1932969
20
39.0120981
40
0.112623
50
151.3635175
51
180.0701457
0
ARC
8
DEFAULT_255_1_234
10
17.2241754
20
39.009999
40
0.1435149
50
179.2169974
51
179.9954013
0
ARC
8
DEFAULT_255_1_234
10
17.1880811
20
39.0087056
40
0.1074286
50
179.3040112
51
198.4225446
0
ARC
8
DEFAULT_255_1_234
10
17.1688945
20
39.0037127
40
0.0876573
50
199.2895851
51
238.6034594
0
ARC
8
DEFAULT_255_1_234
10
17.2291791
20
39.098345
40
0.1998512
50
237.9846301
51
246.8744712
0
ARC
8
DEFAULT_255_1_234
10
17.3149736
20
39.2946205
40
0.4140547
50
246.6234531
51
251.8168941
0
ARC
8
DEFAULT_255_1_234
10
17.418028
20
39.6040905
40
0.7402308
50
251.713434
51
255.0778414
0
ARC
8
DEFAULT_255_1_234
10
17.5379542
20
40.0507563
40
1.2027155
50
255.0367487
51
257.4705983
0
ARC
8
DEFAULT_255_1_234
10
17.0271552
20
37.7493863
40
1.1546601
50
73.6837552
51
77.5016755
0
ARC
8
DEFAULT_255_1_234
10
17.1360327
20
38.1193581
40
0.7690009
50
68.7044154
51
73.7249639
0
ARC
8
DEFAULT_255_1_234
10
17.2263348
20
38.3520654
40
0.5193873
50
63.590599
51
68.6626804
0
ARC
8
DEFAULT_255_1_234
10
17.3034367
20
38.5058123
40
0.3473927
50
54.7106439
51
63.7013633
0
ARC
8
DEFAULT_255_1_234
10
17.3658821
20
38.59304
40
0.2401192
50
41.0622434
51
54.8487496
0
ARC
8
DEFAULT_255_1_234
10
17.4000208
20
38.6243592
40
0.1938094
50
34.4950568
51
40.7105546
0
ARC
8
DEFAULT_255_1_234
10
17.4047015
20
38.6292078
40
0.1872106
50
9.3763373
51
34.0833615
0
ARC
8
DEFAULT_255_1_234
10
17.3393886
20
38.6166728
40
0.2536988
50
359.7694872
51
9.7663171
0
ARC
8
DEFAULT_255_1_234
10
17.3591386
20
38.6123764
40
0.2339696
50
335.8654732
51
0.8022045
0
ARC
8
DEFAULT_255_1_234
10
17.3666431
20
38.6137197
40
0.2277108
50
307.7357725
51
334.7849066
0
ARC
8
DEFAULT_255_1_234
10
17.3265607
20
38.6587645
40
0.2878951
50
307.0241536
51
308.5578354
0
ARC
8
DEFAULT_255_1_234
10
17.3007938
20
38.6973801
40
0.3342515
50
282.9362969
51
306.5646424
0
ARC
8
DEFAULT_255_1_234
10
17.2646235
20
38.8441108
40
0.4853615
50
271.1026298
51
283.2200835
0
ARC
8
DEFAULT_255_1_234
10
17.2582479
20
38.9682418
40
0.6096052
50
269.9919117
51
271.4772449
0
ARC
8
DEFAULT_255_1_234
10
17.2556234
20
38.8604436
40
0.5018135
50
259.0723564
51
270.289833
0
ARC
8
DEFAULT_255_1_234
10
17.2343966
20
38.7487271
40
0.388099
50
245.4963068
51
259.0227342
0
ARC
8
DEFAULT_255_1_234
10
17.2065923
20
38.6905615
40
0.3236422
50
228.9684658
51
245.7044727
0
ARC
8
DEFAULT_255_1_234
10
17.1800367
20
38.6578575
40
0.2815426
50
214.4011705
51
228.6759915
0
ARC
8
DEFAULT_255_1_234
10
17.1511107
20
38.642029
40
0.2487548
50
179.9705531
51
215.1572795
0
ARC
8
DEFAULT_255_1_234
10
17.2211707
20
38.6493806
40
0.1703809
50
182.4299387
51
203.0329699
0
ARC
8
DEFAULT_255_1_234
10
17.2027365
20
38.6437396
40
0.1512226
50
203.798802
51
232.548466
0
ARC
8
DEFAULT_255_1_234
10
17.2303886
20
38.6788826
40
0.1959374
50
232.3782728
51
256.3934612
0
ARC
8
DEFAULT_255_1_234
10
17.2534248
20
38.7678842
40
0.2878639
50
256.104506
51
268.4626716
0
ARC
8
DEFAULT_255_1_234
10
17.2580732
20
38.8475487
40
0.3676329
50
268.0715632
51
270.0138206
0
ARC
8
DEFAULT_255_1_234
10
17.2599257
20
38.8203083
40
0.3403971
50
269.7031147
51
278.8341955
0
ARC
8
DEFAULT_255_1_234
10
17.278135
20
38.7072876
40
0.2259217
50
278.6728789
51
292.8232582
0
ARC
8
DEFAULT_255_1_234
10
17.2981888
20
38.6571449
40
0.171929
50
293.1452328
51
303.6655899
0
ARC
8
DEFAULT_255_1_234
10
17.3246767
20
38.6195204
40
0.1259367
50
303.1248165
51
321.742847
0
ARC
8
DEFAULT_255_1_234
10
17.3432647
20
38.6032156
40
0.1012531
50
322.4748573
51
1.1291126
0
LINE
8
DEFAULT_255_1_234
10
4.9274119
20
36.5116792
11
4.9274119
21
36.3904
0
LINE
8
DEFAULT_255_1_234
10
4.9274119
20
36.3904
11
4.161184
21
36.3904
0
LINE
8
DEFAULT_255_1_234
10
4.161184
20
36.3904
11
4.161184
21
36.4972221
0
LINE
8
DEFAULT_255_1_234
10
4.161184
20
36.4972221
11
4.5659836
21
36.9469995
0
LINE
8
DEFAULT_255_1_234
10
4.2872823
20
37.2152595
11
4.1386952
21
37.2152595
0
LINE
8
DEFAULT_255_1_234
10
4.6535296
20
36.8514218
11
4.3402918
21
36.5116792
0
LINE
8
DEFAULT_255_1_234
10
4.3402918
20
36.5116792
11
4.9274119
21
36.5116792
0
ARC
8
DEFAULT_255_1_234
10
3.216967
20
38.1399527
40
1.8008286
50
318.5132453
51
320.7828378
0
ARC
8
DEFAULT_255_1_234
10
3.7456644
20
37.7096426
40
1.1191493
50
320.7372736
51
323.9737074
0
ARC
8
DEFAULT_255_1_234
10
4.1376501
20
37.4256361
40
0.6350923
50
323.8961724
51
328.6421089
0
ARC
8
DEFAULT_255_1_234
10
4.3423096
20
37.2994031
40
0.3946393
50
328.8299013
51
331.789948
0
ARC
8
DEFAULT_255_1_234
10
4.4420274
20
37.2479509
40
0.2824501
50
331.4255242
51
352.9364833
0
ARC
8
DEFAULT_255_1_234
10
4.4556775
20
37.2448976
40
0.2685315
50
353.2248685
51
0.0169286
0
ARC
8
DEFAULT_255_1_234
10
4.4766652
20
37.247195
40
0.2475536
50
359.4866256
51
15.9339782
0
ARC
8
DEFAULT_255_1_234
10
4.5273637
20
37.2608286
40
0.1950618
50
16.1714718
51
43.5284424
0
ARC
8
DEFAULT_255_1_234
10
4.5350946
20
37.2685573
40
0.184134
50
43.4415429
51
83.1661404
0
ARC
8
DEFAULT_255_1_234
10
4.5216864
20
37.1948771
40
0.258926
50
82.160215
51
90.1505798
0
ARC
8
DEFAULT_255_1_234
10
4.5185291
20
37.1411865
40
0.3126255
50
89.5460705
51
102.5418777
0
ARC
8
DEFAULT_255_1_234
10
4.4942377
20
37.2442665
40
0.2067346
50
102.1739365
51
129.2061916
0
ARC
8
DEFAULT_255_1_234
10
4.4863449
20
37.2567094
40
0.1921118
50
129.7279328
51
135.7542026
0
ARC
8
DEFAULT_255_1_234
10
4.4984977
20
37.2470045
40
0.2075944
50
136.175737
51
166.3674722
0
ARC
8
DEFAULT_255_1_234
10
4.5991896
20
37.2200182
40
0.3118201
50
165.9092917
51
178.8683903
0
ARC
8
DEFAULT_255_1_234
10
4.6856757
20
37.2153179
40
0.3983935
50
178.438168
51
180.0083905
0
ARC
8
DEFAULT_255_1_234
10
4.5455359
20
37.2192231
40
0.4068601
50
163.2878735
51
180.5581814
0
ARC
8
DEFAULT_255_1_234
10
4.4653621
20
37.241284
40
0.3237344
50
133.454115
51
162.9470031
0
ARC
8
DEFAULT_255_1_234
10
4.4832162
20
37.2223
40
0.349795
50
100.7869394
51
133.4384016
0
ARC
8
DEFAULT_255_1_234
10
4.5179934
20
37.0674319
40
0.5084616
50
89.6605301
51
101.3704185
0
ARC
8
DEFAULT_255_1_234
10
4.5246273
20
37.0735496
40
0.502348
50
78.2171172
51
90.4130393
0
ARC
8
DEFAULT_255_1_234
10
4.5601351
20
37.2359637
40
0.3361092
50
55.9268222
51
78.4888551
0
ARC
8
DEFAULT_255_1_234
10
4.5797791
20
37.2698324
40
0.2970617
50
47.9292255
51
55.4054003
0
ARC
8
DEFAULT_255_1_234
10
4.5899352
20
37.2801502
40
0.2825983
50
4.3347696
51
48.0560701
0
ARC
8
DEFAULT_255_1_234
10
4.4803745
20
37.2631601
40
0.393225
50
359.925209
51
5.5967654
0
ARC
8
DEFAULT_255_1_234
10
4.5232637
20
37.2687816
40
0.3503892
50
337.8914096
51
358.9967724
0
ARC
8
DEFAULT_255_1_234
10
4.2519049
20
37.3734706
40
0.6412172
50
326.9135351
51
338.3505194
0
ARC
8
DEFAULT_255_1_234
10
3.8533353
20
37.6289284
40
1.1146189
50
319.6472867
51
327.095818
0
ARC
8
DEFAULT_255_1_234
10
3.4700356
20
37.9451
40
1.6114559
50
317.2586784
51
319.9046139
0
LINE
8
DEFAULT_255_1_234
10
5.7121127
20
37.5598211
11
5.7121127
21
36.783152
0
LINE
8
DEFAULT_255_1_234
10
5.7121127
20
36.783152
11
5.8743538
21
36.783152
0
LINE
8
DEFAULT_255_1_234
10
5.8743538
20
36.783152
11
5.8743538
21
36.6618728
0
LINE
8
DEFAULT_255_1_234
10
5.8743538
20
36.6618728
11
5.7121127
21
36.6618728
0
LINE
8
DEFAULT_255_1_234
10
5.7121127
20
36.6618728
11
5.7121127
21
36.3904
0
LINE
8
DEFAULT_255_1_234
10
5.7121127
20
36.3904
11
5.5627224
21
36.3904
0
LINE
8
DEFAULT_255_1_234
10
5.5627224
20
36.3904
11
5.5627224
21
36.6618728
0
LINE
8
DEFAULT_255_1_234
10
5.5627224
20
36.6618728
11
5.0302181
21
36.6618728
0
LINE
8
DEFAULT_255_1_234
10
5.0302181
20
36.6618728
11
5.0302181
21
36.7494187
0
LINE
8
DEFAULT_255_1_234
10
5.0302181
20
36.7494187
11
5.5538875
21
37.5598211
0
LINE
8
DEFAULT_255_1_234
10
5.5538875
20
37.5598211
11
5.7121127
21
37.5598211
0
LINE
8
DEFAULT_255_1_234
10
5.5450525
20
37.3244912
11
5.1988846
21
36.783152
0
LINE
8
DEFAULT_255_1_234
10
5.1988846
20
36.783152
11
5.5627224
21
36.783152
0
LINE
8
DEFAULT_255_1_234
10
5.5627224
20
36.783152
11
5.5627224
21
37.3566181
0
LINE
8
DEFAULT_255_1_234
10
5.5627224
20
37.3566181
11
5.5450525
21
37.3244912
0
LINE
8
DEFAULT_255_1_234
10
6.101652
20
37.5598211
11
6.434166
21
36.5952093
0
LINE
8
DEFAULT_255_1_234
10
6.434166
20
36.5952093
11
6.7682863
21
37.5598211
0
LINE
8
DEFAULT_255_1_234
10
6.7682863
20
37.5598211
11
6.9369528
21
37.5598211
0
LINE
8
DEFAULT_255_1_234
10
6.9369528
20
37.5598211
11
6.5032389
21
36.3904
0
LINE
8
DEFAULT_255_1_234
10
6.5032389
20
36.3904
11
6.3666994
21
36.3904
0
LINE
8
DEFAULT_255_1_234
10
6.3666994
20
36.3904
11
5.9337887
21
37.5598211
0
LINE
8
DEFAULT_255_1_234
10
5.9337887
20
37.5598211
11
6.101652
21
37.5598211
0
LINE
8
DEFAULT_255_1_234
10
22.1798119
20
36.5116792
11
22.1798119
21
36.3904
0
LINE
8
DEFAULT_255_1_234
10
22.1798119
20
36.3904
11
21.413584
21
36.3904
0
LINE
8
DEFAULT_255_1_234
10
21.413584
20
36.3904
11
21.413584
21
36.4972221
0
LINE
8
DEFAULT_255_1_234
10
21.413584
20
36.4972221
11
21.8183836
21
36.9469995
0
LINE
8
DEFAULT_255_1_234
10
21.5396823
20
37.2152595
11
21.3910952
21
37.2152595
0
LINE
8
DEFAULT_255_1_234
10
21.9059296
20
36.8514218
11
21.5926918
21
36.5116792
0
LINE
8
DEFAULT_255_1_234
10
21.5926918
20
36.5116792
11
22.1798119
21
36.5116792
0
ARC
8
DEFAULT_255_1_234
10
20.469367
20
38.1399527
40
1.8008286
50
318.5132453
51
320.7828378
0
ARC
8
DEFAULT_255_1_234
10
20.9980644
20
37.7096426
40
1.1191493
50
320.7372736
51
323.9737074
0
ARC
8
DEFAULT_255_1_234
10
21.3900501
20
37.4256361
40
0.6350923
50
323.8961724
51
328.6421089
0
ARC
8
DEFAULT_255_1_234
10
21.5947096
20
37.2994031
40
0.3946393
50
328.8299013
51
331.789948
0
ARC
8
DEFAULT_255_1_234
10
21.6944274
20
37.2479509
40
0.2824501
50
331.4255242
51
352.9364833
0
ARC
8
DEFAULT_255_1_234
10
21.7080775
20
37.2448976
40
0.2685315
50
353.2248685
51
0.0169286
0
ARC
8
DEFAULT_255_1_234
10
21.7290652
20
37.247195
40
0.2475536
50
359.4866256
51
15.9339782
0
ARC
8
DEFAULT_255_1_234
10
21.7797637
20
37.2608286
40
0.1950618
50
16.1714718
51
43.5284424
0
ARC
8
DEFAULT_255_1_234
10
21.7874946
20
37.2685573
40
0.184134
50
43.4415429
51
83.1661404
0
ARC
8
DEFAULT_255_1_234
10
21.7740864
20
37.1948771
40
0.258926
50
82.160215
51
90.1505798
0
ARC
8
DEFAULT_255_1_234
10
21.7709291
20
37.1411865
40
0.3126255
50
89.5460705
51
102.5418777
0
ARC
8
DEFAULT_255_1_234
10
21.7466377
20
37.2442665
40
0.2067346
50
102.1739365
51
129.2061916
0
ARC
8
DEFAULT_255_1_234
10
21.7387449
20
37.2567094
40
0.1921118
50
129.7279328
51
135.7542026
0
ARC
8
DEFAULT_255_1_234
10
21.7508977
20
37.2470045
40
0.2075944
50
136.175737
51
166.3674722
0
ARC
8
DEFAULT_255_1_234
10
21.8515896
20
37.2200182
40
0.3118201
50
165.9092917
51
178.8683903
0
ARC
8
DEFAULT_255_1_234
10
21.9380757
20
37.2153179
40
0.3983935
50
178.438168
51
180.0083905
0
ARC
8
DEFAULT_255_1_234
10
21.7979359
20
37.2192231
40
0.4068601
50
163.2878735
51
180.5581814
0
ARC
8
DEFAULT_255_1_234
10
21.7177621
20
37.241284
40
0.3237344
50
133.454115
51
162.9470031
0
ARC
8
DEFAULT_255_1_234
10
21.7356162
20
37.2223
40
0.349795
50
100.7869394
51
133.4384016
0
ARC
8
DEFAULT_255_1_234
10
21.7703934
20
37.0674319
40
0.5084616
50
89.6605301
51
101.3704185
0
ARC
8
DEFAULT_255_1_234
10
21.7770273
20
37.0735496
40
0.502348
50
78.2171172
51
90.4130393
0
ARC
8
DEFAULT_255_1_234
10
21.8125351
20
37.2359637
40
0.3361092
50
55.9268222
51
78.4888551
0
ARC
8
DEFAULT_255_1_234
10
21.8321791
20
37.2698324
40
0.2970617
50
47.9292255
51
55.4054003
0
ARC
8
DEFAULT_255_1_234
10
21.8423352
20
37.2801502
40
0.2825983
50
4.3347696
51
48.0560701
0
ARC
8
DEFAULT_255_1_234
10
21.7327745
20
37.2631601
40
0.393225
50
359.925209
51
5.5967654
0
ARC
8
DEFAULT_255_1_234
10
21.7756637
20
37.2687816
40
0.3503892
50
337.8914096
51
358.9967724
0
ARC
8
DEFAULT_255_1_234
10
21.5043049
20
37.3734706
40
0.6412172
50
326.9135351
51
338.3505194
0
ARC
8
DEFAULT_255_1_234
10
21.1057353
20
37.6289284
40
1.1146189
50
319.6472867
51
327.095818
0
ARC
8
DEFAULT_255_1_234
10
20.7224356
20
37.9451
40
1.6114559
50
317.2586784
51
319.9046139
0
LINE
8
DEFAULT_255_1_234
10
22.9645127
20
37.5598211
11
22.9645127
21
36.783152
0
LINE
8
DEFAULT_255_1_234
10
22.9645127
20
36.783152
11
23.1267538
21
36.783152
0
LINE
8
DEFAULT_255_1_234
10
23.1267538
20
36.783152
11
23.1267538
21
36.6618728
0
LINE
8
DEFAULT_255_1_234
10
23.1267538
20
36.6618728
11
22.9645127
21
36.6618728
0
LINE
8
DEFAULT_255_1_234
10
22.9645127
20
36.6618728
11
22.9645127
21
36.3904
0
LINE
8
DEFAULT_255_1_234
10
22.9645127
20
36.3904
11
22.8151224
21
36.3904
0
LINE
8
DEFAULT_255_1_234
10
22.8151224
20
36.3904
11
22.8151224
21
36.6618728
0
LINE
8
DEFAULT_255_1_234
10
22.8151224
20
36.6618728
11
22.2826181
21
36.6618728
0
LINE
8
DEFAULT_255_1_234
10
22.2826181
20
36.6618728
11
22.2826181
21
36.7494187
0
LINE
8
DEFAULT_255_1_234
10
22.2826181
20
36.7494187
11
22.8062875
21
37.5598211
0
LINE
8
DEFAULT_255_1_234
10
22.8062875
20
37.5598211
11
22.9645127
21
37.5598211
0
LINE
8
DEFAULT_255_1_234
10
22.7974525
20
37.3244912
11
22.4512846
21
36.783152
0
LINE
8
DEFAULT_255_1_234
10
22.4512846
20
36.783152
11
22.8151224
21
36.783152
0
LINE
8
DEFAULT_255_1_234
10
22.8151224
20
36.783152
11
22.8151224
21
37.3566181
0
LINE
8
DEFAULT_255_1_234
10
22.8151224
20
37.3566181
11
22.7974525
21
37.3244912
0
LINE
8
DEFAULT_255_1_234
10
24.162848
20
36.972701
11
24.162848
21
36.5438062
0
LINE
8
DEFAULT_255_1_234
10
23.261687
20
36.9188884
11
23.261687
21
37.0208915
0
LINE
8
DEFAULT_255_1_234
10
24.162848
20
37.2168659
11
24.0086387
21
37.2168659
0
LINE
8
DEFAULT_255_1_234
10
23.4166996
20
37.0249073
11
23.4166996
21
36.9293296
0
LINE
8
DEFAULT_255_1_234
10
24.0094418
20
36.5847681
11
24.0094418
21
36.8474059
0
LINE
8
DEFAULT_255_1_234
10
24.0094418
20
36.8474059
11
23.7387723
21
36.8474059
0
LINE
8
DEFAULT_255_1_234
10
23.7387723
20
36.8474059
11
23.7387723
21
36.972701
0
LINE
8
DEFAULT_255_1_234
10
23.7387723
20
36.972701
11
24.162848
21
36.972701
0
ARC
8
DEFAULT_255_1_234
10
23.8796987
20
36.7431396
40
0.3462765
50
295.8437914
51
324.8549609
0
ARC
8
DEFAULT_255_1_234
10
23.8380954
20
36.8184567
40
0.4322211
50
291.5695085
51
296.4549398
0
ARC
8
DEFAULT_255_1_234
10
23.7870205
20
36.9549275
40
0.5779178
50
278.6622409
51
291.3045483
0
ARC
8
DEFAULT_255_1_234
10
23.7530697
20
37.1697408
40
0.7953952
50
270.020006
51
278.7494541
0
ARC
8
DEFAULT_255_1_234
10
23.7492621
20
37.3014036
40
0.927067
50
269.9969998
51
270.2524872
0
ARC
8
DEFAULT_255_1_234
10
23.7454334
20
36.8930589
40
0.5187361
50
253.5786322
51
270.4175299
0
ARC
8
DEFAULT_255_1_234
10
23.728099
20
36.8259236
40
0.4494451
50
238.8203306
51
253.2788235
0
ARC
8
DEFAULT_255_1_234
10
23.7261363
20
36.8208231
40
0.4440665
50
206.7883783
51
238.6962764
0
ARC
8
DEFAULT_255_1_234
10
23.8035273
20
36.8672405
40
0.5341121
50
206.1129412
51
207.4916643
0
ARC
8
DEFAULT_255_1_234
10
23.8632188
20
36.8926488
40
0.5989041
50
188.6921119
51
205.7821245
0
ARC
8
DEFAULT_255_1_234
10
24.048855
20
36.924223
40
0.7871862
50
180.3882829
51
188.9219216
0
ARC
8
DEFAULT_255_1_234
10
24.1716364
20
37.0265464
40
0.909967
50
170.2024264
51
180.3560651
0
ARC
8
DEFAULT_255_1_234
10
23.8552882
20
37.0831237
40
0.5886083
50
154.2857445
51
170.3893044
0
ARC
8
DEFAULT_255_1_234
10
23.7271085
20
37.141795
40
0.4476743
50
139.8401567
51
153.9332699
0
ARC
8
DEFAULT_255_1_234
10
23.6911821
20
37.1705577
40
0.4016697
50
98.4190291
51
139.6707122
0
ARC
8
DEFAULT_255_1_234
10
23.7291339
20
36.9860328
40
0.5898566
50
89.7659205
51
99.4415478
0
ARC
8
DEFAULT_255_1_234
10
23.7356588
20
36.9925844
40
0.5833147
50
78.0551672
51
90.4042112
0
ARC
8
DEFAULT_255_1_234
10
23.7761098
20
37.1744644
40
0.3970055
50
54.6380464
51
78.3339173
0
ARC
8
DEFAULT_255_1_234
10
23.7951154
20
37.2064795
40
0.3599102
50
50.031736
51
54.1558201
0
ARC
8
DEFAULT_255_1_234
10
23.7843942
20
37.1968766
40
0.3741624
50
18.1092409
51
49.7180913
0
ARC
8
DEFAULT_255_1_234
10
23.6387142
20
37.1435089
40
0.5292424
50
7.9672797
51
18.6984571
0
ARC
8
DEFAULT_255_1_234
10
23.653762
20
37.1558504
40
0.3600838
50
9.7557294
51
27.3215714
0
ARC
8
DEFAULT_255_1_234
10
23.7665092
20
37.2121912
40
0.2340608
50
27.7361077
51
84.5257964
0
ARC
8
DEFAULT_255_1_234
10
23.7337479
20
37.047864
40
0.4011215
50
82.106034
51
90.2001166
0
ARC
8
DEFAULT_255_1_234
10
23.7287696
20
37.0986215
40
0.3503799
50
89.4150119
51
105.5823402
0
ARC
8
DEFAULT_255_1_234
10
23.7030694
20
37.1921867
40
0.2533503
50
105.6678618
51
144.2648758
0
ARC
8
DEFAULT_255_1_234
10
23.7923949
20
37.1286289
40
0.3629787
50
144.3561283
51
162.8564086
0
ARC
8
DEFAULT_255_1_234
10
24.0007858
20
37.0617017
40
0.5818441
50
162.6076014
51
173.6780284
0
ARC
8
DEFAULT_255_1_234
10
24.3069002
20
37.024489
40
0.8902007
50
173.4670142
51
179.9730753
0
ARC
8
DEFAULT_255_1_234
10
24.1160673
20
36.925126
40
0.6993804
50
179.6556203
51
190.0080463
0
ARC
8
DEFAULT_255_1_234
10
23.8844502
20
36.8826375
40
0.4639066
50
189.8116607
51
206.6796816
0
ARC
8
DEFAULT_255_1_234
10
23.7999654
20
36.8432503
40
0.3707421
50
207.1031645
51
217.7074368
0
ARC
8
DEFAULT_255_1_234
10
23.7365343
20
36.7880559
40
0.2868417
50
216.7345547
51
265.6812148
0
ARC
8
DEFAULT_255_1_234
10
23.7496134
20
36.8784855
40
0.3780509
50
264.7366618
51
270.0611241
0
ARC
8
DEFAULT_255_1_234
10
23.7519397
20
37.1625111
40
0.662079
50
269.8335834
51
276.0539546
0
ARC
8
DEFAULT_255_1_234
10
23.7726402
20
36.972356
40
0.4708016
50
275.9894168
51
284.4615085
0
ARC
8
DEFAULT_255_1_234
10
23.7924409
20
36.8890663
40
0.3852094
50
284.7034461
51
286.4953897
0
ARC
8
DEFAULT_255_1_234
10
23.8331422
20
36.7579965
40
0.2479842
50
286.0770838
51
304.2625829
0
ARC
8
DEFAULT_255_1_234
10
23.8464836
20
36.7361594
40
0.2224291
50
304.5891602
51
317.1073298
0
LINE
8
DEFAULT_255_1_234
10
23.7974378
20
5.1761169
11
23.7974378
21
5.2973962
0
LINE
8
DEFAULT_255_1_234
10
23.7974378
20
5.2973962
11
23.909079
21
5.2973962
0
LINE
8
DEFAULT_255_1_234
10
23.7187268
20
5.5030087
11
23.5701396
21
5.5030087
0
LINE
8
DEFAULT_255_1_234
10
23.5596983
20
4.9488188
11
23.7090887
21
4.9488188
0
LINE
8
DEFAULT_255_1_234
10
23.909079
20
5.1761169
11
23.7974378
21
5.1761169
0
ARC
8
DEFAULT_255_1_234
10
23.9061656
20
5.6366713
40
0.3392876
50
270.4919872
51
281.8951556
0
ARC
8
DEFAULT_255_1_234
10
23.9302918
20
5.5264702
40
0.2264817
50
281.6691735
51
301.2943132
0
ARC
8
DEFAULT_255_1_234
10
23.9473128
20
5.4953304
40
0.1910381
50
301.7833094
51
311.7545298
0
ARC
8
DEFAULT_255_1_234
10
23.9564704
20
5.4851748
40
0.1773635
50
311.7323931
51
354.2802411
0
ARC
8
DEFAULT_255_1_234
10
23.8838329
20
5.4976722
40
0.2509385
50
353.0937916
51
0.1181479
0
ARC
8
DEFAULT_255_1_234
10
23.8377114
20
5.5024386
40
0.2970898
50
359.1805295
51
15.0453146
0
ARC
8
DEFAULT_255_1_234
10
23.9722951
20
5.5416992
40
0.1569564
50
13.9577229
51
77.6713066
0
ARC
8
DEFAULT_255_1_234
10
23.933648
20
5.4031949
40
0.3006298
50
76.1116566
51
90.7026153
0
ARC
8
DEFAULT_255_1_234
10
23.9277318
20
5.4305545
40
0.2732568
50
89.5324876
51
103.531937
0
ARC
8
DEFAULT_255_1_234
10
23.9076762
20
5.5104884
40
0.1908508
50
103.2931773
51
133.5619022
0
ARC
8
DEFAULT_255_1_234
10
23.9032251
20
5.5164375
40
0.1834746
50
133.8349307
51
173.5344437
0
ARC
8
DEFAULT_255_1_234
10
23.9755294
20
5.5036213
40
0.2568033
50
172.5096846
51
180.1366907
0
ARC
8
DEFAULT_255_1_234
10
23.8804188
20
5.5070622
40
0.3103056
50
155.3484492
51
180.7484736
0
ARC
8
DEFAULT_255_1_234
10
23.8755277
20
5.5041846
40
0.3070957
50
131.5744599
51
154.4798489
0
ARC
8
DEFAULT_255_1_234
10
23.9068424
20
5.472531
40
0.3515643
50
96.9875458
51
131.9690667
0
ARC
8
DEFAULT_255_1_234
10
23.9287904
20
5.3479636
40
0.4779224
50
89.8596053
51
97.7825159
0
ARC
8
DEFAULT_255_1_234
10
23.9335967
20
5.3217616
40
0.5041361
50
78.3655447
51
90.4131539
0
ARC
8
DEFAULT_255_1_234
10
23.9693885
20
5.4876887
40
0.3344039
50
56.6229102
51
78.638727
0
ARC
8
DEFAULT_255_1_234
10
23.9908829
20
5.5252805
40
0.2912001
50
47.0253525
51
56.0854072
0
ARC
8
DEFAULT_255_1_234
10
23.9928609
20
5.5292223
40
0.2869704
50
10.9208013
51
46.7778124
0
ARC
8
DEFAULT_255_1_234
10
23.8564675
20
5.4976857
40
0.426899
50
359.6364486
51
11.6087304
0
ARC
8
DEFAULT_255_1_234
10
24.0399519
20
5.4961752
40
0.243409
50
332.3549906
51
359.7179418
0
ARC
8
DEFAULT_255_1_234
10
23.9749121
20
5.5270142
40
0.3153459
50
325.2333722
51
332.8745602
0
ARC
8
DEFAULT_255_1_234
10
23.9901744
20
5.5163828
40
0.2967456
50
292.9802137
51
325.2392345
0
ARC
8
DEFAULT_255_1_234
10
23.9627118
20
5.5697863
40
0.3566604
50
292.5402179
51
293.6924929
0
ARC
8
DEFAULT_255_1_234
10
24.0019714
20
4.9243091
40
0.3307468
50
57.6435486
51
72.8625112
0
ARC
8
DEFAULT_255_1_234
10
24.0374214
20
4.9817549
40
0.2632492
50
36.7248896
51
57.4697979
0
ARC
8
DEFAULT_255_1_234
10
24.0362847
20
4.983022
40
0.2634081
50
8.0545065
51
36.356114
0
ARC
8
DEFAULT_255_1_234
10
23.9500032
20
4.9675174
40
0.3510261
50
359.8320645
51
8.5869982
0
ARC
8
DEFAULT_255_1_234
10
23.9124808
20
4.9627101
40
0.3885653
50
343.9829931
51
0.5571613
0
ARC
8
DEFAULT_255_1_234
10
24.0011005
20
4.9384438
40
0.2966924
50
311.6359546
51
343.7651759
0
ARC
8
DEFAULT_255_1_234
10
23.9632574
20
4.9811102
40
0.3537231
50
279.7829875
51
311.6255694
0
ARC
8
DEFAULT_255_1_234
10
23.9331351
20
5.124828
40
0.5004971
50
269.7286406
51
280.3856417
0
ARC
8
DEFAULT_255_1_234
10
23.9269423
20
5.1206996
40
0.4963778
50
256.6828919
51
270.4412052
0
ARC
8
DEFAULT_255_1_234
10
23.8930719
20
4.9822394
40
0.3538406
50
229.4223008
51
256.8556159
0
ARC
8
DEFAULT_255_1_234
10
23.8516112
20
4.9355736
40
0.2914296
50
181.818294
51
229.6455059
0
ARC
8
DEFAULT_255_1_234
10
23.9556068
20
4.9486496
40
0.3959084
50
179.9755256
51
183.2323064
0
ARC
8
DEFAULT_255_1_234
10
23.9383814
20
4.9466037
40
0.2293034
50
179.4465117
51
196.2869258
0
ARC
8
DEFAULT_255_1_234
10
23.8896222
20
4.9332651
40
0.1787621
50
196.5661473
51
227.705904
0
ARC
8
DEFAULT_255_1_234
10
23.9060317
20
4.9516155
40
0.2033784
50
227.7652068
51
257.8762805
0
ARC
8
DEFAULT_255_1_234
10
23.9285287
20
5.0459156
40
0.3003081
50
257.4584385
51
270.426602
0
ARC
8
DEFAULT_255_1_234
10
23.9330853
20
5.0748996
40
0.329292
50
269.5962073
51
280.8789248
0
ARC
8
DEFAULT_255_1_234
10
23.9560382
20
4.9602685
40
0.2123908
50
280.6346389
51
299.8595945
0
ARC
8
DEFAULT_255_1_234
10
23.9751289
20
4.9240212
40
0.171457
50
300.3576302
51
314.5517981
0
ARC
8
DEFAULT_255_1_234
10
23.9668349
20
4.9300919
40
0.1816095
50
315.0728369
51
345.0431014
0
ARC
8
DEFAULT_255_1_234
10
23.8745163
20
4.9569841
40
0.2777492
50
344.5986631
51
357.9269593
0
ARC
8
DEFAULT_255_1_234
10
23.7849489
20
4.9631276
40
0.3674917
50
357.4748886
51
0.0231117
0
ARC
8
DEFAULT_255_1_234
10
23.8872599
20
4.9655679
40
0.2651907
50
359.5047933
51
13.4239635
0
ARC
8
DEFAULT_255_1_234
10
23.9739242
20
4.9877478
40
0.1757509
50
12.9498199
51
48.7551375
0
ARC
8
DEFAULT_255_1_234
10
23.9556976
20
4.96284
40
0.2065134
50
49.5088623
51
72.1836453
0
ARC
8
DEFAULT_255_1_234
10
23.9199129
20
4.8566291
40
0.3185836
50
71.9010081
51
84.3554254
0
ARC
8
DEFAULT_255_1_234
10
23.9037761
20
4.7205326
40
0.4556151
50
84.0193428
51
89.333121
0
LINE
8
DEFAULT_255_1_234
10
24.3476119
20
12.6991792
11
24.3476119
21
12.5779
0
LINE
8
DEFAULT_255_1_234
10
24.3476119
20
12.5779
11
23.581384
21
12.5779
0
LINE
8
DEFAULT_255_1_234
10
23.581384
20
12.5779
11
23.581384
21
12.6847221
0
LINE
8
DEFAULT_255_1_234
10
23.581384
20
12.6847221
11
23.9861836
21
13.1344995
0
LINE
8
DEFAULT_255_1_234
10
23.7074823
20
13.4027595
11
23.5588952
21
13.4027595
0
LINE
8
DEFAULT_255_1_234
10
24.0737296
20
13.0389218
11
23.7604918
21
12.6991792
0
LINE
8
DEFAULT_255_1_234
10
23.7604918
20
12.6991792
11
24.3476119
21
12.6991792
0
ARC
8
DEFAULT_255_1_234
10
22.637167
20
14.3274527
40
1.8008286
50
318.5132453
51
320.7828378
0
ARC
8
DEFAULT_255_1_234
10
23.1658644
20
13.8971426
40
1.1191493
50
320.7372736
51
323.9737074
0
ARC
8
DEFAULT_255_1_234
10
23.5578501
20
13.6131361
40
0.6350923
50
323.8961724
51
328.6421089
0
ARC
8
DEFAULT_255_1_234
10
23.7625096
20
13.4869031
40
0.3946393
50
328.8299013
51
331.789948
0
ARC
8
DEFAULT_255_1_234
10
23.8622274
20
13.4354509
40
0.2824501
50
331.4255242
51
352.9364833
0
ARC
8
DEFAULT_255_1_234
10
23.8758775
20
13.4323976
40
0.2685315
50
353.2248685
51
0.0169286
0
ARC
8
DEFAULT_255_1_234
10
23.8968652
20
13.434695
40
0.2475536
50
359.4866256
51
15.9339782
0
ARC
8
DEFAULT_255_1_234
10
23.9475637
20
13.4483286
40
0.1950618
50
16.1714718
51
43.5284424
0
ARC
8
DEFAULT_255_1_234
10
23.9552946
20
13.4560573
40
0.184134
50
43.4415429
51
83.1661404
0
ARC
8
DEFAULT_255_1_234
10
23.9418864
20
13.3823771
40
0.258926
50
82.160215
51
90.1505798
0
ARC
8
DEFAULT_255_1_234
10
23.9387291
20
13.3286865
40
0.3126255
50
89.5460705
51
102.5418777
0
ARC
8
DEFAULT_255_1_234
10
23.9144377
20
13.4317665
40
0.2067346
50
102.1739365
51
129.2061916
0
ARC
8
DEFAULT_255_1_234
10
23.9065449
20
13.4442094
40
0.1921118
50
129.7279328
51
135.7542026
0
ARC
8
DEFAULT_255_1_234
10
23.9186977
20
13.4345045
40
0.2075944
50
136.175737
51
166.3674722
0
ARC
8
DEFAULT_255_1_234
10
24.0193896
20
13.4075182
40
0.3118201
50
165.9092917
51
178.8683903
0
ARC
8
DEFAULT_255_1_234
10
24.1058757
20
13.4028179
40
0.3983935
50
178.438168
51
180.0083905
0
ARC
8
DEFAULT_255_1_234
10
23.9657359
20
13.4067231
40
0.4068601
50
163.2878735
51
180.5581814
0
ARC
8
DEFAULT_255_1_234
10
23.8855621
20
13.428784
40
0.3237344
50
133.454115
51
162.9470031
0
ARC
8
DEFAULT_255_1_234
10
23.9034162
20
13.4098
40
0.349795
50
100.7869394
51
133.4384016
0
ARC
8
DEFAULT_255_1_234
10
23.9381934
20
13.2549319
40
0.5084616
50
89.6605301
51
101.3704185
0
ARC
8
DEFAULT_255_1_234
10
23.9448273
20
13.2610496
40
0.502348
50
78.2171172
51
90.4130393
0
ARC
8
DEFAULT_255_1_234
10
23.9803351
20
13.4234637
40
0.3361092
50
55.9268222
51
78.4888551
0
ARC
8
DEFAULT_255_1_234
10
23.9999791
20
13.4573324
40
0.2970617
50
47.9292255
51
55.4054003
0
ARC
8
DEFAULT_255_1_234
10
24.0101352
20
13.4676502
40
0.2825983
50
4.3347696
51
48.0560701
0
ARC
8
DEFAULT_255_1_234
10
23.9005745
20
13.4506601
40
0.393225
50
359.925209
51
5.5967654
0
ARC
8
DEFAULT_255_1_234
10
23.9434637
20
13.4562816
40
0.3503892
50
337.8914096
51
358.9967724
0
ARC
8
DEFAULT_255_1_234
10
23.6721049
20
13.5609706
40
0.6412172
50
326.9135351
51
338.3505194
0
ARC
8
DEFAULT_255_1_234
10
23.2735353
20
13.8164284
40
1.1146189
50
319.6472867
51
327.095818
0
ARC
8
DEFAULT_255_1_234
10
22.8902356
20
14.1326
40
1.6114559
50
317.2586784
51
319.9046139
0
LINE
8
DEFAULT_255_1_234
10
24.0780137
20
21.6904433
11
24.0780137
21
20.5154
0
LINE
8
DEFAULT_255_1_234
10
24.0780137
20
20.5154
11
23.9286234
21
20.5154
0
LINE
8
DEFAULT_255_1_234
10
23.9286234
20
20.5154
11
23.9286234
21
21.5057133
0
LINE
8
DEFAULT_255_1_234
10
23.9286234
20
21.5057133
11
23.6290396
21
21.3956785
0
LINE
8
DEFAULT_255_1_234
10
23.6290396
20
21.3956785
11
23.6290396
21
21.5306117
0
LINE
8
DEFAULT_255_1_234
10
23.6290396
20
21.5306117
11
24.0547217
21
21.6904433
0
LINE
8
DEFAULT_255_1_234
10
24.0547217
20
21.6904433
11
24.0780137
21
21.6904433
0
LINE
8
DEFAULT_255_1_234
10
22.5173458
20
29.6223211
11
22.8209456
21
29.035201
0
LINE
8
DEFAULT_255_1_234
10
22.8209456
20
29.035201
11
23.1261516
21
29.6223211
0
LINE
8
DEFAULT_255_1_234
10
23.1261516
20
29.6223211
11
23.3012435
21
29.6223211
0
LINE
8
DEFAULT_255_1_234
10
23.3012435
20
29.6223211
11
22.8980502
21
28.8890234
0
LINE
8
DEFAULT_255_1_234
10
22.8980502
20
28.8890234
11
22.8980502
21
28.4529
0
LINE
8
DEFAULT_255_1_234
10
22.8980502
20
28.4529
11
22.7438409
21
28.4529
0
LINE
8
DEFAULT_255_1_234
10
22.7438409
20
28.4529
11
22.7438409
21
28.8890234
0
LINE
8
DEFAULT_255_1_234
10
22.7438409
20
28.8890234
11
22.3406476
21
29.6223211
0
LINE
8
DEFAULT_255_1_234
10
22.3406476
20
29.6223211
11
22.5173458
21
29.6223211
0
LINE
8
DEFAULT_255_1_234
10
24.1469855
20
29.1444327
11
24.1469855
21
28.9516709
0
LINE
8
DEFAULT_255_1_234
10
23.4088688
20
28.9315916
11
23.4088688
21
29.1299755
0
LINE
8
DEFAULT_255_1_234
10
23.9983984
20
28.9115123
11
23.9983984
21
29.1548739
0
LINE
8
DEFAULT_255_1_234
10
23.557456
20
29.1661184
11
23.557456
21
28.9283789
0
ARC
8
DEFAULT_255_1_234
10
22.9222745
20
28.9467805
40
1.2247208
50
353.8441951
51
0.2287902
0
ARC
8
DEFAULT_255_1_234
10
23.3862249
20
28.8949806
40
0.7578929
50
344.4934747
51
353.9765454
0
ARC
8
DEFAULT_255_1_234
10
23.6854839
20
28.8098981
40
0.4467846
50
329.2803592
51
344.7472793
0
ARC
8
DEFAULT_255_1_234
10
23.7847664
20
28.7554018
40
0.3336173
50
324.9352394
51
328.6160465
0
ARC
8
DEFAULT_255_1_234
10
23.8224773
20
28.7290427
40
0.2876076
50
280.580143
51
324.9173126
0
ARC
8
DEFAULT_255_1_234
10
23.7823565
20
28.8961099
40
0.4592847
50
269.5977311
51
281.6734359
0
ARC
8
DEFAULT_255_1_234
10
23.7751471
20
28.8841173
40
0.4472986
50
256.6228859
51
270.51044
0
ARC
8
DEFAULT_255_1_234
10
23.7349449
20
28.7292877
40
0.2873874
50
215.8618325
51
257.2788573
0
ARC
8
DEFAULT_255_1_234
10
23.837048
20
28.7977977
40
0.4102928
50
197.9693508
51
215.2623606
0
ARC
8
DEFAULT_255_1_234
10
24.0855596
20
28.8816709
40
0.6725652
50
187.8816417
51
198.2346507
0
ARC
8
DEFAULT_255_1_234
10
24.4813804
20
28.9388079
40
1.0724845
50
180.8976217
51
188.0055519
0
ARC
8
DEFAULT_255_1_234
10
24.7613992
20
28.9491777
40
1.3526448
50
180.7449369
51
181.1510016
0
ARC
8
DEFAULT_255_1_234
10
24.6036721
20
29.1348042
40
1.1948131
50
173.7675579
51
180.231553
0
ARC
8
DEFAULT_255_1_234
10
24.1518868
20
29.1858666
40
0.7401564
50
164.3058563
51
173.9002247
0
ARC
8
DEFAULT_255_1_234
10
23.8606937
20
29.2697656
40
0.4371288
50
148.7922025
51
164.568378
0
ARC
8
DEFAULT_255_1_234
10
23.7655389
20
29.3228929
40
0.3282386
50
144.5883898
51
148.1176286
0
ARC
8
DEFAULT_255_1_234
10
23.7312287
20
29.3468315
40
0.2864044
50
101.6440918
51
144.514236
0
ARC
8
DEFAULT_255_1_234
10
23.7737354
20
29.1779069
40
0.4604934
50
89.5284041
51
102.5819763
0
ARC
8
DEFAULT_255_1_234
10
23.7816441
20
29.1740018
40
0.464401
50
77.0437873
51
90.5081339
0
ARC
8
DEFAULT_255_1_234
10
23.8218443
20
29.3382615
40
0.2953195
50
48.2778575
51
77.4994676
0
ARC
8
DEFAULT_255_1_234
10
23.8291074
20
29.3511746
40
0.2808655
50
36.3142134
51
47.6305865
0
ARC
8
DEFAULT_255_1_234
10
23.7422381
20
29.2926515
40
0.3855453
50
18.2931786
51
35.6769206
0
ARC
8
DEFAULT_255_1_234
10
23.487914
20
29.2053593
40
0.654423
50
8.024666
51
18.5605216
0
ARC
8
DEFAULT_255_1_234
10
23.071606
20
29.1438792
40
1.0752407
50
1.1274072
51
8.1718305
0
ARC
8
DEFAULT_255_1_234
10
22.7480251
20
29.1311885
40
1.3990231
50
0.5424119
51
1.3863029
0
ARC
8
DEFAULT_255_1_234
10
22.9301629
20
29.1584342
40
1.0682415
50
359.8090433
51
4.9407866
0
ARC
8
DEFAULT_255_1_234
10
23.3511643
20
29.1960113
40
0.6455691
50
4.8362157
51
12.2904523
0
ARC
8
DEFAULT_255_1_234
10
23.6266757
20
29.2573965
40
0.3633074
50
12.0805627
51
23.8173984
0
ARC
8
DEFAULT_255_1_234
10
23.7440463
20
29.3070919
40
0.2358723
50
24.2871213
51
31.3935614
0
ARC
8
DEFAULT_255_1_234
10
23.796516
20
29.3414233
40
0.1732111
50
30.7407893
51
82.4657128
0
ARC
8
DEFAULT_255_1_234
10
23.7785294
20
29.2530691
40
0.263235
50
81.1060089
51
90.2184952
0
ARC
8
DEFAULT_255_1_234
10
23.7749593
20
29.2788924
40
0.2374236
50
89.3806855
51
105.6762551
0
ARC
8
DEFAULT_255_1_234
10
23.7566224
20
29.3455567
40
0.1682847
50
105.7981136
51
149.7388061
0
ARC
8
DEFAULT_255_1_234
10
23.8630302
20
29.281595
40
0.2924306
50
149.4208916
51
163.6286378
0
ARC
8
DEFAULT_255_1_234
10
24.072119
20
29.217825
40
0.5110213
50
163.3763315
51
172.1410975
0
ARC
8
DEFAULT_255_1_234
10
24.4021909
20
29.1705518
40
0.8444586
50
172.0259487
51
178.0703232
0
ARC
8
DEFAULT_255_1_234
10
24.7051999
20
29.1561906
40
1.1477868
50
177.8631668
51
179.5044149
0
ARC
8
DEFAULT_255_1_234
10
24.5979403
20
28.9247389
40
1.0404907
50
179.7995573
51
185.2460446
0
ARC
8
DEFAULT_255_1_234
10
24.1936442
20
28.8864513
40
0.6343885
50
185.1411642
51
193.0079639
0
ARC
8
DEFAULT_255_1_234
10
23.9292915
20
28.8239641
40
0.3627568
50
192.7897626
51
205.2507664
0
ARC
8
DEFAULT_255_1_234
10
23.8246462
20
28.7772415
40
0.2481908
50
205.8005384
51
211.2537509
0
ARC
8
DEFAULT_255_1_234
10
23.7722902
20
28.742158
40
0.1852521
50
210.3789793
51
238.4008143
0
ARC
8
DEFAULT_255_1_234
10
23.7703424
20
28.7468376
40
0.1882621
50
239.6520629
51
265.9793761
0
ARC
8
DEFAULT_255_1_234
10
23.7788624
20
28.8140427
40
0.2559272
50
265.1315437
51
270.060332
0
ARC
8
DEFAULT_255_1_234
10
23.7817403
20
28.7816534
40
0.2235528
50
269.3314664
51
287.2178029
0
ARC
8
DEFAULT_255_1_234
10
23.7955255
20
28.7313279
40
0.1714108
50
287.7958004
51
329.080874
0
ARC
8
DEFAULT_255_1_234
10
23.6997712
20
28.791093
40
0.2842745
50
328.6634704
51
343.3325132
0
ARC
8
DEFAULT_255_1_234
10
23.4824732
20
28.8587863
40
0.5118644
50
343.0499468
51
351.9393422
0
ARC
8
DEFAULT_255_1_234
10
23.1358032
20
28.9098949
40
0.8622784
50
351.8069023
51
357.7959224
0
ARC
8
DEFAULT_255_1_234
10
22.8122588
20
28.9266721
40
1.1862365
50
357.5871873
51
359.2677531
0
ENDSEC
0
EOF