0
SECTION
2
HEADER
9
$MEASUREMENT
70
1
0
ENDSEC
0
SECTION
2
TABLES
0
TABLE
2
LTYPE
0
LTYPE
72
65
70
64
2
CONTINUOUS
3
______
73
0
40
0
0
ENDTAB
0
TABLE
2
LAYER
0
LAYER
2
DEFAULT_255_2_778
70
0
62
255
6
CONTINUOUS
0
LAYER
2
DEFAULT_255_1_234
70
0
62
255
6
CONTINUOUS
0
ENDTAB
0
ENDSEC
0
SECTION
2
ENTITIES
0
ARC
8
DEFAULT_255_2_778
10
3.5700693
20
181.6384682
40
0.7914215
50
129.1312896
51
180.1450914
0
ARC
8
DEFAULT_255_2_778
10
3.5703345
20
181.6389553
40
0.7912112
50
89.854026
51
129.1684493
0
ARC
8
DEFAULT_255_2_778
10
25.7993937
20
181.6386419
40
0.7915249
50
39.4792447
51
90.147911
0
ARC
8
DEFAULT_255_2_778
10
25.7999935
20
181.6384885
40
0.7911595
50
359.8533901
51
39.5154338
0
ARC
8
DEFAULT_255_2_778
10
25.7997714
20
-1.9864442
40
0.7913815
50
309.1282118
51
0.1454017
0
ARC
8
DEFAULT_255_2_778
10
25.7993889
20
-1.9867615
40
0.7913769
50
269.8524075
51
309.1641908
0
ARC
8
DEFAULT_255_2_778
10
3.5703462
20
-1.9867169
40
0.7914215
50
219.1312896
51
270.1450914
0
ARC
8
DEFAULT_255_2_778
10
3.5698591
20
-1.9864517
40
0.7912112
50
179.854026
51
219.1684493
0
LINE
8
DEFAULT_255_2_778
10
3.5723503
20
182.4301641
11
25.7973503
21
182.4301641
0
LINE
8
DEFAULT_255_2_778
10
26.5911503
20
181.6364641
11
26.5911503
21
-1.9844359
0
LINE
8
DEFAULT_255_2_778
10
25.7973503
20
-2.7781359
11
3.5723503
21
-2.7781359
0
LINE
8
DEFAULT_255_2_778
10
2.7786503
20
-1.9844359
11
2.7786503
21
181.6364641
0
LINE
8
DEFAULT_255_1_234
10
13.1803657
20
-0.0296435
11
13.1803657
21
-0.1043386
0
LINE
8
DEFAULT_255_1_234
10
12.9755563
20
-0.5878493
11
13.1843815
21
-0.7516967
0
LINE
8
DEFAULT_255_1_234
10
13.1843815
20
-0.7516967
11
13.0791658
21
-0.8488808
0
LINE
8
DEFAULT_255_1_234
10
13.0791658
20
-0.8488808
11
12.8325914
21
-0.6529063
0
LINE
8
DEFAULT_255_1_234
10
12.2390459
20
-0.1147799
11
12.2390459
21
-0.0304466
0
LINE
8
DEFAULT_255_1_234
10
13.0261563
20
-0.1155831
11
13.0261563
21
-0.0288403
0
LINE
8
DEFAULT_255_1_234
10
12.3932553
20
-0.018399
11
12.3932553
21
-0.1043386
0
ARC
8
DEFAULT_255_1_234
10
12.2849909
20
-0.1082293
40
0.8953833
50
351.453011
51
0.2489685
0
ARC
8
DEFAULT_255_1_234
10
12.5434709
20
-0.1482067
40
0.6338333
50
338.6861641
51
351.5540711
0
ARC
8
DEFAULT_255_1_234
10
12.6368593
20
-0.1812172
40
0.5348431
50
336.2887631
51
338.3442418
0
ARC
8
DEFAULT_255_1_234
10
12.6708215
20
-0.1998302
40
0.4962747
50
321.1170344
51
336.6795229
0
ARC
8
DEFAULT_255_1_234
10
12.7340044
20
-0.2484794
40
0.4165565
50
305.4419708
51
320.8705636
0
ARC
8
DEFAULT_255_1_234
10
12.7143514
20
-0.1737293
40
0.4935497
50
271.6373023
51
283.8611969
0
ARC
8
DEFAULT_255_1_234
10
12.7105767
20
-0.1081428
40
0.5592206
50
269.9930596
51
271.8318864
0
ARC
8
DEFAULT_255_1_234
10
12.706821
20
-0.1889319
40
0.4784458
50
252.5219675
51
270.4416499
0
ARC
8
DEFAULT_255_1_234
10
12.6924469
20
-0.2428408
40
0.422716
50
237.5352116
51
252.1857531
0
ARC
8
DEFAULT_255_1_234
10
12.7013665
20
-0.2314637
40
0.4371052
50
209.063312
51
237.3492538
0
ARC
8
DEFAULT_255_1_234
10
12.7883513
20
-0.1768315
40
0.5397041
50
205.1183774
51
209.6470015
0
ARC
8
DEFAULT_255_1_234
10
12.868055
20
-0.143017
40
0.6262326
50
188.7215458
51
204.8240747
0
ARC
8
DEFAULT_255_1_234
10
13.0678078
20
-0.1093933
40
0.8287794
50
180.3723947
51
188.9252049
0
ARC
8
DEFAULT_255_1_234
10
13.065083
20
-0.0264598
40
0.8260467
50
169.5253763
51
180.2765336
0
ARC
8
DEFAULT_255_1_234
10
12.8748279
20
0.0085309
40
0.6326007
50
155.8315255
51
169.5089989
0
ARC
8
DEFAULT_255_1_234
10
12.746778
20
0.0679348
40
0.4914567
50
139.6258461
51
156.0379525
0
ARC
8
DEFAULT_255_1_234
10
12.6878113
20
0.1153799
40
0.4158054
50
122.6416387
51
139.3430715
0
ARC
8
DEFAULT_255_1_234
10
12.6978733
20
0.0970451
40
0.4366739
50
93.0223692
51
122.455762
0
ARC
8
DEFAULT_255_1_234
10
12.708673
20
0.0005709
40
0.5336137
50
89.975342
51
93.6341897
0
ARC
8
DEFAULT_255_1_234
10
12.7125616
20
0.0385375
40
0.4956606
50
73.9665422
51
90.4229648
0
ARC
8
DEFAULT_255_1_234
10
12.7309263
20
0.1100451
40
0.4218674
50
57.5178019
51
73.6813337
0
ARC
8
DEFAULT_255_1_234
10
12.7265046
20
0.1064462
40
0.4272816
50
28.7261108
51
57.2767933
0
ARC
8
DEFAULT_255_1_234
10
12.6354378
20
0.0501688
40
0.534218
50
24.2448911
51
29.3248482
0
ARC
8
DEFAULT_255_1_234
10
12.5428479
20
0.0118819
40
0.6343711
50
9.064382
51
23.9639114
0
ARC
8
DEFAULT_255_1_234
10
12.3172807
20
-0.0260075
40
0.8630926
50
359.7586264
51
9.1891435
0
ARC
8
DEFAULT_255_1_234
10
12.1918287
20
-0.0246657
40
0.834338
50
359.7133237
51
7.96545
0
ARC
8
DEFAULT_255_1_234
10
12.4880504
20
0.0180681
40
0.5350538
50
7.8291991
51
20.0421623
0
ARC
8
DEFAULT_255_1_234
10
12.6505067
20
0.0771606
40
0.3621841
50
20.0677553
51
35.9161685
0
ARC
8
DEFAULT_255_1_234
10
12.7280105
20
0.134767
40
0.2656263
50
35.6594382
51
85.1578074
0
ARC
8
DEFAULT_255_1_234
10
12.7095361
20
0.0232378
40
0.3784238
50
83.7959068
51
90.095906
0
ARC
8
DEFAULT_255_1_234
10
12.7052295
20
0.0965601
40
0.3051229
50
89.3102392
51
109.9889877
0
ARC
8
DEFAULT_255_1_234
10
12.6969778
20
0.1321433
40
0.2688988
50
110.9285147
51
143.9411762
0
ARC
8
DEFAULT_255_1_234
10
12.7900724
20
0.0609236
40
0.3860887
50
143.5289163
51
163.2980757
0
ARC
8
DEFAULT_255_1_234
10
12.9808545
20
0.0009433
40
0.5860659
50
163.0418846
51
174.3140048
0
ARC
8
DEFAULT_255_1_234
10
13.2212657
20
-0.0268146
40
0.8280531
50
174.0509143
51
179.4176892
0
ARC
8
DEFAULT_255_1_234
10
13.1698992
20
-0.1086366
40
0.7766558
50
179.6829237
51
188.9631324
0
ARC
8
DEFAULT_255_1_234
10
12.9028553
20
-0.1521248
40
0.5060992
50
188.8100743
51
202.9300012
0
ARC
8
DEFAULT_255_1_234
10
12.7812182
20
-0.2016145
40
0.3747967
50
203.2069261
51
215.7876482
0
ARC
8
DEFAULT_255_1_234
10
12.6963579
20
-0.2687329
40
0.2667526
50
214.7521006
51
264.2834488
0
ARC
8
DEFAULT_255_1_234
10
12.7099234
20
-0.183222
40
0.3532247
50
263.4755397
51
270.0949833
0
ARC
8
DEFAULT_255_1_234
10
12.7141345
20
-0.2093626
40
0.3271036
50
269.3649385
51
287.5152008
0
ARC
8
DEFAULT_255_1_234
10
12.7319503
20
-0.2740762
40
0.2600406
50
288.0630309
51
323.8113348
0
ARC
8
DEFAULT_255_1_234
10
12.6448345
20
-0.2090951
40
0.3687189
50
323.6547608
51
342.6590488
0
ARC
8
DEFAULT_255_1_234
10
12.441696
20
-0.1430048
40
0.5823286
50
342.4091907
51
353.6451149
0
ARC
8
DEFAULT_255_1_234
10
12.1585471
20
-0.107781
40
0.8676442
50
353.4029884
51
359.4847795
0
LINE
8
DEFAULT_255_1_234
10
13.5176987
20
0.5181211
11
13.7996127
21
0.0699501
0
LINE
8
DEFAULT_255_1_234
10
13.7996127
20
0.0699501
11
14.0799204
21
0.5181211
0
LINE
8
DEFAULT_255_1_234
10
14.0799204
20
0.5181211
11
14.2614376
21
0.5181211
0
LINE
8
DEFAULT_255_1_234
10
14.2614376
20
0.5181211
11
13.8919777
21
-0.0617704
0
LINE
8
DEFAULT_255_1_234
10
13.8919777
20
-0.0617704
11
14.2702726
21
-0.6513
0
LINE
8
DEFAULT_255_1_234
10
14.2702726
20
-0.6513
11
14.0871489
21
-0.6513
0
LINE
8
DEFAULT_255_1_234
10
14.0871489
20
-0.6513
11
13.7996127
21
-0.1950973
0
LINE
8
DEFAULT_255_1_234
10
13.7996127
20
-0.1950973
11
13.5104701
21
-0.6513
0
LINE
8
DEFAULT_255_1_234
10
13.5104701
20
-0.6513
11
13.3281497
21
-0.6513
0
LINE
8
DEFAULT_255_1_234
10
13.3281497
20
-0.6513
11
13.7072477
21
-0.0617704
0
LINE
8
DEFAULT_255_1_234
10
13.7072477
20
-0.0617704
11
13.3369846
21
0.5181211
0
LINE
8
DEFAULT_255_1_234
10
13.3369846
20
0.5181211
11
13.5176987
21
0.5181211
0
ARC
8
DEFAULT_255_1_234
10
14.8378063
20
0.2103703
40
0.2822356
50
338.8763615
51
0.5166041
0
ARC
8
DEFAULT_255_1_234
10
14.8546718
20
0.2058208
40
0.2648703
50
325.8412414
51
338.4795939
0
ARC
8
DEFAULT_255_1_234
10
14.8156085
20
0.2329042
40
0.3124019
50
296.7586019
51
325.753654
0
ARC
8
DEFAULT_255_1_234
10
14.7868194
20
0.2813789
40
0.368668
50
296.0902311
51
297.3618122
0
ARC
8
DEFAULT_255_1_234
10
14.8125652
20
-0.3740959
40
0.3518806
50
47.9009248
51
67.1946869
0
ARC
8
DEFAULT_255_1_234
10
14.8321893
20
-0.3494605
40
0.320451
50
35.236241
51
47.551371
0
ARC
8
DEFAULT_255_1_234
10
14.8583511
20
-0.3320007
40
0.2890103
50
359.2759738
51
35.4014081
0
ARC
8
DEFAULT_255_1_234
10
14.7838543
20
-0.3393174
40
0.3635026
50
343.1294516
51
0.5776525
0
ARC
8
DEFAULT_255_1_234
10
14.8563087
20
-0.359267
40
0.2883832
50
310.8497458
51
342.744803
0
ARC
8
DEFAULT_255_1_234
10
14.8145201
20
-0.3115706
40
0.3517954
50
281.5473923
51
310.9169905
0
ARC
8
DEFAULT_255_1_234
10
14.778865
20
-0.1562916
40
0.5110832
50
269.6192722
51
281.9789957
0
ARC
8
DEFAULT_255_1_234
10
14.7716439
20
-0.1562172
40
0.5111606
50
257.4584469
51
270.4287458
0
ARC
8
DEFAULT_255_1_234
10
14.7335582
20
-0.3165656
40
0.3463762
50
228.7553743
51
257.8484423
0
ARC
8
DEFAULT_255_1_234
10
14.7025781
20
-0.3538558
40
0.297916
50
184.0104442
51
228.5071787
0
ARC
8
DEFAULT_255_1_234
10
14.8188725
20
-0.3361488
40
0.4152734
50
179.9315461
51
185.3254504
0
ARC
8
DEFAULT_255_1_234
10
14.701237
20
-0.3324008
40
0.2976554
50
145.6795913
51
180.6259649
0
ARC
8
DEFAULT_255_1_234
10
14.717572
20
-0.3438071
40
0.3175776
50
115.5537925
51
145.6416199
0
ARC
8
DEFAULT_255_1_234
10
14.751665
20
-0.4048972
40
0.3874232
50
113.2437915
51
116.2054627
0
ARC
8
DEFAULT_255_1_234
10
14.7363862
20
0.234958
40
0.3154751
50
222.9548379
51
244.1372485
0
ARC
8
DEFAULT_255_1_234
10
14.7241938
20
0.2212834
40
0.2972382
50
213.3439227
51
222.6271327
0
ARC
8
DEFAULT_255_1_234
10
14.7049872
20
0.2082308
40
0.274019
50
180.4316517
51
213.2713999
0
ARC
8
DEFAULT_255_1_234
10
14.7624873
20
0.212911
40
0.33158
50
179.9992944
51
181.1655061
0
ARC
8
DEFAULT_255_1_234
10
14.8034291
20
0.2163561
40
0.3725376
50
164.6186108
51
180.5292368
0
ARC
8
DEFAULT_255_1_234
10
14.7136153
20
0.2405101
40
0.2795349
50
132.2454369
51
164.5092287
0
ARC
8
DEFAULT_255_1_234
10
14.7423257
20
0.2080028
40
0.3229019
50
100.7052766
51
132.1387266
0
ARC
8
DEFAULT_255_1_234
10
14.772823
20
0.0702086
40
0.4639835
50
89.6732617
51
101.2449487
0
ARC
8
DEFAULT_255_1_234
10
14.7790428
20
0.087699
40
0.4464999
50
76.2876631
51
90.4586123
0
ARC
8
DEFAULT_255_1_234
10
14.8096659
20
0.209922
40
0.3205023
50
47.8240157
51
76.4266918
0
ARC
8
DEFAULT_255_1_234
10
14.8319209
20
0.235959
40
0.2862661
50
6.9168658
51
47.6261438
0
ARC
8
DEFAULT_255_1_234
10
14.7132612
20
0.214037
40
0.4067708
50
359.8419705
51
7.9694496
0
ARC
8
DEFAULT_255_1_234
10
14.7474509
20
-0.3300075
40
0.2513121
50
359.4454068
51
16.9256425
0
ARC
8
DEFAULT_255_1_234
10
14.794332
20
-0.3170967
40
0.2027071
50
17.292259
51
45.462717
0
ARC
8
DEFAULT_255_1_234
10
14.7889256
20
-0.3217566
40
0.2098212
50
45.3028762
51
83.1921472
0
ARC
8
DEFAULT_255_1_234
10
14.774594
20
-0.4019105
40
0.2911472
50
82.2614531
51
90.143954
0
ARC
8
DEFAULT_255_1_234
10
14.7715061
20
-0.378605
40
0.2678513
50
89.4959189
51
104.8579811
0
ARC
8
DEFAULT_255_1_234
10
14.7538319
20
-0.311611
40
0.1985654
50
104.8855873
51
135.2448349
0
ARC
8
DEFAULT_255_1_234
10
14.7588092
20
-0.3160664
40
0.2052373
50
135.3398955
51
172.104394
0
ARC
8
DEFAULT_255_1_234
10
14.839515
20
-0.3315075
40
0.2873299
50
171.2651929
51
180.1859362
0
ARC
8
DEFAULT_255_1_234
10
14.8225852
20
-0.3347267
40
0.2704083
50
179.515471
51
193.6466734
0
ARC
8
DEFAULT_255_1_234
10
14.7409621
20
-0.3555223
40
0.1861855
50
193.3540587
51
225.8256931
0
ARC
8
DEFAULT_255_1_234
10
14.7450378
20
-0.3484476
40
0.1941102
50
226.418029
51
255.8553723
0
ARC
8
DEFAULT_255_1_234
10
14.770681
20
-0.2548002
40
0.2911917
50
255.4655572
51
268.7985967
0
ARC
8
DEFAULT_255_1_234
10
14.7754002
20
-0.1709509
40
0.3751331
50
268.3464808
51
270.0104874
0
ARC
8
DEFAULT_255_1_234
10
14.777739
20
-0.2393862
40
0.3067064
50
269.575914
51
282.0823146
0
ARC
8
DEFAULT_255_1_234
10
14.8002299
20
-0.3388197
40
0.2047712
50
281.7522535
51
306.6056425
0
ARC
8
DEFAULT_255_1_234
10
14.8100726
20
-0.3549513
40
0.1859604
50
307.1350025
51
314.0277951
0
ARC
8
DEFAULT_255_1_234
10
14.806481
20
-0.3523234
40
0.1903475
50
314.2553419
51
350.169324
0
ARC
8
DEFAULT_255_1_234
10
14.7213278
20
-0.3338591
40
0.2774269
50
349.4145679
51
0.2930737
0
ARC
8
DEFAULT_255_1_234
10
14.7733711
20
0.1820353
40
0.2300764
50
89.477591
51
105.729794
0
ARC
8
DEFAULT_255_1_234
10
14.7597625
20
0.2325637
40
0.1777519
50
105.922966
51
135.1662921
0
ARC
8
DEFAULT_255_1_234
10
14.7618127
20
0.2311419
40
0.1802087
50
135.3053131
51
168.9882338
0
ARC
8
DEFAULT_255_1_234
10
14.84457
20
0.2121721
40
0.2650806
50
168.3802067
51
180.3602358
0
ARC
8
DEFAULT_255_1_234
10
14.8217279
20
0.2084041
40
0.2422425
50
179.5029707
51
194.9126783
0
ARC
8
DEFAULT_255_1_234
10
14.763194
20
0.193011
40
0.1817188
50
194.9722181
51
224.1943972
0
ARC
8
DEFAULT_255_1_234
10
14.7603808
20
0.1907169
40
0.1781027
50
224.2961434
51
262.0157375
0
ARC
8
DEFAULT_255_1_234
10
14.774605
20
0.2638661
40
0.2525492
50
261.1250369
51
270.1959853
0
ARC
8
DEFAULT_255_1_234
10
14.7775805
20
0.2451339
40
0.233825
50
269.4825617
51
285.0988277
0
ARC
8
DEFAULT_255_1_234
10
14.7929965
20
0.187299
40
0.1739712
50
285.1585659
51
315.9484648
0
ARC
8
DEFAULT_255_1_234
10
14.7840976
20
0.1954886
40
0.1860616
50
316.0412958
51
351.9162715
0
ARC
8
DEFAULT_255_1_234
10
14.7107931
20
0.2096245
40
0.2606517
50
351.1056823
51
0.1936567
0
ARC
8
DEFAULT_255_1_234
10
14.737076
20
0.2126369
40
0.234377
50
359.4789506
51
16.0679113
0
ARC
8
DEFAULT_255_1_234
10
14.7846719
20
0.225481
40
0.1850875
50
16.3251951
51
44.791304
0
ARC
8
DEFAULT_255_1_234
10
14.7829
20
0.2255339
40
0.186312
50
44.3958661
51
88.2498933
0
ARC
8
DEFAULT_255_1_234
10
14.7755554
20
0.1644154
40
0.2476868
50
86.9833827
51
90.0200148
0
LINE
8
DEFAULT_255_1_234
10
15.8228076
20
0.5237433
11
15.8228076
21
-0.6513
0
LINE
8
DEFAULT_255_1_234
10
15.8228076
20
-0.6513
11
15.6734172
21
-0.6513
0
LINE
8
DEFAULT_255_1_234
10
15.6734172
20
-0.6513
11
15.6734172
21
0.3390133
0
LINE
8
DEFAULT_255_1_234
10
15.6734172
20
0.3390133
11
15.3738334
21
0.2289785
0
LINE
8
DEFAULT_255_1_234
10
15.3738334
20
0.2289785
11
15.3738334
21
0.3639117
0
LINE
8
DEFAULT_255_1_234
10
15.3738334
20
0.3639117
11
15.7995155
21
0.5237433
0
LINE
8
DEFAULT_255_1_234
10
15.7995155
20
0.5237433
11
15.8228076
21
0.5237433
0
LINE
8
DEFAULT_255_2_778
10
10.5738396
20
178.4826073
11
9.3932396
21
178.4826073
0
LINE
8
DEFAULT_255_2_778
10
9.3932396
20
178.4826073
11
9.9837396
21
179.5052073
0
LINE
8
DEFAULT_255_2_778
10
9.9837396
20
179.5052073
11
11.1643396
21
179.5052073
0
LINE
8
DEFAULT_255_2_778
10
11.1643396
20
179.5052073
11
10.5738396
21
178.4826073
0
LINE
8
DEFAULT_255_2_778
10
10.5738396
20
178.4826073
11
10.5738396
21
178.4826073
0
LINE
8
DEFAULT_255_2_778
10
11.7546396
20
178.4826073
11
12.9354396
21
178.4826073
0
LINE
8
DEFAULT_255_2_778
10
12.9354396
20
178.4826073
11
12.3451396
21
179.5052073
0
LINE
8
DEFAULT_255_2_778
10
12.3451396
20
179.5052073
11
11.1643396
21
179.5052073
0
LINE
8
DEFAULT_255_2_778
10
11.1643396
20
179.5052073
11
11.7546396
21
178.4826073
0
LINE
8
DEFAULT_255_2_778
10
11.7546396
20
178.4826073
11
11.7546396
21
178.4826073
0
LINE
8
DEFAULT_255_2_778
10
11.7545823
20
180.5278146
11
11.1642823
21
181.5504146
0
LINE
8
DEFAULT_255_2_778
10
11.1642823
20
181.5504146
11
10.5737823
21
180.5278146
0
LINE
8
DEFAULT_255_2_778
10
10.5737823
20
180.5278146
11
11.1642823
21
179.5052146
0
LINE
8
DEFAULT_255_2_778
10
11.1642823
20
179.5052146
11
11.7545823
21
180.5278146
0
LINE
8
DEFAULT_255_2_778
10
11.7545823
20
180.5278146
11
11.7545823
21
180.5278146
0
ARC
8
DEFAULT_255_2_778
10
16.5183731
20
180.1740426
40
0.5650491
50
268.7543645
51
289.1417717
0
ARC
8
DEFAULT_255_2_778
10
16.606208
20
179.9188531
40
0.2951681
50
289.2776255
51
3.7648372
0
ARC
8
DEFAULT_255_2_778
10
16.3901618
20
179.9454085
40
0.5106278
50
359.1949826
51
0.0020862
0
ARC
8
DEFAULT_255_2_778
10
16.547449
20
179.9313832
40
0.1541914
50
280.2616216
51
358.5297855
0
ARC
8
DEFAULT_255_2_778
10
16.5080075
20
180.043955
40
0.2726346
50
269.5969454
51
284.2065679
0
ARC
8
DEFAULT_255_2_778
10
16.4981967
20
180.0283316
40
0.2571258
50
246.5290903
51
271.7590909
0
ARC
8
DEFAULT_255_2_778
10
16.4527148
20
179.9203009
40
0.1399248
50
188.1071678
51
245.9934684
0
ARC
8
DEFAULT_255_2_778
10
16.4829007
20
179.9272617
40
0.1708111
50
179.9445314
51
188.990814
0
ARC
8
DEFAULT_255_2_778
10
16.4924507
20
179.9340849
40
0.3763411
50
178.2272621
51
205.8283807
0
ARC
8
DEFAULT_255_2_778
10
16.4132476
20
179.9163833
40
0.2979176
50
209.4028057
51
263.0375728
0
ARC
8
DEFAULT_255_2_778
10
16.5005111
20
180.2910629
40
0.6816586
50
259.5722942
51
270.4689037
0
ARC
8
DEFAULT_255_2_778
10
17.411252
20
180.3472767
40
0.1217154
50
2.0482843
51
87.015299
0
ARC
8
DEFAULT_255_2_778
10
17.4060617
20
180.3516852
40
0.126828
50
353.0600847
51
359.9737428
0
ARC
8
DEFAULT_255_2_778
10
17.4110442
20
180.3485555
40
0.1215295
50
270.5739762
51
354.2410513
0
ARC
8
DEFAULT_255_2_778
10
17.4065059
20
180.3847297
40
0.1578027
50
269.9941256
51
272.0902921
0
ARC
8
DEFAULT_255_2_778
10
17.414084
20
179.9338295
40
0.1400686
50
358.2807293
51
95.6106825
0
ARC
8
DEFAULT_255_2_778
10
17.4103233
20
179.9299963
40
0.1437669
50
266.9962473
51
359.8528392
0
ARC
8
DEFAULT_255_2_778
10
17.4725249
20
179.9702988
40
0.3335288
50
268.2414507
51
302.0223478
0
ARC
8
DEFAULT_255_2_778
10
17.5091261
20
179.894983
40
0.2504234
50
304.0600275
51
2.0468005
0
ARC
8
DEFAULT_255_2_778
10
17.4832788
20
179.9016521
40
0.2761203
50
0.4720601
51
65.8403529
0
ARC
8
DEFAULT_255_2_778
10
17.5191655
20
179.9664061
40
0.2024466
50
67.606893
51
75.8693222
0
ARC
8
DEFAULT_255_2_778
10
17.5042026
20
180.374022
40
0.2208874
50
286.9473417
51
358.0074963
0
ARC
8
DEFAULT_255_2_778
10
17.4710866
20
180.3828045
40
0.2544031
50
356.2897886
51
0.0050857
0
ARC
8
DEFAULT_255_2_778
10
17.497262
20
180.3878946
40
0.2282839
50
358.7280137
51
81.8073164
0
ARC
8
DEFAULT_255_2_778
10
17.4216369
20
180.1364283
40
0.4895182
50
77.2355086
51
90.5088275
0
ARC
8
DEFAULT_255_2_778
10
17.5842742
20
179.1719263
40
0.130243
50
89.9974494
51
92.6776592
0
ARC
8
DEFAULT_255_2_778
10
17.5843316
20
179.1724872
40
0.129682
50
45.0880141
51
90.022782
0
ARC
8
DEFAULT_255_2_778
10
17.5844118
20
179.172519
40
0.1296029
50
0.001866
51
45.1031959
0
ARC
8
DEFAULT_255_2_778
10
17.5845123
20
179.1725202
40
0.1295026
50
357.4803735
51
0.0013544
0
ARC
8
DEFAULT_255_2_778
10
17.5901979
20
179.1686512
40
0.1237052
50
339.8672523
51
359.1550732
0
ARC
8
DEFAULT_255_2_778
10
17.5794513
20
179.1658079
40
0.1329691
50
272.0853006
51
342.6124646
0
ARC
8
DEFAULT_255_2_778
10
17.6596145
20
179.2040661
40
0.2575135
50
286.787355
51
290.6121696
0
ARC
8
DEFAULT_255_2_778
10
17.6689461
20
179.1897533
40
0.24086
50
289.7330405
51
342.3216972
0
ARC
8
DEFAULT_255_2_778
10
17.641261
20
179.1945954
40
0.268735
50
343.130572
51
0.3905272
0
ARC
8
DEFAULT_255_2_778
10
17.6578783
20
179.2119767
40
0.2525904
50
356.4706028
51
80.1788963
0
ARC
8
DEFAULT_255_2_778
10
17.5921649
20
178.9850163
40
0.4881286
50
77.1212301
51
90.4900821
0
ARC
8
DEFAULT_255_2_778
10
17.5166337
20
178.687336
40
0.1865405
50
50.1507009
51
92.9634648
0
ARC
8
DEFAULT_255_2_778
10
17.5301354
20
178.7156678
40
0.1563319
50
12.621233
51
47.2950617
0
ARC
8
DEFAULT_255_2_778
10
16.8485884
20
178.5827726
40
0.8506657
50
2.8173892
51
11.3253986
0
ARC
8
DEFAULT_255_2_778
10
-29.2295733
20
175.0864175
40
47.060992
50
4.3048394
51
4.3117143
0
ARC
8
DEFAULT_255_2_778
10
18.5500859
20
178.658884
40
0.8523717
50
182.6850102
51
191.2954256
0
ARC
8
DEFAULT_255_2_778
10
17.9656837
20
178.5525399
40
0.2586603
50
193.5512904
51
195.3825538
0
ARC
8
DEFAULT_255_2_778
10
19.3415679
20
178.8101916
40
1.4608773
50
182.5958701
51
192.9049706
0
ARC
8
DEFAULT_255_2_778
10
17.6207606
20
178.7385215
40
0.261487
50
1.2064311
51
30.4123358
0
ARC
8
DEFAULT_255_2_778
10
17.6663626
20
178.753576
40
0.2147766
50
33.1081154
51
71.7312197
0
LINE
8
DEFAULT_255_2_778
10
13.4657897
20
178.9181271
11
13.9385897
21
178.9181271
0
LINE
8
DEFAULT_255_2_778
10
13.9385897
20
178.9181271
11
13.9385897
21
179.0895271
0
LINE
8
DEFAULT_255_2_778
10
13.9385897
20
179.0895271
11
13.4657897
21
179.0895271
0
LINE
8
DEFAULT_255_2_778
10
13.4657897
20
179.0895271
11
13.4657897
21
179.3004271
0
LINE
8
DEFAULT_255_2_778
10
13.4657897
20
179.3004271
11
13.9977897
21
179.3004271
0
LINE
8
DEFAULT_255_2_778
10
13.9977897
20
179.3004271
11
13.9977897
21
179.4718271
0
LINE
8
DEFAULT_255_2_778
10
13.9977897
20
179.4718271
11
13.4657897
21
179.4718271
0
LINE
8
DEFAULT_255_2_778
10
13.4657897
20
179.4718271
11
13.2651897
21
179.4718271
0
LINE
8
DEFAULT_255_2_778
10
13.2651897
20
179.4718271
11
13.2651897
21
179.3004271
0
LINE
8
DEFAULT_255_2_778
10
13.2651897
20
179.3004271
11
13.2651897
21
178.6540271
0
LINE
8
DEFAULT_255_2_778
10
13.2651897
20
178.6540271
11
13.2651897
21
178.4825271
0
LINE
8
DEFAULT_255_2_778
10
13.2651897
20
178.4825271
11
13.4657897
21
178.4825271
0
LINE
8
DEFAULT_255_2_778
10
13.4657897
20
178.4825271
11
14.0118897
21
178.4825271
0
LINE
8
DEFAULT_255_2_778
10
14.0118897
20
178.4825271
11
14.0118897
21
178.6540271
0
LINE
8
DEFAULT_255_2_778
10
14.0118897
20
178.6540271
11
13.4657897
21
178.6540271
0
LINE
8
DEFAULT_255_2_778
10
13.4657897
20
178.6540271
11
13.4657897
21
178.9178271
0
LINE
8
DEFAULT_255_2_778
10
13.4657897
20
178.9178271
11
13.4657897
21
178.9181271
0
LINE
8
DEFAULT_255_2_778
10
13.4519897
20
180.3722271
11
13.6620897
21
179.6369271
0
LINE
8
DEFAULT_255_2_778
10
13.6620897
20
179.6369271
11
13.6704897
21
179.6369271
0
LINE
8
DEFAULT_255_2_778
10
13.6704897
20
179.6369271
11
13.8464897
21
179.6369271
0
LINE
8
DEFAULT_255_2_778
10
13.8464897
20
179.6369271
11
13.8546897
21
179.6369271
0
LINE
8
DEFAULT_255_2_778
10
13.8546897
20
179.6369271
11
14.0647897
21
180.3722271
0
LINE
8
DEFAULT_255_2_778
10
14.0647897
20
180.3722271
11
14.0647897
21
179.6369271
0
LINE
8
DEFAULT_255_2_778
10
14.0647897
20
179.6369271
11
14.2515897
21
179.6369271
0
LINE
8
DEFAULT_255_2_778
10
14.2515897
20
179.6369271
11
14.2515897
21
180.6262271
0
LINE
8
DEFAULT_255_2_778
10
14.2515897
20
180.6262271
11
14.1496897
21
180.6262271
0
LINE
8
DEFAULT_255_2_778
10
14.1496897
20
180.6262271
11
14.0615897
21
180.6262271
0
LINE
8
DEFAULT_255_2_778
10
14.0615897
20
180.6262271
11
13.9655897
21
180.6262271
0
LINE
8
DEFAULT_255_2_778
10
13.9655897
20
180.6262271
11
13.7583897
21
179.9319271
0
LINE
8
DEFAULT_255_2_778
10
13.7583897
20
179.9319271
11
13.5511897
21
180.6262271
0
LINE
8
DEFAULT_255_2_778
10
13.5511897
20
180.6262271
11
13.4551897
21
180.6262271
0
LINE
8
DEFAULT_255_2_778
10
13.4551897
20
180.6262271
11
13.3669897
21
180.6262271
0
LINE
8
DEFAULT_255_2_778
10
13.3669897
20
180.6262271
11
13.2651897
21
180.6262271
0
LINE
8
DEFAULT_255_2_778
10
13.2651897
20
180.6262271
11
13.2651897
21
179.6369271
0
LINE
8
DEFAULT_255_2_778
10
13.2651897
20
179.6369271
11
13.4519897
21
179.6369271
0
LINE
8
DEFAULT_255_2_778
10
13.4519897
20
179.6369271
11
13.4519897
21
180.3722271
0
LINE
8
DEFAULT_255_2_778
10
13.4519897
20
180.3722271
11
13.4519897
21
180.3722271
0
LINE
8
DEFAULT_255_2_778
10
18.0056897
20
180.6262271
11
17.8064897
21
180.6262271
0
LINE
8
DEFAULT_255_2_778
10
17.8064897
20
180.6262271
11
17.8064897
21
179.6369271
0
LINE
8
DEFAULT_255_2_778
10
17.8064897
20
179.6369271
11
18.0056897
21
179.6369271
0
LINE
8
DEFAULT_255_2_778
10
18.0056897
20
179.6369271
11
18.0056897
21
180.6262271
0
LINE
8
DEFAULT_255_2_778
10
18.0056897
20
180.6262271
11
18.0056897
21
180.6262271
0
LINE
8
DEFAULT_255_2_778
10
18.1681897
20
179.4721271
11
17.9689897
21
179.4721271
0
LINE
8
DEFAULT_255_2_778
10
17.9689897
20
179.4721271
11
17.9689897
21
178.4828271
0
LINE
8
DEFAULT_255_2_778
10
17.9689897
20
178.4828271
11
18.1681897
21
178.4828271
0
LINE
8
DEFAULT_255_2_778
10
18.1681897
20
178.4828271
11
18.1681897
21
179.4721271
0
LINE
8
DEFAULT_255_2_778
10
18.1681897
20
179.4721271
11
18.1681897
21
179.4721271
0
LINE
8
DEFAULT_255_2_778
10
19.9765897
20
180.6262271
11
19.7773897
21
180.6262271
0
LINE
8
DEFAULT_255_2_778
10
19.7773897
20
180.6262271
11
19.7773897
21
179.6369271
0
LINE
8
DEFAULT_255_2_778
10
19.7773897
20
179.6369271
11
19.9765897
21
179.6369271
0
LINE
8
DEFAULT_255_2_778
10
19.9765897
20
179.6369271
11
19.9765897
21
180.6262271
0
LINE
8
DEFAULT_255_2_778
10
19.9765897
20
180.6262271
11
19.9765897
21
180.6262271
0
LINE
8
DEFAULT_255_2_778
10
14.5298897
20
180.6262271
11
14.3306897
21
180.6262271
0
LINE
8
DEFAULT_255_2_778
10
14.3306897
20
180.6262271
11
14.3306897
21
179.6369271
0
LINE
8
DEFAULT_255_2_778
10
14.3306897
20
179.6369271
11
14.5298897
21
179.6369271
0
LINE
8
DEFAULT_255_2_778
10
14.5298897
20
179.6369271
11
14.5298897
21
180.6262271
0
LINE
8
DEFAULT_255_2_778
10
14.5298897
20
180.6262271
11
14.5298897
21
180.6262271
0
LINE
8
DEFAULT_255_2_778
10
19.4989897
20
180.2402271
11
19.1029897
21
180.2402271
0
LINE
8
DEFAULT_255_2_778
10
19.1029897
20
180.2402271
11
19.1029897
21
180.6259271
0
LINE
8
DEFAULT_255_2_778
10
19.1029897
20
180.6259271
11
18.9068897
21
180.6259271
0
LINE
8
DEFAULT_255_2_778
10
18.9068897
20
180.6259271
11
18.9068897
21
179.6369271
0
LINE
8
DEFAULT_255_2_778
10
18.9068897
20
179.6369271
11
19.1029897
21
179.6369271
0
LINE
8
DEFAULT_255_2_778
10
19.1029897
20
179.6369271
11
19.1029897
21
180.0687271
0
LINE
8
DEFAULT_255_2_778
10
19.1029897
20
180.0687271
11
19.4989897
21
180.0687271
0
LINE
8
DEFAULT_255_2_778
10
19.4989897
20
180.0687271
11
19.4989897
21
179.6369271
0
LINE
8
DEFAULT_255_2_778
10
19.4989897
20
179.6369271
11
19.6950897
21
179.6369271
0
LINE
8
DEFAULT_255_2_778
10
19.6950897
20
179.6369271
11
19.6950897
21
180.6259271
0
LINE
8
DEFAULT_255_2_778
10
19.6950897
20
180.6259271
11
19.4989897
21
180.6259271
0
LINE
8
DEFAULT_255_2_778
10
19.4989897
20
180.6259271
11
19.4989897
21
180.2402271
0
LINE
8
DEFAULT_255_2_778
10
19.4989897
20
180.2402271
11
19.4989897
21
180.2402271
0
LINE
8
DEFAULT_255_2_778
10
14.8246897
20
179.6369271
11
15.0280897
21
179.6369271
0
LINE
8
DEFAULT_255_2_778
10
15.0280897
20
179.6369271
11
15.0280897
21
180.4548271
0
LINE
8
DEFAULT_255_2_778
10
15.0280897
20
180.4548271
11
15.2696897
21
180.4548271
0
LINE
8
DEFAULT_255_2_778
10
15.2696897
20
180.4548271
11
15.2696897
21
180.6262271
0
LINE
8
DEFAULT_255_2_778
10
15.2696897
20
180.6262271
11
15.0280897
21
180.6262271
0
LINE
8
DEFAULT_255_2_778
10
15.0280897
20
180.6262271
11
14.8246897
21
180.6262271
0
LINE
8
DEFAULT_255_2_778
10
14.8246897
20
180.6262271
11
14.5830897
21
180.6262271
0
LINE
8
DEFAULT_255_2_778
10
14.5830897
20
180.6262271
11
14.5830897
21
180.4548271
0
LINE
8
DEFAULT_255_2_778
10
14.5830897
20
180.4548271
11
14.8246897
21
180.4548271
0
LINE
8
DEFAULT_255_2_778
10
14.8246897
20
180.4548271
11
14.8246897
21
179.6369271
0
LINE
8
DEFAULT_255_2_778
10
14.8246897
20
179.6369271
11
14.8246897
21
179.6369271
0
LINE
8
DEFAULT_255_2_778
10
16.6422897
20
178.4828271
11
16.8454897
21
178.4828271
0
LINE
8
DEFAULT_255_2_778
10
16.8454897
20
178.4828271
11
16.8454897
21
179.3006271
0
LINE
8
DEFAULT_255_2_778
10
16.8454897
20
179.3006271
11
17.0873897
21
179.3006271
0
LINE
8
DEFAULT_255_2_778
10
17.0873897
20
179.3006271
11
17.0873897
21
179.4724271
0
LINE
8
DEFAULT_255_2_778
10
17.0873897
20
179.4724271
11
16.8454897
21
179.4724271
0
LINE
8
DEFAULT_255_2_778
10
16.8454897
20
179.4724271
11
16.6422897
21
179.4724271
0
LINE
8
DEFAULT_255_2_778
10
16.6422897
20
179.4724271
11
16.4004897
21
179.4724271
0
LINE
8
DEFAULT_255_2_778
10
16.4004897
20
179.4724271
11
16.4004897
21
179.3006271
0
LINE
8
DEFAULT_255_2_778
10
16.4004897
20
179.3006271
11
16.6422897
21
179.3006271
0
LINE
8
DEFAULT_255_2_778
10
16.6422897
20
179.3006271
11
16.6422897
21
178.4828271
0
LINE
8
DEFAULT_255_2_778
10
16.6422897
20
178.4828271
11
16.6422897
21
178.4828271
0
LINE
8
DEFAULT_255_2_778
10
16.9007897
20
179.9454271
11
16.9007897
21
180.6259271
0
LINE
8
DEFAULT_255_2_778
10
16.9007897
20
180.6259271
11
16.7015897
21
180.6259271
0
LINE
8
DEFAULT_255_2_778
10
16.7015897
20
180.6259271
11
16.7015897
21
179.9274271
0
LINE
8
DEFAULT_255_2_778
10
16.3120897
20
179.9274271
11
16.3120897
21
180.6259271
0
LINE
8
DEFAULT_255_2_778
10
16.3120897
20
180.6259271
11
16.1162897
21
180.6259271
0
LINE
8
DEFAULT_255_2_778
10
16.1162897
20
180.6259271
11
16.1162897
21
179.9457271
0
LINE
8
DEFAULT_255_2_778
10
15.0000897
20
178.9181271
11
15.4730897
21
178.9181271
0
LINE
8
DEFAULT_255_2_778
10
15.4730897
20
178.9181271
11
15.4730897
21
179.0895271
0
LINE
8
DEFAULT_255_2_778
10
15.4730897
20
179.0895271
11
15.0000897
21
179.0895271
0
LINE
8
DEFAULT_255_2_778
10
15.0000897
20
179.0895271
11
15.0000897
21
179.3004271
0
LINE
8
DEFAULT_255_2_778
10
15.0000897
20
179.3004271
11
15.5320897
21
179.3004271
0
LINE
8
DEFAULT_255_2_778
10
15.5320897
20
179.3004271
11
15.5320897
21
179.4718271
0
LINE
8
DEFAULT_255_2_778
10
15.5320897
20
179.4718271
11
15.0000897
21
179.4718271
0
LINE
8
DEFAULT_255_2_778
10
15.0000897
20
179.4718271
11
14.7997897
21
179.4718271
0
LINE
8
DEFAULT_255_2_778
10
14.7997897
20
179.4718271
11
14.7997897
21
179.3004271
0
LINE
8
DEFAULT_255_2_778
10
14.7997897
20
179.3004271
11
14.7997897
21
178.6540271
0
LINE
8
DEFAULT_255_2_778
10
14.7997897
20
178.6540271
11
14.7997897
21
178.4825271
0
LINE
8
DEFAULT_255_2_778
10
14.7997897
20
178.4825271
11
15.0000897
21
178.4825271
0
LINE
8
DEFAULT_255_2_778
10
15.0000897
20
178.4825271
11
15.5461897
21
178.4825271
0
LINE
8
DEFAULT_255_2_778
10
15.5461897
20
178.4825271
11
15.5461897
21
178.6540271
0
LINE
8
DEFAULT_255_2_778
10
15.5461897
20
178.6540271
11
15.0000897
21
178.6540271
0
LINE
8
DEFAULT_255_2_778
10
15.0000897
20
178.6540271
11
15.0000897
21
178.9178271
0
LINE
8
DEFAULT_255_2_778
10
15.0000897
20
178.9178271
11
15.0000897
21
178.9181271
0
LINE
8
DEFAULT_255_2_778
10
17.4064897
20
180.2269271
11
17.1690897
21
180.2269271
0
LINE
8
DEFAULT_255_2_778
10
17.1690897
20
180.2269271
11
17.1690897
21
180.4685271
0
LINE
8
DEFAULT_255_2_778
10
17.1690897
20
180.4685271
11
17.4175897
21
180.4685271
0
LINE
8
DEFAULT_255_2_778
10
17.4175897
20
180.4685271
11
17.4175897
21
180.4688271
0
LINE
8
DEFAULT_255_2_778
10
17.4027897
20
179.7861271
11
17.1690897
21
179.7861271
0
LINE
8
DEFAULT_255_2_778
10
17.1690897
20
179.7861271
11
17.1690897
21
180.0732271
0
LINE
8
DEFAULT_255_2_778
10
17.1690897
20
180.0732271
11
17.4003897
21
180.0732271
0
LINE
8
DEFAULT_255_2_778
10
17.1767897
20
179.6369271
11
17.4622897
21
179.6369271
0
LINE
8
DEFAULT_255_2_778
10
17.4172897
20
180.6259271
11
17.1770897
21
180.6259271
0
LINE
8
DEFAULT_255_2_778
10
17.1770897
20
180.6259271
11
16.9722897
21
180.6259271
0
LINE
8
DEFAULT_255_2_778
10
16.9722897
20
180.6259271
11
16.9711897
21
180.6259271
0
LINE
8
DEFAULT_255_2_778
10
16.9711897
20
180.6259271
11
16.9711897
21
179.6369271
0
LINE
8
DEFAULT_255_2_778
10
16.9711897
20
179.6369271
11
16.9722897
21
179.6369271
0
LINE
8
DEFAULT_255_2_778
10
16.9722897
20
179.6369271
11
17.1770897
21
179.6369271
0
LINE
8
DEFAULT_255_2_778
10
17.1770897
20
179.6369271
11
17.1767897
21
179.6369271
0
LINE
8
DEFAULT_255_2_778
10
17.3368897
20
179.0326271
11
17.3368897
21
179.3020271
0
LINE
8
DEFAULT_255_2_778
10
17.3368897
20
179.3020271
11
17.5781897
21
179.3020271
0
LINE
8
DEFAULT_255_2_778
10
17.5842897
20
179.0329271
11
17.3370897
21
179.0329271
0
LINE
8
DEFAULT_255_2_778
10
17.3370897
20
179.0329271
11
17.3368897
21
179.0326271
0
LINE
8
DEFAULT_255_2_778
10
17.5879897
20
179.4731271
11
17.3368897
21
179.4731271
0
LINE
8
DEFAULT_255_2_778
10
17.3368897
20
179.4731271
11
17.1383897
21
179.4731271
0
LINE
8
DEFAULT_255_2_778
10
17.1383897
20
179.4731271
11
17.1362897
21
179.4731271
0
LINE
8
DEFAULT_255_2_778
10
17.1362897
20
179.4731271
11
17.1362897
21
178.4839271
0
LINE
8
DEFAULT_255_2_778
10
17.1362897
20
178.4839271
11
17.3368897
21
178.4839271
0
LINE
8
DEFAULT_255_2_778
10
17.3368897
20
178.4839271
11
17.3368897
21
178.8736271
0
LINE
8
DEFAULT_255_2_778
10
17.3368897
20
178.8736271
11
17.5069897
21
178.8736271
0
LINE
8
DEFAULT_255_2_778
10
17.7162897
20
178.4839271
11
17.9175897
21
178.4839271
0
LINE
8
DEFAULT_255_2_778
10
14.2763897
20
179.4721271
11
14.0760897
21
179.4721271
0
LINE
8
DEFAULT_255_2_778
10
14.0760897
20
179.4721271
11
14.0760897
21
178.6543271
0
LINE
8
DEFAULT_255_2_778
10
14.0760897
20
178.6543271
11
14.0760897
21
178.4828271
0
LINE
8
DEFAULT_255_2_778
10
14.0760897
20
178.4828271
11
14.2763897
21
178.4828271
0
LINE
8
DEFAULT_255_2_778
10
14.2763897
20
178.4828271
11
14.7428897
21
178.4828271
0
LINE
8
DEFAULT_255_2_778
10
14.7428897
20
178.4828271
11
14.7428897
21
178.6543271
0
LINE
8
DEFAULT_255_2_778
10
14.7428897
20
178.6543271
11
14.2763897
21
178.6543271
0
LINE
8
DEFAULT_255_2_778
10
14.2763897
20
178.6543271
11
14.2763897
21
179.4721271
0
LINE
8
DEFAULT_255_2_778
10
14.2763897
20
179.4721271
11
14.2763897
21
179.4721271
0
ARC
8
DEFAULT_255_2_778
10
15.4584271
20
179.0979969
40
0.9681224
50
72.4822103
51
81.3184214
0
ARC
8
DEFAULT_255_2_778
10
15.7160297
20
179.8746918
40
0.1503783
50
28.8883513
51
77.0092434
0
ARC
8
DEFAULT_255_2_778
10
15.7432379
20
179.9036196
40
0.113238
50
358.9917455
51
22.7117017
0
ARC
8
DEFAULT_255_2_778
10
15.7394861
20
179.9077918
40
0.1171346
50
289.2958104
51
356.9831562
0
ARC
8
DEFAULT_255_2_778
10
15.6668261
20
180.0652882
40
0.2902651
50
268.4665462
51
292.5613311
0
ARC
8
DEFAULT_255_2_778
10
15.6496856
20
180.0062179
40
0.2312808
50
236.4956947
51
272.3225735
0
ARC
8
DEFAULT_255_2_778
10
15.6106646
20
179.9379839
40
0.1529307
50
178.9722202
51
234.5742435
0
ARC
8
DEFAULT_255_2_778
10
15.5656113
20
179.9284079
40
0.3002058
50
177.6481608
51
245.5596397
0
ARC
8
DEFAULT_255_2_778
10
15.6409971
20
180.1006561
40
0.488217
50
245.8690375
51
267.169035
0
ARC
8
DEFAULT_255_2_778
10
15.6671503
20
180.3516916
40
0.7403648
50
266.1069867
51
270.0547972
0
ARC
8
DEFAULT_255_2_778
10
15.6772894
20
180.1829135
40
0.5716642
50
269.0547216
51
287.7147747
0
ARC
8
DEFAULT_255_2_778
10
15.7598889
20
179.9372091
40
0.3125017
50
286.995984
51
325.1221533
0
ARC
8
DEFAULT_255_2_778
10
15.7678294
20
179.920661
40
0.2966627
50
326.8673922
51
0.8625726
0
ARC
8
DEFAULT_255_2_778
10
15.7898286
20
179.9292409
40
0.2746606
50
359.1417932
51
76.9739731
0
ARC
8
DEFAULT_255_2_778
10
15.6705461
20
179.6483719
40
0.577616
50
71.7185727
51
79.1315439
0
ARC
8
DEFAULT_255_2_778
10
14.2492968
20
172.294767
40
8.0673056
50
79.0662148
51
79.6216572
0
ARC
8
DEFAULT_255_2_778
10
16.4356585
20
184.1724581
40
4.0099443
50
259.1227669
51
259.4665204
0
ARC
8
DEFAULT_255_2_778
10
15.7836732
20
180.8774142
40
0.6513291
50
249.9945768
51
260.7485895
0
ARC
8
DEFAULT_255_2_778
10
15.5880401
20
180.3663999
40
0.1046098
50
178.6705173
51
254.9333545
0
ARC
8
DEFAULT_255_2_778
10
15.6049957
20
180.3629688
40
0.1216785
50
93.288632
51
177.2403935
0
ARC
8
DEFAULT_255_2_778
10
15.6585677
20
180.1759752
40
0.3143588
50
89.6189463
51
101.1057977
0
ARC
8
DEFAULT_255_2_778
10
15.6722733
20
180.287816
40
0.2028439
50
53.5634072
51
93.2825843
0
ARC
8
DEFAULT_255_2_778
10
15.7018505
20
180.3460144
40
0.1388739
50
357.1985816
51
49.1152298
0
ARC
8
DEFAULT_255_2_778
10
15.7254907
20
180.3392274
40
0.3087677
50
359.9999335
51
2.3703878
0
ARC
8
DEFAULT_255_2_778
10
15.7353555
20
180.3407337
40
0.298851
50
2.1600756
51
60.1092229
0
ARC
8
DEFAULT_255_2_778
10
15.6766212
20
180.2341133
40
0.4205645
50
60.4106856
51
86.1444419
0
ARC
8
DEFAULT_255_2_778
10
15.6536151
20
180.0574228
40
0.5985046
50
85.0843314
51
90.0628677
0
ARC
8
DEFAULT_255_2_778
10
15.6529718
20
180.1808466
40
0.4750804
50
90.001616
51
92.2300394
0
ARC
8
DEFAULT_255_2_778
10
15.6281193
20
180.285987
40
0.3696351
50
89.0131319
51
149.6364996
0
ARC
8
DEFAULT_255_2_778
10
15.5505461
20
180.3582055
40
0.2671974
50
154.5962367
51
180.4885883
0
ARC
8
DEFAULT_255_2_778
10
15.5651524
20
180.356684
40
0.281795
50
180.1539064
51
255.1120325
0
ARC
8
DEFAULT_255_2_778
10
15.7094242
20
180.679532
40
0.6333958
50
249.9962237
51
260.4976723
0
ARC
8
DEFAULT_255_2_778
10
18.2470963
20
179.0991351
40
0.967002
50
72.4685023
51
81.3064395
0
ARC
8
DEFAULT_255_2_778
10
18.5045397
20
179.874727
40
0.1503535
50
28.8782248
51
76.9904304
0
ARC
8
DEFAULT_255_2_778
10
18.5317197
20
179.9036189
40
0.1132561
50
358.9922779
51
22.7082666
0
ARC
8
DEFAULT_255_2_778
10
18.5280402
20
179.9077088
40
0.1170763
50
289.2761556
51
357.0223042
0
ARC
8
DEFAULT_255_2_778
10
18.4553612
20
180.0655836
40
0.2905613
50
268.4611814
51
292.5289055
0
ARC
8
DEFAULT_255_2_778
10
18.4381801
20
180.0071175
40
0.2321799
50
236.6698634
51
272.3149402
0
ARC
8
DEFAULT_255_2_778
10
18.39878
20
179.9379762
40
0.1528464
50
178.9687581
51
234.7686008
0
ARC
8
DEFAULT_255_2_778
10
18.3540113
20
179.9284079
40
0.3002058
50
177.6481608
51
245.5596397
0
ARC
8
DEFAULT_255_2_778
10
18.4293971
20
180.1006561
40
0.488217
50
245.8690375
51
267.169035
0
ARC
8
DEFAULT_255_2_778
10
18.4555503
20
180.3516916
40
0.7403648
50
266.1069867
51
270.0547972
0
ARC
8
DEFAULT_255_2_778
10
18.4656836
20
180.1835451
40
0.5722957
50
269.0563423
51
287.7048702
0
ARC
8
DEFAULT_255_2_778
10
18.548344
20
179.9375682
40
0.312856
50
286.9832601
51
325.0871916
0
ARC
8
DEFAULT_255_2_778
10
18.5567708
20
179.9206856
40
0.2964208
50
326.8311942
51
0.8585267
0
ARC
8
DEFAULT_255_2_778
10
18.5785756
20
179.9293282
40
0.2746149
50
359.1234265
51
76.9343785
0
ARC
8
DEFAULT_255_2_778
10
18.4596421
20
179.6494965
40
0.5764934
50
71.6999697
51
79.1198353
0
ARC
8
DEFAULT_255_2_778
10
17.0173657
20
172.1727392
40
8.1910887
50
79.0843627
51
79.6321368
0
ARC
8
DEFAULT_255_2_778
10
19.2200266
20
184.1522177
40
3.9892176
50
259.1314419
51
259.4772924
0
ARC
8
DEFAULT_255_2_778
10
18.5723251
20
180.8768131
40
0.6507003
50
249.9919323
51
260.7592458
0
ARC
8
DEFAULT_255_2_778
10
18.376901
20
180.3663546
40
0.1045718
50
178.6452075
51
254.9151907
0
ARC
8
DEFAULT_255_2_778
10
18.3939581
20
180.3629016
40
0.121744
50
93.2745253
51
177.21023
0
ARC
8
DEFAULT_255_2_778
10
18.4475726
20
180.1758052
40
0.3145287
50
89.6200387
51
101.1027534
0
ARC
8
DEFAULT_255_2_778
10
18.4613489
20
180.2891453
40
0.2015212
50
53.1490002
51
93.3256649
0
ARC
8
DEFAULT_255_2_778
10
18.4902753
20
180.3459519
40
0.1391457
50
357.2298288
51
48.6469881
0
ARC
8
DEFAULT_255_2_778
10
18.5137232
20
180.3392226
40
0.3092351
50
0.0008291
51
2.3676985
0
ARC
8
DEFAULT_255_2_778
10
18.5240744
20
180.3407868
40
0.2988304
50
2.1500394
51
60.0956838
0
ARC
8
DEFAULT_255_2_778
10
18.4654399
20
180.2342909
40
0.4203859
50
60.40452
51
86.1455285
0
ARC
8
DEFAULT_255_2_778
10
18.4424157
20
180.0574686
40
0.5984588
50
85.0841409
51
90.0629301
0
ARC
8
DEFAULT_255_2_778
10
18.4417778
20
180.1804392
40
0.4754878
50
90.0023409
51
92.3231329
0
ARC
8
DEFAULT_255_2_778
10
18.4167555
20
180.2857604
40
0.3698206
50
89.1093915
51
149.6400816
0
ARC
8
DEFAULT_255_2_778
10
18.338761
20
180.3581917
40
0.2669122
50
154.6001925
51
180.486137
0
ARC
8
DEFAULT_255_2_778
10
18.3537607
20
180.3568152
40
0.2819037
50
180.1805176
51
255.132702
0
ARC
8
DEFAULT_255_2_778
10
18.4982264
20
180.6800784
40
0.6339516
50
250.0026216
51
260.4967164
0
ARC
8
DEFAULT_255_2_778
10
16.008917
20
178.8872283
40
0.2519711
50
190.2626864
51
267.3480013
0
ARC
8
DEFAULT_255_2_778
10
16.2443543
20
178.9785548
40
0.5022041
50
179.6723028
51
195.7380858
0
ARC
8
DEFAULT_255_2_778
10
16.1790511
20
178.9940671
40
0.4370755
50
148.7005643
51
181.6572045
0
ARC
8
DEFAULT_255_2_778
10
15.9957576
20
179.1041723
40
0.2232598
50
89.6148479
51
148.4074796
0
ARC
8
DEFAULT_255_2_778
10
16.0060936
20
179.126249
40
0.201372
50
41.9769772
51
92.5146611
0
ARC
8
DEFAULT_255_2_778
10
15.9522078
20
179.0885523
40
0.2667646
50
15.1848537
51
40.2549591
0
ARC
8
DEFAULT_255_2_778
10
16.028123
20
179.0988326
40
0.3935735
50
8.7091682
51
82.0550801
0
ARC
8
DEFAULT_255_2_778
10
15.9931241
20
178.9523871
40
0.543642
50
80.5350289
51
90.1544743
0
ARC
8
DEFAULT_255_2_778
10
15.9818804
20
179.0410192
40
0.4551129
50
88.7689246
51
119.6437418
0
ARC
8
DEFAULT_255_2_778
10
16.0077717
20
179.0447647
40
0.4653013
50
122.644121
51
173.3997839
0
ARC
8
DEFAULT_255_2_778
10
16.2711934
20
178.9804568
40
0.7351371
50
170.7798304
51
180.1348114
0
ARC
8
DEFAULT_255_2_778
10
16.1377257
20
178.9650615
40
0.6018225
50
178.6988735
51
210.5289552
0
ARC
8
DEFAULT_255_2_778
10
15.970325
20
178.8742953
40
0.4115783
50
211.4828222
51
265.8686737
0
ARC
8
DEFAULT_255_2_778
10
15.9909864
20
178.9990011
40
0.5375742
50
264.6297133
51
270.0503073
0
ARC
8
DEFAULT_255_2_778
10
16.0020995
20
178.9308749
40
0.4695684
50
268.7014824
51
300.1403067
0
ARC
8
DEFAULT_255_2_778
10
16.0350333
20
178.8524852
40
0.385394
50
301.7580058
51
353.77968
0
ARC
8
DEFAULT_255_2_778
10
16.0012256
20
178.8468219
40
0.2113379
50
268.8430278
51
350.1661143
0
ARC
8
DEFAULT_255_2_778
10
18.6896799
20
178.8871824
40
0.2519281
50
190.2538303
51
267.3332171
0
ARC
8
DEFAULT_255_2_778
10
18.9252249
20
178.9785581
40
0.5022746
50
179.672724
51
195.7362088
0
ARC
8
DEFAULT_255_2_778
10
18.8600432
20
178.9940917
40
0.4372682
50
148.7196987
51
181.6596982
0
ARC
8
DEFAULT_255_2_778
10
18.676443
20
179.1042906
40
0.2231415
50
89.6108896
51
148.4244661
0
ARC
8
DEFAULT_255_2_778
10
18.686876
20
179.126267
40
0.2013576
50
42.5913083
51
92.5383066
0
ARC
8
DEFAULT_255_2_778
10
18.6345542
20
179.0898973
40
0.2646316
50
15.0085433
51
40.7215892
0
ARC
8
DEFAULT_255_2_778
10
18.708623
20
179.0988326
40
0.3935735
50
8.7091682
51
82.0550801
0
ARC
8
DEFAULT_255_2_778
10
18.6736241
20
178.9523871
40
0.543642
50
80.5350289
51
90.1544743
0
ARC
8
DEFAULT_255_2_778
10
18.6623804
20
179.0410192
40
0.4551129
50
88.7689246
51
119.6437418
0
ARC
8
DEFAULT_255_2_778
10
18.6882717
20
179.0447647
40
0.4653013
50
122.644121
51
173.3997839
0
ARC
8
DEFAULT_255_2_778
10
18.9516934
20
178.9804568
40
0.7351371
50
170.7798304
51
180.1348114
0
ARC
8
DEFAULT_255_2_778
10
18.8177822
20
178.96512
40
0.6013778
50
178.7034849
51
210.5604279
0
ARC
8
DEFAULT_255_2_778
10
18.6511312
20
178.8746377
40
0.4119265
50
211.5090145
51
265.8592607
0
ARC
8
DEFAULT_255_2_778
10
18.6716883
20
178.9987521
40
0.5373252
50
264.628472
51
270.0501277
0
ARC
8
DEFAULT_255_2_778
10
18.682837
20
178.9306685
40
0.4693629
50
268.6963312
51
300.2191972
0
ARC
8
DEFAULT_255_2_778
10
18.7155684
20
178.8527124
40
0.3856821
50
301.8465101
51
353.7503927
0
ARC
8
DEFAULT_255_2_778
10
18.6820648
20
178.8466604
40
0.2111733
50
268.8857714
51
350.2028431
0
LINE
8
DEFAULT_255_2_778
10
15.4577584
20
179.9407271
11
15.2656584
21
179.9407271
0
LINE
8
DEFAULT_255_2_778
10
15.8405584
20
180.3392271
11
16.0342584
21
180.3392271
0
LINE
8
DEFAULT_255_2_778
10
18.2459584
20
179.9407271
11
18.0540584
21
179.9407271
0
LINE
8
DEFAULT_255_2_778
10
18.6292584
20
180.3392271
11
18.8229584
21
180.3392271
0
LINE
8
DEFAULT_255_2_778
10
16.2096584
20
179.1584271
11
16.4171584
21
179.1584271
0
LINE
8
DEFAULT_255_2_778
10
16.4181584
20
178.8107271
11
16.2094584
21
178.8107271
0
LINE
8
DEFAULT_255_2_778
10
18.8901584
20
179.1584271
11
19.0976584
21
179.1584271
0
LINE
8
DEFAULT_255_2_778
10
19.0989584
20
178.8107271
11
18.8901584
21
178.8107271
0
LINE
8
DEFAULT_255_1_234
10
11.7284657
20
176.5796565
11
11.7284657
21
176.5049614
0
LINE
8
DEFAULT_255_1_234
10
11.5236563
20
176.0214507
11
11.7324815
21
175.8576033
0
LINE
8
DEFAULT_255_1_234
10
11.7324815
20
175.8576033
11
11.6272658
21
175.7604192
0
LINE
8
DEFAULT_255_1_234
10
11.6272658
20
175.7604192
11
11.3806914
21
175.9563937
0
LINE
8
DEFAULT_255_1_234
10
10.7871459
20
176.4945201
11
10.7871459
21
176.5788534
0
LINE
8
DEFAULT_255_1_234
10
11.5742563
20
176.4937169
11
11.5742563
21
176.5804597
0
LINE
8
DEFAULT_255_1_234
10
10.9413553
20
176.590901
11
10.9413553
21
176.5049614
0
ARC
8
DEFAULT_255_1_234
10
10.8330909
20
176.5010707
40
0.8953833
50
351.453011
51
0.2489685
0
ARC
8
DEFAULT_255_1_234
10
11.0915709
20
176.4610933
40
0.6338333
50
338.6861641
51
351.5540711
0
ARC
8
DEFAULT_255_1_234
10
11.1849593
20
176.4280828
40
0.5348431
50
336.2887631
51
338.3442418
0
ARC
8
DEFAULT_255_1_234
10
11.2189215
20
176.4094698
40
0.4962747
50
321.1170344
51
336.6795229
0
ARC
8
DEFAULT_255_1_234
10
11.2821044
20
176.3608206
40
0.4165565
50
305.4419708
51
320.8705636
0
ARC
8
DEFAULT_255_1_234
10
11.2624514
20
176.4355707
40
0.4935497
50
271.6373023
51
283.8611969
0
ARC
8
DEFAULT_255_1_234
10
11.2586767
20
176.5011572
40
0.5592206
50
269.9930596
51
271.8318864
0
ARC
8
DEFAULT_255_1_234
10
11.254921
20
176.4203681
40
0.4784458
50
252.5219675
51
270.4416499
0
ARC
8
DEFAULT_255_1_234
10
11.2405469
20
176.3664592
40
0.422716
50
237.5352116
51
252.1857531
0
ARC
8
DEFAULT_255_1_234
10
11.2494665
20
176.3778363
40
0.4371052
50
209.063312
51
237.3492538
0
ARC
8
DEFAULT_255_1_234
10
11.3364513
20
176.4324685
40
0.5397041
50
205.1183774
51
209.6470015
0
ARC
8
DEFAULT_255_1_234
10
11.416155
20
176.466283
40
0.6262326
50
188.7215458
51
204.8240747
0
ARC
8
DEFAULT_255_1_234
10
11.6159078
20
176.4999067
40
0.8287794
50
180.3723947
51
188.9252049
0
ARC
8
DEFAULT_255_1_234
10
11.613183
20
176.5828402
40
0.8260467
50
169.5253763
51
180.2765336
0
ARC
8
DEFAULT_255_1_234
10
11.4229279
20
176.6178309
40
0.6326007
50
155.8315255
51
169.5089989
0
ARC
8
DEFAULT_255_1_234
10
11.294878
20
176.6772348
40
0.4914567
50
139.6258461
51
156.0379525
0
ARC
8
DEFAULT_255_1_234
10
11.2359113
20
176.7246799
40
0.4158054
50
122.6416387
51
139.3430715
0
ARC
8
DEFAULT_255_1_234
10
11.2459733
20
176.7063451
40
0.4366739
50
93.0223692
51
122.455762
0
ARC
8
DEFAULT_255_1_234
10
11.256773
20
176.6098709
40
0.5336137
50
89.975342
51
93.6341897
0
ARC
8
DEFAULT_255_1_234
10
11.2606616
20
176.6478375
40
0.4956606
50
73.9665422
51
90.4229648
0
ARC
8
DEFAULT_255_1_234
10
11.2790263
20
176.7193451
40
0.4218674
50
57.5178019
51
73.6813337
0
ARC
8
DEFAULT_255_1_234
10
11.2746046
20
176.7157462
40
0.4272816
50
28.7261108
51
57.2767933
0
ARC
8
DEFAULT_255_1_234
10
11.1835378
20
176.6594688
40
0.534218
50
24.2448911
51
29.3248482
0
ARC
8
DEFAULT_255_1_234
10
11.0909479
20
176.6211819
40
0.6343711
50
9.064382
51
23.9639114
0
ARC
8
DEFAULT_255_1_234
10
10.8653807
20
176.5832925
40
0.8630926
50
359.7586264
51
9.1891435
0
ARC
8
DEFAULT_255_1_234
10
10.7399287
20
176.5846343
40
0.834338
50
359.7133237
51
7.96545
0
ARC
8
DEFAULT_255_1_234
10
11.0361504
20
176.6273681
40
0.5350538
50
7.8291991
51
20.0421623
0
ARC
8
DEFAULT_255_1_234
10
11.1986067
20
176.6864606
40
0.3621841
50
20.0677553
51
35.9161685
0
ARC
8
DEFAULT_255_1_234
10
11.2761105
20
176.744067
40
0.2656263
50
35.6594382
51
85.1578074
0
ARC
8
DEFAULT_255_1_234
10
11.2576361
20
176.6325378
40
0.3784238
50
83.7959068
51
90.095906
0
ARC
8
DEFAULT_255_1_234
10
11.2533295
20
176.7058601
40
0.3051229
50
89.3102392
51
109.9889877
0
ARC
8
DEFAULT_255_1_234
10
11.2450778
20
176.7414433
40
0.2688988
50
110.9285147
51
143.9411762
0
ARC
8
DEFAULT_255_1_234
10
11.3381724
20
176.6702236
40
0.3860887
50
143.5289163
51
163.2980757
0
ARC
8
DEFAULT_255_1_234
10
11.5289545
20
176.6102433
40
0.5860659
50
163.0418846
51
174.3140048
0
ARC
8
DEFAULT_255_1_234
10
11.7693657
20
176.5824854
40
0.8280531
50
174.0509143
51
179.4176892
0
ARC
8
DEFAULT_255_1_234
10
11.7179992
20
176.5006634
40
0.7766558
50
179.6829237
51
188.9631324
0
ARC
8
DEFAULT_255_1_234
10
11.4509553
20
176.4571752
40
0.5060992
50
188.8100743
51
202.9300012
0
ARC
8
DEFAULT_255_1_234
10
11.3293182
20
176.4076855
40
0.3747967
50
203.2069261
51
215.7876482
0
ARC
8
DEFAULT_255_1_234
10
11.2444579
20
176.3405671
40
0.2667526
50
214.7521006
51
264.2834488
0
ARC
8
DEFAULT_255_1_234
10
11.2580234
20
176.426078
40
0.3532247
50
263.4755397
51
270.0949833
0
ARC
8
DEFAULT_255_1_234
10
11.2622345
20
176.3999374
40
0.3271036
50
269.3649385
51
287.5152008
0
ARC
8
DEFAULT_255_1_234
10
11.2800503
20
176.3352238
40
0.2600406
50
288.0630309
51
323.8113348
0
ARC
8
DEFAULT_255_1_234
10
11.1929345
20
176.4002049
40
0.3687189
50
323.6547608
51
342.6590488
0
ARC
8
DEFAULT_255_1_234
10
10.989796
20
176.4662952
40
0.5823286
50
342.4091907
51
353.6451149
0
ARC
8
DEFAULT_255_1_234
10
10.7066471
20
176.501519
40
0.8676442
50
353.4029884
51
359.4847795
0
LINE
8
DEFAULT_255_1_234
10
12.6593441
20
176.5154026
11
12.6593441
21
176.3941234
0
LINE
8
DEFAULT_255_1_234
10
12.6593441
20
176.3941234
11
12.2673953
21
176.3941234
0
LINE
8
DEFAULT_255_1_234
10
12.2673953
20
176.3941234
11
12.2673953
21
176.5154026
0
LINE
8
DEFAULT_255_1_234
10
12.2673953
20
176.5154026
11
12.6593441
21
176.5154026
0
LINE
8
DEFAULT_255_1_234
10
14.0102825
20
176.7892849
11
13.85527
21
176.7892849
0
LINE
8
DEFAULT_255_1_234
10
13.1629341
20
176.2969394
11
13.3179467
21
176.2969394
0
ARC
8
DEFAULT_255_1_234
10
13.9211513
20
177.6839768
40
1.252368
50
248.9199003
51
254.1439814
0
ARC
8
DEFAULT_255_1_234
10
13.7531007
20
177.2513234
40
0.788226
50
241.633709
51
249.0064503
0
ARC
8
DEFAULT_255_1_234
10
13.6002402
20
176.9712317
40
0.4691427
50
230.498225
51
241.8087113
0
ARC
8
DEFAULT_255_1_234
10
13.5217976
20
176.8712906
40
0.3421437
50
227.4064532
51
229.9881192
0
ARC
8
DEFAULT_255_1_234
10
13.4730497
20
176.8237088
40
0.2741476
50
200.6781896
51
228.1763934
0
ARC
8
DEFAULT_255_1_234
10
13.4802807
20
176.8222077
40
0.2804109
50
179.5061581
51
199.8694617
0
ARC
8
DEFAULT_255_1_234
10
13.4793559
20
176.829621
40
0.2795204
50
132.4834203
51
181.0242172
0
ARC
8
DEFAULT_255_1_234
10
13.5389141
20
176.7733704
40
0.3612768
50
129.2532479
51
133.4242687
0
ARC
8
DEFAULT_255_1_234
10
13.5535591
20
176.7513965
40
0.3875675
50
101.98776
51
128.8742646
0
ARC
8
DEFAULT_255_1_234
10
13.5934202
20
176.5792741
40
0.5642249
50
89.5906553
51
102.3169264
0
ARC
8
DEFAULT_255_1_234
10
13.6004694
20
176.6111148
40
0.5323783
50
77.2360837
51
90.3248275
0
ARC
8
DEFAULT_255_1_234
10
13.6211773
20
176.70784
40
0.4334697
50
63.837784
51
77.0809408
0
ARC
8
DEFAULT_255_1_234
10
13.6489535
20
176.7595911
40
0.3747796
50
45.9864267
51
64.1607727
0
ARC
8
DEFAULT_255_1_234
10
13.6750416
20
176.7893866
40
0.3352302
50
32.2747395
51
45.6547121
0
ARC
8
DEFAULT_255_1_234
10
13.6816857
20
176.791288
40
0.328603
50
359.6507365
51
32.6130309
0
ARC
8
DEFAULT_255_1_234
10
13.5873952
20
176.791766
40
0.2678863
50
359.469343
51
14.9832209
0
ARC
8
DEFAULT_255_1_234
10
13.6579014
20
176.8106539
40
0.1948938
50
14.9781179
51
48.2004265
0
ARC
8
DEFAULT_255_1_234
10
13.6414658
20
176.7899983
40
0.2212521
50
48.5927837
51
74.1241538
0
ARC
8
DEFAULT_255_1_234
10
13.6081148
20
176.6799248
40
0.3362561
50
73.7888341
51
86.6652678
0
ARC
8
DEFAULT_255_1_234
10
13.5978714
20
176.5591881
40
0.4573953
50
86.2640471
51
90.0526343
0
ARC
8
DEFAULT_255_1_234
10
13.5950426
20
176.5987192
40
0.4178709
50
89.6697524
51
99.2309573
0
ARC
8
DEFAULT_255_1_234
10
13.5707877
20
176.7431964
40
0.2713749
50
99.069534
51
113.7658566
0
ARC
8
DEFAULT_255_1_234
10
13.5434068
20
176.8077677
40
0.2012469
50
114.0401004
51
127.9850673
0
ARC
8
DEFAULT_255_1_234
10
13.5193632
20
176.837373
40
0.1631167
50
127.7287463
51
176.7105154
0
ARC
8
DEFAULT_255_1_234
10
13.5872349
20
176.8272693
40
0.2315392
50
175.1779447
51
180.0581938
0
ARC
8
DEFAULT_255_1_234
10
13.5029196
20
176.8260428
40
0.1472271
50
179.6142195
51
228.1246017
0
ARC
8
DEFAULT_255_1_234
10
13.5470865
20
176.8669308
40
0.2072299
50
226.5779593
51
230.8800004
0
ARC
8
DEFAULT_255_1_234
10
13.5941944
20
176.9294636
40
0.2854818
50
231.4635071
51
241.9260842
0
ARC
8
DEFAULT_255_1_234
10
13.7139122
20
177.14978
40
0.53622
50
241.7178533
51
248.3259551
0
ARC
8
DEFAULT_255_1_234
10
13.8524493
20
177.4930064
40
0.9063478
50
248.2007737
51
252.4528373
0
ARC
8
DEFAULT_255_1_234
10
13.9728218
20
177.8651441
40
1.2974635
50
252.3391078
51
254.3469452
0
ARC
8
DEFAULT_255_1_234
10
13.2185921
20
175.1674148
40
1.5037162
50
71.0197183
51
74.4087047
0
ARC
8
DEFAULT_255_1_234
10
13.3880606
20
175.6566111
40
0.9859993
50
66.1847285
51
71.086374
0
ARC
8
DEFAULT_255_1_234
10
13.5436918
20
176.00702
40
0.6025855
50
59.3536294
51
66.2691831
0
ARC
8
DEFAULT_255_1_234
10
13.6325571
20
176.1573609
40
0.4279449
50
49.1020879
51
59.3293958
0
ARC
8
DEFAULT_255_1_234
10
13.7144311
20
176.2506834
40
0.3038015
50
32.7919921
51
49.2505539
0
ARC
8
DEFAULT_255_1_234
10
13.7465401
20
176.2735191
40
0.264448
50
31.1181161
51
32.4005348
0
ARC
8
DEFAULT_255_1_234
10
13.7376938
20
176.2699779
40
0.2738556
50
8.1116974
51
30.7958831
0
ARC
8
DEFAULT_255_1_234
10
13.6566607
20
176.2561753
40
0.3560327
50
359.8389159
51
8.4706516
0
ARC
8
DEFAULT_255_1_234
10
13.7192398
20
176.2513137
40
0.2934776
50
337.4731098
51
0.7537279
0
ARC
8
DEFAULT_255_1_234
10
13.7371093
20
176.2493387
40
0.2762607
50
307.5917067
51
336.4315538
0
ARC
8
DEFAULT_255_1_234
10
13.6910921
20
176.3006102
40
0.3449979
50
307.6551545
51
308.4529766
0
ARC
8
DEFAULT_255_1_234
10
13.668064
20
176.336125
40
0.3871988
50
284.3734338
51
307.1424381
0
ARC
8
DEFAULT_255_1_234
10
13.618547
20
176.5182932
40
0.5759636
50
272.4382747
51
284.646547
0
ARC
8
DEFAULT_255_1_234
10
13.6058679
20
176.6982893
40
0.7563528
50
269.9708387
51
272.8178037
0
ARC
8
DEFAULT_255_1_234
10
13.6015718
20
176.4944716
40
0.5525489
50
248.2707594
51
270.4055579
0
ARC
8
DEFAULT_255_1_234
10
13.5961459
20
176.4754192
40
0.5328452
50
246.1383403
51
248.0542782
0
ARC
8
DEFAULT_255_1_234
10
13.5542838
20
176.3874843
40
0.4355005
50
233.1670131
51
246.4950969
0
ARC
8
DEFAULT_255_1_234
10
13.4988743
20
176.3126812
40
0.3424126
50
215.3403242
51
233.0843104
0
ARC
8
DEFAULT_255_1_234
10
13.4716175
20
176.2928549
40
0.3087104
50
179.2419209
51
215.2648451
0
ARC
8
DEFAULT_255_1_234
10
13.5483768
20
176.2942666
40
0.2304457
50
179.335461
51
199.1045811
0
ARC
8
DEFAULT_255_1_234
10
13.5151445
20
176.2855766
40
0.1962176
50
199.8828939
51
232.7063202
0
ARC
8
DEFAULT_255_1_234
10
13.5623713
20
176.3449788
40
0.2720938
50
232.3738199
51
255.5136649
0
ARC
8
DEFAULT_255_1_234
10
13.596458
20
176.4693835
40
0.4010747
50
255.2446292
51
267.5320849
0
ARC
8
DEFAULT_255_1_234
10
13.6052203
20
176.5926702
40
0.5246356
50
267.1557994
51
270.0286766
0
ARC
8
DEFAULT_255_1_234
10
13.6079976
20
176.548295
40
0.4802668
50
269.7000017
51
278.1660162
0
ARC
8
DEFAULT_255_1_234
10
13.633598
20
176.3752515
40
0.3053425
50
278.0231263
51
290.625471
0
ARC
8
DEFAULT_255_1_234
10
13.6683667
20
176.2825025
40
0.206291
50
290.6619762
51
307.0370976
0
ARC
8
DEFAULT_255_1_234
10
13.6984057
20
176.2456504
40
0.1587906
50
306.3943566
51
355.3030547
0
ARC
8
DEFAULT_255_1_234
10
13.6471988
20
176.2533113
40
0.2104809
50
354.3660432
51
0.0698737
0
ARC
8
DEFAULT_255_1_234
10
13.6614333
20
176.2555617
40
0.1962563
50
359.417946
51
16.1971788
0
ARC
8
DEFAULT_255_1_234
10
13.7069644
20
176.2680418
40
0.149053
50
16.4723299
51
52.6262157
0
ARC
8
DEFAULT_255_1_234
10
13.6248698
20
176.1596433
40
0.2850296
50
52.7386432
51
62.4979148
0
ARC
8
DEFAULT_255_1_234
10
13.4863774
20
175.8990283
40
0.5801521
50
62.2515216
51
68.1220564
0
ARC
8
DEFAULT_255_1_234
10
13.3143685
20
175.4762872
40
1.0365451
50
68.0062803
51
71.8053402
0
ARC
8
DEFAULT_255_1_234
10
13.1348057
20
174.9377758
40
1.6042013
50
71.7183119
51
73.9258742
0
LINE
8
DEFAULT_255_1_234
10
14.1492316
20
176.3684218
11
14.1492316
21
176.3957297
0
LINE
8
DEFAULT_255_1_234
10
14.8865452
20
176.4117932
11
14.8865452
21
176.3499488
0
LINE
8
DEFAULT_255_1_234
10
14.8865452
20
176.3499488
11
14.2978188
21
176.3499488
0
LINE
8
DEFAULT_255_1_234
10
14.7845421
20
176.1804792
11
14.8753007
21
176.1097999
0
LINE
8
DEFAULT_255_1_234
10
14.3026378
20
176.4720313
11
14.737958
21
176.4720313
0
LINE
8
DEFAULT_255_1_234
10
14.737958
20
176.4720313
11
14.737958
21
176.4832757
0
ARC
8
DEFAULT_255_1_234
10
14.5431681
20
176.3795332
40
0.4376191
50
252.3266134
51
270.5810217
0
ARC
8
DEFAULT_255_1_234
10
14.522677
20
176.3054644
40
0.3608374
50
223.3000567
51
251.8561855
0
ARC
8
DEFAULT_255_1_234
10
14.5438131
20
176.3259937
40
0.3902993
50
190.9374509
51
223.3654032
0
ARC
8
DEFAULT_255_1_234
10
14.7163103
20
176.3649885
40
0.5670891
50
179.6531105
51
191.4989439
0
ARC
8
DEFAULT_255_1_234
10
14.7285115
20
176.3989417
40
0.5792888
50
167.4007466
51
180.3176909
0
ARC
8
DEFAULT_255_1_234
10
14.6233177
20
176.4211885
40
0.471777
50
154.1835823
51
167.250763
0
ARC
8
DEFAULT_255_1_234
10
14.5601644
20
176.4544417
40
0.4004528
50
134.3149965
51
154.5315275
0
ARC
8
DEFAULT_255_1_234
10
14.5384139
20
176.4735228
40
0.371612
50
122.8616532
51
133.9707695
0
ARC
8
DEFAULT_255_1_234
10
14.5280714
20
176.4957703
40
0.3473289
50
89.8249009
51
123.4199222
0
ARC
8
DEFAULT_255_1_234
10
14.5330755
20
176.4310967
40
0.4120197
50
74.7876118
51
90.5482747
0
ARC
8
DEFAULT_255_1_234
10
14.5624498
20
176.539603
40
0.2996077
50
39.8178249
51
74.7633718
0
ARC
8
DEFAULT_255_1_234
10
14.5111818
20
176.4996351
40
0.3645855
50
16.8990863
51
39.4829761
0
ARC
8
DEFAULT_255_1_234
10
14.3217114
20
176.4389526
40
0.5635218
50
4.9636328
51
17.2026414
0
ARC
8
DEFAULT_255_1_234
10
14.0799185
20
176.413434
40
0.8066286
50
359.8834553
51
5.2834307
0
ARC
8
DEFAULT_255_1_234
10
14.6836709
20
176.3565803
40
0.3859091
50
180.9846213
51
194.9401313
0
ARC
8
DEFAULT_255_1_234
10
14.5786987
20
176.3278849
40
0.2770883
50
194.80314
51
222.0412631
0
ARC
8
DEFAULT_255_1_234
10
14.5482869
20
176.2977116
40
0.2343055
50
221.5417084
51
268.8614402
0
ARC
8
DEFAULT_255_1_234
10
14.5555863
20
176.3653686
40
0.3021528
50
267.732405
51
270.0097136
0
ARC
8
DEFAULT_255_1_234
10
14.5573673
20
176.3855105
40
0.3222994
50
269.6924892
51
280.4117579
0
ARC
8
DEFAULT_255_1_234
10
14.575008
20
176.2936193
40
0.2287344
50
280.2255091
51
298.6338936
0
ARC
8
DEFAULT_255_1_234
10
14.5866872
20
176.2692223
40
0.2017294
50
299.0430333
51
300.4643464
0
ARC
8
DEFAULT_255_1_234
10
14.5186878
20
176.3826038
40
0.3339357
50
300.6577328
51
322.0378878
0
ARC
8
DEFAULT_255_1_234
10
14.4836417
20
176.4130021
40
0.3802736
50
321.6750233
51
322.3046845
0
ARC
8
DEFAULT_255_1_234
10
14.5767378
20
176.296337
40
0.3520454
50
276.9728461
51
328.0035423
0
ARC
8
DEFAULT_255_1_234
10
14.5490431
20
176.4443841
40
0.5024498
50
269.8361028
51
278.0581756
0
ARC
8
DEFAULT_255_1_234
10
14.5263168
20
176.5188757
40
0.202159
50
89.2018686
51
117.2851756
0
ARC
8
DEFAULT_255_1_234
10
14.5316337
20
176.5146752
40
0.2083484
50
118.0551165
51
137.4540413
0
ARC
8
DEFAULT_255_1_234
10
14.5691077
20
176.4806304
40
0.2589774
50
137.5109581
51
158.8516286
0
ARC
8
DEFAULT_255_1_234
10
14.6828913
20
176.4347074
40
0.38167
50
158.5845963
51
170.1721436
0
ARC
8
DEFAULT_255_1_234
10
14.7998302
20
176.4114823
40
0.5008657
50
169.8376422
51
173.0566086
0
ARC
8
DEFAULT_255_1_234
10
14.3301376
20
176.4625509
40
0.4083467
50
2.9091802
51
12.8847116
0
ARC
8
DEFAULT_255_1_234
10
14.4672053
20
176.4948101
40
0.2675383
50
12.6957781
51
28.6404489
0
ARC
8
DEFAULT_255_1_234
10
14.5213723
20
176.5228458
40
0.2065654
50
29.0169854
51
41.1487595
0
ARC
8
DEFAULT_255_1_234
10
14.5416509
20
176.5405003
40
0.1796786
50
41.1646065
51
85.0013516
0
ARC
8
DEFAULT_255_1_234
10
14.5295605
20
176.4670431
40
0.2539726
50
83.7280015
51
90.0964893
0
LINE
8
DEFAULT_255_1_234
10
15.4784843
20
176.8318531
11
15.4784843
21
176.6937072
0
LINE
8
DEFAULT_255_1_234
10
15.2070115
20
176.5748375
11
15.2070115
21
175.958
0
LINE
8
DEFAULT_255_1_234
10
15.2070115
20
175.958
11
15.0584244
21
175.958
0
LINE
8
DEFAULT_255_1_234
10
15.0584244
20
175.958
11
15.0584244
21
176.8270341
0
LINE
8
DEFAULT_255_1_234
10
15.0584244
20
176.8270341
11
15.2029957
21
176.8270341
0
LINE
8
DEFAULT_255_1_234
10
15.2029957
20
176.8270341
11
15.2054052
21
176.7266374
0
ARC
8
DEFAULT_255_1_234
10
15.4118248
20
176.2877342
40
0.4114092
50
80.6754243
51
86.8932892
0
ARC
8
DEFAULT_255_1_234
10
15.4057783
20
176.19097
40
0.5083596
50
86.8038578
51
90.0431435
0
ARC
8
DEFAULT_255_1_234
10
15.4020763
20
176.4366866
40
0.2626638
50
89.2759698
51
106.6213787
0
ARC
8
DEFAULT_255_1_234
10
15.3816327
20
176.510983
40
0.1856317
50
107.1346045
51
157.6458115
0
ARC
8
DEFAULT_255_1_234
10
15.4507929
20
176.4726311
40
0.2643398
50
155.6586782
51
157.2539184
0
ARC
8
DEFAULT_255_1_234
10
15.4303131
20
176.5895157
40
0.2634121
50
127.8165941
51
148.6302098
0
ARC
8
DEFAULT_255_1_234
10
15.40496
20
176.6155218
40
0.2273596
50
91.3329982
51
126.7875809
0
ARC
8
DEFAULT_255_1_234
10
15.412554
20
176.5440195
40
0.299078
50
89.986594
51
92.4688449
0
ARC
8
DEFAULT_255_1_234
10
15.4133935
20
176.5715078
40
0.2715908
50
85.3589899
51
90.1623399
0
ARC
8
DEFAULT_255_1_234
10
15.4218451
20
176.6719164
40
0.1708278
50
78.401942
51
85.4594656
0
ARC
8
DEFAULT_255_1_234
10
15.4363335
20
176.7410236
40
0.1002194
50
67.7858312
51
78.5728455
0
ARC
8
DEFAULT_255_1_234
10
15.4471188
20
176.7689887
40
0.0702548
50
63.4835954
51
67.3062642
0
LINE
8
DEFAULT_255_1_234
10
15.7764618
20
176.8270341
11
15.7764618
21
175.958
0
LINE
8
DEFAULT_255_1_234
10
15.7764618
20
175.958
11
15.6278746
21
175.958
0
LINE
8
DEFAULT_255_1_234
10
15.6278746
20
175.958
11
15.6278746
21
176.8270341
0
LINE
8
DEFAULT_255_1_234
10
15.6278746
20
176.8270341
11
15.7764618
21
176.8270341
0
ARC
8
DEFAULT_255_1_234
10
15.7136895
20
177.0584889
40
0.097867
50
161.415052
51
180.5526306
0
ARC
8
DEFAULT_255_1_234
10
15.7012673
20
177.0619077
40
0.0850062
50
138.1827368
51
160.9307106
0
ARC
8
DEFAULT_255_1_234
10
15.6902619
20
177.0714588
40
0.0704362
50
104.6368899
51
138.0039868
0
ARC
8
DEFAULT_255_1_234
10
15.7009773
20
177.0347963
40
0.1086221
50
92.0600725
51
105.2189128
0
ARC
8
DEFAULT_255_1_234
10
15.7033122
20
177.0005117
40
0.1429728
50
89.9756393
51
92.5012496
0
ARC
8
DEFAULT_255_1_234
10
15.7043141
20
177.0230731
40
0.1204151
50
78.0235316
51
90.4478182
0
ARC
8
DEFAULT_255_1_234
10
15.7135233
20
177.0644295
40
0.0780493
50
55.051506
51
78.3369085
0
ARC
8
DEFAULT_255_1_234
10
15.7185507
20
177.0728711
40
0.0682538
50
42.0501187
51
54.4513741
0
ARC
8
DEFAULT_255_1_234
10
15.7050374
20
177.0604798
40
0.0865878
50
1.7497075
51
42.1496013
0
ARC
8
DEFAULT_255_1_234
10
15.6795707
20
177.0575738
40
0.1121515
50
359.9852656
51
2.8364544
0
ARC
8
DEFAULT_255_1_234
10
15.6961699
20
177.0566229
40
0.0955566
50
342.1070653
51
0.552888
0
ARC
8
DEFAULT_255_1_234
10
15.7104397
20
177.0526904
40
0.0807713
50
316.7107116
51
341.6516965
0
ARC
8
DEFAULT_255_1_234
10
15.7171434
20
177.0466823
40
0.0717724
50
285.4397031
51
316.5324284
0
ARC
8
DEFAULT_255_1_234
10
15.7061351
20
177.0832554
40
0.1099597
50
272.3547054
51
285.8953117
0
ARC
8
DEFAULT_255_1_234
10
15.7034509
20
177.1198048
40
0.1465932
50
269.9695369
51
272.8160237
0
ARC
8
DEFAULT_255_1_234
10
15.702469
20
177.0978863
40
0.1246779
50
258.8431134
51
270.4153935
0
ARC
8
DEFAULT_255_1_234
10
15.6934733
20
177.0543414
40
0.0802162
50
238.5431189
51
259.1288175
0
ARC
8
DEFAULT_255_1_234
10
15.6866618
20
177.0419856
40
0.0661247
50
222.5062634
51
237.9906969
0
ARC
8
DEFAULT_255_1_234
10
15.6994205
20
177.0535889
40
0.0833707
50
184.1069131
51
222.460413
0
ARC
8
DEFAULT_255_1_234
10
15.7263446
20
177.0574349
40
0.1105176
50
179.9429482
51
185.0960898
0
LINE
8
DEFAULT_255_1_234
10
15.9764521
20
176.3684218
11
15.9764521
21
176.3957297
0
LINE
8
DEFAULT_255_1_234
10
16.7137656
20
176.4117932
11
16.7137656
21
176.3499488
0
LINE
8
DEFAULT_255_1_234
10
16.7137656
20
176.3499488
11
16.1250392
21
176.3499488
0
LINE
8
DEFAULT_255_1_234
10
16.6117625
20
176.1804792
11
16.7025212
21
176.1097999
0
LINE
8
DEFAULT_255_1_234
10
16.1298583
20
176.4720313
11
16.5651785
21
176.4720313
0
LINE
8
DEFAULT_255_1_234
10
16.5651785
20
176.4720313
11
16.5651785
21
176.4832757
0
ARC
8
DEFAULT_255_1_234
10
16.3703886
20
176.3795332
40
0.4376191
50
252.3266134
51
270.5810217
0
ARC
8
DEFAULT_255_1_234
10
16.3498975
20
176.3054644
40
0.3608374
50
223.3000567
51
251.8561855
0
ARC
8
DEFAULT_255_1_234
10
16.3710335
20
176.3259937
40
0.3902993
50
190.9374509
51
223.3654032
0
ARC
8
DEFAULT_255_1_234
10
16.5435308
20
176.3649885
40
0.5670891
50
179.6531105
51
191.4989439
0
ARC
8
DEFAULT_255_1_234
10
16.555732
20
176.3989417
40
0.5792888
50
167.4007466
51
180.3176909
0
ARC
8
DEFAULT_255_1_234
10
16.4505381
20
176.4211885
40
0.471777
50
154.1835823
51
167.250763
0
ARC
8
DEFAULT_255_1_234
10
16.3873849
20
176.4544417
40
0.4004528
50
134.3149965
51
154.5315275
0
ARC
8
DEFAULT_255_1_234
10
16.3656344
20
176.4735228
40
0.371612
50
122.8616532
51
133.9707695
0
ARC
8
DEFAULT_255_1_234
10
16.3552918
20
176.4957703
40
0.3473289
50
89.8249009
51
123.4199222
0
ARC
8
DEFAULT_255_1_234
10
16.3602959
20
176.4310967
40
0.4120197
50
74.7876118
51
90.5482747
0
ARC
8
DEFAULT_255_1_234
10
16.3896702
20
176.539603
40
0.2996077
50
39.8178249
51
74.7633718
0
ARC
8
DEFAULT_255_1_234
10
16.3384023
20
176.4996351
40
0.3645855
50
16.8990863
51
39.4829761
0
ARC
8
DEFAULT_255_1_234
10
16.1489319
20
176.4389526
40
0.5635218
50
4.9636328
51
17.2026414
0
ARC
8
DEFAULT_255_1_234
10
15.9071389
20
176.413434
40
0.8066286
50
359.8834553
51
5.2834307
0
ARC
8
DEFAULT_255_1_234
10
16.5108914
20
176.3565803
40
0.3859091
50
180.9846213
51
194.9401313
0
ARC
8
DEFAULT_255_1_234
10
16.4059191
20
176.3278849
40
0.2770883
50
194.80314
51
222.0412631
0
ARC
8
DEFAULT_255_1_234
10
16.3755073
20
176.2977116
40
0.2343055
50
221.5417084
51
268.8614402
0
ARC
8
DEFAULT_255_1_234
10
16.3828068
20
176.3653686
40
0.3021528
50
267.732405
51
270.0097136
0
ARC
8
DEFAULT_255_1_234
10
16.3845878
20
176.3855105
40
0.3222994
50
269.6924892
51
280.4117579
0
ARC
8
DEFAULT_255_1_234
10
16.4022285
20
176.2936193
40
0.2287344
50
280.2255091
51
298.6338936
0
ARC
8
DEFAULT_255_1_234
10
16.4139077
20
176.2692223
40
0.2017294
50
299.0430333
51
300.4643464
0
ARC
8
DEFAULT_255_1_234
10
16.3459082
20
176.3826038
40
0.3339357
50
300.6577328
51
322.0378878
0
ARC
8
DEFAULT_255_1_234
10
16.3108621
20
176.4130021
40
0.3802736
50
321.6750233
51
322.3046845
0
ARC
8
DEFAULT_255_1_234
10
16.4039583
20
176.296337
40
0.3520454
50
276.9728461
51
328.0035423
0
ARC
8
DEFAULT_255_1_234
10
16.3762635
20
176.4443841
40
0.5024498
50
269.8361028
51
278.0581756
0
ARC
8
DEFAULT_255_1_234
10
16.3535373
20
176.5188757
40
0.202159
50
89.2018686
51
117.2851756
0
ARC
8
DEFAULT_255_1_234
10
16.3588542
20
176.5146752
40
0.2083484
50
118.0551165
51
137.4540413
0
ARC
8
DEFAULT_255_1_234
10
16.3963282
20
176.4806304
40
0.2589774
50
137.5109581
51
158.8516286
0
ARC
8
DEFAULT_255_1_234
10
16.5101117
20
176.4347074
40
0.38167
50
158.5845963
51
170.1721436
0
ARC
8
DEFAULT_255_1_234
10
16.6270507
20
176.4114823
40
0.5008657
50
169.8376422
51
173.0566086
0
ARC
8
DEFAULT_255_1_234
10
16.1573581
20
176.4625509
40
0.4083467
50
2.9091802
51
12.8847116
0
ARC
8
DEFAULT_255_1_234
10
16.2944257
20
176.4948101
40
0.2675383
50
12.6957781
51
28.6404489
0
ARC
8
DEFAULT_255_1_234
10
16.3485928
20
176.5228458
40
0.2065654
50
29.0169854
51
41.1487595
0
ARC
8
DEFAULT_255_1_234
10
16.3688713
20
176.5405003
40
0.1796786
50
41.1646065
51
85.0013516
0
ARC
8
DEFAULT_255_1_234
10
16.356781
20
176.4670431
40
0.2539726
50
83.7280015
51
90.0964893
0
LINE
8
DEFAULT_255_1_234
10
17.5321998
20
176.5716248
11
17.3828094
21
176.5716248
0
LINE
8
DEFAULT_255_1_234
10
16.849502
20
176.2254569
11
16.9980892
21
176.2254569
0
ARC
8
DEFAULT_255_1_234
10
17.2639913
20
176.1899959
40
0.1276617
50
359.3334982
51
18.5871358
0
ARC
8
DEFAULT_255_1_234
10
17.284855
20
176.1955133
40
0.1061371
50
19.3540742
51
54.6485071
0
ARC
8
DEFAULT_255_1_234
10
17.2344452
20
176.1259919
40
0.1920087
50
54.3827097
51
65.0622807
0
ARC
8
DEFAULT_255_1_234
10
17.1575848
20
175.96429
40
0.3710447
50
64.8282493
51
71.4200025
0
ARC
8
DEFAULT_255_1_234
10
17.0673724
20
175.6996107
40
0.6506741
50
71.3164301
51
75.8006402
0
ARC
8
DEFAULT_255_1_234
10
16.9832544
20
175.3755561
40
0.9854641
50
75.6809531
51
78.0061883
0
ARC
8
DEFAULT_255_1_234
10
17.4281077
20
177.473477
40
1.1591028
50
254.6901892
51
258.0466452
0
ARC
8
DEFAULT_255_1_234
10
17.3242985
20
177.0975781
40
0.7691345
50
249.9010773
51
254.755261
0
ARC
8
DEFAULT_255_1_234
10
17.2239327
20
176.8249982
40
0.478665
50
243.3097214
51
249.9709442
0
ARC
8
DEFAULT_255_1_234
10
17.1610349
20
176.6995778
40
0.3383568
50
234.4047477
51
243.2862168
0
ARC
8
DEFAULT_255_1_234
10
17.0987872
20
176.6136232
40
0.2322322
50
220.8667099
51
234.5493881
0
ARC
8
DEFAULT_255_1_234
10
17.0645813
20
176.5824817
40
0.1859923
50
214.3062465
51
220.5065136
0
ARC
8
DEFAULT_255_1_234
10
17.0619892
20
176.579388
40
0.1821108
50
186.912965
51
213.9618616
0
ARC
8
DEFAULT_255_1_234
10
17.1151987
20
176.5880009
40
0.2359799
50
179.8808832
51
187.4339886
0
ARC
8
DEFAULT_255_1_234
10
17.099712
20
176.5900088
40
0.2204978
50
132.005434
51
180.3942919
0
ARC
8
DEFAULT_255_1_234
10
17.1653734
20
176.5294083
40
0.3095791
50
129.2319861
51
133.5302299
0
ARC
8
DEFAULT_255_1_234
10
17.1707242
20
176.5199928
40
0.3202615
50
100.4410011
51
128.9081242
0
ARC
8
DEFAULT_255_1_234
10
17.1981126
20
176.3914455
40
0.4516583
50
89.6985377
51
100.9026564
0
ARC
8
DEFAULT_255_1_234
10
17.2038168
20
176.3754166
40
0.4676928
50
77.6965325
51
90.4076836
0
ARC
8
DEFAULT_255_1_234
10
17.2369152
20
176.5181413
40
0.3211988
50
50.7276602
51
78.0399361
0
ARC
8
DEFAULT_255_1_234
10
17.281361
20
176.5699296
40
0.2529778
50
25.7545084
51
51.0957453
0
ARC
8
DEFAULT_255_1_234
10
17.2814835
20
176.5749206
40
0.250738
50
359.2468627
51
24.7394243
0
ARC
8
DEFAULT_255_1_234
10
17.2530287
20
176.5720664
40
0.1297815
50
359.8050318
51
45.1544908
0
ARC
8
DEFAULT_255_1_234
10
17.2123429
20
176.5372794
40
0.1831883
50
43.8047702
51
49.6271585
0
ARC
8
DEFAULT_255_1_234
10
17.213133
20
176.5373678
40
0.18261
50
49.7980766
51
82.1218353
0
ARC
8
DEFAULT_255_1_234
10
17.2012302
20
176.4726998
40
0.2483163
50
81.4465357
51
90.1710293
0
ARC
8
DEFAULT_255_1_234
10
17.1987905
20
176.420088
40
0.300932
50
89.6766211
51
99.1264602
0
ARC
8
DEFAULT_255_1_234
10
17.1816367
20
176.5234537
40
0.1961547
50
98.968313
51
113.4570237
0
ARC
8
DEFAULT_255_1_234
10
17.1620452
20
176.5702965
40
0.1453859
50
113.722589
51
127.4763106
0
ARC
8
DEFAULT_255_1_234
10
17.1452098
20
176.5903124
40
0.1192639
50
126.9083309
51
150.3165862
0
ARC
8
DEFAULT_255_1_234
10
17.1404431
20
176.5953981
40
0.112623
50
151.3635175
51
180.0701457
0
ARC
8
DEFAULT_255_1_234
10
17.1713215
20
176.593299
40
0.1435149
50
179.2169974
51
179.9954013
0
ARC
8
DEFAULT_255_1_234
10
17.1352273
20
176.5920056
40
0.1074286
50
179.3040112
51
198.4225446
0
ARC
8
DEFAULT_255_1_234
10
17.1160406
20
176.5870127
40
0.0876573
50
199.2895851
51
238.6034594
0
ARC
8
DEFAULT_255_1_234
10
17.1763253
20
176.681645
40
0.1998512
50
237.9846301
51
246.8744712
0
ARC
8
DEFAULT_255_1_234
10
17.2621198
20
176.8779205
40
0.4140547
50
246.6234531
51
251.8168941
0
ARC
8
DEFAULT_255_1_234
10
17.3651741
20
177.1873905
40
0.7402308
50
251.713434
51
255.0778414
0
ARC
8
DEFAULT_255_1_234
10
17.4851004
20
177.6340563
40
1.2027155
50
255.0367487
51
257.4705983
0
ARC
8
DEFAULT_255_1_234
10
16.9743014
20
175.3326863
40
1.1546601
50
73.6837552
51
77.5016755
0
ARC
8
DEFAULT_255_1_234
10
17.0831789
20
175.7026581
40
0.7690009
50
68.7044154
51
73.7249639
0
ARC
8
DEFAULT_255_1_234
10
17.1734809
20
175.9353654
40
0.5193873
50
63.590599
51
68.6626804
0
ARC
8
DEFAULT_255_1_234
10
17.2505828
20
176.0891123
40
0.3473927
50
54.7106439
51
63.7013633
0
ARC
8
DEFAULT_255_1_234
10
17.3130283
20
176.17634
40
0.2401192
50
41.0622434
51
54.8487496
0
ARC
8
DEFAULT_255_1_234
10
17.3471669
20
176.2076592
40
0.1938094
50
34.4950568
51
40.7105546
0
ARC
8
DEFAULT_255_1_234
10
17.3518477
20
176.2125078
40
0.1872106
50
9.3763373
51
34.0833615
0
ARC
8
DEFAULT_255_1_234
10
17.2865347
20
176.1999728
40
0.2536988
50
359.7694872
51
9.7663171
0
ARC
8
DEFAULT_255_1_234
10
17.3062848
20
176.1956764
40
0.2339696
50
335.8654732
51
0.8022045
0
ARC
8
DEFAULT_255_1_234
10
17.3137892
20
176.1970197
40
0.2277108
50
307.7357725
51
334.7849066
0
ARC
8
DEFAULT_255_1_234
10
17.2737068
20
176.2420645
40
0.2878951
50
307.0241536
51
308.5578354
0
ARC
8
DEFAULT_255_1_234
10
17.2479399
20
176.2806801
40
0.3342515
50
282.9362969
51
306.5646424
0
ARC
8
DEFAULT_255_1_234
10
17.2117697
20
176.4274108
40
0.4853615
50
271.1026298
51
283.2200835
0
ARC
8
DEFAULT_255_1_234
10
17.2053941
20
176.5515418
40
0.6096052
50
269.9919117
51
271.4772449
0
ARC
8
DEFAULT_255_1_234
10
17.2027696
20
176.4437436
40
0.5018135
50
259.0723564
51
270.289833
0
ARC
8
DEFAULT_255_1_234
10
17.1815428
20
176.3320271
40
0.388099
50
245.4963068
51
259.0227342
0
ARC
8
DEFAULT_255_1_234
10
17.1537384
20
176.2738615
40
0.3236422
50
228.9684658
51
245.7044727
0
ARC
8
DEFAULT_255_1_234
10
17.1271828
20
176.2411575
40
0.2815426
50
214.4011705
51
228.6759915
0
ARC
8
DEFAULT_255_1_234
10
17.0982569
20
176.225329
40
0.2487548
50
179.9705531
51
215.1572795
0
ARC
8
DEFAULT_255_1_234
10
17.1683168
20
176.2326806
40
0.1703809
50
182.4299387
51
203.0329699
0
ARC
8
DEFAULT_255_1_234
10
17.1498826
20
176.2270396
40
0.1512226
50
203.798802
51
232.548466
0
ARC
8
DEFAULT_255_1_234
10
17.1775347
20
176.2621826
40
0.1959374
50
232.3782728
51
256.3934612
0
ARC
8
DEFAULT_255_1_234
10
17.2005709
20
176.3511842
40
0.2878639
50
256.104506
51
268.4626716
0
ARC
8
DEFAULT_255_1_234
10
17.2052193
20
176.4308487
40
0.3676329
50
268.0715632
51
270.0138206
0
ARC
8
DEFAULT_255_1_234
10
17.2070718
20
176.4036083
40
0.3403971
50
269.7031147
51
278.8341955
0
ARC
8
DEFAULT_255_1_234
10
17.2252811
20
176.2905876
40
0.2259217
50
278.6728789
51
292.8232582
0
ARC
8
DEFAULT_255_1_234
10
17.2453349
20
176.2404449
40
0.171929
50
293.1452328
51
303.6655899
0
ARC
8
DEFAULT_255_1_234
10
17.2718228
20
176.2028204
40
0.1259367
50
303.1248165
51
321.742847
0
ARC
8
DEFAULT_255_1_234
10
17.2904109
20
176.1865156
40
0.1012531
50
322.4748573
51
1.1291126
0
LINE
8
DEFAULT_255_2_778
10
9.3932417
20
169.2009989
11
10.7161417
21
169.2009989
0
LINE
8
DEFAULT_255_2_778
10
10.7161417
20
169.2009989
11
10.7161417
21
89.8259989
0
LINE
8
DEFAULT_255_2_778
10
9.3932834
20
89.8260333
11
12.0390834
21
89.8260333
0
LINE
8
DEFAULT_255_2_778
10
12.0390834
20
89.8260333
11
12.0390834
21
84.5343333
0
LINE
8
DEFAULT_255_2_778
10
12.0390834
20
84.5343333
11
9.3932834
21
84.5343333
0
LINE
8
DEFAULT_255_2_778
10
9.3932834
20
84.5343333
11
9.3932834
21
89.8260333
0
LINE
8
DEFAULT_255_2_778
10
10.187
20
85.0635666
11
10.187
21
89.2968666
0
LINE
8
DEFAULT_255_2_778
10
9.9224167
20
88.503175
11
10.1870167
21
89.296875
0
LINE
8
DEFAULT_255_2_778
10
10.1870167
20
89.296875
11
10.4516167
21
88.503175
0
LINE
8
DEFAULT_255_2_778
10
10.4516167
20
88.503175
11
9.9224167
21
88.503175
0
LINE
8
DEFAULT_255_2_778
10
11.2453
20
89.2968666
11
11.2453
21
85.0635666
0
LINE
8
DEFAULT_255_2_778
10
10.9807167
20
85.857275
11
11.2453167
21
85.063575
0
LINE
8
DEFAULT_255_2_778
10
11.2453167
20
85.063575
11
11.5099167
21
85.857275
0
LINE
8
DEFAULT_255_2_778
10
11.5099167
20
85.857275
11
10.9807167
21
85.857275
0
LINE
8
DEFAULT_255_2_778
10
10.7161417
20
84.5342989
11
10.7161417
21
5.1592989
0
LINE
8
DEFAULT_255_2_778
10
10.7161417
20
5.1592989
11
9.3932417
21
5.1592989
0
LINE
8
DEFAULT_255_1_234
10
4.9290119
20
174.0949792
11
4.9290119
21
173.9737
0
LINE
8
DEFAULT_255_1_234
10
4.9290119
20
173.9737
11
4.162784
21
173.9737
0
LINE
8
DEFAULT_255_1_234
10
4.162784
20
173.9737
11
4.162784
21
174.0805221
0
LINE
8
DEFAULT_255_1_234
10
4.162784
20
174.0805221
11
4.5675836
21
174.5302995
0
LINE
8
DEFAULT_255_1_234
10
4.2888823
20
174.7985595
11
4.1402952
21
174.7985595
0
LINE
8
DEFAULT_255_1_234
10
4.6551296
20
174.4347218
11
4.3418918
21
174.0949792
0
LINE
8
DEFAULT_255_1_234
10
4.3418918
20
174.0949792
11
4.9290119
21
174.0949792
0
ARC
8
DEFAULT_255_1_234
10
3.218567
20
175.7232527
40
1.8008286
50
318.5132453
51
320.7828378
0
ARC
8
DEFAULT_255_1_234
10
3.7472644
20
175.2929426
40
1.1191493
50
320.7372736
51
323.9737074
0
ARC
8
DEFAULT_255_1_234
10
4.1392501
20
175.0089361
40
0.6350923
50
323.8961724
51
328.6421089
0
ARC
8
DEFAULT_255_1_234
10
4.3439096
20
174.8827031
40
0.3946393
50
328.8299013
51
331.789948
0
ARC
8
DEFAULT_255_1_234
10
4.4436274
20
174.8312509
40
0.2824501
50
331.4255242
51
352.9364833
0
ARC
8
DEFAULT_255_1_234
10
4.4572775
20
174.8281976
40
0.2685315
50
353.2248685
51
0.0169286
0
ARC
8
DEFAULT_255_1_234
10
4.4782652
20
174.830495
40
0.2475536
50
359.4866256
51
15.9339782
0
ARC
8
DEFAULT_255_1_234
10
4.5289637
20
174.8441286
40
0.1950618
50
16.1714718
51
43.5284424
0
ARC
8
DEFAULT_255_1_234
10
4.5366946
20
174.8518573
40
0.184134
50
43.4415429
51
83.1661404
0
ARC
8
DEFAULT_255_1_234
10
4.5232864
20
174.7781771
40
0.258926
50
82.160215
51
90.1505798
0
ARC
8
DEFAULT_255_1_234
10
4.5201291
20
174.7244865
40
0.3126255
50
89.5460705
51
102.5418777
0
ARC
8
DEFAULT_255_1_234
10
4.4958377
20
174.8275665
40
0.2067346
50
102.1739365
51
129.2061916
0
ARC
8
DEFAULT_255_1_234
10
4.4879449
20
174.8400094
40
0.1921118
50
129.7279328
51
135.7542026
0
ARC
8
DEFAULT_255_1_234
10
4.5000977
20
174.8303045
40
0.2075944
50
136.175737
51
166.3674722
0
ARC
8
DEFAULT_255_1_234
10
4.6007896
20
174.8033182
40
0.3118201
50
165.9092917
51
178.8683903
0
ARC
8
DEFAULT_255_1_234
10
4.6872757
20
174.7986179
40
0.3983935
50
178.438168
51
180.0083905
0
ARC
8
DEFAULT_255_1_234
10
4.5471359
20
174.8025231
40
0.4068601
50
163.2878735
51
180.5581814
0
ARC
8
DEFAULT_255_1_234
10
4.4669621
20
174.824584
40
0.3237344
50
133.454115
51
162.9470031
0
ARC
8
DEFAULT_255_1_234
10
4.4848162
20
174.8056
40
0.349795
50
100.7869394
51
133.4384016
0
ARC
8
DEFAULT_255_1_234
10
4.5195934
20
174.6507319
40
0.5084616
50
89.6605301
51
101.3704185
0
ARC
8
DEFAULT_255_1_234
10
4.5262273
20
174.6568496
40
0.502348
50
78.2171172
51
90.4130393
0
ARC
8
DEFAULT_255_1_234
10
4.5617351
20
174.8192637
40
0.3361092
50
55.9268222
51
78.4888551
0
ARC
8
DEFAULT_255_1_234
10
4.5813791
20
174.8531324
40
0.2970617
50
47.9292255
51
55.4054003
0
ARC
8
DEFAULT_255_1_234
10
4.5915352
20
174.8634502
40
0.2825983
50
4.3347696
51
48.0560701
0
ARC
8
DEFAULT_255_1_234
10
4.4819745
20
174.8464601
40
0.393225
50
359.925209
51
5.5967654
0
ARC
8
DEFAULT_255_1_234
10
4.5248637
20
174.8520816
40
0.3503892
50
337.8914096
51
358.9967724
0
ARC
8
DEFAULT_255_1_234
10
4.2535049
20
174.9567706
40
0.6412172
50
326.9135351
51
338.3505194
0
ARC
8
DEFAULT_255_1_234
10
3.8549353
20
175.2122284
40
1.1146189
50
319.6472867
51
327.095818
0
ARC
8
DEFAULT_255_1_234
10
3.4716356
20
175.5284
40
1.6114559
50
317.2586784
51
319.9046139
0
LINE
8
DEFAULT_255_1_234
10
5.7137127
20
175.1431211
11
5.7137127
21
174.366452
0
LINE
8
DEFAULT_255_1_234
10
5.7137127
20
174.366452
11
5.8759538
21
174.366452
0
LINE
8
DEFAULT_255_1_234
10
5.8759538
20
174.366452
11
5.8759538
21
174.2451728
0
LINE
8
DEFAULT_255_1_234
10
5.8759538
20
174.2451728
11
5.7137127
21
174.2451728
0
LINE
8
DEFAULT_255_1_234
10
5.7137127
20
174.2451728
11
5.7137127
21
173.9737
0
LINE
8
DEFAULT_255_1_234
10
5.7137127
20
173.9737
11
5.5643224
21
173.9737
0
LINE
8
DEFAULT_255_1_234
10
5.5643224
20
173.9737
11
5.5643224
21
174.2451728
0
LINE
8
DEFAULT_255_1_234
10
5.5643224
20
174.2451728
11
5.0318181
21
174.2451728
0
LINE
8
DEFAULT_255_1_234
10
5.0318181
20
174.2451728
11
5.0318181
21
174.3327187
0
LINE
8
DEFAULT_255_1_234
10
5.0318181
20
174.3327187
11
5.5554875
21
175.1431211
0
LINE
8
DEFAULT_255_1_234
10
5.5554875
20
175.1431211
11
5.7137127
21
175.1431211
0
LINE
8
DEFAULT_255_1_234
10
5.5466525
20
174.9077912
11
5.2004846
21
174.366452
0
LINE
8
DEFAULT_255_1_234
10
5.2004846
20
174.366452
11
5.5643224
21
174.366452
0
LINE
8
DEFAULT_255_1_234
10
5.5643224
20
174.366452
11
5.5643224
21
174.9399181
0
LINE
8
DEFAULT_255_1_234
10
5.5643224
20
174.9399181
11
5.5466525
21
174.9077912
0
LINE
8
DEFAULT_255_1_234
10
6.103252
20
175.1431211
11
6.435766
21
174.1785093
0
LINE
8
DEFAULT_255_1_234
10
6.435766
20
174.1785093
11
6.7698863
21
175.1431211
0
LINE
8
DEFAULT_255_1_234
10
6.7698863
20
175.1431211
11
6.9385528
21
175.1431211
0
LINE
8
DEFAULT_255_1_234
10
6.9385528
20
175.1431211
11
6.5048389
21
173.9737
0
LINE
8
DEFAULT_255_1_234
10
6.5048389
20
173.9737
11
6.3682994
21
173.9737
0
LINE
8
DEFAULT_255_1_234
10
6.3682994
20
173.9737
11
5.9353887
21
175.1431211
0
LINE
8
DEFAULT_255_1_234
10
5.9353887
20
175.1431211
11
6.103252
21
175.1431211
0
LINE
8
DEFAULT_255_1_234
10
4.689385
20
5.2828391
11
4.689385
21
5.1567408
0
LINE
8
DEFAULT_255_1_234
10
4.689385
20
5.1567408
11
4.1986458
21
5.1567408
0
LINE
8
DEFAULT_255_1_234
10
4.1986458
20
5.1567408
11
4.1986458
21
4.6403
0
LINE
8
DEFAULT_255_1_234
10
4.1986458
20
4.6403
11
4.0444364
21
4.6403
0
LINE
8
DEFAULT_255_1_234
10
4.0444364
20
4.6403
11
4.0444364
21
5.8097211
0
LINE
8
DEFAULT_255_1_234
10
4.0444364
20
5.8097211
11
4.7688992
21
5.8097211
0
LINE
8
DEFAULT_255_1_234
10
4.7688992
20
5.8097211
11
4.7688992
21
5.6828196
0
LINE
8
DEFAULT_255_1_234
10
4.7688992
20
5.6828196
11
4.1986458
21
5.6828196
0
LINE
8
DEFAULT_255_1_234
10
4.1986458
20
5.6828196
11
4.1986458
21
5.2828391
0
LINE
8
DEFAULT_255_1_234
10
4.1986458
20
5.2828391
11
4.689385
21
5.2828391
0
LINE
8
DEFAULT_255_1_234
10
4.7980484
20
10.5986343
11
4.7980484
21
10.472536
0
LINE
8
DEFAULT_255_1_234
10
4.7980484
20
10.472536
11
4.2912458
21
10.472536
0
LINE
8
DEFAULT_255_1_234
10
4.2912458
20
10.472536
11
4.2912458
21
10.0580983
0
LINE
8
DEFAULT_255_1_234
10
4.2912458
20
10.0580983
11
4.8799722
21
10.0580983
0
LINE
8
DEFAULT_255_1_234
10
4.8799722
20
10.0580983
11
4.8799722
21
9.932
0
LINE
8
DEFAULT_255_1_234
10
4.8799722
20
9.932
11
4.1370364
21
9.932
0
LINE
8
DEFAULT_255_1_234
10
4.1370364
20
9.932
11
4.1370364
21
11.1014211
0
LINE
8
DEFAULT_255_1_234
10
4.1370364
20
11.1014211
11
4.8719404
21
11.1014211
0
LINE
8
DEFAULT_255_1_234
10
4.8719404
20
11.1014211
11
4.8719404
21
10.9745196
0
LINE
8
DEFAULT_255_1_234
10
4.8719404
20
10.9745196
11
4.2912458
21
10.9745196
0
LINE
8
DEFAULT_255_1_234
10
4.2912458
20
10.9745196
11
4.2912458
21
10.5986343
0
LINE
8
DEFAULT_255_1_234
10
4.2912458
20
10.5986343
11
4.7980484
21
10.5986343
0
LINE
8
DEFAULT_255_1_234
10
4.3912154
20
15.2237
11
4.0675364
21
15.2237
0
LINE
8
DEFAULT_255_1_234
10
4.0675364
20
15.2237
11
4.0675364
21
16.3931211
0
LINE
8
DEFAULT_255_1_234
10
4.0675364
20
16.3931211
11
4.3976408
21
16.3931211
0
LINE
8
DEFAULT_255_1_234
10
4.9132784
20
15.8477661
11
4.9132784
21
15.7730709
0
LINE
8
DEFAULT_255_1_234
10
4.4016567
20
16.2662196
11
4.2217458
21
16.2662196
0
LINE
8
DEFAULT_255_1_234
10
4.2217458
20
16.2662196
11
4.2217458
21
15.3497983
0
LINE
8
DEFAULT_255_1_234
10
4.2217458
20
15.3497983
11
4.3839869
21
15.3497983
0
LINE
8
DEFAULT_255_1_234
10
4.7606754
20
15.7762836
11
4.7606754
21
15.8445534
0
ARC
8
DEFAULT_255_1_234
10
4.4015351
20
15.8065894
40
0.5865446
50
75.4101064
51
90.3804066
0
ARC
8
DEFAULT_255_1_234
10
4.4244864
20
15.9022492
40
0.4881916
50
60.145586
51
75.1888407
0
ARC
8
DEFAULT_255_1_234
10
4.440364
20
15.9299199
40
0.4562893
50
26.5253612
51
60.1450928
0
ARC
8
DEFAULT_255_1_234
10
4.3283389
20
15.8705158
40
0.5830602
50
7.4030428
51
26.8320788
0
ARC
8
DEFAULT_255_1_234
10
4.1689146
20
15.8456804
40
0.7443669
50
0.1605367
51
7.7176192
0
ARC
8
DEFAULT_255_1_234
10
4.185305
20
15.7692434
40
0.7279835
50
348.7289388
51
0.3012466
0
ARC
8
DEFAULT_255_1_234
10
4.3509481
20
15.7363386
40
0.559104
50
333.0706509
51
348.7181832
0
ARC
8
DEFAULT_255_1_234
10
4.4476238
20
15.6838319
40
0.4491417
50
299.2531685
51
333.4571258
0
ARC
8
DEFAULT_255_1_234
10
4.4115378
20
15.7523828
40
0.5265881
50
278.107187
51
299.0339503
0
ARC
8
DEFAULT_255_1_234
10
4.3859457
20
15.9031216
40
0.679442
50
270.4443897
51
278.4511052
0
ARC
8
DEFAULT_255_1_234
10
4.3880287
20
15.8102213
40
0.4604407
50
269.4970433
51
284.0205042
0
ARC
8
DEFAULT_255_1_234
10
4.4235588
20
15.6736978
40
0.3193797
50
283.7700273
51
318.1555492
0
ARC
8
DEFAULT_255_1_234
10
4.3898346
20
15.6989367
40
0.3613588
50
318.7415601
51
343.6873628
0
ARC
8
DEFAULT_255_1_234
10
4.2094369
20
15.7552832
40
0.5503313
50
343.3325091
51
355.8548958
0
ARC
8
DEFAULT_255_1_234
10
3.9996054
20
15.7752319
40
0.7610708
50
355.4988528
51
0.0791727
0
ARC
8
DEFAULT_255_1_234
10
4.0778676
20
15.848778
40
0.6828208
50
359.6455037
51
9.8607896
0
ARC
8
DEFAULT_255_1_234
10
4.3139374
20
15.8914099
40
0.4429406
50
9.6571907
51
26.1932807
0
ARC
8
DEFAULT_255_1_234
10
4.4067363
20
15.9345118
40
0.3406537
50
26.5777228
51
40.1532208
0
ARC
8
DEFAULT_255_1_234
10
4.4323089
20
15.9544619
40
0.308246
50
40.3840491
51
80.1431104
0
ARC
8
DEFAULT_255_1_234
10
4.3996207
20
15.8095333
40
0.4566909
50
79.2152159
51
89.7445637
0
LINE
8
DEFAULT_255_1_234
10
4.776023
20
20.8863663
11
4.9310355
21
20.8863663
0
LINE
8
DEFAULT_255_1_234
10
4.0306777
20
21.0453947
11
4.0306777
21
21.1578391
0
LINE
8
DEFAULT_255_1_234
10
4.9310355
20
21.3088357
11
4.776023
21
21.3088357
0
LINE
8
DEFAULT_255_1_234
10
4.1856902
20
21.1538232
11
4.1856902
21
21.0405757
0
ARC
8
DEFAULT_255_1_234
10
4.3829742
20
20.9460846
40
0.5513052
50
340.1774281
51
353.7814284
0
ARC
8
DEFAULT_255_1_234
10
4.5401095
20
20.8875582
40
0.3836379
50
311.4558989
51
340.4421614
0
ARC
8
DEFAULT_255_1_234
10
4.5367763
20
20.8986528
40
0.3941894
50
282.4333181
51
310.7513653
0
ARC
8
DEFAULT_255_1_234
10
4.4928502
20
21.0801679
40
0.5809175
50
269.9358511
51
282.809604
0
ARC
8
DEFAULT_255_1_234
10
4.4876568
20
21.2259212
40
0.7266847
50
270.0021091
51
270.3581957
0
ARC
8
DEFAULT_255_1_234
10
4.4823985
20
20.9658585
40
0.4666519
50
250.7884749
51
270.6489167
0
ARC
8
DEFAULT_255_1_234
10
4.465582
20
20.9021319
40
0.4009729
50
219.3627325
51
250.0611886
0
ARC
8
DEFAULT_255_1_234
10
4.5485031
20
20.9726042
40
0.5097822
50
193.5479632
51
219.5756669
0
ARC
8
DEFAULT_255_1_234
10
4.7856652
20
21.0341919
40
0.7547848
50
181.1218675
51
193.87563
0
ARC
8
DEFAULT_255_1_234
10
4.9926833
20
21.045258
40
0.9620055
50
179.9918545
51
181.5394234
0
ARC
8
DEFAULT_255_1_234
10
4.8075935
20
21.1615788
40
0.7769248
50
169.5837241
51
180.2757934
0
ARC
8
DEFAULT_255_1_234
10
4.6238873
20
21.1955229
40
0.590109
50
155.0365899
51
169.6003176
0
ARC
8
DEFAULT_255_1_234
10
4.5103337
20
21.2502677
40
0.4640625
50
136.783148
51
155.2472683
0
ARC
8
DEFAULT_255_1_234
10
4.4713814
20
21.2833562
40
0.4130255
50
121.7633186
51
136.428115
0
ARC
8
DEFAULT_255_1_234
10
4.4848776
20
21.2584227
40
0.4413323
50
95.6459699
51
121.5490577
0
ARC
8
DEFAULT_255_1_234
10
4.5006058
20
21.1475949
40
0.55319
50
89.924208
51
96.1377933
0
ARC
8
DEFAULT_255_1_234
10
4.5056491
20
21.1594542
40
0.5413475
50
76.6779277
51
90.4563316
0
ARC
8
DEFAULT_255_1_234
10
4.5450114
20
21.3185114
40
0.3775041
50
47.485847
51
76.9287264
0
ARC
8
DEFAULT_255_1_234
10
4.5303087
20
21.3085159
40
0.3948286
50
16.5424086
51
46.8933463
0
ARC
8
DEFAULT_255_1_234
10
4.3695244
20
21.2556861
40
0.564021
50
5.4072051
51
17.0365086
0
ARC
8
DEFAULT_255_1_234
10
4.2256261
20
21.2325679
40
0.5556559
50
7.8891745
51
15.9239216
0
ARC
8
DEFAULT_255_1_234
10
4.4243274
20
21.2902631
40
0.3487515
50
15.7653144
51
27.9410532
0
ARC
8
DEFAULT_255_1_234
10
4.5347492
20
21.349379
40
0.2235026
50
27.8166557
51
46.4008329
0
ARC
8
DEFAULT_255_1_234
10
4.5397135
20
21.3488082
40
0.2205286
50
47.4371857
51
75.0698205
0
ARC
8
DEFAULT_255_1_234
10
4.5088529
20
21.2413765
40
0.3322915
50
74.7008593
51
87.8124495
0
ARC
8
DEFAULT_255_1_234
10
4.5015217
20
21.1357844
40
0.4380987
50
87.3814673
51
90.0240855
0
ARC
8
DEFAULT_255_1_234
10
4.497676
20
21.2535291
40
0.3203749
50
89.3451631
51
108.5745436
0
ARC
8
DEFAULT_255_1_234
10
4.4839865
20
21.3048908
40
0.2673494
50
109.2998449
51
143.3037509
0
ARC
8
DEFAULT_255_1_234
10
4.5601938
20
21.2462881
40
0.3634757
50
143.0753173
51
163.1916937
0
ARC
8
DEFAULT_255_1_234
10
4.7553666
20
21.1846967
40
0.5681262
50
162.9373603
51
174.6208611
0
ARC
8
DEFAULT_255_1_234
10
5.0179708
20
21.155901
40
0.8322832
50
174.3419979
51
180.1430411
0
ARC
8
DEFAULT_255_1_234
10
4.9248864
20
21.0364698
40
0.7392076
50
179.6817502
51
189.150529
0
ARC
8
DEFAULT_255_1_234
10
4.6748112
20
20.994819
40
0.4856932
50
188.9910863
51
203.5773039
0
ARC
8
DEFAULT_255_1_234
10
4.5668445
20
20.9500211
40
0.3688271
50
203.9077269
51
215.1312379
0
ARC
8
DEFAULT_255_1_234
10
4.4745539
20
20.8784941
40
0.2522457
50
213.9071664
51
263.8849284
0
ARC
8
DEFAULT_255_1_234
10
4.4870868
20
20.9569518
40
0.3316174
50
263.1758525
51
270.1031083
0
ARC
8
DEFAULT_255_1_234
10
4.490296
20
21.0816365
40
0.4563091
50
269.6719807
51
279.0609165
0
ARC
8
DEFAULT_255_1_234
10
4.5169728
20
20.9203907
40
0.2928759
50
278.8750225
51
293.6346586
0
ARC
8
DEFAULT_255_1_234
10
4.5489936
20
20.84519
40
0.2111472
50
293.8553404
51
310.0518804
0
ARC
8
DEFAULT_255_1_234
10
4.549479
20
20.8389516
40
0.2060917
50
311.0646779
51
332.0108348
0
ARC
8
DEFAULT_255_1_234
10
4.4302517
20
20.9046978
40
0.3422352
50
331.6588543
51
343.2878891
0
ARC
8
DEFAULT_255_1_234
10
4.2240032
20
20.9680798
40
0.5580003
50
343.1446044
51
351.010618
0
ARC
8
DEFAULT_255_1_234
10
4.0698678
20
20.9961871
40
0.7146438
50
350.7157277
51
351.1602153
0
LINE
8
DEFAULT_255_1_234
10
4.4996392
20
25.807
11
4.0940364
21
25.807
0
LINE
8
DEFAULT_255_1_234
10
4.0940364
20
25.807
11
4.0940364
21
26.9764211
0
LINE
8
DEFAULT_255_1_234
10
4.0940364
20
26.9764211
11
4.4763471
21
26.9764211
0
LINE
8
DEFAULT_255_1_234
10
4.5052614
20
26.3539614
11
4.2482458
21
26.3539614
0
LINE
8
DEFAULT_255_1_234
10
4.2482458
20
26.3539614
11
4.2482458
21
25.9330983
0
LINE
8
DEFAULT_255_1_234
10
4.2482458
20
25.9330983
11
4.5028519
21
25.9330983
0
LINE
8
DEFAULT_255_1_234
10
4.2482458
20
26.8495196
11
4.2482458
21
26.4776501
0
LINE
8
DEFAULT_255_1_234
10
4.2482458
20
26.4776501
11
4.4811662
21
26.4776501
0
LINE
8
DEFAULT_255_1_234
10
4.4763471
20
26.8495196
11
4.2482458
21
26.8495196
0
ARC
8
DEFAULT_255_1_234
10
4.480118
20
26.2396901
40
0.7367406
50
82.1257326
51
90.2932599
0
ARC
8
DEFAULT_255_1_234
10
4.5190135
20
26.5115013
40
0.4621653
50
69.9044149
51
82.2857423
0
ARC
8
DEFAULT_255_1_234
10
4.5760813
20
26.6657637
40
0.2976871
50
51.1838526
51
70.0181538
0
ARC
8
DEFAULT_255_1_234
10
4.6015779
20
26.702824
40
0.2528517
50
12.1017251
51
50.4214761
0
ARC
8
DEFAULT_255_1_234
10
4.4631653
20
26.6680676
40
0.3955061
50
359.5251267
51
12.8211707
0
ARC
8
DEFAULT_255_1_234
10
4.6211579
20
26.6611344
40
0.2375281
50
323.4908128
51
0.8817314
0
ARC
8
DEFAULT_255_1_234
10
4.5793266
20
26.693455
40
0.2903817
50
298.6825083
51
323.2756573
0
ARC
8
DEFAULT_255_1_234
10
4.5431629
20
26.7535649
40
0.3604842
50
293.1999386
51
299.1396394
0
ARC
8
DEFAULT_255_1_234
10
4.6104602
20
26.1450126
40
0.2871098
50
54.0011765
51
74.9167975
0
ARC
8
DEFAULT_255_1_234
10
4.6220961
20
26.1647332
40
0.2643248
50
36.3580696
51
53.5291921
0
ARC
8
DEFAULT_255_1_234
10
4.6094203
20
26.1556998
40
0.2798884
50
4.8189881
51
36.3089977
0
ARC
8
DEFAULT_255_1_234
10
4.5315038
20
26.144727
40
0.358478
50
359.9370252
51
5.5204067
0
ARC
8
DEFAULT_255_1_234
10
4.499056
20
26.1406667
40
0.3909429
50
344.7478609
51
0.5373281
0
ARC
8
DEFAULT_255_1_234
10
4.5981531
20
26.1139544
40
0.2883093
50
311.1786488
51
344.6886812
0
ARC
8
DEFAULT_255_1_234
10
4.5689578
20
26.1502987
40
0.3348923
50
286.0418249
51
310.8441291
0
ARC
8
DEFAULT_255_1_234
10
4.518241
20
26.3149807
40
0.5071869
50
274.1042341
51
286.4071509
0
ARC
8
DEFAULT_255_1_234
10
4.5005666
20
26.5033229
40
0.6963234
50
269.9236873
51
274.445647
0
ARC
8
DEFAULT_255_1_234
10
4.5051667
20
26.2693537
40
0.3362634
50
269.6055768
51
281.3740047
0
ARC
8
DEFAULT_255_1_234
10
4.5282305
20
26.1600353
40
0.224546
50
281.1055983
51
302.5132223
0
ARC
8
DEFAULT_255_1_234
10
4.5429204
20
26.1336823
40
0.1944357
50
303.0368945
51
311.8811219
0
ARC
8
DEFAULT_255_1_234
10
4.5500611
20
26.125189
40
0.1833454
50
311.9916004
51
351.7143462
0
ARC
8
DEFAULT_255_1_234
10
4.4683841
20
26.141693
40
0.2665871
50
350.7339597
51
0.2221581
0
ARC
8
DEFAULT_255_1_234
10
4.4576287
20
26.1473467
40
0.2773789
50
359.0456241
51
17.2296242
0
ARC
8
DEFAULT_255_1_234
10
4.5615404
20
26.1782163
40
0.1689915
50
17.6685481
51
78.9940892
0
ARC
8
DEFAULT_255_1_234
10
4.5098568
20
25.9927224
40
0.3612658
50
76.5635957
51
90.6980921
0
LINE
8
DEFAULT_255_1_234
10
4.5054552
20
26.3539613
11
4.5052614
21
26.3539614
0
ARC
8
DEFAULT_255_1_234
10
4.4834228
20
26.8062036
40
0.3285612
50
269.6064736
51
281.4533503
0
ARC
8
DEFAULT_255_1_234
10
4.5057048
20
26.7010688
40
0.2210975
50
281.2041486
51
302.5148063
0
ARC
8
DEFAULT_255_1_234
10
4.5193898
20
26.6764241
40
0.1929674
50
303.021671
51
309.8369575
0
ARC
8
DEFAULT_255_1_234
10
4.5377359
20
26.6558488
40
0.1654181
50
309.5228395
51
356.9509836
0
ARC
8
DEFAULT_255_1_234
10
4.4713942
20
26.6653932
40
0.2322512
50
355.4701227
51
0.0492546
0
ARC
8
DEFAULT_255_1_234
10
4.4435033
20
26.6676094
40
0.2601498
50
359.5558597
51
11.2096359
0
ARC
8
DEFAULT_255_1_234
10
4.5392323
20
26.687423
40
0.1623975
50
10.9182341
51
31.3230275
0
ARC
8
DEFAULT_255_1_234
10
4.5678056
20
26.7033214
40
0.1297302
50
31.8852677
51
52.1412565
0
ARC
8
DEFAULT_255_1_234
10
4.5403789
20
26.664575
40
0.1771663
50
52.8285564
51
71.9850297
0
ARC
8
DEFAULT_255_1_234
10
4.5027965
20
26.5539664
40
0.2939794
50
71.6863486
51
82.8455995
0
ARC
8
DEFAULT_255_1_234
10
4.4788501
20
26.3730149
40
0.476506
50
82.6984714
51
90.1729175
0
ARC
8
DEFAULT_255_1_234
10
4.4766136
20
26.4953623
40
0.3541573
50
89.8708275
51
90.0431131
0
LINE
8
DEFAULT_255_1_234
10
5.0399293
20
31.0987
11
4.9282881
21
31.4039061
0
LINE
8
DEFAULT_255_1_234
10
4.9282881
20
31.4039061
11
4.4383521
21
31.4039061
0
LINE
8
DEFAULT_255_1_234
10
4.4383521
20
31.4039061
11
4.3283173
21
31.0987
0
LINE
8
DEFAULT_255_1_234
10
4.3283173
20
31.0987
11
4.1692889
21
31.0987
0
LINE
8
DEFAULT_255_1_234
10
4.1692889
20
31.0987
11
4.6158535
21
32.2681211
0
LINE
8
DEFAULT_255_1_234
10
4.6158535
20
32.2681211
11
4.7507867
21
32.2681211
0
LINE
8
DEFAULT_255_1_234
10
4.7507867
20
32.2681211
11
5.1981545
21
31.0987
0
LINE
8
DEFAULT_255_1_234
10
5.1981545
20
31.0987
11
5.0399293
21
31.0987
0
LINE
8
DEFAULT_255_1_234
10
4.6833201
20
32.0777689
11
4.4849362
21
31.5308075
0
LINE
8
DEFAULT_255_1_234
10
4.4849362
20
31.5308075
11
4.8825072
21
31.5308075
0
LINE
8
DEFAULT_255_1_234
10
4.8825072
20
31.5308075
11
4.6833201
21
32.0777689
0
LINE
8
DEFAULT_255_1_234
10
4.7181246
20
37.0922739
11
4.7181246
21
37.0489025
0
LINE
8
DEFAULT_255_1_234
10
4.1759823
20
36.3894968
11
4.147068
21
36.3894968
0
LINE
8
DEFAULT_255_1_234
10
4.147068
20
36.3894968
11
4.147068
21
36.5147919
0
LINE
8
DEFAULT_255_1_234
10
4.147068
20
36.5147919
11
4.1783918
21
36.5147919
0
LINE
8
DEFAULT_255_1_234
10
4.5695375
20
37.0633597
11
4.5695375
21
37.1227945
0
ARC
8
DEFAULT_255_1_234
10
4.2901644
20
37.1379403
40
0.3635579
50
297.4037347
51
320.016758
0
ARC
8
DEFAULT_255_1_234
10
4.3191593
20
37.082224
40
0.3007486
50
270.2633101
51
297.3851877
0
ARC
8
DEFAULT_255_1_234
10
4.3157549
20
37.1285904
40
0.3471448
50
269.9966443
51
270.7900392
0
ARC
8
DEFAULT_255_1_234
10
4.313203
20
37.1284143
40
0.3469779
50
254.5999133
51
270.4180344
0
ARC
8
DEFAULT_255_1_234
10
4.2989389
20
37.0719647
40
0.2887697
50
236.4717942
51
254.3541279
0
ARC
8
DEFAULT_255_1_234
10
4.3145607
20
37.0929711
40
0.3149125
50
208.4727207
51
236.2134933
0
ARC
8
DEFAULT_255_1_234
10
4.3784382
20
37.1320455
40
0.3897115
50
204.3447514
51
209.0453999
0
ARC
8
DEFAULT_255_1_234
10
4.4463958
20
37.1608656
40
0.4635101
50
183.9375985
51
204.1276318
0
ARC
8
DEFAULT_255_1_234
10
4.5372209
20
37.1706482
40
0.5548037
50
179.9652252
51
184.3013875
0
ARC
8
DEFAULT_255_1_234
10
4.5132255
20
37.1739507
40
0.5308164
50
166.7585989
51
180.3201225
0
ARC
8
DEFAULT_255_1_234
10
4.4285869
20
37.1923488
40
0.4442163
50
154.6955053
51
166.5679793
0
ARC
8
DEFAULT_255_1_234
10
4.3432739
20
37.235321
40
0.3487299
50
136.3324195
51
155.0871442
0
ARC
8
DEFAULT_255_1_234
10
4.3151812
20
37.2593954
40
0.3117924
50
121.236733
51
135.9680508
0
ARC
8
DEFAULT_255_1_234
10
4.329231
20
37.2333743
40
0.3413302
50
96.845628
51
120.9881519
0
ARC
8
DEFAULT_255_1_234
10
4.3437892
20
37.1398515
40
0.4359341
50
89.8870174
51
97.2802754
0
ARC
8
DEFAULT_255_1_234
10
4.349033
20
37.2036095
40
0.3722009
50
70.6505584
51
90.6749113
0
ARC
8
DEFAULT_255_1_234
10
4.3621609
20
37.2549361
40
0.3194571
50
36.7492984
51
69.8219918
0
ARC
8
DEFAULT_255_1_234
10
4.2622774
20
37.1770993
40
0.4460685
50
15.39587
51
37.0840084
0
ARC
8
DEFAULT_255_1_234
10
4.0493207
20
37.1150242
40
0.6678714
50
3.9488873
51
15.6798563
0
ARC
8
DEFAULT_255_1_234
10
3.8091835
20
37.0933964
40
0.9089418
50
359.929245
51
4.2665314
0
ARC
8
DEFAULT_255_1_234
10
3.3486272
20
37.0422513
40
1.3695135
50
352.8366322
51
0.2782669
0
ARC
8
DEFAULT_255_1_234
10
3.8773951
20
36.9735629
40
0.8363105
50
341.8359505
51
352.9884176
0
ARC
8
DEFAULT_255_1_234
10
4.199267
20
36.86507
40
0.4966642
50
322.8578092
51
342.1527901
0
ARC
8
DEFAULT_255_1_234
10
4.2856626
20
36.8061384
40
0.3922466
50
319.334325
51
322.0998941
0
ARC
8
DEFAULT_255_1_234
10
4.2546963
20
36.8372209
40
0.4360033
50
285.9541367
51
318.8878087
0
ARC
8
DEFAULT_255_1_234
10
4.1820224
20
37.06826
40
0.678149
50
272.9281676
51
286.4922826
0
ARC
8
DEFAULT_255_1_234
10
4.1630342
20
37.2933587
40
0.9039547
50
270.8207226
51
273.4012994
0
ARC
8
DEFAULT_255_1_234
10
4.1719193
20
37.1114666
40
0.5967098
50
270.6214993
51
281.4062806
0
ARC
8
DEFAULT_255_1_234
10
4.2149174
20
36.9058833
40
0.3866861
50
281.1852553
51
299.0621114
0
ARC
8
DEFAULT_255_1_234
10
4.2522745
20
36.8337798
40
0.3055236
50
299.5067782
51
313.1200873
0
ARC
8
DEFAULT_255_1_234
10
4.2544712
20
36.8258554
40
0.2982623
50
313.8526205
51
338.5989322
0
ARC
8
DEFAULT_255_1_234
10
4.0920786
20
36.8925781
40
0.4738131
50
338.2523585
51
351.2430902
0
ARC
8
DEFAULT_255_1_234
10
3.8510082
20
36.9335447
40
0.7183203
50
350.9409515
51
357.6691871
0
ARC
8
DEFAULT_255_1_234
10
4.3400512
20
37.1337764
40
0.2294452
50
269.9447023
51
306.8248917
0
ARC
8
DEFAULT_255_1_234
10
4.3163427
20
37.1760898
40
0.2775994
50
305.5072438
51
327.0773448
0
ARC
8
DEFAULT_255_1_234
10
4.3281868
20
37.1666025
40
0.2625056
50
327.4104943
51
336.840169
0
ARC
8
DEFAULT_255_1_234
10
4.0187933
20
37.1260302
40
0.5507537
50
359.6633817
51
10.117533
0
ARC
8
DEFAULT_255_1_234
10
4.1941731
20
37.1584777
40
0.372403
50
9.9430141
51
26.7700076
0
ARC
8
DEFAULT_255_1_234
10
4.2538943
20
37.1860187
40
0.3066865
50
27.2015464
51
34.6829435
0
ARC
8
DEFAULT_255_1_234
10
4.3028423
20
37.2227977
40
0.245519
50
34.1250343
51
50.3070065
0
ARC
8
DEFAULT_255_1_234
10
4.3475103
20
37.2762385
40
0.1758693
50
50.3851167
51
90.6705993
0
ARC
8
DEFAULT_255_1_234
10
4.3428336
20
37.2457799
40
0.2063326
50
89.272901
51
111.9140407
0
ARC
8
DEFAULT_255_1_234
10
4.3408864
20
37.259844
40
0.1925887
50
112.9382311
51
142.5320782
0
ARC
8
DEFAULT_255_1_234
10
4.3955044
20
37.2154969
40
0.2629232
50
142.1021256
51
166.3835592
0
ARC
8
DEFAULT_255_1_234
10
4.5136349
20
37.1849915
40
0.3849193
50
166.1100289
51
178.665427
0
ARC
8
DEFAULT_255_1_234
10
4.6183938
20
37.1791117
40
0.4897989
50
178.2632126
51
180.0111093
0
ARC
8
DEFAULT_255_1_234
10
4.5382059
20
37.1762728
40
0.40962
50
179.6161962
51
191.8787166
0
ARC
8
DEFAULT_255_1_234
10
4.4161898
20
37.1492896
40
0.2846655
50
191.6191692
51
215.2972286
0
ARC
8
DEFAULT_255_1_234
10
4.3965089
20
37.1377918
40
0.2619665
50
215.7320102
51
216.5355409
0
ARC
8
DEFAULT_255_1_234
10
4.3426175
20
37.0945647
40
0.1929497
50
215.7486685
51
239.9727502
0
ARC
8
DEFAULT_255_1_234
10
4.3356091
20
37.0894894
40
0.1850822
50
241.0650169
51
269.2810483
0
ARC
8
DEFAULT_255_1_234
10
4.3398006
20
37.1385371
40
0.2342059
50
268.4062526
51
270.0071348
0
ARC
8
DEFAULT_255_1_234
10
4.4262624
20
42.5436703
40
0.2822356
50
338.8763615
51
0.5166041
0
ARC
8
DEFAULT_255_1_234
10
4.4431278
20
42.5391208
40
0.2648703
50
325.8412414
51
338.4795939
0
ARC
8
DEFAULT_255_1_234
10
4.4040646
20
42.5662042
40
0.3124019
50
296.7586019
51
325.753654
0
ARC
8
DEFAULT_255_1_234
10
4.3752754
20
42.6146789
40
0.368668
50
296.0902311
51
297.3618122
0
ARC
8
DEFAULT_255_1_234
10
4.4010212
20
41.9592041
40
0.3518806
50
47.9009248
51
67.1946869
0
ARC
8
DEFAULT_255_1_234
10
4.4206454
20
41.9838395
40
0.320451
50
35.236241
51
47.551371
0
ARC
8
DEFAULT_255_1_234
10
4.4468072
20
42.0012993
40
0.2890103
50
359.2759738
51
35.4014081
0
ARC
8
DEFAULT_255_1_234
10
4.3723103
20
41.9939826
40
0.3635026
50
343.1294516
51
0.5776525
0
ARC
8
DEFAULT_255_1_234
10
4.4447648
20
41.974033
40
0.2883832
50
310.8497458
51
342.744803
0
ARC
8
DEFAULT_255_1_234
10
4.4029761
20
42.0217294
40
0.3517954
50
281.5473923
51
310.9169905
0
ARC
8
DEFAULT_255_1_234
10
4.367321
20
42.1770084
40
0.5110832
50
269.6192722
51
281.9789957
0
ARC
8
DEFAULT_255_1_234
10
4.3601
20
42.1770828
40
0.5111606
50
257.4584469
51
270.4287458
0
ARC
8
DEFAULT_255_1_234
10
4.3220143
20
42.0167344
40
0.3463762
50
228.7553743
51
257.8484423
0
ARC
8
DEFAULT_255_1_234
10
4.2910341
20
41.9794442
40
0.297916
50
184.0104442
51
228.5071787
0
ARC
8
DEFAULT_255_1_234
10
4.4073285
20
41.9971512
40
0.4152734
50
179.9315461
51
185.3254504
0
ARC
8
DEFAULT_255_1_234
10
4.2896931
20
42.0008992
40
0.2976554
50
145.6795913
51
180.6259649
0
ARC
8
DEFAULT_255_1_234
10
4.306028
20
41.9894929
40
0.3175776
50
115.5537925
51
145.6416199
0
ARC
8
DEFAULT_255_1_234
10
4.340121
20
41.9284028
40
0.3874232
50
113.2437915
51
116.2054627
0
ARC
8
DEFAULT_255_1_234
10
4.3248423
20
42.568258
40
0.3154751
50
222.9548379
51
244.1372485
0
ARC
8
DEFAULT_255_1_234
10
4.3126498
20
42.5545834
40
0.2972382
50
213.3439227
51
222.6271327
0
ARC
8
DEFAULT_255_1_234
10
4.2934433
20
42.5415308
40
0.274019
50
180.4316517
51
213.2713999
0
ARC
8
DEFAULT_255_1_234
10
4.3509434
20
42.546211
40
0.33158
50
179.9992944
51
181.1655061
0
ARC
8
DEFAULT_255_1_234
10
4.3918851
20
42.5496561
40
0.3725376
50
164.6186108
51
180.5292368
0
ARC
8
DEFAULT_255_1_234
10
4.3020714
20
42.5738101
40
0.2795349
50
132.2454369
51
164.5092287
0
ARC
8
DEFAULT_255_1_234
10
4.3307818
20
42.5413028
40
0.3229019
50
100.7052766
51
132.1387266
0
ARC
8
DEFAULT_255_1_234
10
4.361279
20
42.4035086
40
0.4639835
50
89.6732617
51
101.2449487
0
ARC
8
DEFAULT_255_1_234
10
4.3674988
20
42.420999
40
0.4464999
50
76.2876631
51
90.4586123
0
ARC
8
DEFAULT_255_1_234
10
4.398122
20
42.543222
40
0.3205023
50
47.8240157
51
76.4266918
0
ARC
8
DEFAULT_255_1_234
10
4.420377
20
42.569259
40
0.2862661
50
6.9168658
51
47.6261438
0
ARC
8
DEFAULT_255_1_234
10
4.3017173
20
42.547337
40
0.4067708
50
359.8419705
51
7.9694496
0
ARC
8
DEFAULT_255_1_234
10
4.335907
20
42.0032925
40
0.2513121
50
359.4454068
51
16.9256425
0
ARC
8
DEFAULT_255_1_234
10
4.3827881
20
42.0162033
40
0.2027071
50
17.292259
51
45.462717
0
ARC
8
DEFAULT_255_1_234
10
4.3773817
20
42.0115434
40
0.2098212
50
45.3028762
51
83.1921472
0
ARC
8
DEFAULT_255_1_234
10
4.3630501
20
41.9313895
40
0.2911472
50
82.2614531
51
90.143954
0
ARC
8
DEFAULT_255_1_234
10
4.3599621
20
41.954695
40
0.2678513
50
89.4959189
51
104.8579811
0
ARC
8
DEFAULT_255_1_234
10
4.342288
20
42.021689
40
0.1985654
50
104.8855873
51
135.2448349
0
ARC
8
DEFAULT_255_1_234
10
4.3472653
20
42.0172336
40
0.2052373
50
135.3398955
51
172.104394
0
ARC
8
DEFAULT_255_1_234
10
4.4279711
20
42.0017925
40
0.2873299
50
171.2651929
51
180.1859362
0
ARC
8
DEFAULT_255_1_234
10
4.4110412
20
41.9985733
40
0.2704083
50
179.515471
51
193.6466734
0
ARC
8
DEFAULT_255_1_234
10
4.3294181
20
41.9777777
40
0.1861855
50
193.3540587
51
225.8256931
0
ARC
8
DEFAULT_255_1_234
10
4.3334938
20
41.9848524
40
0.1941102
50
226.418029
51
255.8553723
0
ARC
8
DEFAULT_255_1_234
10
4.3591371
20
42.0784998
40
0.2911917
50
255.4655572
51
268.7985967
0
ARC
8
DEFAULT_255_1_234
10
4.3638563
20
42.1623491
40
0.3751331
50
268.3464808
51
270.0104874
0
ARC
8
DEFAULT_255_1_234
10
4.3661951
20
42.0939138
40
0.3067064
50
269.575914
51
282.0823146
0
ARC
8
DEFAULT_255_1_234
10
4.388686
20
41.9944803
40
0.2047712
50
281.7522535
51
306.6056425
0
ARC
8
DEFAULT_255_1_234
10
4.3985286
20
41.9783487
40
0.1859604
50
307.1350025
51
314.0277951
0
ARC
8
DEFAULT_255_1_234
10
4.394937
20
41.9809766
40
0.1903475
50
314.2553419
51
350.169324
0
ARC
8
DEFAULT_255_1_234
10
4.3097839
20
41.9994409
40
0.2774269
50
349.4145679
51
0.2930737
0
ARC
8
DEFAULT_255_1_234
10
4.3618272
20
42.5153353
40
0.2300764
50
89.477591
51
105.729794
0
ARC
8
DEFAULT_255_1_234
10
4.3482185
20
42.5658637
40
0.1777519
50
105.922966
51
135.1662921
0
ARC
8
DEFAULT_255_1_234
10
4.3502688
20
42.5644419
40
0.1802087
50
135.3053131
51
168.9882338
0
ARC
8
DEFAULT_255_1_234
10
4.433026
20
42.5454721
40
0.2650806
50
168.3802067
51
180.3602358
0
ARC
8
DEFAULT_255_1_234
10
4.410184
20
42.5417041
40
0.2422425
50
179.5029707
51
194.9126783
0
ARC
8
DEFAULT_255_1_234
10
4.3516501
20
42.526311
40
0.1817188
50
194.9722181
51
224.1943972
0
ARC
8
DEFAULT_255_1_234
10
4.3488368
20
42.5240169
40
0.1781027
50
224.2961434
51
262.0157375
0
ARC
8
DEFAULT_255_1_234
10
4.3630611
20
42.5971661
40
0.2525492
50
261.1250369
51
270.1959853
0
ARC
8
DEFAULT_255_1_234
10
4.3660366
20
42.5784339
40
0.233825
50
269.4825617
51
285.0988277
0
ARC
8
DEFAULT_255_1_234
10
4.3814525
20
42.520599
40
0.1739712
50
285.1585659
51
315.9484648
0
ARC
8
DEFAULT_255_1_234
10
4.3725537
20
42.5287886
40
0.1860616
50
316.0412958
51
351.9162715
0
ARC
8
DEFAULT_255_1_234
10
4.2992492
20
42.5429245
40
0.2606517
50
351.1056823
51
0.1936567
0
ARC
8
DEFAULT_255_1_234
10
4.3255321
20
42.5459369
40
0.234377
50
359.4789506
51
16.0679113
0
ARC
8
DEFAULT_255_1_234
10
4.373128
20
42.558781
40
0.1850875
50
16.3251951
51
44.791304
0
ARC
8
DEFAULT_255_1_234
10
4.3713561
20
42.5588339
40
0.186312
50
44.3958661
51
88.2498933
0
ARC
8
DEFAULT_255_1_234
10
4.3640115
20
42.4977154
40
0.2476868
50
86.9833827
51
90.0200148
0
LINE
8
DEFAULT_255_1_234
10
4.7542674
20
48.1431211
11
4.7542674
21
48.059591
0
LINE
8
DEFAULT_255_1_234
10
4.7542674
20
48.059591
11
4.2699536
21
46.9737
0
LINE
8
DEFAULT_255_1_234
10
4.2699536
20
46.9737
11
4.1141379
21
46.9737
0
LINE
8
DEFAULT_255_1_234
10
4.1141379
20
46.9737
11
4.5968454
21
48.0210387
0
LINE
8
DEFAULT_255_1_234
10
4.5968454
20
48.0210387
11
3.9639444
21
48.0210387
0
LINE
8
DEFAULT_255_1_234
10
3.9639444
20
48.0210387
11
3.9639444
21
48.1431211
0
LINE
8
DEFAULT_255_1_234
10
3.9639444
20
48.1431211
11
4.7542674
21
48.1431211
0
LINE
8
DEFAULT_255_1_234
10
4.5558835
20
53.4355243
11
4.5823882
21
53.4355243
0
LINE
8
DEFAULT_255_1_234
10
4.5823882
20
53.4355243
11
4.5823882
21
53.309426
0
LINE
8
DEFAULT_255_1_234
10
4.5823882
20
53.309426
11
4.5550803
21
53.309426
0
LINE
8
DEFAULT_255_1_234
10
4.0081189
20
52.7102583
11
4.0081189
21
52.7672836
0
LINE
8
DEFAULT_255_1_234
10
4.1575093
20
52.7480075
11
4.1575093
21
52.6933917
0
ARC
8
DEFAULT_255_1_234
10
4.5603151
20
52.8096455
40
0.4998079
50
90.6001036
51
104.514704
0
ARC
8
DEFAULT_255_1_234
10
4.5214667
20
52.9541131
40
0.3502176
50
104.2855254
51
133.862935
0
ARC
8
DEFAULT_255_1_234
10
4.5378424
20
52.943283
40
0.3693984
50
134.5302688
51
161.6210873
0
ARC
8
DEFAULT_255_1_234
10
4.7031613
20
52.8849895
40
0.5446739
50
161.2849839
51
174.2076652
0
ARC
8
DEFAULT_255_1_234
10
4.843855
20
52.8655787
40
0.6866274
50
173.7810589
51
174.9254635
0
ARC
8
DEFAULT_255_1_234
10
4.3888382
20
52.7272839
40
0.3033419
50
95.8330959
51
138.9954921
0
ARC
8
DEFAULT_255_1_234
10
4.4111738
20
52.5994375
40
0.4328947
50
89.8753725
51
97.0544009
0
ARC
8
DEFAULT_255_1_234
10
4.4159204
20
52.6829748
40
0.3493769
50
71.6407809
51
90.6240094
0
ARC
8
DEFAULT_255_1_234
10
4.4309777
20
52.7384082
40
0.2920396
50
39.6367836
51
71.019018
0
ARC
8
DEFAULT_255_1_234
10
4.367325
20
52.6833998
40
0.3761538
50
10.658731
51
39.9043955
0
ARC
8
DEFAULT_255_1_234
10
4.2125333
20
52.6497686
40
0.5345136
50
359.682601
51
11.132623
0
ARC
8
DEFAULT_255_1_234
10
4.2085464
20
52.642701
40
0.5385081
50
347.2486944
51
0.4369317
0
ARC
8
DEFAULT_255_1_234
10
4.3752941
20
52.6025807
40
0.3670249
50
318.1409698
51
347.6118597
0
ARC
8
DEFAULT_255_1_234
10
4.4077934
20
52.5758702
40
0.3250007
50
275.6342139
51
317.8248465
0
ARC
8
DEFAULT_255_1_234
10
4.3857045
20
52.7058219
40
0.4565864
50
269.8874292
51
276.7917694
0
ARC
8
DEFAULT_255_1_234
10
4.3802116
20
52.6032743
40
0.3540676
50
246.9140195
51
270.7437342
0
ARC
8
DEFAULT_255_1_234
10
4.3808506
20
52.5890384
40
0.3412781
50
218.1665114
51
245.878116
0
ARC
8
DEFAULT_255_1_234
10
4.4687967
20
52.6626279
40
0.455911
50
191.4115814
51
218.6077802
0
ARC
8
DEFAULT_255_1_234
10
4.6626056
20
52.7060833
40
0.6545001
50
179.6345085
51
191.7836486
0
ARC
8
DEFAULT_255_1_234
10
5.2208393
20
52.7739697
40
1.2127388
50
171.4525249
51
180.3158839
0
ARC
8
DEFAULT_255_1_234
10
4.7813269
20
52.8423608
40
0.7679464
50
157.9802646
51
171.6246686
0
ARC
8
DEFAULT_255_1_234
10
4.559929
20
52.9306421
40
0.5296008
50
141.4298019
51
157.854097
0
ARC
8
DEFAULT_255_1_234
10
4.495761
20
52.9760381
40
0.4511509
50
102.8715806
51
140.8564722
0
ARC
8
DEFAULT_255_1_234
10
4.5605226
20
52.7320552
40
0.7034845
50
90.3778349
51
103.5869322
0
ARC
8
DEFAULT_255_1_234
10
4.3867002
20
52.671573
40
0.2370698
50
89.8751008
51
126.2071704
0
ARC
8
DEFAULT_255_1_234
10
4.3912792
20
52.6561303
40
0.2522934
50
124.9745049
51
144.895901
0
ARC
8
DEFAULT_255_1_234
10
4.3736982
20
52.670456
40
0.2296779
50
145.2974905
51
160.2660252
0
ARC
8
DEFAULT_255_1_234
10
4.6809521
20
52.6902071
40
0.5234525
50
179.6514266
51
190.2855912
0
ARC
8
DEFAULT_255_1_234
10
4.5115658
20
52.6582786
40
0.3510893
50
190.0945431
51
207.5098196
0
ARC
8
DEFAULT_255_1_234
10
4.4549928
20
52.6313623
40
0.288489
50
207.9583163
51
216.3251085
0
ARC
8
DEFAULT_255_1_234
10
4.4210036
20
52.6034105
40
0.2445587
50
215.7661442
51
232.5456785
0
ARC
8
DEFAULT_255_1_234
10
4.3827019
20
52.5547482
40
0.1826382
50
232.8005391
51
270.6605633
0
ARC
8
DEFAULT_255_1_234
10
4.387272
20
52.5911612
40
0.2190529
50
269.35537
51
288.4744281
0
ARC
8
DEFAULT_255_1_234
10
4.3965617
20
52.5562118
40
0.1829749
50
289.1833337
51
322.9683818
0
ARC
8
DEFAULT_255_1_234
10
4.3354139
20
52.6044391
40
0.2608399
50
322.6007884
51
346.5182367
0
ARC
8
DEFAULT_255_1_234
10
4.2196735
20
52.6339616
40
0.3802777
50
346.2582162
51
358.7741648
0
ARC
8
DEFAULT_255_1_234
10
4.1178404
20
52.6394965
40
0.4822176
50
358.3755224
51
0.0098023
0
ARC
8
DEFAULT_255_1_234
10
4.1934591
20
52.6422657
40
0.4066078
50
359.6214041
51
11.2839074
0
ARC
8
DEFAULT_255_1_234
10
4.3211738
20
52.6689066
40
0.2761514
50
11.0482309
51
31.8146458
0
ARC
8
DEFAULT_255_1_234
10
4.3520781
20
52.6856584
40
0.2410679
50
32.3035391
51
38.082671
0
ARC
8
DEFAULT_255_1_234
10
4.3941441
20
52.7237662
40
0.1844966
50
36.825067
51
85.7415724
0
ARC
8
DEFAULT_255_1_234
10
4.3874274
20
52.6737301
40
0.2349122
50
85.0140713
51
90.0513278
0
LINE
8
DEFAULT_255_1_234
10
4.1864235
20
58.1127963
11
4.0675538
21
58.1433169
0
LINE
8
DEFAULT_255_1_234
10
4.0675538
20
58.1433169
11
4.1269887
21
58.7264211
0
LINE
8
DEFAULT_255_1_234
10
4.1269887
20
58.7264211
11
4.7261563
21
58.7264211
0
LINE
8
DEFAULT_255_1_234
10
4.7261563
20
58.7264211
11
4.7261563
21
58.5890784
0
LINE
8
DEFAULT_255_1_234
10
4.7261563
20
58.5890784
11
4.253087
21
58.5890784
0
LINE
8
DEFAULT_255_1_234
10
4.253087
20
58.5890784
11
4.2177473
21
58.2702184
0
LINE
8
DEFAULT_255_1_234
10
4.0257888
20
57.8646156
11
4.1663442
21
57.8646156
0
LINE
8
DEFAULT_255_1_234
10
4.2257791
20
58.1449232
11
4.1864235
21
58.1127963
0
ARC
8
DEFAULT_255_1_234
10
4.4032257
20
57.952223
40
0.3681349
50
93.7182161
51
120.2538958
0
ARC
8
DEFAULT_255_1_234
10
4.412652
20
57.8714394
40
0.449379
50
89.9660152
51
94.2496022
0
ARC
8
DEFAULT_255_1_234
10
4.4167254
20
57.9303549
40
0.390482
50
73.8043271
51
90.5585896
0
ARC
8
DEFAULT_255_1_234
10
4.4402151
20
58.0161602
40
0.3015334
50
41.3071453
51
73.5430202
0
ARC
8
DEFAULT_255_1_234
10
4.3985978
20
57.9803324
40
0.3564457
50
13.5075983
51
41.2174222
0
ARC
8
DEFAULT_255_1_234
10
4.2344182
20
57.9373486
40
0.5261351
50
1.1331335
51
13.8829381
0
ARC
8
DEFAULT_255_1_234
10
4.0932551
20
57.9297665
40
0.6674378
50
359.9919444
51
1.544251
0
ARC
8
DEFAULT_255_1_234
10
4.2209377
20
57.925628
40
0.5397702
50
347.8572367
51
0.4293338
0
ARC
8
DEFAULT_255_1_234
10
4.3959695
20
57.8859736
40
0.3603188
50
323.673004
51
348.1672506
0
ARC
8
DEFAULT_255_1_234
10
4.4254203
20
57.8680168
40
0.3259678
50
316.8171152
51
323.1492751
0
ARC
8
DEFAULT_255_1_234
10
4.4315392
20
57.864346
40
0.3189975
50
281.8396411
51
316.5457803
0
ARC
8
DEFAULT_255_1_234
10
4.3939656
20
58.0198762
40
0.4789527
50
269.5770101
51
282.4214771
0
ARC
8
DEFAULT_255_1_234
10
4.3868467
20
57.9985125
40
0.45759
50
256.2427136
51
270.4486331
0
ARC
8
DEFAULT_255_1_234
10
4.356937
20
57.8785229
40
0.3339303
50
228.9023911
51
256.3314342
0
ARC
8
DEFAULT_255_1_234
10
4.3495602
20
57.8668746
40
0.32031
50
193.753695
51
228.5271154
0
ARC
8
DEFAULT_255_1_234
10
4.4733556
20
57.90318
40
0.4492253
50
184.924711
51
194.497588
0
ARC
8
DEFAULT_255_1_234
10
4.4926123
20
57.9067591
40
0.3289787
50
187.3600538
51
198.6732863
0
ARC
8
DEFAULT_255_1_234
10
4.3876417
20
57.8703674
40
0.217884
50
198.4451669
51
217.794479
0
ARC
8
DEFAULT_255_1_234
10
4.3580592
20
57.8494085
40
0.1816698
50
218.2887171
51
228.5612368
0
ARC
8
DEFAULT_255_1_234
10
4.3678379
20
57.8625963
40
0.1980329
50
228.9654866
51
258.1234728
0
ARC
8
DEFAULT_255_1_234
10
4.3884089
20
57.9506833
40
0.2884748
50
257.7258293
51
270.401361
0
ARC
8
DEFAULT_255_1_234
10
4.3928975
20
57.9061821
40
0.2439788
50
269.4204404
51
286.4209037
0
ARC
8
DEFAULT_255_1_234
10
4.4077463
20
57.8522657
40
0.1880666
50
286.7251356
51
320.600362
0
ARC
8
DEFAULT_255_1_234
10
4.3694288
20
57.8833595
40
0.2374121
50
320.6712579
51
344.5441685
0
ARC
8
DEFAULT_255_1_234
10
4.2537614
20
57.9173045
40
0.3579479
50
344.2412205
51
356.7357071
0
ARC
8
DEFAULT_255_1_234
10
4.1288763
20
57.9276444
40
0.4832297
50
356.3548756
51
0.0500261
0
ARC
8
DEFAULT_255_1_234
10
4.2625272
20
57.930765
40
0.3495889
50
359.5576869
51
12.953486
0
ARC
8
DEFAULT_255_1_234
10
4.3680169
20
57.9563434
40
0.2410532
50
12.6490276
51
41.6081334
0
ARC
8
DEFAULT_255_1_234
10
4.391054
20
57.9759321
40
0.2108218
50
41.7850273
51
85.9892764
0
ARC
8
DEFAULT_255_1_234
10
4.3787277
20
57.8946462
40
0.2928454
50
84.6957577
51
90.0676183
0
ARC
8
DEFAULT_255_1_234
10
4.3763761
20
57.8277716
40
0.3597255
50
89.6804936
51
99.1614436
0
ARC
8
DEFAULT_255_1_234
10
4.3558392
20
57.9505131
40
0.235281
50
98.9830931
51
113.8908934
0
ARC
8
DEFAULT_255_1_234
10
4.3328802
20
58.0046587
40
0.176479
50
114.1950727
51
127.3641004
0
LINE
8
DEFAULT_255_1_234
10
4.8381628
20
64.0181211
11
4.8381628
21
63.241452
0
LINE
8
DEFAULT_255_1_234
10
4.8381628
20
63.241452
11
5.0004039
21
63.241452
0
LINE
8
DEFAULT_255_1_234
10
5.0004039
20
63.241452
11
5.0004039
21
63.1201728
0
LINE
8
DEFAULT_255_1_234
10
5.0004039
20
63.1201728
11
4.8381628
21
63.1201728
0
LINE
8
DEFAULT_255_1_234
10
4.8381628
20
63.1201728
11
4.8381628
21
62.8487
0
LINE
8
DEFAULT_255_1_234
10
4.8381628
20
62.8487
11
4.6887725
21
62.8487
0
LINE
8
DEFAULT_255_1_234
10
4.6887725
20
62.8487
11
4.6887725
21
63.1201728
0
LINE
8
DEFAULT_255_1_234
10
4.6887725
20
63.1201728
11
4.1562682
21
63.1201728
0
LINE
8
DEFAULT_255_1_234
10
4.1562682
20
63.1201728
11
4.1562682
21
63.2077187
0
LINE
8
DEFAULT_255_1_234
10
4.1562682
20
63.2077187
11
4.6799375
21
64.0181211
0
LINE
8
DEFAULT_255_1_234
10
4.6799375
20
64.0181211
11
4.8381628
21
64.0181211
0
LINE
8
DEFAULT_255_1_234
10
4.6711026
20
63.7827912
11
4.3249347
21
63.241452
0
LINE
8
DEFAULT_255_1_234
10
4.3249347
20
63.241452
11
4.6887725
21
63.241452
0
LINE
8
DEFAULT_255_1_234
10
4.6887725
20
63.241452
11
4.6887725
21
63.8149181
0
LINE
8
DEFAULT_255_1_234
10
4.6887725
20
63.8149181
11
4.6711026
21
63.7827912
0
LINE
8
DEFAULT_255_1_234
10
4.2153378
20
68.6760169
11
4.2153378
21
68.7972962
0
LINE
8
DEFAULT_255_1_234
10
4.2153378
20
68.7972962
11
4.326979
21
68.7972962
0
LINE
8
DEFAULT_255_1_234
10
4.1366268
20
69.0029087
11
3.9880396
21
69.0029087
0
LINE
8
DEFAULT_255_1_234
10
3.9775983
20
68.4487188
11
4.1269887
21
68.4487188
0
LINE
8
DEFAULT_255_1_234
10
4.326979
20
68.6760169
11
4.2153378
21
68.6760169
0
ARC
8
DEFAULT_255_1_234
10
4.3240656
20
69.1365713
40
0.3392876
50
270.4919872
51
281.8951556
0
ARC
8
DEFAULT_255_1_234
10
4.3481918
20
69.0263702
40
0.2264817
50
281.6691735
51
301.2943132
0
ARC
8
DEFAULT_255_1_234
10
4.3652128
20
68.9952304
40
0.1910381
50
301.7833094
51
311.7545298
0
ARC
8
DEFAULT_255_1_234
10
4.3743704
20
68.9850748
40
0.1773635
50
311.7323931
51
354.2802411
0
ARC
8
DEFAULT_255_1_234
10
4.3017329
20
68.9975722
40
0.2509385
50
353.0937916
51
0.1181479
0
ARC
8
DEFAULT_255_1_234
10
4.2556114
20
69.0023386
40
0.2970898
50
359.1805295
51
15.0453146
0
ARC
8
DEFAULT_255_1_234
10
4.3901951
20
69.0415992
40
0.1569564
50
13.9577229
51
77.6713066
0
ARC
8
DEFAULT_255_1_234
10
4.351548
20
68.9030949
40
0.3006298
50
76.1116566
51
90.7026153
0
ARC
8
DEFAULT_255_1_234
10
4.3456318
20
68.9304545
40
0.2732568
50
89.5324876
51
103.531937
0
ARC
8
DEFAULT_255_1_234
10
4.3255762
20
69.0103884
40
0.1908508
50
103.2931773
51
133.5619022
0
ARC
8
DEFAULT_255_1_234
10
4.3211251
20
69.0163375
40
0.1834746
50
133.8349307
51
173.5344437
0
ARC
8
DEFAULT_255_1_234
10
4.3934294
20
69.0035213
40
0.2568033
50
172.5096846
51
180.1366907
0
ARC
8
DEFAULT_255_1_234
10
4.2983188
20
69.0069622
40
0.3103056
50
155.3484492
51
180.7484736
0
ARC
8
DEFAULT_255_1_234
10
4.2934277
20
69.0040846
40
0.3070957
50
131.5744599
51
154.4798489
0
ARC
8
DEFAULT_255_1_234
10
4.3247424
20
68.972431
40
0.3515643
50
96.9875458
51
131.9690667
0
ARC
8
DEFAULT_255_1_234
10
4.3466904
20
68.8478636
40
0.4779224
50
89.8596053
51
97.7825159
0
ARC
8
DEFAULT_255_1_234
10
4.3514967
20
68.8216616
40
0.5041361
50
78.3655447
51
90.4131539
0
ARC
8
DEFAULT_255_1_234
10
4.3872885
20
68.9875887
40
0.3344039
50
56.6229102
51
78.638727
0
ARC
8
DEFAULT_255_1_234
10
4.4087829
20
69.0251805
40
0.2912001
50
47.0253525
51
56.0854072
0
ARC
8
DEFAULT_255_1_234
10
4.4107609
20
69.0291223
40
0.2869704
50
10.9208013
51
46.7778124
0
ARC
8
DEFAULT_255_1_234
10
4.2743675
20
68.9975857
40
0.426899
50
359.6364486
51
11.6087304
0
ARC
8
DEFAULT_255_1_234
10
4.4578519
20
68.9960752
40
0.243409
50
332.3549906
51
359.7179418
0
ARC
8
DEFAULT_255_1_234
10
4.3928121
20
69.0269142
40
0.3153459
50
325.2333722
51
332.8745602
0
ARC
8
DEFAULT_255_1_234
10
4.4080744
20
69.0162828
40
0.2967456
50
292.9802137
51
325.2392345
0
ARC
8
DEFAULT_255_1_234
10
4.3806118
20
69.0696863
40
0.3566604
50
292.5402179
51
293.6924929
0
ARC
8
DEFAULT_255_1_234
10
4.4198714
20
68.4242091
40
0.3307468
50
57.6435486
51
72.8625112
0
ARC
8
DEFAULT_255_1_234
10
4.4553214
20
68.4816549
40
0.2632492
50
36.7248896
51
57.4697979
0
ARC
8
DEFAULT_255_1_234
10
4.4541847
20
68.482922
40
0.2634081
50
8.0545065
51
36.356114
0
ARC
8
DEFAULT_255_1_234
10
4.3679032
20
68.4674174
40
0.3510261
50
359.8320645
51
8.5869982
0
ARC
8
DEFAULT_255_1_234
10
4.3303808
20
68.4626101
40
0.3885653
50
343.9829931
51
0.5571613
0
ARC
8
DEFAULT_255_1_234
10
4.4190005
20
68.4383438
40
0.2966924
50
311.6359546
51
343.7651759
0
ARC
8
DEFAULT_255_1_234
10
4.3811574
20
68.4810102
40
0.3537231
50
279.7829875
51
311.6255694
0
ARC
8
DEFAULT_255_1_234
10
4.3510351
20
68.624728
40
0.5004971
50
269.7286406
51
280.3856417
0
ARC
8
DEFAULT_255_1_234
10
4.3448423
20
68.6205996
40
0.4963778
50
256.6828919
51
270.4412052
0
ARC
8
DEFAULT_255_1_234
10
4.3109719
20
68.4821394
40
0.3538406
50
229.4223008
51
256.8556159
0
ARC
8
DEFAULT_255_1_234
10
4.2695112
20
68.4354736
40
0.2914296
50
181.818294
51
229.6455059
0
ARC
8
DEFAULT_255_1_234
10
4.3735068
20
68.4485496
40
0.3959084
50
179.9755256
51
183.2323064
0
ARC
8
DEFAULT_255_1_234
10
4.3562814
20
68.4465037
40
0.2293034
50
179.4465117
51
196.2869258
0
ARC
8
DEFAULT_255_1_234
10
4.3075222
20
68.4331651
40
0.1787621
50
196.5661473
51
227.705904
0
ARC
8
DEFAULT_255_1_234
10
4.3239317
20
68.4515155
40
0.2033784
50
227.7652068
51
257.8762805
0
ARC
8
DEFAULT_255_1_234
10
4.3464287
20
68.5458156
40
0.3003081
50
257.4584385
51
270.426602
0
ARC
8
DEFAULT_255_1_234
10
4.3509853
20
68.5747996
40
0.329292
50
269.5962073
51
280.8789248
0
ARC
8
DEFAULT_255_1_234
10
4.3739382
20
68.4601685
40
0.2123908
50
280.6346389
51
299.8595945
0
ARC
8
DEFAULT_255_1_234
10
4.3930289
20
68.4239212
40
0.171457
50
300.3576302
51
314.5517981
0
ARC
8
DEFAULT_255_1_234
10
4.3847349
20
68.4299919
40
0.1816095
50
315.0728369
51
345.0431014
0
ARC
8
DEFAULT_255_1_234
10
4.2924163
20
68.4568841
40
0.2777492
50
344.5986631
51
357.9269593
0
ARC
8
DEFAULT_255_1_234
10
4.2028489
20
68.4630276
40
0.3674917
50
357.4748886
51
0.0231117
0
ARC
8
DEFAULT_255_1_234
10
4.3051599
20
68.4654679
40
0.2651907
50
359.5047933
51
13.4239635
0
ARC
8
DEFAULT_255_1_234
10
4.3918242
20
68.4876478
40
0.1757509
50
12.9498199
51
48.7551375
0
ARC
8
DEFAULT_255_1_234
10
4.3735976
20
68.46274
40
0.2065134
50
49.5088623
51
72.1836453
0
ARC
8
DEFAULT_255_1_234
10
4.3378129
20
68.3565291
40
0.3185836
50
71.9010081
51
84.3554254
0
ARC
8
DEFAULT_255_1_234
10
4.3216761
20
68.2204326
40
0.4556151
50
84.0193428
51
89.333121
0
LINE
8
DEFAULT_255_1_234
10
4.7655119
20
73.5532792
11
4.7655119
21
73.432
0
LINE
8
DEFAULT_255_1_234
10
4.7655119
20
73.432
11
3.999284
21
73.432
0
LINE
8
DEFAULT_255_1_234
10
3.999284
20
73.432
11
3.999284
21
73.5388221
0
LINE
8
DEFAULT_255_1_234
10
3.999284
20
73.5388221
11
4.4040836
21
73.9885995
0
LINE
8
DEFAULT_255_1_234
10
4.1253823
20
74.2568595
11
3.9767952
21
74.2568595
0
LINE
8
DEFAULT_255_1_234
10
4.4916296
20
73.8930218
11
4.1783918
21
73.5532792
0
LINE
8
DEFAULT_255_1_234
10
4.1783918
20
73.5532792
11
4.7655119
21
73.5532792
0
ARC
8
DEFAULT_255_1_234
10
3.055067
20
75.1815527
40
1.8008286
50
318.5132453
51
320.7828378
0
ARC
8
DEFAULT_255_1_234
10
3.5837644
20
74.7512426
40
1.1191493
50
320.7372736
51
323.9737074
0
ARC
8
DEFAULT_255_1_234
10
3.9757501
20
74.4672361
40
0.6350923
50
323.8961724
51
328.6421089
0
ARC
8
DEFAULT_255_1_234
10
4.1804096
20
74.3410031
40
0.3946393
50
328.8299013
51
331.789948
0
ARC
8
DEFAULT_255_1_234
10
4.2801274
20
74.2895509
40
0.2824501
50
331.4255242
51
352.9364833
0
ARC
8
DEFAULT_255_1_234
10
4.2937775
20
74.2864976
40
0.2685315
50
353.2248685
51
0.0169286
0
ARC
8
DEFAULT_255_1_234
10
4.3147652
20
74.288795
40
0.2475536
50
359.4866256
51
15.9339782
0
ARC
8
DEFAULT_255_1_234
10
4.3654637
20
74.3024286
40
0.1950618
50
16.1714718
51
43.5284424
0
ARC
8
DEFAULT_255_1_234
10
4.3731946
20
74.3101573
40
0.184134
50
43.4415429
51
83.1661404
0
ARC
8
DEFAULT_255_1_234
10
4.3597864
20
74.2364771
40
0.258926
50
82.160215
51
90.1505798
0
ARC
8
DEFAULT_255_1_234
10
4.3566291
20
74.1827865
40
0.3126255
50
89.5460705
51
102.5418777
0
ARC
8
DEFAULT_255_1_234
10
4.3323377
20
74.2858665
40
0.2067346
50
102.1739365
51
129.2061916
0
ARC
8
DEFAULT_255_1_234
10
4.3244449
20
74.2983094
40
0.1921118
50
129.7279328
51
135.7542026
0
ARC
8
DEFAULT_255_1_234
10
4.3365977
20
74.2886045
40
0.2075944
50
136.175737
51
166.3674722
0
ARC
8
DEFAULT_255_1_234
10
4.4372896
20
74.2616182
40
0.3118201
50
165.9092917
51
178.8683903
0
ARC
8
DEFAULT_255_1_234
10
4.5237757
20
74.2569179
40
0.3983935
50
178.438168
51
180.0083905
0
ARC
8
DEFAULT_255_1_234
10
4.3836359
20
74.2608231
40
0.4068601
50
163.2878735
51
180.5581814
0
ARC
8
DEFAULT_255_1_234
10
4.3034621
20
74.282884
40
0.3237344
50
133.454115
51
162.9470031
0
ARC
8
DEFAULT_255_1_234
10
4.3213162
20
74.2639
40
0.349795
50
100.7869394
51
133.4384016
0
ARC
8
DEFAULT_255_1_234
10
4.3560934
20
74.1090319
40
0.5084616
50
89.6605301
51
101.3704185
0
ARC
8
DEFAULT_255_1_234
10
4.3627273
20
74.1151496
40
0.502348
50
78.2171172
51
90.4130393
0
ARC
8
DEFAULT_255_1_234
10
4.3982351
20
74.2775637
40
0.3361092
50
55.9268222
51
78.4888551
0
ARC
8
DEFAULT_255_1_234
10
4.4178791
20
74.3114324
40
0.2970617
50
47.9292255
51
55.4054003
0
ARC
8
DEFAULT_255_1_234
10
4.4280352
20
74.3217502
40
0.2825983
50
4.3347696
51
48.0560701
0
ARC
8
DEFAULT_255_1_234
10
4.3184745
20
74.3047601
40
0.393225
50
359.925209
51
5.5967654
0
ARC
8
DEFAULT_255_1_234
10
4.3613637
20
74.3103816
40
0.3503892
50
337.8914096
51
358.9967724
0
ARC
8
DEFAULT_255_1_234
10
4.0900049
20
74.4150706
40
0.6412172
50
326.9135351
51
338.3505194
0
ARC
8
DEFAULT_255_1_234
10
3.6914353
20
74.6705284
40
1.1146189
50
319.6472867
51
327.095818
0
ARC
8
DEFAULT_255_1_234
10
3.3081356
20
74.9867
40
1.6114559
50
317.2586784
51
319.9046139
0
LINE
8
DEFAULT_255_1_234
10
4.4793137
20
79.8987433
11
4.4793137
21
78.7237
0
LINE
8
DEFAULT_255_1_234
10
4.4793137
20
78.7237
11
4.3299234
21
78.7237
0
LINE
8
DEFAULT_255_1_234
10
4.3299234
20
78.7237
11
4.3299234
21
79.7140133
0
LINE
8
DEFAULT_255_1_234
10
4.3299234
20
79.7140133
11
4.0303396
21
79.6039785
0
LINE
8
DEFAULT_255_1_234
10
4.0303396
20
79.6039785
11
4.0303396
21
79.7389117
0
LINE
8
DEFAULT_255_1_234
10
4.0303396
20
79.7389117
11
4.4560217
21
79.8987433
0
LINE
8
DEFAULT_255_1_234
10
4.4560217
20
79.8987433
11
4.4793137
21
79.8987433
0
LINE
8
DEFAULT_255_1_234
10
4.7325817
20
84.7068327
11
4.7325817
21
84.5140709
0
LINE
8
DEFAULT_255_1_234
10
3.994465
20
84.4939916
11
3.994465
21
84.6923755
0
LINE
8
DEFAULT_255_1_234
10
4.5839946
20
84.4739123
11
4.5839946
21
84.7172739
0
LINE
8
DEFAULT_255_1_234
10
4.1430521
20
84.7285184
11
4.1430521
21
84.4907789
0
ARC
8
DEFAULT_255_1_234
10
3.5078707
20
84.5091805
40
1.2247208
50
353.8441951
51
0.2287902
0
ARC
8
DEFAULT_255_1_234
10
3.9718211
20
84.4573806
40
0.7578929
50
344.4934747
51
353.9765454
0
ARC
8
DEFAULT_255_1_234
10
4.2710801
20
84.3722981
40
0.4467846
50
329.2803592
51
344.7472793
0
ARC
8
DEFAULT_255_1_234
10
4.3703626
20
84.3178018
40
0.3336173
50
324.9352394
51
328.6160465
0
ARC
8
DEFAULT_255_1_234
10
4.4080734
20
84.2914427
40
0.2876076
50
280.580143
51
324.9173126
0
ARC
8
DEFAULT_255_1_234
10
4.3679527
20
84.4585099
40
0.4592847
50
269.5977311
51
281.6734359
0
ARC
8
DEFAULT_255_1_234
10
4.3607433
20
84.4465173
40
0.4472986
50
256.6228859
51
270.51044
0
ARC
8
DEFAULT_255_1_234
10
4.320541
20
84.2916877
40
0.2873874
50
215.8618325
51
257.2788573
0
ARC
8
DEFAULT_255_1_234
10
4.4226442
20
84.3601977
40
0.4102928
50
197.9693508
51
215.2623606
0
ARC
8
DEFAULT_255_1_234
10
4.6711558
20
84.4440709
40
0.6725652
50
187.8816417
51
198.2346507
0
ARC
8
DEFAULT_255_1_234
10
5.0669766
20
84.5012079
40
1.0724845
50
180.8976217
51
188.0055519
0
ARC
8
DEFAULT_255_1_234
10
5.3469954
20
84.5115777
40
1.3526448
50
180.7449369
51
181.1510016
0
ARC
8
DEFAULT_255_1_234
10
5.1892683
20
84.6972042
40
1.1948131
50
173.7675579
51
180.231553
0
ARC
8
DEFAULT_255_1_234
10
4.737483
20
84.7482666
40
0.7401564
50
164.3058563
51
173.9002247
0
ARC
8
DEFAULT_255_1_234
10
4.4462899
20
84.8321656
40
0.4371288
50
148.7922025
51
164.568378
0
ARC
8
DEFAULT_255_1_234
10
4.3511351
20
84.8852929
40
0.3282386
50
144.5883898
51
148.1176286
0
ARC
8
DEFAULT_255_1_234
10
4.3168249
20
84.9092315
40
0.2864044
50
101.6440918
51
144.514236
0
ARC
8
DEFAULT_255_1_234
10
4.3593315
20
84.7403069
40
0.4604934
50
89.5284041
51
102.5819763
0
ARC
8
DEFAULT_255_1_234
10
4.3672403
20
84.7364018
40
0.464401
50
77.0437873
51
90.5081339
0
ARC
8
DEFAULT_255_1_234
10
4.4074405
20
84.9006615
40
0.2953195
50
48.2778575
51
77.4994676
0
ARC
8
DEFAULT_255_1_234
10
4.4147036
20
84.9135746
40
0.2808655
50
36.3142134
51
47.6305865
0
ARC
8
DEFAULT_255_1_234
10
4.3278343
20
84.8550515
40
0.3855453
50
18.2931786
51
35.6769206
0
ARC
8
DEFAULT_255_1_234
10
4.0735102
20
84.7677593
40
0.654423
50
8.024666
51
18.5605216
0
ARC
8
DEFAULT_255_1_234
10
3.6572022
20
84.7062792
40
1.0752407
50
1.1274072
51
8.1718305
0
ARC
8
DEFAULT_255_1_234
10
3.3336213
20
84.6935885
40
1.3990231
50
0.5424119
51
1.3863029
0
ARC
8
DEFAULT_255_1_234
10
3.515759
20
84.7208342
40
1.0682415
50
359.8090433
51
4.9407866
0
ARC
8
DEFAULT_255_1_234
10
3.9367604
20
84.7584113
40
0.6455691
50
4.8362157
51
12.2904523
0
ARC
8
DEFAULT_255_1_234
10
4.2122719
20
84.8197965
40
0.3633074
50
12.0805627
51
23.8173984
0
ARC
8
DEFAULT_255_1_234
10
4.3296425
20
84.8694919
40
0.2358723
50
24.2871213
51
31.3935614
0
ARC
8
DEFAULT_255_1_234
10
4.3821122
20
84.9038233
40
0.1732111
50
30.7407893
51
82.4657128
0
ARC
8
DEFAULT_255_1_234
10
4.3641256
20
84.8154691
40
0.263235
50
81.1060089
51
90.2184952
0
ARC
8
DEFAULT_255_1_234
10
4.3605555
20
84.8412924
40
0.2374236
50
89.3806855
51
105.6762551
0
ARC
8
DEFAULT_255_1_234
10
4.3422186
20
84.9079567
40
0.1682847
50
105.7981136
51
149.7388061
0
ARC
8
DEFAULT_255_1_234
10
4.4486264
20
84.843995
40
0.2924306
50
149.4208916
51
163.6286378
0
ARC
8
DEFAULT_255_1_234
10
4.6577152
20
84.780225
40
0.5110213
50
163.3763315
51
172.1410975
0
ARC
8
DEFAULT_255_1_234
10
4.9877871
20
84.7329518
40
0.8444586
50
172.0259487
51
178.0703232
0
ARC
8
DEFAULT_255_1_234
10
5.290796
20
84.7185906
40
1.1477868
50
177.8631668
51
179.5044149
0
ARC
8
DEFAULT_255_1_234
10
5.1835365
20
84.4871389
40
1.0404907
50
179.7995573
51
185.2460446
0
ARC
8
DEFAULT_255_1_234
10
4.7792404
20
84.4488513
40
0.6343885
50
185.1411642
51
193.0079639
0
ARC
8
DEFAULT_255_1_234
10
4.5148877
20
84.3863641
40
0.3627568
50
192.7897626
51
205.2507664
0
ARC
8
DEFAULT_255_1_234
10
4.4102424
20
84.3396415
40
0.2481908
50
205.8005384
51
211.2537509
0
ARC
8
DEFAULT_255_1_234
10
4.3578864
20
84.304558
40
0.1852521
50
210.3789793
51
238.4008143
0
ARC
8
DEFAULT_255_1_234
10
4.3559386
20
84.3092376
40
0.1882621
50
239.6520629
51
265.9793761
0
ARC
8
DEFAULT_255_1_234
10
4.3644586
20
84.3764427
40
0.2559272
50
265.1315437
51
270.060332
0
ARC
8
DEFAULT_255_1_234
10
4.3673365
20
84.3440534
40
0.2235528
50
269.3314664
51
287.2178029
0
ARC
8
DEFAULT_255_1_234
10
4.3811217
20
84.2937279
40
0.1714108
50
287.7958004
51
329.080874
0
ARC
8
DEFAULT_255_1_234
10
4.2853674
20
84.353493
40
0.2842745
50
328.6634704
51
343.3325132
0
ARC
8
DEFAULT_255_1_234
10
4.0680694
20
84.4211863
40
0.5118644
50
343.0499468
51
351.9393422
0
ARC
8
DEFAULT_255_1_234
10
3.7213994
20
84.4722949
40
0.8622784
50
351.8069023
51
357.7959224
0
ARC
8
DEFAULT_255_1_234
10
3.397855
20
84.4890721
40
1.1862365
50
357.5871873
51
359.2677531
0
LINE
8
DEFAULT_255_1_234
10
4.689385
20
89.9495391
11
4.689385
21
89.8234408
0
LINE
8
DEFAULT_255_1_234
10
4.689385
20
89.8234408
11
4.1986458
21
89.8234408
0
LINE
8
DEFAULT_255_1_234
10
4.1986458
20
89.8234408
11
4.1986458
21
89.307
0
LINE
8
DEFAULT_255_1_234
10
4.1986458
20
89.307
11
4.0444364
21
89.307
0
LINE
8
DEFAULT_255_1_234
10
4.0444364
20
89.307
11
4.0444364
21
90.4764211
0
LINE
8
DEFAULT_255_1_234
10
4.0444364
20
90.4764211
11
4.7688992
21
90.4764211
0
LINE
8
DEFAULT_255_1_234
10
4.7688992
20
90.4764211
11
4.7688992
21
90.3495196
0
LINE
8
DEFAULT_255_1_234
10
4.7688992
20
90.3495196
11
4.1986458
21
90.3495196
0
LINE
8
DEFAULT_255_1_234
10
4.1986458
20
90.3495196
11
4.1986458
21
89.9495391
0
LINE
8
DEFAULT_255_1_234
10
4.1986458
20
89.9495391
11
4.689385
21
89.9495391
0
LINE
8
DEFAULT_255_1_234
10
4.7980484
20
95.2653343
11
4.7980484
21
95.139236
0
LINE
8
DEFAULT_255_1_234
10
4.7980484
20
95.139236
11
4.2912458
21
95.139236
0
LINE
8
DEFAULT_255_1_234
10
4.2912458
20
95.139236
11
4.2912458
21
94.7247983
0
LINE
8
DEFAULT_255_1_234
10
4.2912458
20
94.7247983
11
4.8799722
21
94.7247983
0
LINE
8
DEFAULT_255_1_234
10
4.8799722
20
94.7247983
11
4.8799722
21
94.5987
0
LINE
8
DEFAULT_255_1_234
10
4.8799722
20
94.5987
11
4.1370364
21
94.5987
0
LINE
8
DEFAULT_255_1_234
10
4.1370364
20
94.5987
11
4.1370364
21
95.7681211
0
LINE
8
DEFAULT_255_1_234
10
4.1370364
20
95.7681211
11
4.8719404
21
95.7681211
0
LINE
8
DEFAULT_255_1_234
10
4.8719404
20
95.7681211
11
4.8719404
21
95.6412196
0
LINE
8
DEFAULT_255_1_234
10
4.8719404
20
95.6412196
11
4.2912458
21
95.6412196
0
LINE
8
DEFAULT_255_1_234
10
4.2912458
20
95.6412196
11
4.2912458
21
95.2653343
0
LINE
8
DEFAULT_255_1_234
10
4.2912458
20
95.2653343
11
4.7980484
21
95.2653343
0
LINE
8
DEFAULT_255_1_234
10
4.3912154
20
99.8903
11
4.0675364
21
99.8903
0
LINE
8
DEFAULT_255_1_234
10
4.0675364
20
99.8903
11
4.0675364
21
101.0597211
0
LINE
8
DEFAULT_255_1_234
10
4.0675364
20
101.0597211
11
4.3976408
21
101.0597211
0
LINE
8
DEFAULT_255_1_234
10
4.9132784
20
100.5143661
11
4.9132784
21
100.4396709
0
LINE
8
DEFAULT_255_1_234
10
4.4016567
20
100.9328196
11
4.2217458
21
100.9328196
0
LINE
8
DEFAULT_255_1_234
10
4.2217458
20
100.9328196
11
4.2217458
21
100.0163983
0
LINE
8
DEFAULT_255_1_234
10
4.2217458
20
100.0163983
11
4.3839869
21
100.0163983
0
LINE
8
DEFAULT_255_1_234
10
4.7606754
20
100.4428836
11
4.7606754
21
100.5111534
0
ARC
8
DEFAULT_255_1_234
10
4.4015351
20
100.4731894
40
0.5865446
50
75.4101064
51
90.3804066
0
ARC
8
DEFAULT_255_1_234
10
4.4244864
20
100.5688492
40
0.4881916
50
60.145586
51
75.1888407
0
ARC
8
DEFAULT_255_1_234
10
4.440364
20
100.5965199
40
0.4562893
50
26.5253612
51
60.1450928
0
ARC
8
DEFAULT_255_1_234
10
4.3283389
20
100.5371158
40
0.5830602
50
7.4030428
51
26.8320788
0
ARC
8
DEFAULT_255_1_234
10
4.1689146
20
100.5122804
40
0.7443669
50
0.1605367
51
7.7176192
0
ARC
8
DEFAULT_255_1_234
10
4.185305
20
100.4358434
40
0.7279835
50
348.7289388
51
0.3012466
0
ARC
8
DEFAULT_255_1_234
10
4.3509481
20
100.4029386
40
0.559104
50
333.0706509
51
348.7181832
0
ARC
8
DEFAULT_255_1_234
10
4.4476238
20
100.3504319
40
0.4491417
50
299.2531685
51
333.4571258
0
ARC
8
DEFAULT_255_1_234
10
4.4115378
20
100.4189828
40
0.5265881
50
278.107187
51
299.0339503
0
ARC
8
DEFAULT_255_1_234
10
4.3859457
20
100.5697216
40
0.679442
50
270.4443897
51
278.4511052
0
ARC
8
DEFAULT_255_1_234
10
4.3880287
20
100.4768213
40
0.4604407
50
269.4970433
51
284.0205042
0
ARC
8
DEFAULT_255_1_234
10
4.4235588
20
100.3402978
40
0.3193797
50
283.7700273
51
318.1555492
0
ARC
8
DEFAULT_255_1_234
10
4.3898346
20
100.3655367
40
0.3613588
50
318.7415601
51
343.6873628
0
ARC
8
DEFAULT_255_1_234
10
4.2094369
20
100.4218832
40
0.5503313
50
343.3325091
51
355.8548958
0
ARC
8
DEFAULT_255_1_234
10
3.9996054
20
100.4418319
40
0.7610708
50
355.4988528
51
0.0791727
0
ARC
8
DEFAULT_255_1_234
10
4.0778676
20
100.515378
40
0.6828208
50
359.6455037
51
9.8607896
0
ARC
8
DEFAULT_255_1_234
10
4.3139374
20
100.5580099
40
0.4429406
50
9.6571907
51
26.1932807
0
ARC
8
DEFAULT_255_1_234
10
4.4067363
20
100.6011118
40
0.3406537
50
26.5777228
51
40.1532208
0
ARC
8
DEFAULT_255_1_234
10
4.4323089
20
100.6210619
40
0.308246
50
40.3840491
51
80.1431104
0
ARC
8
DEFAULT_255_1_234
10
4.3996207
20
100.4761333
40
0.4566909
50
79.2152159
51
89.7445637
0
LINE
8
DEFAULT_255_1_234
10
4.776023
20
105.5530663
11
4.9310355
21
105.5530663
0
LINE
8
DEFAULT_255_1_234
10
4.0306777
20
105.7120947
11
4.0306777
21
105.8245391
0
LINE
8
DEFAULT_255_1_234
10
4.9310355
20
105.9755357
11
4.776023
21
105.9755357
0
LINE
8
DEFAULT_255_1_234
10
4.1856902
20
105.8205232
11
4.1856902
21
105.7072757
0
ARC
8
DEFAULT_255_1_234
10
4.3829742
20
105.6127846
40
0.5513052
50
340.1774281
51
353.7814284
0
ARC
8
DEFAULT_255_1_234
10
4.5401095
20
105.5542582
40
0.3836379
50
311.4558989
51
340.4421614
0
ARC
8
DEFAULT_255_1_234
10
4.5367763
20
105.5653528
40
0.3941894
50
282.4333181
51
310.7513653
0
ARC
8
DEFAULT_255_1_234
10
4.4928502
20
105.7468679
40
0.5809175
50
269.9358511
51
282.809604
0
ARC
8
DEFAULT_255_1_234
10
4.4876568
20
105.8926212
40
0.7266847
50
270.0021091
51
270.3581957
0
ARC
8
DEFAULT_255_1_234
10
4.4823985
20
105.6325585
40
0.4666519
50
250.7884749
51
270.6489167
0
ARC
8
DEFAULT_255_1_234
10
4.465582
20
105.5688319
40
0.4009729
50
219.3627325
51
250.0611886
0
ARC
8
DEFAULT_255_1_234
10
4.5485031
20
105.6393042
40
0.5097822
50
193.5479632
51
219.5756669
0
ARC
8
DEFAULT_255_1_234
10
4.7856652
20
105.7008919
40
0.7547848
50
181.1218675
51
193.87563
0
ARC
8
DEFAULT_255_1_234
10
4.9926833
20
105.711958
40
0.9620055
50
179.9918545
51
181.5394234
0
ARC
8
DEFAULT_255_1_234
10
4.8075935
20
105.8282788
40
0.7769248
50
169.5837241
51
180.2757934
0
ARC
8
DEFAULT_255_1_234
10
4.6238873
20
105.8622229
40
0.590109
50
155.0365899
51
169.6003176
0
ARC
8
DEFAULT_255_1_234
10
4.5103337
20
105.9169677
40
0.4640625
50
136.783148
51
155.2472683
0
ARC
8
DEFAULT_255_1_234
10
4.4713814
20
105.9500562
40
0.4130255
50
121.7633186
51
136.428115
0
ARC
8
DEFAULT_255_1_234
10
4.4848776
20
105.9251227
40
0.4413323
50
95.6459699
51
121.5490577
0
ARC
8
DEFAULT_255_1_234
10
4.5006058
20
105.8142949
40
0.55319
50
89.924208
51
96.1377933
0
ARC
8
DEFAULT_255_1_234
10
4.5056491
20
105.8261542
40
0.5413475
50
76.6779277
51
90.4563316
0
ARC
8
DEFAULT_255_1_234
10
4.5450114
20
105.9852114
40
0.3775041
50
47.485847
51
76.9287264
0
ARC
8
DEFAULT_255_1_234
10
4.5303087
20
105.9752159
40
0.3948286
50
16.5424086
51
46.8933463
0
ARC
8
DEFAULT_255_1_234
10
4.3695244
20
105.9223861
40
0.564021
50
5.4072051
51
17.0365086
0
ARC
8
DEFAULT_255_1_234
10
4.2256261
20
105.8992679
40
0.5556559
50
7.8891745
51
15.9239216
0
ARC
8
DEFAULT_255_1_234
10
4.4243274
20
105.9569631
40
0.3487515
50
15.7653144
51
27.9410532
0
ARC
8
DEFAULT_255_1_234
10
4.5347492
20
106.016079
40
0.2235026
50
27.8166557
51
46.4008329
0
ARC
8
DEFAULT_255_1_234
10
4.5397135
20
106.0155082
40
0.2205286
50
47.4371857
51
75.0698205
0
ARC
8
DEFAULT_255_1_234
10
4.5088529
20
105.9080765
40
0.3322915
50
74.7008593
51
87.8124495
0
ARC
8
DEFAULT_255_1_234
10
4.5015217
20
105.8024844
40
0.4380987
50
87.3814673
51
90.0240855
0
ARC
8
DEFAULT_255_1_234
10
4.497676
20
105.9202291
40
0.3203749
50
89.3451631
51
108.5745436
0
ARC
8
DEFAULT_255_1_234
10
4.4839865
20
105.9715908
40
0.2673494
50
109.2998449
51
143.3037509
0
ARC
8
DEFAULT_255_1_234
10
4.5601938
20
105.9129881
40
0.3634757
50
143.0753173
51
163.1916937
0
ARC
8
DEFAULT_255_1_234
10
4.7553666
20
105.8513967
40
0.5681262
50
162.9373603
51
174.6208611
0
ARC
8
DEFAULT_255_1_234
10
5.0179708
20
105.822601
40
0.8322832
50
174.3419979
51
180.1430411
0
ARC
8
DEFAULT_255_1_234
10
4.9248864
20
105.7031698
40
0.7392076
50
179.6817502
51
189.150529
0
ARC
8
DEFAULT_255_1_234
10
4.6748112
20
105.661519
40
0.4856932
50
188.9910863
51
203.5773039
0
ARC
8
DEFAULT_255_1_234
10
4.5668445
20
105.6167211
40
0.3688271
50
203.9077269
51
215.1312379
0
ARC
8
DEFAULT_255_1_234
10
4.4745539
20
105.5451941
40
0.2522457
50
213.9071664
51
263.8849284
0
ARC
8
DEFAULT_255_1_234
10
4.4870868
20
105.6236518
40
0.3316174
50
263.1758525
51
270.1031083
0
ARC
8
DEFAULT_255_1_234
10
4.490296
20
105.7483365
40
0.4563091
50
269.6719807
51
279.0609165
0
ARC
8
DEFAULT_255_1_234
10
4.5169728
20
105.5870907
40
0.2928759
50
278.8750225
51
293.6346586
0
ARC
8
DEFAULT_255_1_234
10
4.5489936
20
105.51189
40
0.2111472
50
293.8553404
51
310.0518804
0
ARC
8
DEFAULT_255_1_234
10
4.549479
20
105.5056516
40
0.2060917
50
311.0646779
51
332.0108348
0
ARC
8
DEFAULT_255_1_234
10
4.4302517
20
105.5713978
40
0.3422352
50
331.6588543
51
343.2878891
0
ARC
8
DEFAULT_255_1_234
10
4.2240032
20
105.6347798
40
0.5580003
50
343.1446044
51
351.010618
0
ARC
8
DEFAULT_255_1_234
10
4.0698678
20
105.6628871
40
0.7146438
50
350.7157277
51
351.1602153
0
LINE
8
DEFAULT_255_1_234
10
4.4996392
20
110.4737
11
4.0940364
21
110.4737
0
LINE
8
DEFAULT_255_1_234
10
4.0940364
20
110.4737
11
4.0940364
21
111.6431211
0
LINE
8
DEFAULT_255_1_234
10
4.0940364
20
111.6431211
11
4.4763471
21
111.6431211
0
LINE
8
DEFAULT_255_1_234
10
4.5052614
20
111.0206614
11
4.2482458
21
111.0206614
0
LINE
8
DEFAULT_255_1_234
10
4.2482458
20
111.0206614
11
4.2482458
21
110.5997983
0
LINE
8
DEFAULT_255_1_234
10
4.2482458
20
110.5997983
11
4.5028519
21
110.5997983
0
LINE
8
DEFAULT_255_1_234
10
4.2482458
20
111.5162196
11
4.2482458
21
111.1443501
0
LINE
8
DEFAULT_255_1_234
10
4.2482458
20
111.1443501
11
4.4811662
21
111.1443501
0
LINE
8
DEFAULT_255_1_234
10
4.4763471
20
111.5162196
11
4.2482458
21
111.5162196
0
ARC
8
DEFAULT_255_1_234
10
4.480118
20
110.9063901
40
0.7367406
50
82.1257326
51
90.2932599
0
ARC
8
DEFAULT_255_1_234
10
4.5190135
20
111.1782013
40
0.4621653
50
69.9044149
51
82.2857423
0
ARC
8
DEFAULT_255_1_234
10
4.5760813
20
111.3324637
40
0.2976871
50
51.1838526
51
70.0181538
0
ARC
8
DEFAULT_255_1_234
10
4.6015779
20
111.369524
40
0.2528517
50
12.1017251
51
50.4214761
0
ARC
8
DEFAULT_255_1_234
10
4.4631653
20
111.3347676
40
0.3955061
50
359.5251267
51
12.8211707
0
ARC
8
DEFAULT_255_1_234
10
4.6211579
20
111.3278344
40
0.2375281
50
323.4908128
51
0.8817314
0
ARC
8
DEFAULT_255_1_234
10
4.5793266
20
111.360155
40
0.2903817
50
298.6825083
51
323.2756573
0
ARC
8
DEFAULT_255_1_234
10
4.5431629
20
111.4202649
40
0.3604842
50
293.1999386
51
299.1396394
0
ARC
8
DEFAULT_255_1_234
10
4.6104602
20
110.8117126
40
0.2871098
50
54.0011765
51
74.9167975
0
ARC
8
DEFAULT_255_1_234
10
4.6220961
20
110.8314332
40
0.2643248
50
36.3580696
51
53.5291921
0
ARC
8
DEFAULT_255_1_234
10
4.6094203
20
110.8223998
40
0.2798884
50
4.8189881
51
36.3089977
0
ARC
8
DEFAULT_255_1_234
10
4.5315038
20
110.811427
40
0.358478
50
359.9370252
51
5.5204067
0
ARC
8
DEFAULT_255_1_234
10
4.499056
20
110.8073667
40
0.3909429
50
344.7478609
51
0.5373281
0
ARC
8
DEFAULT_255_1_234
10
4.5981531
20
110.7806544
40
0.2883093
50
311.1786488
51
344.6886812
0
ARC
8
DEFAULT_255_1_234
10
4.5689578
20
110.8169987
40
0.3348923
50
286.0418249
51
310.8441291
0
ARC
8
DEFAULT_255_1_234
10
4.518241
20
110.9816807
40
0.5071869
50
274.1042341
51
286.4071509
0
ARC
8
DEFAULT_255_1_234
10
4.5005666
20
111.1700229
40
0.6963234
50
269.9236873
51
274.445647
0
ARC
8
DEFAULT_255_1_234
10
4.5051667
20
110.9360537
40
0.3362634
50
269.6055768
51
281.3740047
0
ARC
8
DEFAULT_255_1_234
10
4.5282305
20
110.8267353
40
0.224546
50
281.1055983
51
302.5132223
0
ARC
8
DEFAULT_255_1_234
10
4.5429204
20
110.8003823
40
0.1944357
50
303.0368945
51
311.8811219
0
ARC
8
DEFAULT_255_1_234
10
4.5500611
20
110.791889
40
0.1833454
50
311.9916004
51
351.7143462
0
ARC
8
DEFAULT_255_1_234
10
4.4683841
20
110.808393
40
0.2665871
50
350.7339597
51
0.2221581
0
ARC
8
DEFAULT_255_1_234
10
4.4576287
20
110.8140467
40
0.2773789
50
359.0456241
51
17.2296242
0
ARC
8
DEFAULT_255_1_234
10
4.5615404
20
110.8449163
40
0.1689915
50
17.6685481
51
78.9940892
0
ARC
8
DEFAULT_255_1_234
10
4.5098568
20
110.6594224
40
0.3612658
50
76.5635957
51
90.6980921
0
LINE
8
DEFAULT_255_1_234
10
4.5054552
20
111.0206613
11
4.5052614
21
111.0206614
0
ARC
8
DEFAULT_255_1_234
10
4.4834228
20
111.4729036
40
0.3285612
50
269.6064736
51
281.4533503
0
ARC
8
DEFAULT_255_1_234
10
4.5057048
20
111.3677688
40
0.2210975
50
281.2041486
51
302.5148063
0
ARC
8
DEFAULT_255_1_234
10
4.5193898
20
111.3431241
40
0.1929674
50
303.021671
51
309.8369575
0
ARC
8
DEFAULT_255_1_234
10
4.5377359
20
111.3225488
40
0.1654181
50
309.5228395
51
356.9509836
0
ARC
8
DEFAULT_255_1_234
10
4.4713942
20
111.3320932
40
0.2322512
50
355.4701227
51
0.0492546
0
ARC
8
DEFAULT_255_1_234
10
4.4435033
20
111.3343094
40
0.2601498
50
359.5558597
51
11.2096359
0
ARC
8
DEFAULT_255_1_234
10
4.5392323
20
111.354123
40
0.1623975
50
10.9182341
51
31.3230275
0
ARC
8
DEFAULT_255_1_234
10
4.5678056
20
111.3700214
40
0.1297302
50
31.8852677
51
52.1412565
0
ARC
8
DEFAULT_255_1_234
10
4.5403789
20
111.331275
40
0.1771663
50
52.8285564
51
71.9850297
0
ARC
8
DEFAULT_255_1_234
10
4.5027965
20
111.2206664
40
0.2939794
50
71.6863486
51
82.8455995
0
ARC
8
DEFAULT_255_1_234
10
4.4788501
20
111.0397149
40
0.476506
50
82.6984714
51
90.1729175
0
ARC
8
DEFAULT_255_1_234
10
4.4766136
20
111.1620623
40
0.3541573
50
89.8708275
51
90.0431131
0
LINE
8
DEFAULT_255_1_234
10
5.0399293
20
115.7653
11
4.9282881
21
116.0705061
0
LINE
8
DEFAULT_255_1_234
10
4.9282881
20
116.0705061
11
4.4383521
21
116.0705061
0
LINE
8
DEFAULT_255_1_234
10
4.4383521
20
116.0705061
11
4.3283173
21
115.7653
0
LINE
8
DEFAULT_255_1_234
10
4.3283173
20
115.7653
11
4.1692889
21
115.7653
0
LINE
8
DEFAULT_255_1_234
10
4.1692889
20
115.7653
11
4.6158535
21
116.9347211
0
LINE
8
DEFAULT_255_1_234
10
4.6158535
20
116.9347211
11
4.7507867
21
116.9347211
0
LINE
8
DEFAULT_255_1_234
10
4.7507867
20
116.9347211
11
5.1981545
21
115.7653
0
LINE
8
DEFAULT_255_1_234
10
5.1981545
20
115.7653
11
5.0399293
21
115.7653
0
LINE
8
DEFAULT_255_1_234
10
4.6833201
20
116.7443689
11
4.4849362
21
116.1974075
0
LINE
8
DEFAULT_255_1_234
10
4.4849362
20
116.1974075
11
4.8825072
21
116.1974075
0
LINE
8
DEFAULT_255_1_234
10
4.8825072
20
116.1974075
11
4.6833201
21
116.7443689
0
LINE
8
DEFAULT_255_1_234
10
4.7181246
20
121.7589739
11
4.7181246
21
121.7156025
0
LINE
8
DEFAULT_255_1_234
10
4.1759823
20
121.0561968
11
4.147068
21
121.0561968
0
LINE
8
DEFAULT_255_1_234
10
4.147068
20
121.0561968
11
4.147068
21
121.1814919
0
LINE
8
DEFAULT_255_1_234
10
4.147068
20
121.1814919
11
4.1783918
21
121.1814919
0
LINE
8
DEFAULT_255_1_234
10
4.5695375
20
121.7300597
11
4.5695375
21
121.7894945
0
ARC
8
DEFAULT_255_1_234
10
4.2901644
20
121.8046403
40
0.3635579
50
297.4037347
51
320.016758
0
ARC
8
DEFAULT_255_1_234
10
4.3191593
20
121.748924
40
0.3007486
50
270.2633101
51
297.3851877
0
ARC
8
DEFAULT_255_1_234
10
4.3157549
20
121.7952904
40
0.3471448
50
269.9966443
51
270.7900392
0
ARC
8
DEFAULT_255_1_234
10
4.313203
20
121.7951143
40
0.3469779
50
254.5999133
51
270.4180344
0
ARC
8
DEFAULT_255_1_234
10
4.2989389
20
121.7386647
40
0.2887697
50
236.4717942
51
254.3541279
0
ARC
8
DEFAULT_255_1_234
10
4.3145607
20
121.7596711
40
0.3149125
50
208.4727207
51
236.2134933
0
ARC
8
DEFAULT_255_1_234
10
4.3784382
20
121.7987455
40
0.3897115
50
204.3447514
51
209.0453999
0
ARC
8
DEFAULT_255_1_234
10
4.4463958
20
121.8275656
40
0.4635101
50
183.9375985
51
204.1276318
0
ARC
8
DEFAULT_255_1_234
10
4.5372209
20
121.8373482
40
0.5548037
50
179.9652252
51
184.3013875
0
ARC
8
DEFAULT_255_1_234
10
4.5132255
20
121.8406507
40
0.5308164
50
166.7585989
51
180.3201225
0
ARC
8
DEFAULT_255_1_234
10
4.4285869
20
121.8590488
40
0.4442163
50
154.6955053
51
166.5679793
0
ARC
8
DEFAULT_255_1_234
10
4.3432739
20
121.902021
40
0.3487299
50
136.3324195
51
155.0871442
0
ARC
8
DEFAULT_255_1_234
10
4.3151812
20
121.9260954
40
0.3117924
50
121.236733
51
135.9680508
0
ARC
8
DEFAULT_255_1_234
10
4.329231
20
121.9000743
40
0.3413302
50
96.845628
51
120.9881519
0
ARC
8
DEFAULT_255_1_234
10
4.3437892
20
121.8065515
40
0.4359341
50
89.8870174
51
97.2802754
0
ARC
8
DEFAULT_255_1_234
10
4.349033
20
121.8703095
40
0.3722009
50
70.6505584
51
90.6749113
0
ARC
8
DEFAULT_255_1_234
10
4.3621609
20
121.9216361
40
0.3194571
50
36.7492984
51
69.8219918
0
ARC
8
DEFAULT_255_1_234
10
4.2622774
20
121.8437993
40
0.4460685
50
15.39587
51
37.0840084
0
ARC
8
DEFAULT_255_1_234
10
4.0493207
20
121.7817242
40
0.6678714
50
3.9488873
51
15.6798563
0
ARC
8
DEFAULT_255_1_234
10
3.8091835
20
121.7600964
40
0.9089418
50
359.929245
51
4.2665314
0
ARC
8
DEFAULT_255_1_234
10
3.3486272
20
121.7089513
40
1.3695135
50
352.8366322
51
0.2782669
0
ARC
8
DEFAULT_255_1_234
10
3.8773951
20
121.6402629
40
0.8363105
50
341.8359505
51
352.9884176
0
ARC
8
DEFAULT_255_1_234
10
4.199267
20
121.53177
40
0.4966642
50
322.8578092
51
342.1527901
0
ARC
8
DEFAULT_255_1_234
10
4.2856626
20
121.4728384
40
0.3922466
50
319.334325
51
322.0998941
0
ARC
8
DEFAULT_255_1_234
10
4.2546963
20
121.5039209
40
0.4360033
50
285.9541367
51
318.8878087
0
ARC
8
DEFAULT_255_1_234
10
4.1820224
20
121.73496
40
0.678149
50
272.9281676
51
286.4922826
0
ARC
8
DEFAULT_255_1_234
10
4.1630342
20
121.9600587
40
0.9039547
50
270.8207226
51
273.4012994
0
ARC
8
DEFAULT_255_1_234
10
4.1719193
20
121.7781666
40
0.5967098
50
270.6214993
51
281.4062806
0
ARC
8
DEFAULT_255_1_234
10
4.2149174
20
121.5725833
40
0.3866861
50
281.1852553
51
299.0621114
0
ARC
8
DEFAULT_255_1_234
10
4.2522745
20
121.5004798
40
0.3055236
50
299.5067782
51
313.1200873
0
ARC
8
DEFAULT_255_1_234
10
4.2544712
20
121.4925554
40
0.2982623
50
313.8526205
51
338.5989322
0
ARC
8
DEFAULT_255_1_234
10
4.0920786
20
121.5592781
40
0.4738131
50
338.2523585
51
351.2430902
0
ARC
8
DEFAULT_255_1_234
10
3.8510082
20
121.6002447
40
0.7183203
50
350.9409515
51
357.6691871
0
ARC
8
DEFAULT_255_1_234
10
4.3400512
20
121.8004764
40
0.2294452
50
269.9447023
51
306.8248917
0
ARC
8
DEFAULT_255_1_234
10
4.3163427
20
121.8427898
40
0.2775994
50
305.5072438
51
327.0773448
0
ARC
8
DEFAULT_255_1_234
10
4.3281868
20
121.8333025
40
0.2625056
50
327.4104943
51
336.840169
0
ARC
8
DEFAULT_255_1_234
10
4.0187933
20
121.7927302
40
0.5507537
50
359.6633817
51
10.117533
0
ARC
8
DEFAULT_255_1_234
10
4.1941731
20
121.8251777
40
0.372403
50
9.9430141
51
26.7700076
0
ARC
8
DEFAULT_255_1_234
10
4.2538943
20
121.8527187
40
0.3066865
50
27.2015464
51
34.6829435
0
ARC
8
DEFAULT_255_1_234
10
4.3028423
20
121.8894977
40
0.245519
50
34.1250343
51
50.3070065
0
ARC
8
DEFAULT_255_1_234
10
4.3475103
20
121.9429385
40
0.1758693
50
50.3851167
51
90.6705993
0
ARC
8
DEFAULT_255_1_234
10
4.3428336
20
121.9124799
40
0.2063326
50
89.272901
51
111.9140407
0
ARC
8
DEFAULT_255_1_234
10
4.3408864
20
121.926544
40
0.1925887
50
112.9382311
51
142.5320782
0
ARC
8
DEFAULT_255_1_234
10
4.3955044
20
121.8821969
40
0.2629232
50
142.1021256
51
166.3835592
0
ARC
8
DEFAULT_255_1_234
10
4.5136349
20
121.8516915
40
0.3849193
50
166.1100289
51
178.665427
0
ARC
8
DEFAULT_255_1_234
10
4.6183938
20
121.8458117
40
0.4897989
50
178.2632126
51
180.0111093
0
ARC
8
DEFAULT_255_1_234
10
4.5382059
20
121.8429728
40
0.40962
50
179.6161962
51
191.8787166
0
ARC
8
DEFAULT_255_1_234
10
4.4161898
20
121.8159896
40
0.2846655
50
191.6191692
51
215.2972286
0
ARC
8
DEFAULT_255_1_234
10
4.3965089
20
121.8044918
40
0.2619665
50
215.7320102
51
216.5355409
0
ARC
8
DEFAULT_255_1_234
10
4.3426175
20
121.7612647
40
0.1929497
50
215.7486685
51
239.9727502
0
ARC
8
DEFAULT_255_1_234
10
4.3356091
20
121.7561894
40
0.1850822
50
241.0650169
51
269.2810483
0
ARC
8
DEFAULT_255_1_234
10
4.3398006
20
121.8052371
40
0.2342059
50
268.4062526
51
270.0071348
0
ARC
8
DEFAULT_255_1_234
10
4.4262624
20
127.2103703
40
0.2822356
50
338.8763615
51
0.5166041
0
ARC
8
DEFAULT_255_1_234
10
4.4431278
20
127.2058208
40
0.2648703
50
325.8412414
51
338.4795939
0
ARC
8
DEFAULT_255_1_234
10
4.4040646
20
127.2329042
40
0.3124019
50
296.7586019
51
325.753654
0
ARC
8
DEFAULT_255_1_234
10
4.3752754
20
127.2813789
40
0.368668
50
296.0902311
51
297.3618122
0
ARC
8
DEFAULT_255_1_234
10
4.4010212
20
126.6259041
40
0.3518806
50
47.9009248
51
67.1946869
0
ARC
8
DEFAULT_255_1_234
10
4.4206454
20
126.6505395
40
0.320451
50
35.236241
51
47.551371
0
ARC
8
DEFAULT_255_1_234
10
4.4468072
20
126.6679993
40
0.2890103
50
359.2759738
51
35.4014081
0
ARC
8
DEFAULT_255_1_234
10
4.3723103
20
126.6606826
40
0.3635026
50
343.1294516
51
0.5776525
0
ARC
8
DEFAULT_255_1_234
10
4.4447648
20
126.640733
40
0.2883832
50
310.8497458
51
342.744803
0
ARC
8
DEFAULT_255_1_234
10
4.4029761
20
126.6884294
40
0.3517954
50
281.5473923
51
310.9169905
0
ARC
8
DEFAULT_255_1_234
10
4.367321
20
126.8437084
40
0.5110832
50
269.6192722
51
281.9789957
0
ARC
8
DEFAULT_255_1_234
10
4.3601
20
126.8437828
40
0.5111606
50
257.4584469
51
270.4287458
0
ARC
8
DEFAULT_255_1_234
10
4.3220143
20
126.6834344
40
0.3463762
50
228.7553743
51
257.8484423
0
ARC
8
DEFAULT_255_1_234
10
4.2910341
20
126.6461442
40
0.297916
50
184.0104442
51
228.5071787
0
ARC
8
DEFAULT_255_1_234
10
4.4073285
20
126.6638512
40
0.4152734
50
179.9315461
51
185.3254504
0
ARC
8
DEFAULT_255_1_234
10
4.2896931
20
126.6675992
40
0.2976554
50
145.6795913
51
180.6259649
0
ARC
8
DEFAULT_255_1_234
10
4.306028
20
126.6561929
40
0.3175776
50
115.5537925
51
145.6416199
0
ARC
8
DEFAULT_255_1_234
10
4.340121
20
126.5951028
40
0.3874232
50
113.2437915
51
116.2054627
0
ARC
8
DEFAULT_255_1_234
10
4.3248423
20
127.234958
40
0.3154751
50
222.9548379
51
244.1372485
0
ARC
8
DEFAULT_255_1_234
10
4.3126498
20
127.2212834
40
0.2972382
50
213.3439227
51
222.6271327
0
ARC
8
DEFAULT_255_1_234
10
4.2934433
20
127.2082308
40
0.274019
50
180.4316517
51
213.2713999
0
ARC
8
DEFAULT_255_1_234
10
4.3509434
20
127.212911
40
0.33158
50
179.9992944
51
181.1655061
0
ARC
8
DEFAULT_255_1_234
10
4.3918851
20
127.2163561
40
0.3725376
50
164.6186108
51
180.5292368
0
ARC
8
DEFAULT_255_1_234
10
4.3020714
20
127.2405101
40
0.2795349
50
132.2454369
51
164.5092287
0
ARC
8
DEFAULT_255_1_234
10
4.3307818
20
127.2080028
40
0.3229019
50
100.7052766
51
132.1387266
0
ARC
8
DEFAULT_255_1_234
10
4.361279
20
127.0702086
40
0.4639835
50
89.6732617
51
101.2449487
0
ARC
8
DEFAULT_255_1_234
10
4.3674988
20
127.087699
40
0.4464999
50
76.2876631
51
90.4586123
0
ARC
8
DEFAULT_255_1_234
10
4.398122
20
127.209922
40
0.3205023
50
47.8240157
51
76.4266918
0
ARC
8
DEFAULT_255_1_234
10
4.420377
20
127.235959
40
0.2862661
50
6.9168658
51
47.6261438
0
ARC
8
DEFAULT_255_1_234
10
4.3017173
20
127.214037
40
0.4067708
50
359.8419705
51
7.9694496
0
ARC
8
DEFAULT_255_1_234
10
4.335907
20
126.6699925
40
0.2513121
50
359.4454068
51
16.9256425
0
ARC
8
DEFAULT_255_1_234
10
4.3827881
20
126.6829033
40
0.2027071
50
17.292259
51
45.462717
0
ARC
8
DEFAULT_255_1_234
10
4.3773817
20
126.6782434
40
0.2098212
50
45.3028762
51
83.1921472
0
ARC
8
DEFAULT_255_1_234
10
4.3630501
20
126.5980895
40
0.2911472
50
82.2614531
51
90.143954
0
ARC
8
DEFAULT_255_1_234
10
4.3599621
20
126.621395
40
0.2678513
50
89.4959189
51
104.8579811
0
ARC
8
DEFAULT_255_1_234
10
4.342288
20
126.688389
40
0.1985654
50
104.8855873
51
135.2448349
0
ARC
8
DEFAULT_255_1_234
10
4.3472653
20
126.6839336
40
0.2052373
50
135.3398955
51
172.104394
0
ARC
8
DEFAULT_255_1_234
10
4.4279711
20
126.6684925
40
0.2873299
50
171.2651929
51
180.1859362
0
ARC
8
DEFAULT_255_1_234
10
4.4110412
20
126.6652733
40
0.2704083
50
179.515471
51
193.6466734
0
ARC
8
DEFAULT_255_1_234
10
4.3294181
20
126.6444777
40
0.1861855
50
193.3540587
51
225.8256931
0
ARC
8
DEFAULT_255_1_234
10
4.3334938
20
126.6515524
40
0.1941102
50
226.418029
51
255.8553723
0
ARC
8
DEFAULT_255_1_234
10
4.3591371
20
126.7451998
40
0.2911917
50
255.4655572
51
268.7985967
0
ARC
8
DEFAULT_255_1_234
10
4.3638563
20
126.8290491
40
0.3751331
50
268.3464808
51
270.0104874
0
ARC
8
DEFAULT_255_1_234
10
4.3661951
20
126.7606138
40
0.3067064
50
269.575914
51
282.0823146
0
ARC
8
DEFAULT_255_1_234
10
4.388686
20
126.6611803
40
0.2047712
50
281.7522535
51
306.6056425
0
ARC
8
DEFAULT_255_1_234
10
4.3985286
20
126.6450487
40
0.1859604
50
307.1350025
51
314.0277951
0
ARC
8
DEFAULT_255_1_234
10
4.394937
20
126.6476766
40
0.1903475
50
314.2553419
51
350.169324
0
ARC
8
DEFAULT_255_1_234
10
4.3097839
20
126.6661409
40
0.2774269
50
349.4145679
51
0.2930737
0
ARC
8
DEFAULT_255_1_234
10
4.3618272
20
127.1820353
40
0.2300764
50
89.477591
51
105.729794
0
ARC
8
DEFAULT_255_1_234
10
4.3482185
20
127.2325637
40
0.1777519
50
105.922966
51
135.1662921
0
ARC
8
DEFAULT_255_1_234
10
4.3502688
20
127.2311419
40
0.1802087
50
135.3053131
51
168.9882338
0
ARC
8
DEFAULT_255_1_234
10
4.433026
20
127.2121721
40
0.2650806
50
168.3802067
51
180.3602358
0
ARC
8
DEFAULT_255_1_234
10
4.410184
20
127.2084041
40
0.2422425
50
179.5029707
51
194.9126783
0
ARC
8
DEFAULT_255_1_234
10
4.3516501
20
127.193011
40
0.1817188
50
194.9722181
51
224.1943972
0
ARC
8
DEFAULT_255_1_234
10
4.3488368
20
127.1907169
40
0.1781027
50
224.2961434
51
262.0157375
0
ARC
8
DEFAULT_255_1_234
10
4.3630611
20
127.2638661
40
0.2525492
50
261.1250369
51
270.1959853
0
ARC
8
DEFAULT_255_1_234
10
4.3660366
20
127.2451339
40
0.233825
50
269.4825617
51
285.0988277
0
ARC
8
DEFAULT_255_1_234
10
4.3814525
20
127.187299
40
0.1739712
50
285.1585659
51
315.9484648
0
ARC
8
DEFAULT_255_1_234
10
4.3725537
20
127.1954886
40
0.1860616
50
316.0412958
51
351.9162715
0
ARC
8
DEFAULT_255_1_234
10
4.2992492
20
127.2096245
40
0.2606517
50
351.1056823
51
0.1936567
0
ARC
8
DEFAULT_255_1_234
10
4.3255321
20
127.2126369
40
0.234377
50
359.4789506
51
16.0679113
0
ARC
8
DEFAULT_255_1_234
10
4.373128
20
127.225481
40
0.1850875
50
16.3251951
51
44.791304
0
ARC
8
DEFAULT_255_1_234
10
4.3713561
20
127.2255339
40
0.186312
50
44.3958661
51
88.2498933
0
ARC
8
DEFAULT_255_1_234
10
4.3640115
20
127.1644154
40
0.2476868
50
86.9833827
51
90.0200148
0
LINE
8
DEFAULT_255_1_234
10
4.7542674
20
132.8097211
11
4.7542674
21
132.726191
0
LINE
8
DEFAULT_255_1_234
10
4.7542674
20
132.726191
11
4.2699536
21
131.6403
0
LINE
8
DEFAULT_255_1_234
10
4.2699536
20
131.6403
11
4.1141379
21
131.6403
0
LINE
8
DEFAULT_255_1_234
10
4.1141379
20
131.6403
11
4.5968454
21
132.6876387
0
LINE
8
DEFAULT_255_1_234
10
4.5968454
20
132.6876387
11
3.9639444
21
132.6876387
0
LINE
8
DEFAULT_255_1_234
10
3.9639444
20
132.6876387
11
3.9639444
21
132.8097211
0
LINE
8
DEFAULT_255_1_234
10
3.9639444
20
132.8097211
11
4.7542674
21
132.8097211
0
LINE
8
DEFAULT_255_1_234
10
4.5558835
20
138.1022243
11
4.5823882
21
138.1022243
0
LINE
8
DEFAULT_255_1_234
10
4.5823882
20
138.1022243
11
4.5823882
21
137.976126
0
LINE
8
DEFAULT_255_1_234
10
4.5823882
20
137.976126
11
4.5550803
21
137.976126
0
LINE
8
DEFAULT_255_1_234
10
4.0081189
20
137.3769583
11
4.0081189
21
137.4339836
0
LINE
8
DEFAULT_255_1_234
10
4.1575093
20
137.4147075
11
4.1575093
21
137.3600917
0
ARC
8
DEFAULT_255_1_234
10
4.5603151
20
137.4763455
40
0.4998079
50
90.6001036
51
104.514704
0
ARC
8
DEFAULT_255_1_234
10
4.5214667
20
137.6208131
40
0.3502176
50
104.2855254
51
133.862935
0
ARC
8
DEFAULT_255_1_234
10
4.5378424
20
137.609983
40
0.3693984
50
134.5302688
51
161.6210873
0
ARC
8
DEFAULT_255_1_234
10
4.7031613
20
137.5516895
40
0.5446739
50
161.2849839
51
174.2076652
0
ARC
8
DEFAULT_255_1_234
10
4.843855
20
137.5322787
40
0.6866274
50
173.7810589
51
174.9254635
0
ARC
8
DEFAULT_255_1_234
10
4.3888382
20
137.3939839
40
0.3033419
50
95.8330959
51
138.9954921
0
ARC
8
DEFAULT_255_1_234
10
4.4111738
20
137.2661375
40
0.4328947
50
89.8753725
51
97.0544009
0
ARC
8
DEFAULT_255_1_234
10
4.4159204
20
137.3496748
40
0.3493769
50
71.6407809
51
90.6240094
0
ARC
8
DEFAULT_255_1_234
10
4.4309777
20
137.4051082
40
0.2920396
50
39.6367836
51
71.019018
0
ARC
8
DEFAULT_255_1_234
10
4.367325
20
137.3500998
40
0.3761538
50
10.658731
51
39.9043955
0
ARC
8
DEFAULT_255_1_234
10
4.2125333
20
137.3164686
40
0.5345136
50
359.682601
51
11.132623
0
ARC
8
DEFAULT_255_1_234
10
4.2085464
20
137.309401
40
0.5385081
50
347.2486944
51
0.4369317
0
ARC
8
DEFAULT_255_1_234
10
4.3752941
20
137.2692807
40
0.3670249
50
318.1409698
51
347.6118597
0
ARC
8
DEFAULT_255_1_234
10
4.4077934
20
137.2425702
40
0.3250007
50
275.6342139
51
317.8248465
0
ARC
8
DEFAULT_255_1_234
10
4.3857045
20
137.3725219
40
0.4565864
50
269.8874292
51
276.7917694
0
ARC
8
DEFAULT_255_1_234
10
4.3802116
20
137.2699743
40
0.3540676
50
246.9140195
51
270.7437342
0
ARC
8
DEFAULT_255_1_234
10
4.3808506
20
137.2557384
40
0.3412781
50
218.1665114
51
245.878116
0
ARC
8
DEFAULT_255_1_234
10
4.4687967
20
137.3293279
40
0.455911
50
191.4115814
51
218.6077802
0
ARC
8
DEFAULT_255_1_234
10
4.6626056
20
137.3727833
40
0.6545001
50
179.6345085
51
191.7836486
0
ARC
8
DEFAULT_255_1_234
10
5.2208393
20
137.4406697
40
1.2127388
50
171.4525249
51
180.3158839
0
ARC
8
DEFAULT_255_1_234
10
4.7813269
20
137.5090608
40
0.7679464
50
157.9802646
51
171.6246686
0
ARC
8
DEFAULT_255_1_234
10
4.559929
20
137.5973421
40
0.5296008
50
141.4298019
51
157.854097
0
ARC
8
DEFAULT_255_1_234
10
4.495761
20
137.6427381
40
0.4511509
50
102.8715806
51
140.8564722
0
ARC
8
DEFAULT_255_1_234
10
4.5605226
20
137.3987552
40
0.7034845
50
90.3778349
51
103.5869322
0
ARC
8
DEFAULT_255_1_234
10
4.3867002
20
137.338273
40
0.2370698
50
89.8751008
51
126.2071704
0
ARC
8
DEFAULT_255_1_234
10
4.3912792
20
137.3228303
40
0.2522934
50
124.9745049
51
144.895901
0
ARC
8
DEFAULT_255_1_234
10
4.3736982
20
137.337156
40
0.2296779
50
145.2974905
51
160.2660252
0
ARC
8
DEFAULT_255_1_234
10
4.6809521
20
137.3569071
40
0.5234525
50
179.6514266
51
190.2855912
0
ARC
8
DEFAULT_255_1_234
10
4.5115658
20
137.3249786
40
0.3510893
50
190.0945431
51
207.5098196
0
ARC
8
DEFAULT_255_1_234
10
4.4549928
20
137.2980623
40
0.288489
50
207.9583163
51
216.3251085
0
ARC
8
DEFAULT_255_1_234
10
4.4210036
20
137.2701105
40
0.2445587
50
215.7661442
51
232.5456785
0
ARC
8
DEFAULT_255_1_234
10
4.3827019
20
137.2214482
40
0.1826382
50
232.8005391
51
270.6605633
0
ARC
8
DEFAULT_255_1_234
10
4.387272
20
137.2578612
40
0.2190529
50
269.35537
51
288.4744281
0
ARC
8
DEFAULT_255_1_234
10
4.3965617
20
137.2229118
40
0.1829749
50
289.1833337
51
322.9683818
0
ARC
8
DEFAULT_255_1_234
10
4.3354139
20
137.2711391
40
0.2608399
50
322.6007884
51
346.5182367
0
ARC
8
DEFAULT_255_1_234
10
4.2196735
20
137.3006616
40
0.3802777
50
346.2582162
51
358.7741648
0
ARC
8
DEFAULT_255_1_234
10
4.1178404
20
137.3061965
40
0.4822176
50
358.3755224
51
0.0098023
0
ARC
8
DEFAULT_255_1_234
10
4.1934591
20
137.3089657
40
0.4066078
50
359.6214041
51
11.2839074
0
ARC
8
DEFAULT_255_1_234
10
4.3211738
20
137.3356066
40
0.2761514
50
11.0482309
51
31.8146458
0
ARC
8
DEFAULT_255_1_234
10
4.3520781
20
137.3523584
40
0.2410679
50
32.3035391
51
38.082671
0
ARC
8
DEFAULT_255_1_234
10
4.3941441
20
137.3904662
40
0.1844966
50
36.825067
51
85.7415724
0
ARC
8
DEFAULT_255_1_234
10
4.3874274
20
137.3404301
40
0.2349122
50
85.0140713
51
90.0513278
0
LINE
8
DEFAULT_255_1_234
10
4.1864235
20
142.7794963
11
4.0675538
21
142.8100169
0
LINE
8
DEFAULT_255_1_234
10
4.0675538
20
142.8100169
11
4.1269887
21
143.3931211
0
LINE
8
DEFAULT_255_1_234
10
4.1269887
20
143.3931211
11
4.7261563
21
143.3931211
0
LINE
8
DEFAULT_255_1_234
10
4.7261563
20
143.3931211
11
4.7261563
21
143.2557784
0
LINE
8
DEFAULT_255_1_234
10
4.7261563
20
143.2557784
11
4.253087
21
143.2557784
0
LINE
8
DEFAULT_255_1_234
10
4.253087
20
143.2557784
11
4.2177473
21
142.9369184
0
LINE
8
DEFAULT_255_1_234
10
4.0257888
20
142.5313156
11
4.1663442
21
142.5313156
0
LINE
8
DEFAULT_255_1_234
10
4.2257791
20
142.8116232
11
4.1864235
21
142.7794963
0
ARC
8
DEFAULT_255_1_234
10
4.4032257
20
142.618923
40
0.3681349
50
93.7182161
51
120.2538958
0
ARC
8
DEFAULT_255_1_234
10
4.412652
20
142.5381394
40
0.449379
50
89.9660152
51
94.2496022
0
ARC
8
DEFAULT_255_1_234
10
4.4167254
20
142.5970549
40
0.390482
50
73.8043271
51
90.5585896
0
ARC
8
DEFAULT_255_1_234
10
4.4402151
20
142.6828602
40
0.3015334
50
41.3071453
51
73.5430202
0
ARC
8
DEFAULT_255_1_234
10
4.3985978
20
142.6470324
40
0.3564457
50
13.5075983
51
41.2174222
0
ARC
8
DEFAULT_255_1_234
10
4.2344182
20
142.6040486
40
0.5261351
50
1.1331335
51
13.8829381
0
ARC
8
DEFAULT_255_1_234
10
4.0932551
20
142.5964665
40
0.6674378
50
359.9919444
51
1.544251
0
ARC
8
DEFAULT_255_1_234
10
4.2209377
20
142.592328
40
0.5397702
50
347.8572367
51
0.4293338
0
ARC
8
DEFAULT_255_1_234
10
4.3959695
20
142.5526736
40
0.3603188
50
323.673004
51
348.1672506
0
ARC
8
DEFAULT_255_1_234
10
4.4254203
20
142.5347168
40
0.3259678
50
316.8171152
51
323.1492751
0
ARC
8
DEFAULT_255_1_234
10
4.4315392
20
142.531046
40
0.3189975
50
281.8396411
51
316.5457803
0
ARC
8
DEFAULT_255_1_234
10
4.3939656
20
142.6865762
40
0.4789527
50
269.5770101
51
282.4214771
0
ARC
8
DEFAULT_255_1_234
10
4.3868467
20
142.6652125
40
0.45759
50
256.2427136
51
270.4486331
0
ARC
8
DEFAULT_255_1_234
10
4.356937
20
142.5452229
40
0.3339303
50
228.9023911
51
256.3314342
0
ARC
8
DEFAULT_255_1_234
10
4.3495602
20
142.5335746
40
0.32031
50
193.753695
51
228.5271154
0
ARC
8
DEFAULT_255_1_234
10
4.4733556
20
142.56988
40
0.4492253
50
184.924711
51
194.497588
0
ARC
8
DEFAULT_255_1_234
10
4.4926123
20
142.5734591
40
0.3289787
50
187.3600538
51
198.6732863
0
ARC
8
DEFAULT_255_1_234
10
4.3876417
20
142.5370674
40
0.217884
50
198.4451669
51
217.794479
0
ARC
8
DEFAULT_255_1_234
10
4.3580592
20
142.5161085
40
0.1816698
50
218.2887171
51
228.5612368
0
ARC
8
DEFAULT_255_1_234
10
4.3678379
20
142.5292963
40
0.1980329
50
228.9654866
51
258.1234728
0
ARC
8
DEFAULT_255_1_234
10
4.3884089
20
142.6173833
40
0.2884748
50
257.7258293
51
270.401361
0
ARC
8
DEFAULT_255_1_234
10
4.3928975
20
142.5728821
40
0.2439788
50
269.4204404
51
286.4209037
0
ARC
8
DEFAULT_255_1_234
10
4.4077463
20
142.5189657
40
0.1880666
50
286.7251356
51
320.600362
0
ARC
8
DEFAULT_255_1_234
10
4.3694288
20
142.5500595
40
0.2374121
50
320.6712579
51
344.5441685
0
ARC
8
DEFAULT_255_1_234
10
4.2537614
20
142.5840045
40
0.3579479
50
344.2412205
51
356.7357071
0
ARC
8
DEFAULT_255_1_234
10
4.1288763
20
142.5943444
40
0.4832297
50
356.3548756
51
0.0500261
0
ARC
8
DEFAULT_255_1_234
10
4.2625272
20
142.597465
40
0.3495889
50
359.5576869
51
12.953486
0
ARC
8
DEFAULT_255_1_234
10
4.3680169
20
142.6230434
40
0.2410532
50
12.6490276
51
41.6081334
0
ARC
8
DEFAULT_255_1_234
10
4.391054
20
142.6426321
40
0.2108218
50
41.7850273
51
85.9892764
0
ARC
8
DEFAULT_255_1_234
10
4.3787277
20
142.5613462
40
0.2928454
50
84.6957577
51
90.0676183
0
ARC
8
DEFAULT_255_1_234
10
4.3763761
20
142.4944716
40
0.3597255
50
89.6804936
51
99.1614436
0
ARC
8
DEFAULT_255_1_234
10
4.3558392
20
142.6172131
40
0.235281
50
98.9830931
51
113.8908934
0
ARC
8
DEFAULT_255_1_234
10
4.3328802
20
142.6713587
40
0.176479
50
114.1950727
51
127.3641004
0
LINE
8
DEFAULT_255_1_234
10
4.8381628
20
148.6847211
11
4.8381628
21
147.908052
0
LINE
8
DEFAULT_255_1_234
10
4.8381628
20
147.908052
11
5.0004039
21
147.908052
0
LINE
8
DEFAULT_255_1_234
10
5.0004039
20
147.908052
11
5.0004039
21
147.7867728
0
LINE
8
DEFAULT_255_1_234
10
5.0004039
20
147.7867728
11
4.8381628
21
147.7867728
0
LINE
8
DEFAULT_255_1_234
10
4.8381628
20
147.7867728
11
4.8381628
21
147.5153
0
LINE
8
DEFAULT_255_1_234
10
4.8381628
20
147.5153
11
4.6887725
21
147.5153
0
LINE
8
DEFAULT_255_1_234
10
4.6887725
20
147.5153
11
4.6887725
21
147.7867728
0
LINE
8
DEFAULT_255_1_234
10
4.6887725
20
147.7867728
11
4.1562682
21
147.7867728
0
LINE
8
DEFAULT_255_1_234
10
4.1562682
20
147.7867728
11
4.1562682
21
147.8743187
0
LINE
8
DEFAULT_255_1_234
10
4.1562682
20
147.8743187
11
4.6799375
21
148.6847211
0
LINE
8
DEFAULT_255_1_234
10
4.6799375
20
148.6847211
11
4.8381628
21
148.6847211
0
LINE
8
DEFAULT_255_1_234
10
4.6711026
20
148.4493912
11
4.3249347
21
147.908052
0
LINE
8
DEFAULT_255_1_234
10
4.3249347
20
147.908052
11
4.6887725
21
147.908052
0
LINE
8
DEFAULT_255_1_234
10
4.6887725
20
147.908052
11
4.6887725
21
148.4815181
0
LINE
8
DEFAULT_255_1_234
10
4.6887725
20
148.4815181
11
4.6711026
21
148.4493912
0
LINE
8
DEFAULT_255_1_234
10
4.2153378
20
153.3427169
11
4.2153378
21
153.4639962
0
LINE
8
DEFAULT_255_1_234
10
4.2153378
20
153.4639962
11
4.326979
21
153.4639962
0
LINE
8
DEFAULT_255_1_234
10
4.1366268
20
153.6696087
11
3.9880396
21
153.6696087
0
LINE
8
DEFAULT_255_1_234
10
3.9775983
20
153.1154188
11
4.1269887
21
153.1154188
0
LINE
8
DEFAULT_255_1_234
10
4.326979
20
153.3427169
11
4.2153378
21
153.3427169
0
ARC
8
DEFAULT_255_1_234
10
4.3240656
20
153.8032713
40
0.3392876
50
270.4919872
51
281.8951556
0
ARC
8
DEFAULT_255_1_234
10
4.3481918
20
153.6930702
40
0.2264817
50
281.6691735
51
301.2943132
0
ARC
8
DEFAULT_255_1_234
10
4.3652128
20
153.6619304
40
0.1910381
50
301.7833094
51
311.7545298
0
ARC
8
DEFAULT_255_1_234
10
4.3743704
20
153.6517748
40
0.1773635
50
311.7323931
51
354.2802411
0
ARC
8
DEFAULT_255_1_234
10
4.3017329
20
153.6642722
40
0.2509385
50
353.0937916
51
0.1181479
0
ARC
8
DEFAULT_255_1_234
10
4.2556114
20
153.6690386
40
0.2970898
50
359.1805295
51
15.0453146
0
ARC
8
DEFAULT_255_1_234
10
4.3901951
20
153.7082992
40
0.1569564
50
13.9577229
51
77.6713066
0
ARC
8
DEFAULT_255_1_234
10
4.351548
20
153.5697949
40
0.3006298
50
76.1116566
51
90.7026153
0
ARC
8
DEFAULT_255_1_234
10
4.3456318
20
153.5971545
40
0.2732568
50
89.5324876
51
103.531937
0
ARC
8
DEFAULT_255_1_234
10
4.3255762
20
153.6770884
40
0.1908508
50
103.2931773
51
133.5619022
0
ARC
8
DEFAULT_255_1_234
10
4.3211251
20
153.6830375
40
0.1834746
50
133.8349307
51
173.5344437
0
ARC
8
DEFAULT_255_1_234
10
4.3934294
20
153.6702213
40
0.2568033
50
172.5096846
51
180.1366907
0
ARC
8
DEFAULT_255_1_234
10
4.2983188
20
153.6736622
40
0.3103056
50
155.3484492
51
180.7484736
0
ARC
8
DEFAULT_255_1_234
10
4.2934277
20
153.6707846
40
0.3070957
50
131.5744599
51
154.4798489
0
ARC
8
DEFAULT_255_1_234
10
4.3247424
20
153.639131
40
0.3515643
50
96.9875458
51
131.9690667
0
ARC
8
DEFAULT_255_1_234
10
4.3466904
20
153.5145636
40
0.4779224
50
89.8596053
51
97.7825159
0
ARC
8
DEFAULT_255_1_234
10
4.3514967
20
153.4883616
40
0.5041361
50
78.3655447
51
90.4131539
0
ARC
8
DEFAULT_255_1_234
10
4.3872885
20
153.6542887
40
0.3344039
50
56.6229102
51
78.638727
0
ARC
8
DEFAULT_255_1_234
10
4.4087829
20
153.6918805
40
0.2912001
50
47.0253525
51
56.0854072
0
ARC
8
DEFAULT_255_1_234
10
4.4107609
20
153.6958223
40
0.2869704
50
10.9208013
51
46.7778124
0
ARC
8
DEFAULT_255_1_234
10
4.2743675
20
153.6642857
40
0.426899
50
359.6364486
51
11.6087304
0
ARC
8
DEFAULT_255_1_234
10
4.4578519
20
153.6627752
40
0.243409
50
332.3549906
51
359.7179418
0
ARC
8
DEFAULT_255_1_234
10
4.3928121
20
153.6936142
40
0.3153459
50
325.2333722
51
332.8745602
0
ARC
8
DEFAULT_255_1_234
10
4.4080744
20
153.6829828
40
0.2967456
50
292.9802137
51
325.2392345
0
ARC
8
DEFAULT_255_1_234
10
4.3806118
20
153.7363863
40
0.3566604
50
292.5402179
51
293.6924929
0
ARC
8
DEFAULT_255_1_234
10
4.4198714
20
153.0909091
40
0.3307468
50
57.6435486
51
72.8625112
0
ARC
8
DEFAULT_255_1_234
10
4.4553214
20
153.1483549
40
0.2632492
50
36.7248896
51
57.4697979
0
ARC
8
DEFAULT_255_1_234
10
4.4541847
20
153.149622
40
0.2634081
50
8.0545065
51
36.356114
0
ARC
8
DEFAULT_255_1_234
10
4.3679032
20
153.1341174
40
0.3510261
50
359.8320645
51
8.5869982
0
ARC
8
DEFAULT_255_1_234
10
4.3303808
20
153.1293101
40
0.3885653
50
343.9829931
51
0.5571613
0
ARC
8
DEFAULT_255_1_234
10
4.4190005
20
153.1050438
40
0.2966924
50
311.6359546
51
343.7651759
0
ARC
8
DEFAULT_255_1_234
10
4.3811574
20
153.1477102
40
0.3537231
50
279.7829875
51
311.6255694
0
ARC
8
DEFAULT_255_1_234
10
4.3510351
20
153.291428
40
0.5004971
50
269.7286406
51
280.3856417
0
ARC
8
DEFAULT_255_1_234
10
4.3448423
20
153.2872996
40
0.4963778
50
256.6828919
51
270.4412052
0
ARC
8
DEFAULT_255_1_234
10
4.3109719
20
153.1488394
40
0.3538406
50
229.4223008
51
256.8556159
0
ARC
8
DEFAULT_255_1_234
10
4.2695112
20
153.1021736
40
0.2914296
50
181.818294
51
229.6455059
0
ARC
8
DEFAULT_255_1_234
10
4.3735068
20
153.1152496
40
0.3959084
50
179.9755256
51
183.2323064
0
ARC
8
DEFAULT_255_1_234
10
4.3562814
20
153.1132037
40
0.2293034
50
179.4465117
51
196.2869258
0
ARC
8
DEFAULT_255_1_234
10
4.3075222
20
153.0998651
40
0.1787621
50
196.5661473
51
227.705904
0
ARC
8
DEFAULT_255_1_234
10
4.3239317
20
153.1182155
40
0.2033784
50
227.7652068
51
257.8762805
0
ARC
8
DEFAULT_255_1_234
10
4.3464287
20
153.2125156
40
0.3003081
50
257.4584385
51
270.426602
0
ARC
8
DEFAULT_255_1_234
10
4.3509853
20
153.2414996
40
0.329292
50
269.5962073
51
280.8789248
0
ARC
8
DEFAULT_255_1_234
10
4.3739382
20
153.1268685
40
0.2123908
50
280.6346389
51
299.8595945
0
ARC
8
DEFAULT_255_1_234
10
4.3930289
20
153.0906212
40
0.171457
50
300.3576302
51
314.5517981
0
ARC
8
DEFAULT_255_1_234
10
4.3847349
20
153.0966919
40
0.1816095
50
315.0728369
51
345.0431014
0
ARC
8
DEFAULT_255_1_234
10
4.2924163
20
153.1235841
40
0.2777492
50
344.5986631
51
357.9269593
0
ARC
8
DEFAULT_255_1_234
10
4.2028489
20
153.1297276
40
0.3674917
50
357.4748886
51
0.0231117
0
ARC
8
DEFAULT_255_1_234
10
4.3051599
20
153.1321679
40
0.2651907
50
359.5047933
51
13.4239635
0
ARC
8
DEFAULT_255_1_234
10
4.3918242
20
153.1543478
40
0.1757509
50
12.9498199
51
48.7551375
0
ARC
8
DEFAULT_255_1_234
10
4.3735976
20
153.12944
40
0.2065134
50
49.5088623
51
72.1836453
0
ARC
8
DEFAULT_255_1_234
10
4.3378129
20
153.0232291
40
0.3185836
50
71.9010081
51
84.3554254
0
ARC
8
DEFAULT_255_1_234
10
4.3216761
20
152.8871326
40
0.4556151
50
84.0193428
51
89.333121
0
LINE
8
DEFAULT_255_1_234
10
4.7655119
20
158.2199792
11
4.7655119
21
158.0987
0
LINE
8
DEFAULT_255_1_234
10
4.7655119
20
158.0987
11
3.999284
21
158.0987
0
LINE
8
DEFAULT_255_1_234
10
3.999284
20
158.0987
11
3.999284
21
158.2055221
0
LINE
8
DEFAULT_255_1_234
10
3.999284
20
158.2055221
11
4.4040836
21
158.6552995
0
LINE
8
DEFAULT_255_1_234
10
4.1253823
20
158.9235595
11
3.9767952
21
158.9235595
0
LINE
8
DEFAULT_255_1_234
10
4.4916296
20
158.5597218
11
4.1783918
21
158.2199792
0
LINE
8
DEFAULT_255_1_234
10
4.1783918
20
158.2199792
11
4.7655119
21
158.2199792
0
ARC
8
DEFAULT_255_1_234
10
3.055067
20
159.8482527
40
1.8008286
50
318.5132453
51
320.7828378
0
ARC
8
DEFAULT_255_1_234
10
3.5837644
20
159.4179426
40
1.1191493
50
320.7372736
51
323.9737074
0
ARC
8
DEFAULT_255_1_234
10
3.9757501
20
159.1339361
40
0.6350923
50
323.8961724
51
328.6421089
0
ARC
8
DEFAULT_255_1_234
10
4.1804096
20
159.0077031
40
0.3946393
50
328.8299013
51
331.789948
0
ARC
8
DEFAULT_255_1_234
10
4.2801274
20
158.9562509
40
0.2824501
50
331.4255242
51
352.9364833
0
ARC
8
DEFAULT_255_1_234
10
4.2937775
20
158.9531976
40
0.2685315
50
353.2248685
51
0.0169286
0
ARC
8
DEFAULT_255_1_234
10
4.3147652
20
158.955495
40
0.2475536
50
359.4866256
51
15.9339782
0
ARC
8
DEFAULT_255_1_234
10
4.3654637
20
158.9691286
40
0.1950618
50
16.1714718
51
43.5284424
0
ARC
8
DEFAULT_255_1_234
10
4.3731946
20
158.9768573
40
0.184134
50
43.4415429
51
83.1661404
0
ARC
8
DEFAULT_255_1_234
10
4.3597864
20
158.9031771
40
0.258926
50
82.160215
51
90.1505798
0
ARC
8
DEFAULT_255_1_234
10
4.3566291
20
158.8494865
40
0.3126255
50
89.5460705
51
102.5418777
0
ARC
8
DEFAULT_255_1_234
10
4.3323377
20
158.9525665
40
0.2067346
50
102.1739365
51
129.2061916
0
ARC
8
DEFAULT_255_1_234
10
4.3244449
20
158.9650094
40
0.1921118
50
129.7279328
51
135.7542026
0
ARC
8
DEFAULT_255_1_234
10
4.3365977
20
158.9553045
40
0.2075944
50
136.175737
51
166.3674722
0
ARC
8
DEFAULT_255_1_234
10
4.4372896
20
158.9283182
40
0.3118201
50
165.9092917
51
178.8683903
0
ARC
8
DEFAULT_255_1_234
10
4.5237757
20
158.9236179
40
0.3983935
50
178.438168
51
180.0083905
0
ARC
8
DEFAULT_255_1_234
10
4.3836359
20
158.9275231
40
0.4068601
50
163.2878735
51
180.5581814
0
ARC
8
DEFAULT_255_1_234
10
4.3034621
20
158.949584
40
0.3237344
50
133.454115
51
162.9470031
0
ARC
8
DEFAULT_255_1_234
10
4.3213162
20
158.9306
40
0.349795
50
100.7869394
51
133.4384016
0
ARC
8
DEFAULT_255_1_234
10
4.3560934
20
158.7757319
40
0.5084616
50
89.6605301
51
101.3704185
0
ARC
8
DEFAULT_255_1_234
10
4.3627273
20
158.7818496
40
0.502348
50
78.2171172
51
90.4130393
0
ARC
8
DEFAULT_255_1_234
10
4.3982351
20
158.9442637
40
0.3361092
50
55.9268222
51
78.4888551
0
ARC
8
DEFAULT_255_1_234
10
4.4178791
20
158.9781324
40
0.2970617
50
47.9292255
51
55.4054003
0
ARC
8
DEFAULT_255_1_234
10
4.4280352
20
158.9884502
40
0.2825983
50
4.3347696
51
48.0560701
0
ARC
8
DEFAULT_255_1_234
10
4.3184745
20
158.9714601
40
0.393225
50
359.925209
51
5.5967654
0
ARC
8
DEFAULT_255_1_234
10
4.3613637
20
158.9770816
40
0.3503892
50
337.8914096
51
358.9967724
0
ARC
8
DEFAULT_255_1_234
10
4.0900049
20
159.0817706
40
0.6412172
50
326.9135351
51
338.3505194
0
ARC
8
DEFAULT_255_1_234
10
3.6914353
20
159.3372284
40
1.1146189
50
319.6472867
51
327.095818
0
ARC
8
DEFAULT_255_1_234
10
3.3081356
20
159.6534
40
1.6114559
50
317.2586784
51
319.9046139
0
LINE
8
DEFAULT_255_1_234
10
4.4793137
20
164.5653433
11
4.4793137
21
163.3903
0
LINE
8
DEFAULT_255_1_234
10
4.4793137
20
163.3903
11
4.3299234
21
163.3903
0
LINE
8
DEFAULT_255_1_234
10
4.3299234
20
163.3903
11
4.3299234
21
164.3806133
0
LINE
8
DEFAULT_255_1_234
10
4.3299234
20
164.3806133
11
4.0303396
21
164.2705785
0
LINE
8
DEFAULT_255_1_234
10
4.0303396
20
164.2705785
11
4.0303396
21
164.4055117
0
LINE
8
DEFAULT_255_1_234
10
4.0303396
20
164.4055117
11
4.4560217
21
164.5653433
0
LINE
8
DEFAULT_255_1_234
10
4.4560217
20
164.5653433
11
4.4793137
21
164.5653433
0
LINE
8
DEFAULT_255_1_234
10
4.7325817
20
169.3735327
11
4.7325817
21
169.1807709
0
LINE
8
DEFAULT_255_1_234
10
3.994465
20
169.1606916
11
3.994465
21
169.3590755
0
LINE
8
DEFAULT_255_1_234
10
4.5839946
20
169.1406123
11
4.5839946
21
169.3839739
0
LINE
8
DEFAULT_255_1_234
10
4.1430521
20
169.3952184
11
4.1430521
21
169.1574789
0
ARC
8
DEFAULT_255_1_234
10
3.5078707
20
169.1758805
40
1.2247208
50
353.8441951
51
0.2287902
0
ARC
8
DEFAULT_255_1_234
10
3.9718211
20
169.1240806
40
0.7578929
50
344.4934747
51
353.9765454
0
ARC
8
DEFAULT_255_1_234
10
4.2710801
20
169.0389981
40
0.4467846
50
329.2803592
51
344.7472793
0
ARC
8
DEFAULT_255_1_234
10
4.3703626
20
168.9845018
40
0.3336173
50
324.9352394
51
328.6160465
0
ARC
8
DEFAULT_255_1_234
10
4.4080734
20
168.9581427
40
0.2876076
50
280.580143
51
324.9173126
0
ARC
8
DEFAULT_255_1_234
10
4.3679527
20
169.1252099
40
0.4592847
50
269.5977311
51
281.6734359
0
ARC
8
DEFAULT_255_1_234
10
4.3607433
20
169.1132173
40
0.4472986
50
256.6228859
51
270.51044
0
ARC
8
DEFAULT_255_1_234
10
4.320541
20
168.9583877
40
0.2873874
50
215.8618325
51
257.2788573
0
ARC
8
DEFAULT_255_1_234
10
4.4226442
20
169.0268977
40
0.4102928
50
197.9693508
51
215.2623606
0
ARC
8
DEFAULT_255_1_234
10
4.6711558
20
169.1107709
40
0.6725652
50
187.8816417
51
198.2346507
0
ARC
8
DEFAULT_255_1_234
10
5.0669766
20
169.1679079
40
1.0724845
50
180.8976217
51
188.0055519
0
ARC
8
DEFAULT_255_1_234
10
5.3469954
20
169.1782777
40
1.3526448
50
180.7449369
51
181.1510016
0
ARC
8
DEFAULT_255_1_234
10
5.1892683
20
169.3639042
40
1.1948131
50
173.7675579
51
180.231553
0
ARC
8
DEFAULT_255_1_234
10
4.737483
20
169.4149666
40
0.7401564
50
164.3058563
51
173.9002247
0
ARC
8
DEFAULT_255_1_234
10
4.4462899
20
169.4988656
40
0.4371288
50
148.7922025
51
164.568378
0
ARC
8
DEFAULT_255_1_234
10
4.3511351
20
169.5519929
40
0.3282386
50
144.5883898
51
148.1176286
0
ARC
8
DEFAULT_255_1_234
10
4.3168249
20
169.5759315
40
0.2864044
50
101.6440918
51
144.514236
0
ARC
8
DEFAULT_255_1_234
10
4.3593315
20
169.4070069
40
0.4604934
50
89.5284041
51
102.5819763
0
ARC
8
DEFAULT_255_1_234
10
4.3672403
20
169.4031018
40
0.464401
50
77.0437873
51
90.5081339
0
ARC
8
DEFAULT_255_1_234
10
4.4074405
20
169.5673615
40
0.2953195
50
48.2778575
51
77.4994676
0
ARC
8
DEFAULT_255_1_234
10
4.4147036
20
169.5802746
40
0.2808655
50
36.3142134
51
47.6305865
0
ARC
8
DEFAULT_255_1_234
10
4.3278343
20
169.5217515
40
0.3855453
50
18.2931786
51
35.6769206
0
ARC
8
DEFAULT_255_1_234
10
4.0735102
20
169.4344593
40
0.654423
50
8.024666
51
18.5605216
0
ARC
8
DEFAULT_255_1_234
10
3.6572022
20
169.3729792
40
1.0752407
50
1.1274072
51
8.1718305
0
ARC
8
DEFAULT_255_1_234
10
3.3336213
20
169.3602885
40
1.3990231
50
0.5424119
51
1.3863029
0
ARC
8
DEFAULT_255_1_234
10
3.515759
20
169.3875342
40
1.0682415
50
359.8090433
51
4.9407866
0
ARC
8
DEFAULT_255_1_234
10
3.9367604
20
169.4251113
40
0.6455691
50
4.8362157
51
12.2904523
0
ARC
8
DEFAULT_255_1_234
10
4.2122719
20
169.4864965
40
0.3633074
50
12.0805627
51
23.8173984
0
ARC
8
DEFAULT_255_1_234
10
4.3296425
20
169.5361919
40
0.2358723
50
24.2871213
51
31.3935614
0
ARC
8
DEFAULT_255_1_234
10
4.3821122
20
169.5705233
40
0.1732111
50
30.7407893
51
82.4657128
0
ARC
8
DEFAULT_255_1_234
10
4.3641256
20
169.4821691
40
0.263235
50
81.1060089
51
90.2184952
0
ARC
8
DEFAULT_255_1_234
10
4.3605555
20
169.5079924
40
0.2374236
50
89.3806855
51
105.6762551
0
ARC
8
DEFAULT_255_1_234
10
4.3422186
20
169.5746567
40
0.1682847
50
105.7981136
51
149.7388061
0
ARC
8
DEFAULT_255_1_234
10
4.4486264
20
169.510695
40
0.2924306
50
149.4208916
51
163.6286378
0
ARC
8
DEFAULT_255_1_234
10
4.6577152
20
169.446925
40
0.5110213
50
163.3763315
51
172.1410975
0
ARC
8
DEFAULT_255_1_234
10
4.9877871
20
169.3996518
40
0.8444586
50
172.0259487
51
178.0703232
0
ARC
8
DEFAULT_255_1_234
10
5.290796
20
169.3852906
40
1.1477868
50
177.8631668
51
179.5044149
0
ARC
8
DEFAULT_255_1_234
10
5.1835365
20
169.1538389
40
1.0404907
50
179.7995573
51
185.2460446
0
ARC
8
DEFAULT_255_1_234
10
4.7792404
20
169.1155513
40
0.6343885
50
185.1411642
51
193.0079639
0
ARC
8
DEFAULT_255_1_234
10
4.5148877
20
169.0530641
40
0.3627568
50
192.7897626
51
205.2507664
0
ARC
8
DEFAULT_255_1_234
10
4.4102424
20
169.0063415
40
0.2481908
50
205.8005384
51
211.2537509
0
ARC
8
DEFAULT_255_1_234
10
4.3578864
20
168.971258
40
0.1852521
50
210.3789793
51
238.4008143
0
ARC
8
DEFAULT_255_1_234
10
4.3559386
20
168.9759376
40
0.1882621
50
239.6520629
51
265.9793761
0
ARC
8
DEFAULT_255_1_234
10
4.3644586
20
169.0431427
40
0.2559272
50
265.1315437
51
270.060332
0
ARC
8
DEFAULT_255_1_234
10
4.3673365
20
169.0107534
40
0.2235528
50
269.3314664
51
287.2178029
0
ARC
8
DEFAULT_255_1_234
10
4.3811217
20
168.9604279
40
0.1714108
50
287.7958004
51
329.080874
0
ARC
8
DEFAULT_255_1_234
10
4.2853674
20
169.020193
40
0.2842745
50
328.6634704
51
343.3325132
0
ARC
8
DEFAULT_255_1_234
10
4.0680694
20
169.0878863
40
0.5118644
50
343.0499468
51
351.9393422
0
ARC
8
DEFAULT_255_1_234
10
3.7213994
20
169.1389949
40
0.8622784
50
351.8069023
51
357.7959224
0
ARC
8
DEFAULT_255_1_234
10
3.397855
20
169.1557721
40
1.1862365
50
357.5871873
51
359.2677531
0
LINE
8
DEFAULT_255_1_234
10
23.1654817
20
174.6652327
11
23.1654817
21
174.4724709
0
LINE
8
DEFAULT_255_1_234
10
22.427365
20
174.4523916
11
22.427365
21
174.6507755
0
LINE
8
DEFAULT_255_1_234
10
23.0168946
20
174.4323123
11
23.0168946
21
174.6756739
0
LINE
8
DEFAULT_255_1_234
10
22.5759521
20
174.6869184
11
22.5759521
21
174.4491789
0
ARC
8
DEFAULT_255_1_234
10
21.9407707
20
174.4675805
40
1.2247208
50
353.8441951
51
0.2287902
0
ARC
8
DEFAULT_255_1_234
10
22.4047211
20
174.4157806
40
0.7578929
50
344.4934747
51
353.9765454
0
ARC
8
DEFAULT_255_1_234
10
22.7039801
20
174.3306981
40
0.4467846
50
329.2803592
51
344.7472793
0
ARC
8
DEFAULT_255_1_234
10
22.8032626
20
174.2762018
40
0.3336173
50
324.9352394
51
328.6160465
0
ARC
8
DEFAULT_255_1_234
10
22.8409734
20
174.2498427
40
0.2876076
50
280.580143
51
324.9173126
0
ARC
8
DEFAULT_255_1_234
10
22.8008527
20
174.4169099
40
0.4592847
50
269.5977311
51
281.6734359
0
ARC
8
DEFAULT_255_1_234
10
22.7936433
20
174.4049173
40
0.4472986
50
256.6228859
51
270.51044
0
ARC
8
DEFAULT_255_1_234
10
22.753441
20
174.2500877
40
0.2873874
50
215.8618325
51
257.2788573
0
ARC
8
DEFAULT_255_1_234
10
22.8555442
20
174.3185977
40
0.4102928
50
197.9693508
51
215.2623606
0
ARC
8
DEFAULT_255_1_234
10
23.1040558
20
174.4024709
40
0.6725652
50
187.8816417
51
198.2346507
0
ARC
8
DEFAULT_255_1_234
10
23.4998766
20
174.4596079
40
1.0724845
50
180.8976217
51
188.0055519
0
ARC
8
DEFAULT_255_1_234
10
23.7798954
20
174.4699777
40
1.3526448
50
180.7449369
51
181.1510016
0
ARC
8
DEFAULT_255_1_234
10
23.6221683
20
174.6556042
40
1.1948131
50
173.7675579
51
180.231553
0
ARC
8
DEFAULT_255_1_234
10
23.170383
20
174.7066666
40
0.7401564
50
164.3058563
51
173.9002247
0
ARC
8
DEFAULT_255_1_234
10
22.8791899
20
174.7905656
40
0.4371288
50
148.7922025
51
164.568378
0
ARC
8
DEFAULT_255_1_234
10
22.7840351
20
174.8436929
40
0.3282386
50
144.5883898
51
148.1176286
0
ARC
8
DEFAULT_255_1_234
10
22.7497249
20
174.8676315
40
0.2864044
50
101.6440918
51
144.514236
0
ARC
8
DEFAULT_255_1_234
10
22.7922315
20
174.6987069
40
0.4604934
50
89.5284041
51
102.5819763
0
ARC
8
DEFAULT_255_1_234
10
22.8001403
20
174.6948018
40
0.464401
50
77.0437873
51
90.5081339
0
ARC
8
DEFAULT_255_1_234
10
22.8403405
20
174.8590615
40
0.2953195
50
48.2778575
51
77.4994676
0
ARC
8
DEFAULT_255_1_234
10
22.8476036
20
174.8719746
40
0.2808655
50
36.3142134
51
47.6305865
0
ARC
8
DEFAULT_255_1_234
10
22.7607343
20
174.8134515
40
0.3855453
50
18.2931786
51
35.6769206
0
ARC
8
DEFAULT_255_1_234
10
22.5064102
20
174.7261593
40
0.654423
50
8.024666
51
18.5605216
0
ARC
8
DEFAULT_255_1_234
10
22.0901022
20
174.6646792
40
1.0752407
50
1.1274072
51
8.1718305
0
ARC
8
DEFAULT_255_1_234
10
21.7665213
20
174.6519885
40
1.3990231
50
0.5424119
51
1.3863029
0
ARC
8
DEFAULT_255_1_234
10
21.948659
20
174.6792342
40
1.0682415
50
359.8090433
51
4.9407866
0
ARC
8
DEFAULT_255_1_234
10
22.3696604
20
174.7168113
40
0.6455691
50
4.8362157
51
12.2904523
0
ARC
8
DEFAULT_255_1_234
10
22.6451719
20
174.7781965
40
0.3633074
50
12.0805627
51
23.8173984
0
ARC
8
DEFAULT_255_1_234
10
22.7625425
20
174.8278919
40
0.2358723
50
24.2871213
51
31.3935614
0
ARC
8
DEFAULT_255_1_234
10
22.8150122
20
174.8622233
40
0.1732111
50
30.7407893
51
82.4657128
0
ARC
8
DEFAULT_255_1_234
10
22.7970256
20
174.7738691
40
0.263235
50
81.1060089
51
90.2184952
0
ARC
8
DEFAULT_255_1_234
10
22.7934555
20
174.7996924
40
0.2374236
50
89.3806855
51
105.6762551
0
ARC
8
DEFAULT_255_1_234
10
22.7751186
20
174.8663567
40
0.1682847
50
105.7981136
51
149.7388061
0
ARC
8
DEFAULT_255_1_234
10
22.8815264
20
174.802395
40
0.2924306
50
149.4208916
51
163.6286378
0
ARC
8
DEFAULT_255_1_234
10
23.0906152
20
174.738625
40
0.5110213
50
163.3763315
51
172.1410975
0
ARC
8
DEFAULT_255_1_234
10
23.4206871
20
174.6913518
40
0.8444586
50
172.0259487
51
178.0703232
0
ARC
8
DEFAULT_255_1_234
10
23.723696
20
174.6769906
40
1.1477868
50
177.8631668
51
179.5044149
0
ARC
8
DEFAULT_255_1_234
10
23.6164365
20
174.4455389
40
1.0404907
50
179.7995573
51
185.2460446
0
ARC
8
DEFAULT_255_1_234
10
23.2121404
20
174.4072513
40
0.6343885
50
185.1411642
51
193.0079639
0
ARC
8
DEFAULT_255_1_234
10
22.9477877
20
174.3447641
40
0.3627568
50
192.7897626
51
205.2507664
0
ARC
8
DEFAULT_255_1_234
10
22.8431424
20
174.2980415
40
0.2481908
50
205.8005384
51
211.2537509
0
ARC
8
DEFAULT_255_1_234
10
22.7907864
20
174.262958
40
0.1852521
50
210.3789793
51
238.4008143
0
ARC
8
DEFAULT_255_1_234
10
22.7888386
20
174.2676376
40
0.1882621
50
239.6520629
51
265.9793761
0
ARC
8
DEFAULT_255_1_234
10
22.7973586
20
174.3348427
40
0.2559272
50
265.1315437
51
270.060332
0
ARC
8
DEFAULT_255_1_234
10
22.8002365
20
174.3024534
40
0.2235528
50
269.3314664
51
287.2178029
0
ARC
8
DEFAULT_255_1_234
10
22.8140217
20
174.2521279
40
0.1714108
50
287.7958004
51
329.080874
0
ARC
8
DEFAULT_255_1_234
10
22.7182674
20
174.311893
40
0.2842745
50
328.6634704
51
343.3325132
0
ARC
8
DEFAULT_255_1_234
10
22.5009694
20
174.3795863
40
0.5118644
50
343.0499468
51
351.9393422
0
ARC
8
DEFAULT_255_1_234
10
22.1542994
20
174.4306949
40
0.8622784
50
351.8069023
51
357.7959224
0
ARC
8
DEFAULT_255_1_234
10
21.830755
20
174.4474721
40
1.1862365
50
357.5871873
51
359.2677531
0
LINE
8
DEFAULT_255_1_234
10
23.4490021
20
175.1431211
11
23.7815161
21
174.1785093
0
LINE
8
DEFAULT_255_1_234
10
23.7815161
20
174.1785093
11
24.1156364
21
175.1431211
0
LINE
8
DEFAULT_255_1_234
10
24.1156364
20
175.1431211
11
24.2843029
21
175.1431211
0
LINE
8
DEFAULT_255_1_234
10
24.2843029
20
175.1431211
11
23.850589
21
173.9737
0
LINE
8
DEFAULT_255_1_234
10
23.850589
20
173.9737
11
23.7140495
21
173.9737
0
LINE
8
DEFAULT_255_1_234
10
23.7140495
20
173.9737
11
23.2811388
21
175.1431211
0
LINE
8
DEFAULT_255_1_234
10
23.2811388
20
175.1431211
11
23.4490021
21
175.1431211
0
ENDSEC
0
EOF