0
SECTION
2
HEADER
9
$MEASUREMENT
70
1
0
ENDSEC
0
SECTION
2
TABLES
0
TABLE
2
LTYPE
0
LTYPE
72
65
70
64
2
CONTINUOUS
3
______
73
0
40
0
0
ENDTAB
0
TABLE
2
LAYER
0
LAYER
2
DEFAULT_255_2_778
70
0
62
255
6
CONTINUOUS
0
LAYER
2
DEFAULT_255_1_234
70
0
62
255
6
CONTINUOUS
0
ENDTAB
0
ENDSEC
0
SECTION
2
ENTITIES
0
ARC
8
DEFAULT_255_2_778
10
3.5700693
20
75.805203
40
0.7914215
50
129.1312896
51
180.1450914
0
ARC
8
DEFAULT_255_2_778
10
3.5703345
20
75.8056901
40
0.7912112
50
89.854026
51
129.1684493
0
ARC
8
DEFAULT_255_2_778
10
25.7993937
20
75.8053767
40
0.7915249
50
39.4792447
51
90.147911
0
ARC
8
DEFAULT_255_2_778
10
25.7999935
20
75.8052233
40
0.7911595
50
359.8533901
51
39.5154338
0
ARC
8
DEFAULT_255_2_778
10
25.7996693
20
-1.9863492
40
0.7914836
50
309.4761667
51
0.1482649
0
ARC
8
DEFAULT_255_2_778
10
25.799398
20
-1.9867803
40
0.7913235
50
269.8517415
51
309.511178
0
ARC
8
DEFAULT_255_2_778
10
3.570342
20
-1.9867221
40
0.7913815
50
219.1282118
51
270.1454017
0
ARC
8
DEFAULT_255_2_778
10
3.5700247
20
-1.9863397
40
0.7913769
50
179.8524075
51
219.1641908
0
LINE
8
DEFAULT_255_2_778
10
3.5723503
20
76.5968989
11
25.7973503
21
76.5968989
0
LINE
8
DEFAULT_255_2_778
10
26.5911503
20
75.8031989
11
26.5911503
21
-1.9843011
0
LINE
8
DEFAULT_255_2_778
10
25.7973503
20
-2.7781011
11
3.5723503
21
-2.7781011
0
LINE
8
DEFAULT_255_2_778
10
2.7786503
20
-1.9843011
11
2.7786503
21
75.8031989
0
LINE
8
DEFAULT_255_1_234
10
13.1809657
20
-0.0296435
11
13.1809657
21
-0.1043386
0
LINE
8
DEFAULT_255_1_234
10
12.9761563
20
-0.5878493
11
13.1849815
21
-0.7516967
0
LINE
8
DEFAULT_255_1_234
10
13.1849815
20
-0.7516967
11
13.0797658
21
-0.8488808
0
LINE
8
DEFAULT_255_1_234
10
13.0797658
20
-0.8488808
11
12.8331914
21
-0.6529063
0
LINE
8
DEFAULT_255_1_234
10
12.2396459
20
-0.1147799
11
12.2396459
21
-0.0304466
0
LINE
8
DEFAULT_255_1_234
10
13.0267563
20
-0.1155831
11
13.0267563
21
-0.0288403
0
LINE
8
DEFAULT_255_1_234
10
12.3938553
20
-0.018399
11
12.3938553
21
-0.1043386
0
ARC
8
DEFAULT_255_1_234
10
12.2855909
20
-0.1082293
40
0.8953833
50
351.453011
51
0.2489685
0
ARC
8
DEFAULT_255_1_234
10
12.5440709
20
-0.1482067
40
0.6338333
50
338.6861641
51
351.5540711
0
ARC
8
DEFAULT_255_1_234
10
12.6374593
20
-0.1812172
40
0.5348431
50
336.2887631
51
338.3442418
0
ARC
8
DEFAULT_255_1_234
10
12.6714215
20
-0.1998302
40
0.4962747
50
321.1170344
51
336.6795229
0
ARC
8
DEFAULT_255_1_234
10
12.7346044
20
-0.2484794
40
0.4165565
50
305.4419708
51
320.8705636
0
ARC
8
DEFAULT_255_1_234
10
12.7149514
20
-0.1737293
40
0.4935497
50
271.6373023
51
283.8611969
0
ARC
8
DEFAULT_255_1_234
10
12.7111767
20
-0.1081428
40
0.5592206
50
269.9930596
51
271.8318864
0
ARC
8
DEFAULT_255_1_234
10
12.707421
20
-0.1889319
40
0.4784458
50
252.5219675
51
270.4416499
0
ARC
8
DEFAULT_255_1_234
10
12.6930469
20
-0.2428408
40
0.422716
50
237.5352116
51
252.1857531
0
ARC
8
DEFAULT_255_1_234
10
12.7019665
20
-0.2314637
40
0.4371052
50
209.063312
51
237.3492538
0
ARC
8
DEFAULT_255_1_234
10
12.7889513
20
-0.1768315
40
0.5397041
50
205.1183774
51
209.6470015
0
ARC
8
DEFAULT_255_1_234
10
12.868655
20
-0.143017
40
0.6262326
50
188.7215458
51
204.8240747
0
ARC
8
DEFAULT_255_1_234
10
13.0684078
20
-0.1093933
40
0.8287794
50
180.3723947
51
188.9252049
0
ARC
8
DEFAULT_255_1_234
10
13.065683
20
-0.0264598
40
0.8260467
50
169.5253763
51
180.2765336
0
ARC
8
DEFAULT_255_1_234
10
12.8754279
20
0.0085309
40
0.6326007
50
155.8315255
51
169.5089989
0
ARC
8
DEFAULT_255_1_234
10
12.747378
20
0.0679348
40
0.4914567
50
139.6258461
51
156.0379525
0
ARC
8
DEFAULT_255_1_234
10
12.6884113
20
0.1153799
40
0.4158054
50
122.6416387
51
139.3430715
0
ARC
8
DEFAULT_255_1_234
10
12.6984733
20
0.0970451
40
0.4366739
50
93.0223692
51
122.455762
0
ARC
8
DEFAULT_255_1_234
10
12.709273
20
0.0005709
40
0.5336137
50
89.975342
51
93.6341897
0
ARC
8
DEFAULT_255_1_234
10
12.7131616
20
0.0385375
40
0.4956606
50
73.9665422
51
90.4229648
0
ARC
8
DEFAULT_255_1_234
10
12.7315263
20
0.1100451
40
0.4218674
50
57.5178019
51
73.6813337
0
ARC
8
DEFAULT_255_1_234
10
12.7271046
20
0.1064462
40
0.4272816
50
28.7261108
51
57.2767933
0
ARC
8
DEFAULT_255_1_234
10
12.6360378
20
0.0501688
40
0.534218
50
24.2448911
51
29.3248482
0
ARC
8
DEFAULT_255_1_234
10
12.5434479
20
0.0118819
40
0.6343711
50
9.064382
51
23.9639114
0
ARC
8
DEFAULT_255_1_234
10
12.3178807
20
-0.0260075
40
0.8630926
50
359.7586264
51
9.1891435
0
ARC
8
DEFAULT_255_1_234
10
12.1924287
20
-0.0246657
40
0.834338
50
359.7133237
51
7.96545
0
ARC
8
DEFAULT_255_1_234
10
12.4886504
20
0.0180681
40
0.5350538
50
7.8291991
51
20.0421623
0
ARC
8
DEFAULT_255_1_234
10
12.6511067
20
0.0771606
40
0.3621841
50
20.0677553
51
35.9161685
0
ARC
8
DEFAULT_255_1_234
10
12.7286105
20
0.134767
40
0.2656263
50
35.6594382
51
85.1578074
0
ARC
8
DEFAULT_255_1_234
10
12.7101361
20
0.0232378
40
0.3784238
50
83.7959068
51
90.095906
0
ARC
8
DEFAULT_255_1_234
10
12.7058295
20
0.0965601
40
0.3051229
50
89.3102392
51
109.9889877
0
ARC
8
DEFAULT_255_1_234
10
12.6975778
20
0.1321433
40
0.2688988
50
110.9285147
51
143.9411762
0
ARC
8
DEFAULT_255_1_234
10
12.7906724
20
0.0609236
40
0.3860887
50
143.5289163
51
163.2980757
0
ARC
8
DEFAULT_255_1_234
10
12.9814545
20
0.0009433
40
0.5860659
50
163.0418846
51
174.3140048
0
ARC
8
DEFAULT_255_1_234
10
13.2218657
20
-0.0268146
40
0.8280531
50
174.0509143
51
179.4176892
0
ARC
8
DEFAULT_255_1_234
10
13.1704992
20
-0.1086366
40
0.7766558
50
179.6829237
51
188.9631324
0
ARC
8
DEFAULT_255_1_234
10
12.9034553
20
-0.1521248
40
0.5060992
50
188.8100743
51
202.9300012
0
ARC
8
DEFAULT_255_1_234
10
12.7818182
20
-0.2016145
40
0.3747967
50
203.2069261
51
215.7876482
0
ARC
8
DEFAULT_255_1_234
10
12.6969579
20
-0.2687329
40
0.2667526
50
214.7521006
51
264.2834488
0
ARC
8
DEFAULT_255_1_234
10
12.7105234
20
-0.183222
40
0.3532247
50
263.4755397
51
270.0949833
0
ARC
8
DEFAULT_255_1_234
10
12.7147345
20
-0.2093626
40
0.3271036
50
269.3649385
51
287.5152008
0
ARC
8
DEFAULT_255_1_234
10
12.7325503
20
-0.2740762
40
0.2600406
50
288.0630309
51
323.8113348
0
ARC
8
DEFAULT_255_1_234
10
12.6454345
20
-0.2090951
40
0.3687189
50
323.6547608
51
342.6590488
0
ARC
8
DEFAULT_255_1_234
10
12.442296
20
-0.1430048
40
0.5823286
50
342.4091907
51
353.6451149
0
ARC
8
DEFAULT_255_1_234
10
12.1591471
20
-0.107781
40
0.8676442
50
353.4029884
51
359.4847795
0
LINE
8
DEFAULT_255_1_234
10
13.5182987
20
0.5181211
11
13.8002127
21
0.0699501
0
LINE
8
DEFAULT_255_1_234
10
13.8002127
20
0.0699501
11
14.0805204
21
0.5181211
0
LINE
8
DEFAULT_255_1_234
10
14.0805204
20
0.5181211
11
14.2620376
21
0.5181211
0
LINE
8
DEFAULT_255_1_234
10
14.2620376
20
0.5181211
11
13.8925777
21
-0.0617704
0
LINE
8
DEFAULT_255_1_234
10
13.8925777
20
-0.0617704
11
14.2708726
21
-0.6513
0
LINE
8
DEFAULT_255_1_234
10
14.2708726
20
-0.6513
11
14.0877489
21
-0.6513
0
LINE
8
DEFAULT_255_1_234
10
14.0877489
20
-0.6513
11
13.8002127
21
-0.1950973
0
LINE
8
DEFAULT_255_1_234
10
13.8002127
20
-0.1950973
11
13.5110701
21
-0.6513
0
LINE
8
DEFAULT_255_1_234
10
13.5110701
20
-0.6513
11
13.3287497
21
-0.6513
0
LINE
8
DEFAULT_255_1_234
10
13.3287497
20
-0.6513
11
13.7078477
21
-0.0617704
0
LINE
8
DEFAULT_255_1_234
10
13.7078477
20
-0.0617704
11
13.3375846
21
0.5181211
0
LINE
8
DEFAULT_255_1_234
10
13.3375846
20
0.5181211
11
13.5182987
21
0.5181211
0
LINE
8
DEFAULT_255_1_234
10
15.1776558
20
-0.5300208
11
15.1776558
21
-0.6513
0
LINE
8
DEFAULT_255_1_234
10
15.1776558
20
-0.6513
11
14.411428
21
-0.6513
0
LINE
8
DEFAULT_255_1_234
10
14.411428
20
-0.6513
11
14.411428
21
-0.5444779
0
LINE
8
DEFAULT_255_1_234
10
14.411428
20
-0.5444779
11
14.8162276
21
-0.0947005
0
LINE
8
DEFAULT_255_1_234
10
14.5375263
20
0.1735595
11
14.3889391
21
0.1735595
0
LINE
8
DEFAULT_255_1_234
10
14.9037735
20
-0.1902782
11
14.5905357
21
-0.5300208
0
LINE
8
DEFAULT_255_1_234
10
14.5905357
20
-0.5300208
11
15.1776558
21
-0.5300208
0
ARC
8
DEFAULT_255_1_234
10
13.4672109
20
1.0982527
40
1.8008286
50
318.5132453
51
320.7828378
0
ARC
8
DEFAULT_255_1_234
10
13.9959084
20
0.6679426
40
1.1191493
50
320.7372736
51
323.9737074
0
ARC
8
DEFAULT_255_1_234
10
14.387894
20
0.3839361
40
0.6350923
50
323.8961724
51
328.6421089
0
ARC
8
DEFAULT_255_1_234
10
14.5925535
20
0.2577031
40
0.3946393
50
328.8299013
51
331.789948
0
ARC
8
DEFAULT_255_1_234
10
14.6922714
20
0.2062509
40
0.2824501
50
331.4255242
51
352.9364833
0
ARC
8
DEFAULT_255_1_234
10
14.7059215
20
0.2031976
40
0.2685315
50
353.2248685
51
0.0169286
0
ARC
8
DEFAULT_255_1_234
10
14.7269091
20
0.205495
40
0.2475536
50
359.4866256
51
15.9339782
0
ARC
8
DEFAULT_255_1_234
10
14.7776077
20
0.2191286
40
0.1950618
50
16.1714718
51
43.5284424
0
ARC
8
DEFAULT_255_1_234
10
14.7853385
20
0.2268573
40
0.184134
50
43.4415429
51
83.1661404
0
ARC
8
DEFAULT_255_1_234
10
14.7719303
20
0.1531771
40
0.258926
50
82.160215
51
90.1505798
0
ARC
8
DEFAULT_255_1_234
10
14.7687731
20
0.0994865
40
0.3126255
50
89.5460705
51
102.5418777
0
ARC
8
DEFAULT_255_1_234
10
14.7444817
20
0.2025665
40
0.2067346
50
102.1739365
51
129.2061916
0
ARC
8
DEFAULT_255_1_234
10
14.7365889
20
0.2150094
40
0.1921118
50
129.7279328
51
135.7542026
0
ARC
8
DEFAULT_255_1_234
10
14.7487416
20
0.2053045
40
0.2075944
50
136.175737
51
166.3674722
0
ARC
8
DEFAULT_255_1_234
10
14.8494336
20
0.1783182
40
0.3118201
50
165.9092917
51
178.8683903
0
ARC
8
DEFAULT_255_1_234
10
14.9359197
20
0.1736179
40
0.3983935
50
178.438168
51
180.0083905
0
ARC
8
DEFAULT_255_1_234
10
14.7957799
20
0.1775231
40
0.4068601
50
163.2878735
51
180.5581814
0
ARC
8
DEFAULT_255_1_234
10
14.715606
20
0.199584
40
0.3237344
50
133.454115
51
162.9470031
0
ARC
8
DEFAULT_255_1_234
10
14.7334602
20
0.1806
40
0.349795
50
100.7869394
51
133.4384016
0
ARC
8
DEFAULT_255_1_234
10
14.7682373
20
0.0257319
40
0.5084616
50
89.6605301
51
101.3704185
0
ARC
8
DEFAULT_255_1_234
10
14.7748712
20
0.0318496
40
0.502348
50
78.2171172
51
90.4130393
0
ARC
8
DEFAULT_255_1_234
10
14.810379
20
0.1942637
40
0.3361092
50
55.9268222
51
78.4888551
0
ARC
8
DEFAULT_255_1_234
10
14.830023
20
0.2281324
40
0.2970617
50
47.9292255
51
55.4054003
0
ARC
8
DEFAULT_255_1_234
10
14.8401791
20
0.2384502
40
0.2825983
50
4.3347696
51
48.0560701
0
ARC
8
DEFAULT_255_1_234
10
14.7306185
20
0.2214601
40
0.393225
50
359.925209
51
5.5967654
0
ARC
8
DEFAULT_255_1_234
10
14.7735076
20
0.2270816
40
0.3503892
50
337.8914096
51
358.9967724
0
ARC
8
DEFAULT_255_1_234
10
14.5021489
20
0.3317706
40
0.6412172
50
326.9135351
51
338.3505194
0
ARC
8
DEFAULT_255_1_234
10
14.1035792
20
0.5872284
40
1.1146189
50
319.6472867
51
327.095818
0
ARC
8
DEFAULT_255_1_234
10
13.7202795
20
0.9034
40
1.6114559
50
317.2586784
51
319.9046139
0
ARC
8
DEFAULT_255_1_234
10
15.7620562
20
0.2103703
40
0.2822356
50
338.8763615
51
0.5166041
0
ARC
8
DEFAULT_255_1_234
10
15.7789217
20
0.2058208
40
0.2648703
50
325.8412414
51
338.4795939
0
ARC
8
DEFAULT_255_1_234
10
15.7398584
20
0.2329042
40
0.3124019
50
296.7586019
51
325.753654
0
ARC
8
DEFAULT_255_1_234
10
15.7110693
20
0.2813789
40
0.368668
50
296.0902311
51
297.3618122
0
ARC
8
DEFAULT_255_1_234
10
15.7368151
20
-0.3740959
40
0.3518806
50
47.9009248
51
67.1946869
0
ARC
8
DEFAULT_255_1_234
10
15.7564392
20
-0.3494605
40
0.320451
50
35.236241
51
47.551371
0
ARC
8
DEFAULT_255_1_234
10
15.782601
20
-0.3320007
40
0.2890103
50
359.2759738
51
35.4014081
0
ARC
8
DEFAULT_255_1_234
10
15.7081042
20
-0.3393174
40
0.3635026
50
343.1294516
51
0.5776525
0
ARC
8
DEFAULT_255_1_234
10
15.7805586
20
-0.359267
40
0.2883832
50
310.8497458
51
342.744803
0
ARC
8
DEFAULT_255_1_234
10
15.73877
20
-0.3115706
40
0.3517954
50
281.5473923
51
310.9169905
0
ARC
8
DEFAULT_255_1_234
10
15.7031149
20
-0.1562916
40
0.5110832
50
269.6192722
51
281.9789957
0
ARC
8
DEFAULT_255_1_234
10
15.6958938
20
-0.1562172
40
0.5111606
50
257.4584469
51
270.4287458
0
ARC
8
DEFAULT_255_1_234
10
15.6578081
20
-0.3165656
40
0.3463762
50
228.7553743
51
257.8484423
0
ARC
8
DEFAULT_255_1_234
10
15.626828
20
-0.3538558
40
0.297916
50
184.0104442
51
228.5071787
0
ARC
8
DEFAULT_255_1_234
10
15.7431224
20
-0.3361488
40
0.4152734
50
179.9315461
51
185.3254504
0
ARC
8
DEFAULT_255_1_234
10
15.6254869
20
-0.3324008
40
0.2976554
50
145.6795913
51
180.6259649
0
ARC
8
DEFAULT_255_1_234
10
15.6418219
20
-0.3438071
40
0.3175776
50
115.5537925
51
145.6416199
0
ARC
8
DEFAULT_255_1_234
10
15.6759149
20
-0.4048972
40
0.3874232
50
113.2437915
51
116.2054627
0
ARC
8
DEFAULT_255_1_234
10
15.6606361
20
0.234958
40
0.3154751
50
222.9548379
51
244.1372485
0
ARC
8
DEFAULT_255_1_234
10
15.6484437
20
0.2212834
40
0.2972382
50
213.3439227
51
222.6271327
0
ARC
8
DEFAULT_255_1_234
10
15.6292371
20
0.2082308
40
0.274019
50
180.4316517
51
213.2713999
0
ARC
8
DEFAULT_255_1_234
10
15.6867372
20
0.212911
40
0.33158
50
179.9992944
51
181.1655061
0
ARC
8
DEFAULT_255_1_234
10
15.727679
20
0.2163561
40
0.3725376
50
164.6186108
51
180.5292368
0
ARC
8
DEFAULT_255_1_234
10
15.6378652
20
0.2405101
40
0.2795349
50
132.2454369
51
164.5092287
0
ARC
8
DEFAULT_255_1_234
10
15.6665756
20
0.2080028
40
0.3229019
50
100.7052766
51
132.1387266
0
ARC
8
DEFAULT_255_1_234
10
15.6970729
20
0.0702086
40
0.4639835
50
89.6732617
51
101.2449487
0
ARC
8
DEFAULT_255_1_234
10
15.7032927
20
0.087699
40
0.4464999
50
76.2876631
51
90.4586123
0
ARC
8
DEFAULT_255_1_234
10
15.7339158
20
0.209922
40
0.3205023
50
47.8240157
51
76.4266918
0
ARC
8
DEFAULT_255_1_234
10
15.7561708
20
0.235959
40
0.2862661
50
6.9168658
51
47.6261438
0
ARC
8
DEFAULT_255_1_234
10
15.6375111
20
0.214037
40
0.4067708
50
359.8419705
51
7.9694496
0
ARC
8
DEFAULT_255_1_234
10
15.6717008
20
-0.3300075
40
0.2513121
50
359.4454068
51
16.9256425
0
ARC
8
DEFAULT_255_1_234
10
15.7185819
20
-0.3170967
40
0.2027071
50
17.292259
51
45.462717
0
ARC
8
DEFAULT_255_1_234
10
15.7131755
20
-0.3217566
40
0.2098212
50
45.3028762
51
83.1921472
0
ARC
8
DEFAULT_255_1_234
10
15.6988439
20
-0.4019105
40
0.2911472
50
82.2614531
51
90.143954
0
ARC
8
DEFAULT_255_1_234
10
15.695756
20
-0.378605
40
0.2678513
50
89.4959189
51
104.8579811
0
ARC
8
DEFAULT_255_1_234
10
15.6780818
20
-0.311611
40
0.1985654
50
104.8855873
51
135.2448349
0
ARC
8
DEFAULT_255_1_234
10
15.6830591
20
-0.3160664
40
0.2052373
50
135.3398955
51
172.104394
0
ARC
8
DEFAULT_255_1_234
10
15.7637649
20
-0.3315075
40
0.2873299
50
171.2651929
51
180.1859362
0
ARC
8
DEFAULT_255_1_234
10
15.7468351
20
-0.3347267
40
0.2704083
50
179.515471
51
193.6466734
0
ARC
8
DEFAULT_255_1_234
10
15.665212
20
-0.3555223
40
0.1861855
50
193.3540587
51
225.8256931
0
ARC
8
DEFAULT_255_1_234
10
15.6692877
20
-0.3484476
40
0.1941102
50
226.418029
51
255.8553723
0
ARC
8
DEFAULT_255_1_234
10
15.6949309
20
-0.2548002
40
0.2911917
50
255.4655572
51
268.7985967
0
ARC
8
DEFAULT_255_1_234
10
15.6996501
20
-0.1709509
40
0.3751331
50
268.3464808
51
270.0104874
0
ARC
8
DEFAULT_255_1_234
10
15.7019889
20
-0.2393862
40
0.3067064
50
269.575914
51
282.0823146
0
ARC
8
DEFAULT_255_1_234
10
15.7244798
20
-0.3388197
40
0.2047712
50
281.7522535
51
306.6056425
0
ARC
8
DEFAULT_255_1_234
10
15.7343225
20
-0.3549513
40
0.1859604
50
307.1350025
51
314.0277951
0
ARC
8
DEFAULT_255_1_234
10
15.7307309
20
-0.3523234
40
0.1903475
50
314.2553419
51
350.169324
0
ARC
8
DEFAULT_255_1_234
10
15.6455777
20
-0.3338591
40
0.2774269
50
349.4145679
51
0.2930737
0
ARC
8
DEFAULT_255_1_234
10
15.697621
20
0.1820353
40
0.2300764
50
89.477591
51
105.729794
0
ARC
8
DEFAULT_255_1_234
10
15.6840124
20
0.2325637
40
0.1777519
50
105.922966
51
135.1662921
0
ARC
8
DEFAULT_255_1_234
10
15.6860626
20
0.2311419
40
0.1802087
50
135.3053131
51
168.9882338
0
ARC
8
DEFAULT_255_1_234
10
15.7688199
20
0.2121721
40
0.2650806
50
168.3802067
51
180.3602358
0
ARC
8
DEFAULT_255_1_234
10
15.7459778
20
0.2084041
40
0.2422425
50
179.5029707
51
194.9126783
0
ARC
8
DEFAULT_255_1_234
10
15.6874439
20
0.193011
40
0.1817188
50
194.9722181
51
224.1943972
0
ARC
8
DEFAULT_255_1_234
10
15.6846307
20
0.1907169
40
0.1781027
50
224.2961434
51
262.0157375
0
ARC
8
DEFAULT_255_1_234
10
15.6988549
20
0.2638661
40
0.2525492
50
261.1250369
51
270.1959853
0
ARC
8
DEFAULT_255_1_234
10
15.7018304
20
0.2451339
40
0.233825
50
269.4825617
51
285.0988277
0
ARC
8
DEFAULT_255_1_234
10
15.7172464
20
0.187299
40
0.1739712
50
285.1585659
51
315.9484648
0
ARC
8
DEFAULT_255_1_234
10
15.7083475
20
0.1954886
40
0.1860616
50
316.0412958
51
351.9162715
0
ARC
8
DEFAULT_255_1_234
10
15.635043
20
0.2096245
40
0.2606517
50
351.1056823
51
0.1936567
0
ARC
8
DEFAULT_255_1_234
10
15.6613259
20
0.2126369
40
0.234377
50
359.4789506
51
16.0679113
0
ARC
8
DEFAULT_255_1_234
10
15.7089218
20
0.225481
40
0.1850875
50
16.3251951
51
44.791304
0
ARC
8
DEFAULT_255_1_234
10
15.7071499
20
0.2255339
40
0.186312
50
44.3958661
51
88.2498933
0
ARC
8
DEFAULT_255_1_234
10
15.6998053
20
0.1644154
40
0.2476868
50
86.9833827
51
90.0200148
0
LINE
8
DEFAULT_255_2_778
10
10.5738396
20
72.6493073
11
9.3932396
21
72.6493073
0
LINE
8
DEFAULT_255_2_778
10
9.3932396
20
72.6493073
11
9.9837396
21
73.6719073
0
LINE
8
DEFAULT_255_2_778
10
9.9837396
20
73.6719073
11
11.1643396
21
73.6719073
0
LINE
8
DEFAULT_255_2_778
10
11.1643396
20
73.6719073
11
10.5738396
21
72.6493073
0
LINE
8
DEFAULT_255_2_778
10
10.5738396
20
72.6493073
11
10.5738396
21
72.6493073
0
LINE
8
DEFAULT_255_2_778
10
11.7546396
20
72.6493073
11
12.9354396
21
72.6493073
0
LINE
8
DEFAULT_255_2_778
10
12.9354396
20
72.6493073
11
12.3451396
21
73.6719073
0
LINE
8
DEFAULT_255_2_778
10
12.3451396
20
73.6719073
11
11.1643396
21
73.6719073
0
LINE
8
DEFAULT_255_2_778
10
11.1643396
20
73.6719073
11
11.7546396
21
72.6493073
0
LINE
8
DEFAULT_255_2_778
10
11.7546396
20
72.6493073
11
11.7546396
21
72.6493073
0
LINE
8
DEFAULT_255_2_778
10
11.7545823
20
74.6945146
11
11.1642823
21
75.7171146
0
LINE
8
DEFAULT_255_2_778
10
11.1642823
20
75.7171146
11
10.5737823
21
74.6945146
0
LINE
8
DEFAULT_255_2_778
10
10.5737823
20
74.6945146
11
11.1642823
21
73.6719146
0
LINE
8
DEFAULT_255_2_778
10
11.1642823
20
73.6719146
11
11.7545823
21
74.6945146
0
LINE
8
DEFAULT_255_2_778
10
11.7545823
20
74.6945146
11
11.7545823
21
74.6945146
0
ARC
8
DEFAULT_255_2_778
10
16.5183731
20
74.3407426
40
0.5650491
50
268.7543645
51
289.1417717
0
ARC
8
DEFAULT_255_2_778
10
16.606208
20
74.0855531
40
0.2951681
50
289.2776255
51
3.7648372
0
ARC
8
DEFAULT_255_2_778
10
16.3901618
20
74.1121085
40
0.5106278
50
359.1949826
51
0.0020862
0
ARC
8
DEFAULT_255_2_778
10
16.547449
20
74.0980832
40
0.1541914
50
280.2616216
51
358.5297855
0
ARC
8
DEFAULT_255_2_778
10
16.5080075
20
74.210655
40
0.2726346
50
269.5969454
51
284.2065679
0
ARC
8
DEFAULT_255_2_778
10
16.4981967
20
74.1950316
40
0.2571258
50
246.5290903
51
271.7590909
0
ARC
8
DEFAULT_255_2_778
10
16.4527148
20
74.0870009
40
0.1399248
50
188.1071678
51
245.9934684
0
ARC
8
DEFAULT_255_2_778
10
16.4829007
20
74.0939617
40
0.1708111
50
179.9445314
51
188.990814
0
ARC
8
DEFAULT_255_2_778
10
16.4924507
20
74.1007849
40
0.3763411
50
178.2272621
51
205.8283807
0
ARC
8
DEFAULT_255_2_778
10
16.4132476
20
74.0830833
40
0.2979176
50
209.4028057
51
263.0375728
0
ARC
8
DEFAULT_255_2_778
10
16.5005111
20
74.4577629
40
0.6816586
50
259.5722942
51
270.4689037
0
ARC
8
DEFAULT_255_2_778
10
17.411252
20
74.5139767
40
0.1217154
50
2.0482843
51
87.015299
0
ARC
8
DEFAULT_255_2_778
10
17.4060617
20
74.5183852
40
0.126828
50
353.0600847
51
359.9737428
0
ARC
8
DEFAULT_255_2_778
10
17.4110442
20
74.5152555
40
0.1215295
50
270.5739762
51
354.2410513
0
ARC
8
DEFAULT_255_2_778
10
17.4065059
20
74.5514297
40
0.1578027
50
269.9941256
51
272.0902921
0
ARC
8
DEFAULT_255_2_778
10
17.414084
20
74.1005295
40
0.1400686
50
358.2807293
51
95.6106825
0
ARC
8
DEFAULT_255_2_778
10
17.4103233
20
74.0966963
40
0.1437669
50
266.9962473
51
359.8528392
0
ARC
8
DEFAULT_255_2_778
10
17.4725249
20
74.1369988
40
0.3335288
50
268.2414507
51
302.0223478
0
ARC
8
DEFAULT_255_2_778
10
17.5091261
20
74.061683
40
0.2504234
50
304.0600275
51
2.0468005
0
ARC
8
DEFAULT_255_2_778
10
17.4832788
20
74.0683521
40
0.2761203
50
0.4720601
51
65.8403529
0
ARC
8
DEFAULT_255_2_778
10
17.5191655
20
74.1331061
40
0.2024466
50
67.606893
51
75.8693222
0
ARC
8
DEFAULT_255_2_778
10
17.5042026
20
74.540722
40
0.2208874
50
286.9473417
51
358.0074963
0
ARC
8
DEFAULT_255_2_778
10
17.4710866
20
74.5495045
40
0.2544031
50
356.2897886
51
0.0050857
0
ARC
8
DEFAULT_255_2_778
10
17.497262
20
74.5545946
40
0.2282839
50
358.7280137
51
81.8073164
0
ARC
8
DEFAULT_255_2_778
10
17.4216369
20
74.3031283
40
0.4895182
50
77.2355086
51
90.5088275
0
ARC
8
DEFAULT_255_2_778
10
17.5842742
20
73.3386263
40
0.130243
50
89.9974494
51
92.6776592
0
ARC
8
DEFAULT_255_2_778
10
17.5843316
20
73.3391872
40
0.129682
50
45.0880141
51
90.022782
0
ARC
8
DEFAULT_255_2_778
10
17.5844118
20
73.339219
40
0.1296029
50
0.001866
51
45.1031959
0
ARC
8
DEFAULT_255_2_778
10
17.5845123
20
73.3392202
40
0.1295026
50
357.4803735
51
0.0013544
0
ARC
8
DEFAULT_255_2_778
10
17.5901979
20
73.3353512
40
0.1237052
50
339.8672523
51
359.1550732
0
ARC
8
DEFAULT_255_2_778
10
17.5794513
20
73.3325079
40
0.1329691
50
272.0853006
51
342.6124646
0
ARC
8
DEFAULT_255_2_778
10
17.6596145
20
73.3707661
40
0.2575135
50
286.787355
51
290.6121696
0
ARC
8
DEFAULT_255_2_778
10
17.6689461
20
73.3564533
40
0.24086
50
289.7330405
51
342.3216972
0
ARC
8
DEFAULT_255_2_778
10
17.641261
20
73.3612954
40
0.268735
50
343.130572
51
0.3905272
0
ARC
8
DEFAULT_255_2_778
10
17.6578783
20
73.3786767
40
0.2525904
50
356.4706028
51
80.1788963
0
ARC
8
DEFAULT_255_2_778
10
17.5921649
20
73.1517163
40
0.4881286
50
77.1212301
51
90.4900821
0
ARC
8
DEFAULT_255_2_778
10
17.5166337
20
72.854036
40
0.1865405
50
50.1507009
51
92.9634648
0
ARC
8
DEFAULT_255_2_778
10
17.5301354
20
72.8823678
40
0.1563319
50
12.621233
51
47.2950617
0
ARC
8
DEFAULT_255_2_778
10
16.8485884
20
72.7494726
40
0.8506657
50
2.8173892
51
11.3253986
0
ARC
8
DEFAULT_255_2_778
10
-29.2295733
20
69.2531175
40
47.060992
50
4.3048394
51
4.3117143
0
ARC
8
DEFAULT_255_2_778
10
18.5500859
20
72.825584
40
0.8523717
50
182.6850102
51
191.2954256
0
ARC
8
DEFAULT_255_2_778
10
17.9656837
20
72.7192399
40
0.2586603
50
193.5512904
51
195.3825538
0
ARC
8
DEFAULT_255_2_778
10
19.3415679
20
72.9768916
40
1.4608773
50
182.5958701
51
192.9049706
0
ARC
8
DEFAULT_255_2_778
10
17.6207606
20
72.9052215
40
0.261487
50
1.2064311
51
30.4123358
0
ARC
8
DEFAULT_255_2_778
10
17.6663626
20
72.920276
40
0.2147766
50
33.1081154
51
71.7312197
0
LINE
8
DEFAULT_255_2_778
10
13.4657897
20
73.0848271
11
13.9385897
21
73.0848271
0
LINE
8
DEFAULT_255_2_778
10
13.9385897
20
73.0848271
11
13.9385897
21
73.2562271
0
LINE
8
DEFAULT_255_2_778
10
13.9385897
20
73.2562271
11
13.4657897
21
73.2562271
0
LINE
8
DEFAULT_255_2_778
10
13.4657897
20
73.2562271
11
13.4657897
21
73.4671271
0
LINE
8
DEFAULT_255_2_778
10
13.4657897
20
73.4671271
11
13.9977897
21
73.4671271
0
LINE
8
DEFAULT_255_2_778
10
13.9977897
20
73.4671271
11
13.9977897
21
73.6385271
0
LINE
8
DEFAULT_255_2_778
10
13.9977897
20
73.6385271
11
13.4657897
21
73.6385271
0
LINE
8
DEFAULT_255_2_778
10
13.4657897
20
73.6385271
11
13.2651897
21
73.6385271
0
LINE
8
DEFAULT_255_2_778
10
13.2651897
20
73.6385271
11
13.2651897
21
73.4671271
0
LINE
8
DEFAULT_255_2_778
10
13.2651897
20
73.4671271
11
13.2651897
21
72.8207271
0
LINE
8
DEFAULT_255_2_778
10
13.2651897
20
72.8207271
11
13.2651897
21
72.6492271
0
LINE
8
DEFAULT_255_2_778
10
13.2651897
20
72.6492271
11
13.4657897
21
72.6492271
0
LINE
8
DEFAULT_255_2_778
10
13.4657897
20
72.6492271
11
14.0118897
21
72.6492271
0
LINE
8
DEFAULT_255_2_778
10
14.0118897
20
72.6492271
11
14.0118897
21
72.8207271
0
LINE
8
DEFAULT_255_2_778
10
14.0118897
20
72.8207271
11
13.4657897
21
72.8207271
0
LINE
8
DEFAULT_255_2_778
10
13.4657897
20
72.8207271
11
13.4657897
21
73.0845271
0
LINE
8
DEFAULT_255_2_778
10
13.4657897
20
73.0845271
11
13.4657897
21
73.0848271
0
LINE
8
DEFAULT_255_2_778
10
13.4519897
20
74.5389271
11
13.6620897
21
73.8036271
0
LINE
8
DEFAULT_255_2_778
10
13.6620897
20
73.8036271
11
13.6704897
21
73.8036271
0
LINE
8
DEFAULT_255_2_778
10
13.6704897
20
73.8036271
11
13.8464897
21
73.8036271
0
LINE
8
DEFAULT_255_2_778
10
13.8464897
20
73.8036271
11
13.8546897
21
73.8036271
0
LINE
8
DEFAULT_255_2_778
10
13.8546897
20
73.8036271
11
14.0647897
21
74.5389271
0
LINE
8
DEFAULT_255_2_778
10
14.0647897
20
74.5389271
11
14.0647897
21
73.8036271
0
LINE
8
DEFAULT_255_2_778
10
14.0647897
20
73.8036271
11
14.2515897
21
73.8036271
0
LINE
8
DEFAULT_255_2_778
10
14.2515897
20
73.8036271
11
14.2515897
21
74.7929271
0
LINE
8
DEFAULT_255_2_778
10
14.2515897
20
74.7929271
11
14.1496897
21
74.7929271
0
LINE
8
DEFAULT_255_2_778
10
14.1496897
20
74.7929271
11
14.0615897
21
74.7929271
0
LINE
8
DEFAULT_255_2_778
10
14.0615897
20
74.7929271
11
13.9655897
21
74.7929271
0
LINE
8
DEFAULT_255_2_778
10
13.9655897
20
74.7929271
11
13.7583897
21
74.0986271
0
LINE
8
DEFAULT_255_2_778
10
13.7583897
20
74.0986271
11
13.5511897
21
74.7929271
0
LINE
8
DEFAULT_255_2_778
10
13.5511897
20
74.7929271
11
13.4551897
21
74.7929271
0
LINE
8
DEFAULT_255_2_778
10
13.4551897
20
74.7929271
11
13.3669897
21
74.7929271
0
LINE
8
DEFAULT_255_2_778
10
13.3669897
20
74.7929271
11
13.2651897
21
74.7929271
0
LINE
8
DEFAULT_255_2_778
10
13.2651897
20
74.7929271
11
13.2651897
21
73.8036271
0
LINE
8
DEFAULT_255_2_778
10
13.2651897
20
73.8036271
11
13.4519897
21
73.8036271
0
LINE
8
DEFAULT_255_2_778
10
13.4519897
20
73.8036271
11
13.4519897
21
74.5389271
0
LINE
8
DEFAULT_255_2_778
10
13.4519897
20
74.5389271
11
13.4519897
21
74.5389271
0
LINE
8
DEFAULT_255_2_778
10
18.0056897
20
74.7929271
11
17.8064897
21
74.7929271
0
LINE
8
DEFAULT_255_2_778
10
17.8064897
20
74.7929271
11
17.8064897
21
73.8036271
0
LINE
8
DEFAULT_255_2_778
10
17.8064897
20
73.8036271
11
18.0056897
21
73.8036271
0
LINE
8
DEFAULT_255_2_778
10
18.0056897
20
73.8036271
11
18.0056897
21
74.7929271
0
LINE
8
DEFAULT_255_2_778
10
18.0056897
20
74.7929271
11
18.0056897
21
74.7929271
0
LINE
8
DEFAULT_255_2_778
10
18.1681897
20
73.6388271
11
17.9689897
21
73.6388271
0
LINE
8
DEFAULT_255_2_778
10
17.9689897
20
73.6388271
11
17.9689897
21
72.6495271
0
LINE
8
DEFAULT_255_2_778
10
17.9689897
20
72.6495271
11
18.1681897
21
72.6495271
0
LINE
8
DEFAULT_255_2_778
10
18.1681897
20
72.6495271
11
18.1681897
21
73.6388271
0
LINE
8
DEFAULT_255_2_778
10
18.1681897
20
73.6388271
11
18.1681897
21
73.6388271
0
LINE
8
DEFAULT_255_2_778
10
19.9765897
20
74.7929271
11
19.7773897
21
74.7929271
0
LINE
8
DEFAULT_255_2_778
10
19.7773897
20
74.7929271
11
19.7773897
21
73.8036271
0
LINE
8
DEFAULT_255_2_778
10
19.7773897
20
73.8036271
11
19.9765897
21
73.8036271
0
LINE
8
DEFAULT_255_2_778
10
19.9765897
20
73.8036271
11
19.9765897
21
74.7929271
0
LINE
8
DEFAULT_255_2_778
10
19.9765897
20
74.7929271
11
19.9765897
21
74.7929271
0
LINE
8
DEFAULT_255_2_778
10
14.5298897
20
74.7929271
11
14.3306897
21
74.7929271
0
LINE
8
DEFAULT_255_2_778
10
14.3306897
20
74.7929271
11
14.3306897
21
73.8036271
0
LINE
8
DEFAULT_255_2_778
10
14.3306897
20
73.8036271
11
14.5298897
21
73.8036271
0
LINE
8
DEFAULT_255_2_778
10
14.5298897
20
73.8036271
11
14.5298897
21
74.7929271
0
LINE
8
DEFAULT_255_2_778
10
14.5298897
20
74.7929271
11
14.5298897
21
74.7929271
0
LINE
8
DEFAULT_255_2_778
10
19.4989897
20
74.4069271
11
19.1029897
21
74.4069271
0
LINE
8
DEFAULT_255_2_778
10
19.1029897
20
74.4069271
11
19.1029897
21
74.7926271
0
LINE
8
DEFAULT_255_2_778
10
19.1029897
20
74.7926271
11
18.9068897
21
74.7926271
0
LINE
8
DEFAULT_255_2_778
10
18.9068897
20
74.7926271
11
18.9068897
21
73.8036271
0
LINE
8
DEFAULT_255_2_778
10
18.9068897
20
73.8036271
11
19.1029897
21
73.8036271
0
LINE
8
DEFAULT_255_2_778
10
19.1029897
20
73.8036271
11
19.1029897
21
74.2354271
0
LINE
8
DEFAULT_255_2_778
10
19.1029897
20
74.2354271
11
19.4989897
21
74.2354271
0
LINE
8
DEFAULT_255_2_778
10
19.4989897
20
74.2354271
11
19.4989897
21
73.8036271
0
LINE
8
DEFAULT_255_2_778
10
19.4989897
20
73.8036271
11
19.6950897
21
73.8036271
0
LINE
8
DEFAULT_255_2_778
10
19.6950897
20
73.8036271
11
19.6950897
21
74.7926271
0
LINE
8
DEFAULT_255_2_778
10
19.6950897
20
74.7926271
11
19.4989897
21
74.7926271
0
LINE
8
DEFAULT_255_2_778
10
19.4989897
20
74.7926271
11
19.4989897
21
74.4069271
0
LINE
8
DEFAULT_255_2_778
10
19.4989897
20
74.4069271
11
19.4989897
21
74.4069271
0
LINE
8
DEFAULT_255_2_778
10
14.8246897
20
73.8036271
11
15.0280897
21
73.8036271
0
LINE
8
DEFAULT_255_2_778
10
15.0280897
20
73.8036271
11
15.0280897
21
74.6215271
0
LINE
8
DEFAULT_255_2_778
10
15.0280897
20
74.6215271
11
15.2696897
21
74.6215271
0
LINE
8
DEFAULT_255_2_778
10
15.2696897
20
74.6215271
11
15.2696897
21
74.7929271
0
LINE
8
DEFAULT_255_2_778
10
15.2696897
20
74.7929271
11
15.0280897
21
74.7929271
0
LINE
8
DEFAULT_255_2_778
10
15.0280897
20
74.7929271
11
14.8246897
21
74.7929271
0
LINE
8
DEFAULT_255_2_778
10
14.8246897
20
74.7929271
11
14.5830897
21
74.7929271
0
LINE
8
DEFAULT_255_2_778
10
14.5830897
20
74.7929271
11
14.5830897
21
74.6215271
0
LINE
8
DEFAULT_255_2_778
10
14.5830897
20
74.6215271
11
14.8246897
21
74.6215271
0
LINE
8
DEFAULT_255_2_778
10
14.8246897
20
74.6215271
11
14.8246897
21
73.8036271
0
LINE
8
DEFAULT_255_2_778
10
14.8246897
20
73.8036271
11
14.8246897
21
73.8036271
0
LINE
8
DEFAULT_255_2_778
10
16.6422897
20
72.6495271
11
16.8454897
21
72.6495271
0
LINE
8
DEFAULT_255_2_778
10
16.8454897
20
72.6495271
11
16.8454897
21
73.4673271
0
LINE
8
DEFAULT_255_2_778
10
16.8454897
20
73.4673271
11
17.0873897
21
73.4673271
0
LINE
8
DEFAULT_255_2_778
10
17.0873897
20
73.4673271
11
17.0873897
21
73.6391271
0
LINE
8
DEFAULT_255_2_778
10
17.0873897
20
73.6391271
11
16.8454897
21
73.6391271
0
LINE
8
DEFAULT_255_2_778
10
16.8454897
20
73.6391271
11
16.6422897
21
73.6391271
0
LINE
8
DEFAULT_255_2_778
10
16.6422897
20
73.6391271
11
16.4004897
21
73.6391271
0
LINE
8
DEFAULT_255_2_778
10
16.4004897
20
73.6391271
11
16.4004897
21
73.4673271
0
LINE
8
DEFAULT_255_2_778
10
16.4004897
20
73.4673271
11
16.6422897
21
73.4673271
0
LINE
8
DEFAULT_255_2_778
10
16.6422897
20
73.4673271
11
16.6422897
21
72.6495271
0
LINE
8
DEFAULT_255_2_778
10
16.6422897
20
72.6495271
11
16.6422897
21
72.6495271
0
LINE
8
DEFAULT_255_2_778
10
16.9007897
20
74.1121271
11
16.9007897
21
74.7926271
0
LINE
8
DEFAULT_255_2_778
10
16.9007897
20
74.7926271
11
16.7015897
21
74.7926271
0
LINE
8
DEFAULT_255_2_778
10
16.7015897
20
74.7926271
11
16.7015897
21
74.0941271
0
LINE
8
DEFAULT_255_2_778
10
16.3120897
20
74.0941271
11
16.3120897
21
74.7926271
0
LINE
8
DEFAULT_255_2_778
10
16.3120897
20
74.7926271
11
16.1162897
21
74.7926271
0
LINE
8
DEFAULT_255_2_778
10
16.1162897
20
74.7926271
11
16.1162897
21
74.1124271
0
LINE
8
DEFAULT_255_2_778
10
15.0000897
20
73.0848271
11
15.4730897
21
73.0848271
0
LINE
8
DEFAULT_255_2_778
10
15.4730897
20
73.0848271
11
15.4730897
21
73.2562271
0
LINE
8
DEFAULT_255_2_778
10
15.4730897
20
73.2562271
11
15.0000897
21
73.2562271
0
LINE
8
DEFAULT_255_2_778
10
15.0000897
20
73.2562271
11
15.0000897
21
73.4671271
0
LINE
8
DEFAULT_255_2_778
10
15.0000897
20
73.4671271
11
15.5320897
21
73.4671271
0
LINE
8
DEFAULT_255_2_778
10
15.5320897
20
73.4671271
11
15.5320897
21
73.6385271
0
LINE
8
DEFAULT_255_2_778
10
15.5320897
20
73.6385271
11
15.0000897
21
73.6385271
0
LINE
8
DEFAULT_255_2_778
10
15.0000897
20
73.6385271
11
14.7997897
21
73.6385271
0
LINE
8
DEFAULT_255_2_778
10
14.7997897
20
73.6385271
11
14.7997897
21
73.4671271
0
LINE
8
DEFAULT_255_2_778
10
14.7997897
20
73.4671271
11
14.7997897
21
72.8207271
0
LINE
8
DEFAULT_255_2_778
10
14.7997897
20
72.8207271
11
14.7997897
21
72.6492271
0
LINE
8
DEFAULT_255_2_778
10
14.7997897
20
72.6492271
11
15.0000897
21
72.6492271
0
LINE
8
DEFAULT_255_2_778
10
15.0000897
20
72.6492271
11
15.5461897
21
72.6492271
0
LINE
8
DEFAULT_255_2_778
10
15.5461897
20
72.6492271
11
15.5461897
21
72.8207271
0
LINE
8
DEFAULT_255_2_778
10
15.5461897
20
72.8207271
11
15.0000897
21
72.8207271
0
LINE
8
DEFAULT_255_2_778
10
15.0000897
20
72.8207271
11
15.0000897
21
73.0845271
0
LINE
8
DEFAULT_255_2_778
10
15.0000897
20
73.0845271
11
15.0000897
21
73.0848271
0
LINE
8
DEFAULT_255_2_778
10
17.4064897
20
74.3936271
11
17.1690897
21
74.3936271
0
LINE
8
DEFAULT_255_2_778
10
17.1690897
20
74.3936271
11
17.1690897
21
74.6352271
0
LINE
8
DEFAULT_255_2_778
10
17.1690897
20
74.6352271
11
17.4175897
21
74.6352271
0
LINE
8
DEFAULT_255_2_778
10
17.4175897
20
74.6352271
11
17.4175897
21
74.6355271
0
LINE
8
DEFAULT_255_2_778
10
17.4027897
20
73.9528271
11
17.1690897
21
73.9528271
0
LINE
8
DEFAULT_255_2_778
10
17.1690897
20
73.9528271
11
17.1690897
21
74.2399271
0
LINE
8
DEFAULT_255_2_778
10
17.1690897
20
74.2399271
11
17.4003897
21
74.2399271
0
LINE
8
DEFAULT_255_2_778
10
17.1767897
20
73.8036271
11
17.4622897
21
73.8036271
0
LINE
8
DEFAULT_255_2_778
10
17.4172897
20
74.7926271
11
17.1770897
21
74.7926271
0
LINE
8
DEFAULT_255_2_778
10
17.1770897
20
74.7926271
11
16.9722897
21
74.7926271
0
LINE
8
DEFAULT_255_2_778
10
16.9722897
20
74.7926271
11
16.9711897
21
74.7926271
0
LINE
8
DEFAULT_255_2_778
10
16.9711897
20
74.7926271
11
16.9711897
21
73.8036271
0
LINE
8
DEFAULT_255_2_778
10
16.9711897
20
73.8036271
11
16.9722897
21
73.8036271
0
LINE
8
DEFAULT_255_2_778
10
16.9722897
20
73.8036271
11
17.1770897
21
73.8036271
0
LINE
8
DEFAULT_255_2_778
10
17.1770897
20
73.8036271
11
17.1767897
21
73.8036271
0
LINE
8
DEFAULT_255_2_778
10
17.3368897
20
73.1993271
11
17.3368897
21
73.4687271
0
LINE
8
DEFAULT_255_2_778
10
17.3368897
20
73.4687271
11
17.5781897
21
73.4687271
0
LINE
8
DEFAULT_255_2_778
10
17.5842897
20
73.1996271
11
17.3370897
21
73.1996271
0
LINE
8
DEFAULT_255_2_778
10
17.3370897
20
73.1996271
11
17.3368897
21
73.1993271
0
LINE
8
DEFAULT_255_2_778
10
17.5879897
20
73.6398271
11
17.3368897
21
73.6398271
0
LINE
8
DEFAULT_255_2_778
10
17.3368897
20
73.6398271
11
17.1383897
21
73.6398271
0
LINE
8
DEFAULT_255_2_778
10
17.1383897
20
73.6398271
11
17.1362897
21
73.6398271
0
LINE
8
DEFAULT_255_2_778
10
17.1362897
20
73.6398271
11
17.1362897
21
72.6506271
0
LINE
8
DEFAULT_255_2_778
10
17.1362897
20
72.6506271
11
17.3368897
21
72.6506271
0
LINE
8
DEFAULT_255_2_778
10
17.3368897
20
72.6506271
11
17.3368897
21
73.0403271
0
LINE
8
DEFAULT_255_2_778
10
17.3368897
20
73.0403271
11
17.5069897
21
73.0403271
0
LINE
8
DEFAULT_255_2_778
10
17.7162897
20
72.6506271
11
17.9175897
21
72.6506271
0
LINE
8
DEFAULT_255_2_778
10
14.2763897
20
73.6388271
11
14.0760897
21
73.6388271
0
LINE
8
DEFAULT_255_2_778
10
14.0760897
20
73.6388271
11
14.0760897
21
72.8210271
0
LINE
8
DEFAULT_255_2_778
10
14.0760897
20
72.8210271
11
14.0760897
21
72.6495271
0
LINE
8
DEFAULT_255_2_778
10
14.0760897
20
72.6495271
11
14.2763897
21
72.6495271
0
LINE
8
DEFAULT_255_2_778
10
14.2763897
20
72.6495271
11
14.7428897
21
72.6495271
0
LINE
8
DEFAULT_255_2_778
10
14.7428897
20
72.6495271
11
14.7428897
21
72.8210271
0
LINE
8
DEFAULT_255_2_778
10
14.7428897
20
72.8210271
11
14.2763897
21
72.8210271
0
LINE
8
DEFAULT_255_2_778
10
14.2763897
20
72.8210271
11
14.2763897
21
73.6388271
0
LINE
8
DEFAULT_255_2_778
10
14.2763897
20
73.6388271
11
14.2763897
21
73.6388271
0
ARC
8
DEFAULT_255_2_778
10
15.4584271
20
73.2646969
40
0.9681224
50
72.4822103
51
81.3184214
0
ARC
8
DEFAULT_255_2_778
10
15.7160297
20
74.0413918
40
0.1503783
50
28.8883513
51
77.0092434
0
ARC
8
DEFAULT_255_2_778
10
15.7432379
20
74.0703196
40
0.113238
50
358.9917455
51
22.7117017
0
ARC
8
DEFAULT_255_2_778
10
15.7394861
20
74.0744918
40
0.1171346
50
289.2958104
51
356.9831562
0
ARC
8
DEFAULT_255_2_778
10
15.6668261
20
74.2319882
40
0.2902651
50
268.4665462
51
292.5613311
0
ARC
8
DEFAULT_255_2_778
10
15.6496856
20
74.1729179
40
0.2312808
50
236.4956947
51
272.3225735
0
ARC
8
DEFAULT_255_2_778
10
15.6106646
20
74.1046839
40
0.1529307
50
178.9722202
51
234.5742435
0
ARC
8
DEFAULT_255_2_778
10
15.5656113
20
74.0951079
40
0.3002058
50
177.6481608
51
245.5596397
0
ARC
8
DEFAULT_255_2_778
10
15.6409971
20
74.2673561
40
0.488217
50
245.8690375
51
267.169035
0
ARC
8
DEFAULT_255_2_778
10
15.6671503
20
74.5183916
40
0.7403648
50
266.1069867
51
270.0547972
0
ARC
8
DEFAULT_255_2_778
10
15.6772894
20
74.3496135
40
0.5716642
50
269.0547216
51
287.7147747
0
ARC
8
DEFAULT_255_2_778
10
15.7598889
20
74.1039091
40
0.3125017
50
286.995984
51
325.1221533
0
ARC
8
DEFAULT_255_2_778
10
15.7678294
20
74.087361
40
0.2966627
50
326.8673922
51
0.8625726
0
ARC
8
DEFAULT_255_2_778
10
15.7898286
20
74.0959409
40
0.2746606
50
359.1417932
51
76.9739731
0
ARC
8
DEFAULT_255_2_778
10
15.6705461
20
73.8150719
40
0.577616
50
71.7185727
51
79.1315439
0
ARC
8
DEFAULT_255_2_778
10
14.2492968
20
66.461467
40
8.0673056
50
79.0662148
51
79.6216572
0
ARC
8
DEFAULT_255_2_778
10
16.4356585
20
78.3391581
40
4.0099443
50
259.1227669
51
259.4665204
0
ARC
8
DEFAULT_255_2_778
10
15.7836732
20
75.0441142
40
0.6513291
50
249.9945768
51
260.7485895
0
ARC
8
DEFAULT_255_2_778
10
15.5880401
20
74.5330999
40
0.1046098
50
178.6705173
51
254.9333545
0
ARC
8
DEFAULT_255_2_778
10
15.6049957
20
74.5296688
40
0.1216785
50
93.288632
51
177.2403935
0
ARC
8
DEFAULT_255_2_778
10
15.6585677
20
74.3426752
40
0.3143588
50
89.6189463
51
101.1057977
0
ARC
8
DEFAULT_255_2_778
10
15.6722733
20
74.454516
40
0.2028439
50
53.5634072
51
93.2825843
0
ARC
8
DEFAULT_255_2_778
10
15.7018505
20
74.5127144
40
0.1388739
50
357.1985816
51
49.1152298
0
ARC
8
DEFAULT_255_2_778
10
15.7254907
20
74.5059274
40
0.3087677
50
359.9999335
51
2.3703878
0
ARC
8
DEFAULT_255_2_778
10
15.7353555
20
74.5074337
40
0.298851
50
2.1600756
51
60.1092229
0
ARC
8
DEFAULT_255_2_778
10
15.6766212
20
74.4008133
40
0.4205645
50
60.4106856
51
86.1444419
0
ARC
8
DEFAULT_255_2_778
10
15.6536151
20
74.2241228
40
0.5985046
50
85.0843314
51
90.0628677
0
ARC
8
DEFAULT_255_2_778
10
15.6529718
20
74.3475466
40
0.4750804
50
90.001616
51
92.2300394
0
ARC
8
DEFAULT_255_2_778
10
15.6281193
20
74.452687
40
0.3696351
50
89.0131319
51
149.6364996
0
ARC
8
DEFAULT_255_2_778
10
15.5505461
20
74.5249055
40
0.2671974
50
154.5962367
51
180.4885883
0
ARC
8
DEFAULT_255_2_778
10
15.5651524
20
74.523384
40
0.281795
50
180.1539064
51
255.1120325
0
ARC
8
DEFAULT_255_2_778
10
15.7094242
20
74.846232
40
0.6333958
50
249.9962237
51
260.4976723
0
ARC
8
DEFAULT_255_2_778
10
18.2470963
20
73.2658351
40
0.967002
50
72.4685023
51
81.3064395
0
ARC
8
DEFAULT_255_2_778
10
18.5045397
20
74.041427
40
0.1503535
50
28.8782248
51
76.9904304
0
ARC
8
DEFAULT_255_2_778
10
18.5317197
20
74.0703189
40
0.1132561
50
358.9922779
51
22.7082666
0
ARC
8
DEFAULT_255_2_778
10
18.5280402
20
74.0744088
40
0.1170763
50
289.2761556
51
357.0223042
0
ARC
8
DEFAULT_255_2_778
10
18.4553612
20
74.2322836
40
0.2905613
50
268.4611814
51
292.5289055
0
ARC
8
DEFAULT_255_2_778
10
18.4381801
20
74.1738175
40
0.2321799
50
236.6698634
51
272.3149402
0
ARC
8
DEFAULT_255_2_778
10
18.39878
20
74.1046762
40
0.1528464
50
178.9687581
51
234.7686008
0
ARC
8
DEFAULT_255_2_778
10
18.3540113
20
74.0951079
40
0.3002058
50
177.6481608
51
245.5596397
0
ARC
8
DEFAULT_255_2_778
10
18.4293971
20
74.2673561
40
0.488217
50
245.8690375
51
267.169035
0
ARC
8
DEFAULT_255_2_778
10
18.4555503
20
74.5183916
40
0.7403648
50
266.1069867
51
270.0547972
0
ARC
8
DEFAULT_255_2_778
10
18.4656836
20
74.3502451
40
0.5722957
50
269.0563423
51
287.7048702
0
ARC
8
DEFAULT_255_2_778
10
18.548344
20
74.1042682
40
0.312856
50
286.9832601
51
325.0871916
0
ARC
8
DEFAULT_255_2_778
10
18.5567708
20
74.0873856
40
0.2964208
50
326.8311942
51
0.8585267
0
ARC
8
DEFAULT_255_2_778
10
18.5785756
20
74.0960282
40
0.2746149
50
359.1234265
51
76.9343785
0
ARC
8
DEFAULT_255_2_778
10
18.4596421
20
73.8161965
40
0.5764934
50
71.6999697
51
79.1198353
0
ARC
8
DEFAULT_255_2_778
10
17.0173657
20
66.3394392
40
8.1910887
50
79.0843627
51
79.6321368
0
ARC
8
DEFAULT_255_2_778
10
19.2200266
20
78.3189177
40
3.9892176
50
259.1314419
51
259.4772924
0
ARC
8
DEFAULT_255_2_778
10
18.5723251
20
75.0435131
40
0.6507003
50
249.9919323
51
260.7592458
0
ARC
8
DEFAULT_255_2_778
10
18.376901
20
74.5330546
40
0.1045718
50
178.6452075
51
254.9151907
0
ARC
8
DEFAULT_255_2_778
10
18.3939581
20
74.5296016
40
0.121744
50
93.2745253
51
177.21023
0
ARC
8
DEFAULT_255_2_778
10
18.4475726
20
74.3425052
40
0.3145287
50
89.6200387
51
101.1027534
0
ARC
8
DEFAULT_255_2_778
10
18.4613489
20
74.4558453
40
0.2015212
50
53.1490002
51
93.3256649
0
ARC
8
DEFAULT_255_2_778
10
18.4902753
20
74.5126519
40
0.1391457
50
357.2298288
51
48.6469881
0
ARC
8
DEFAULT_255_2_778
10
18.5137232
20
74.5059226
40
0.3092351
50
0.0008291
51
2.3676985
0
ARC
8
DEFAULT_255_2_778
10
18.5240744
20
74.5074868
40
0.2988304
50
2.1500394
51
60.0956838
0
ARC
8
DEFAULT_255_2_778
10
18.4654399
20
74.4009909
40
0.4203859
50
60.40452
51
86.1455285
0
ARC
8
DEFAULT_255_2_778
10
18.4424157
20
74.2241686
40
0.5984588
50
85.0841409
51
90.0629301
0
ARC
8
DEFAULT_255_2_778
10
18.4417778
20
74.3471392
40
0.4754878
50
90.0023409
51
92.3231329
0
ARC
8
DEFAULT_255_2_778
10
18.4167555
20
74.4524604
40
0.3698206
50
89.1093915
51
149.6400816
0
ARC
8
DEFAULT_255_2_778
10
18.338761
20
74.5248917
40
0.2669122
50
154.6001925
51
180.486137
0
ARC
8
DEFAULT_255_2_778
10
18.3537607
20
74.5235152
40
0.2819037
50
180.1805176
51
255.132702
0
ARC
8
DEFAULT_255_2_778
10
18.4982264
20
74.8467784
40
0.6339516
50
250.0026216
51
260.4967164
0
ARC
8
DEFAULT_255_2_778
10
16.008917
20
73.0539283
40
0.2519711
50
190.2626864
51
267.3480013
0
ARC
8
DEFAULT_255_2_778
10
16.2443543
20
73.1452548
40
0.5022041
50
179.6723028
51
195.7380858
0
ARC
8
DEFAULT_255_2_778
10
16.1790511
20
73.1607671
40
0.4370755
50
148.7005643
51
181.6572045
0
ARC
8
DEFAULT_255_2_778
10
15.9957576
20
73.2708723
40
0.2232598
50
89.6148479
51
148.4074796
0
ARC
8
DEFAULT_255_2_778
10
16.0060936
20
73.292949
40
0.201372
50
41.9769772
51
92.5146611
0
ARC
8
DEFAULT_255_2_778
10
15.9522078
20
73.2552523
40
0.2667646
50
15.1848537
51
40.2549591
0
ARC
8
DEFAULT_255_2_778
10
16.028123
20
73.2655326
40
0.3935735
50
8.7091682
51
82.0550801
0
ARC
8
DEFAULT_255_2_778
10
15.9931241
20
73.1190871
40
0.543642
50
80.5350289
51
90.1544743
0
ARC
8
DEFAULT_255_2_778
10
15.9818804
20
73.2077192
40
0.4551129
50
88.7689246
51
119.6437418
0
ARC
8
DEFAULT_255_2_778
10
16.0077717
20
73.2114647
40
0.4653013
50
122.644121
51
173.3997839
0
ARC
8
DEFAULT_255_2_778
10
16.2711934
20
73.1471568
40
0.7351371
50
170.7798304
51
180.1348114
0
ARC
8
DEFAULT_255_2_778
10
16.1377257
20
73.1317615
40
0.6018225
50
178.6988735
51
210.5289552
0
ARC
8
DEFAULT_255_2_778
10
15.970325
20
73.0409953
40
0.4115783
50
211.4828222
51
265.8686737
0
ARC
8
DEFAULT_255_2_778
10
15.9909864
20
73.1657011
40
0.5375742
50
264.6297133
51
270.0503073
0
ARC
8
DEFAULT_255_2_778
10
16.0020995
20
73.0975749
40
0.4695684
50
268.7014824
51
300.1403067
0
ARC
8
DEFAULT_255_2_778
10
16.0350333
20
73.0191852
40
0.385394
50
301.7580058
51
353.77968
0
ARC
8
DEFAULT_255_2_778
10
16.0012256
20
73.0135219
40
0.2113379
50
268.8430278
51
350.1661143
0
ARC
8
DEFAULT_255_2_778
10
18.6896799
20
73.0538824
40
0.2519281
50
190.2538303
51
267.3332171
0
ARC
8
DEFAULT_255_2_778
10
18.9252249
20
73.1452581
40
0.5022746
50
179.672724
51
195.7362088
0
ARC
8
DEFAULT_255_2_778
10
18.8600432
20
73.1607917
40
0.4372682
50
148.7196987
51
181.6596982
0
ARC
8
DEFAULT_255_2_778
10
18.676443
20
73.2709906
40
0.2231415
50
89.6108896
51
148.4244661
0
ARC
8
DEFAULT_255_2_778
10
18.686876
20
73.292967
40
0.2013576
50
42.5913083
51
92.5383066
0
ARC
8
DEFAULT_255_2_778
10
18.6345542
20
73.2565973
40
0.2646316
50
15.0085433
51
40.7215892
0
ARC
8
DEFAULT_255_2_778
10
18.708623
20
73.2655326
40
0.3935735
50
8.7091682
51
82.0550801
0
ARC
8
DEFAULT_255_2_778
10
18.6736241
20
73.1190871
40
0.543642
50
80.5350289
51
90.1544743
0
ARC
8
DEFAULT_255_2_778
10
18.6623804
20
73.2077192
40
0.4551129
50
88.7689246
51
119.6437418
0
ARC
8
DEFAULT_255_2_778
10
18.6882717
20
73.2114647
40
0.4653013
50
122.644121
51
173.3997839
0
ARC
8
DEFAULT_255_2_778
10
18.9516934
20
73.1471568
40
0.7351371
50
170.7798304
51
180.1348114
0
ARC
8
DEFAULT_255_2_778
10
18.8177822
20
73.13182
40
0.6013778
50
178.7034849
51
210.5604279
0
ARC
8
DEFAULT_255_2_778
10
18.6511312
20
73.0413377
40
0.4119265
50
211.5090145
51
265.8592607
0
ARC
8
DEFAULT_255_2_778
10
18.6716883
20
73.1654521
40
0.5373252
50
264.628472
51
270.0501277
0
ARC
8
DEFAULT_255_2_778
10
18.682837
20
73.0973685
40
0.4693629
50
268.6963312
51
300.2191972
0
ARC
8
DEFAULT_255_2_778
10
18.7155684
20
73.0194124
40
0.3856821
50
301.8465101
51
353.7503927
0
ARC
8
DEFAULT_255_2_778
10
18.6820648
20
73.0133604
40
0.2111733
50
268.8857714
51
350.2028431
0
LINE
8
DEFAULT_255_2_778
10
15.4577584
20
74.1074271
11
15.2656584
21
74.1074271
0
LINE
8
DEFAULT_255_2_778
10
15.8405584
20
74.5059271
11
16.0342584
21
74.5059271
0
LINE
8
DEFAULT_255_2_778
10
18.2459584
20
74.1074271
11
18.0540584
21
74.1074271
0
LINE
8
DEFAULT_255_2_778
10
18.6292584
20
74.5059271
11
18.8229584
21
74.5059271
0
LINE
8
DEFAULT_255_2_778
10
16.2096584
20
73.3251271
11
16.4171584
21
73.3251271
0
LINE
8
DEFAULT_255_2_778
10
16.4181584
20
72.9774271
11
16.2094584
21
72.9774271
0
LINE
8
DEFAULT_255_2_778
10
18.8901584
20
73.3251271
11
19.0976584
21
73.3251271
0
LINE
8
DEFAULT_255_2_778
10
19.0989584
20
72.9774271
11
18.8901584
21
72.9774271
0
LINE
8
DEFAULT_255_1_234
10
11.7257657
20
70.7463565
11
11.7257657
21
70.6716614
0
LINE
8
DEFAULT_255_1_234
10
11.5209563
20
70.1881507
11
11.7297815
21
70.0243033
0
LINE
8
DEFAULT_255_1_234
10
11.7297815
20
70.0243033
11
11.6245658
21
69.9271192
0
LINE
8
DEFAULT_255_1_234
10
11.6245658
20
69.9271192
11
11.3779914
21
70.1230937
0
LINE
8
DEFAULT_255_1_234
10
10.7844459
20
70.6612201
11
10.7844459
21
70.7455534
0
LINE
8
DEFAULT_255_1_234
10
11.5715563
20
70.6604169
11
11.5715563
21
70.7471597
0
LINE
8
DEFAULT_255_1_234
10
10.9386553
20
70.757601
11
10.9386553
21
70.6716614
0
ARC
8
DEFAULT_255_1_234
10
10.8303909
20
70.6677707
40
0.8953833
50
351.453011
51
0.2489685
0
ARC
8
DEFAULT_255_1_234
10
11.0888709
20
70.6277933
40
0.6338333
50
338.6861641
51
351.5540711
0
ARC
8
DEFAULT_255_1_234
10
11.1822593
20
70.5947828
40
0.5348431
50
336.2887631
51
338.3442418
0
ARC
8
DEFAULT_255_1_234
10
11.2162215
20
70.5761698
40
0.4962747
50
321.1170344
51
336.6795229
0
ARC
8
DEFAULT_255_1_234
10
11.2794044
20
70.5275206
40
0.4165565
50
305.4419708
51
320.8705636
0
ARC
8
DEFAULT_255_1_234
10
11.2597514
20
70.6022707
40
0.4935497
50
271.6373023
51
283.8611969
0
ARC
8
DEFAULT_255_1_234
10
11.2559767
20
70.6678572
40
0.5592206
50
269.9930596
51
271.8318864
0
ARC
8
DEFAULT_255_1_234
10
11.252221
20
70.5870681
40
0.4784458
50
252.5219675
51
270.4416499
0
ARC
8
DEFAULT_255_1_234
10
11.2378469
20
70.5331592
40
0.422716
50
237.5352116
51
252.1857531
0
ARC
8
DEFAULT_255_1_234
10
11.2467665
20
70.5445363
40
0.4371052
50
209.063312
51
237.3492538
0
ARC
8
DEFAULT_255_1_234
10
11.3337513
20
70.5991685
40
0.5397041
50
205.1183774
51
209.6470015
0
ARC
8
DEFAULT_255_1_234
10
11.413455
20
70.632983
40
0.6262326
50
188.7215458
51
204.8240747
0
ARC
8
DEFAULT_255_1_234
10
11.6132078
20
70.6666067
40
0.8287794
50
180.3723947
51
188.9252049
0
ARC
8
DEFAULT_255_1_234
10
11.610483
20
70.7495402
40
0.8260467
50
169.5253763
51
180.2765336
0
ARC
8
DEFAULT_255_1_234
10
11.4202279
20
70.7845309
40
0.6326007
50
155.8315255
51
169.5089989
0
ARC
8
DEFAULT_255_1_234
10
11.292178
20
70.8439348
40
0.4914567
50
139.6258461
51
156.0379525
0
ARC
8
DEFAULT_255_1_234
10
11.2332113
20
70.8913799
40
0.4158054
50
122.6416387
51
139.3430715
0
ARC
8
DEFAULT_255_1_234
10
11.2432733
20
70.8730451
40
0.4366739
50
93.0223692
51
122.455762
0
ARC
8
DEFAULT_255_1_234
10
11.254073
20
70.7765709
40
0.5336137
50
89.975342
51
93.6341897
0
ARC
8
DEFAULT_255_1_234
10
11.2579616
20
70.8145375
40
0.4956606
50
73.9665422
51
90.4229648
0
ARC
8
DEFAULT_255_1_234
10
11.2763263
20
70.8860451
40
0.4218674
50
57.5178019
51
73.6813337
0
ARC
8
DEFAULT_255_1_234
10
11.2719046
20
70.8824462
40
0.4272816
50
28.7261108
51
57.2767933
0
ARC
8
DEFAULT_255_1_234
10
11.1808378
20
70.8261688
40
0.534218
50
24.2448911
51
29.3248482
0
ARC
8
DEFAULT_255_1_234
10
11.0882479
20
70.7878819
40
0.6343711
50
9.064382
51
23.9639114
0
ARC
8
DEFAULT_255_1_234
10
10.8626807
20
70.7499925
40
0.8630926
50
359.7586264
51
9.1891435
0
ARC
8
DEFAULT_255_1_234
10
10.7372287
20
70.7513343
40
0.834338
50
359.7133237
51
7.96545
0
ARC
8
DEFAULT_255_1_234
10
11.0334504
20
70.7940681
40
0.5350538
50
7.8291991
51
20.0421623
0
ARC
8
DEFAULT_255_1_234
10
11.1959067
20
70.8531606
40
0.3621841
50
20.0677553
51
35.9161685
0
ARC
8
DEFAULT_255_1_234
10
11.2734105
20
70.910767
40
0.2656263
50
35.6594382
51
85.1578074
0
ARC
8
DEFAULT_255_1_234
10
11.2549361
20
70.7992378
40
0.3784238
50
83.7959068
51
90.095906
0
ARC
8
DEFAULT_255_1_234
10
11.2506295
20
70.8725601
40
0.3051229
50
89.3102392
51
109.9889877
0
ARC
8
DEFAULT_255_1_234
10
11.2423778
20
70.9081433
40
0.2688988
50
110.9285147
51
143.9411762
0
ARC
8
DEFAULT_255_1_234
10
11.3354724
20
70.8369236
40
0.3860887
50
143.5289163
51
163.2980757
0
ARC
8
DEFAULT_255_1_234
10
11.5262545
20
70.7769433
40
0.5860659
50
163.0418846
51
174.3140048
0
ARC
8
DEFAULT_255_1_234
10
11.7666657
20
70.7491854
40
0.8280531
50
174.0509143
51
179.4176892
0
ARC
8
DEFAULT_255_1_234
10
11.7152992
20
70.6673634
40
0.7766558
50
179.6829237
51
188.9631324
0
ARC
8
DEFAULT_255_1_234
10
11.4482553
20
70.6238752
40
0.5060992
50
188.8100743
51
202.9300012
0
ARC
8
DEFAULT_255_1_234
10
11.3266182
20
70.5743855
40
0.3747967
50
203.2069261
51
215.7876482
0
ARC
8
DEFAULT_255_1_234
10
11.2417579
20
70.5072671
40
0.2667526
50
214.7521006
51
264.2834488
0
ARC
8
DEFAULT_255_1_234
10
11.2553234
20
70.592778
40
0.3532247
50
263.4755397
51
270.0949833
0
ARC
8
DEFAULT_255_1_234
10
11.2595345
20
70.5666374
40
0.3271036
50
269.3649385
51
287.5152008
0
ARC
8
DEFAULT_255_1_234
10
11.2773503
20
70.5019238
40
0.2600406
50
288.0630309
51
323.8113348
0
ARC
8
DEFAULT_255_1_234
10
11.1902345
20
70.5669049
40
0.3687189
50
323.6547608
51
342.6590488
0
ARC
8
DEFAULT_255_1_234
10
10.987096
20
70.6329952
40
0.5823286
50
342.4091907
51
353.6451149
0
ARC
8
DEFAULT_255_1_234
10
10.7039471
20
70.668219
40
0.8676442
50
353.4029884
51
359.4847795
0
LINE
8
DEFAULT_255_1_234
10
12.6566441
20
70.6821026
11
12.6566441
21
70.5608234
0
LINE
8
DEFAULT_255_1_234
10
12.6566441
20
70.5608234
11
12.2646953
21
70.5608234
0
LINE
8
DEFAULT_255_1_234
10
12.2646953
20
70.5608234
11
12.2646953
21
70.6821026
0
LINE
8
DEFAULT_255_1_234
10
12.2646953
20
70.6821026
11
12.6566441
21
70.6821026
0
LINE
8
DEFAULT_255_1_234
10
14.0075825
20
70.9559849
11
13.85257
21
70.9559849
0
LINE
8
DEFAULT_255_1_234
10
13.1602341
20
70.4636394
11
13.3152467
21
70.4636394
0
ARC
8
DEFAULT_255_1_234
10
13.9184513
20
71.8506768
40
1.252368
50
248.9199003
51
254.1439814
0
ARC
8
DEFAULT_255_1_234
10
13.7504007
20
71.4180234
40
0.788226
50
241.633709
51
249.0064503
0
ARC
8
DEFAULT_255_1_234
10
13.5975402
20
71.1379317
40
0.4691427
50
230.498225
51
241.8087113
0
ARC
8
DEFAULT_255_1_234
10
13.5190976
20
71.0379906
40
0.3421437
50
227.4064532
51
229.9881192
0
ARC
8
DEFAULT_255_1_234
10
13.4703497
20
70.9904088
40
0.2741476
50
200.6781896
51
228.1763934
0
ARC
8
DEFAULT_255_1_234
10
13.4775807
20
70.9889077
40
0.2804109
50
179.5061581
51
199.8694617
0
ARC
8
DEFAULT_255_1_234
10
13.4766559
20
70.996321
40
0.2795204
50
132.4834203
51
181.0242172
0
ARC
8
DEFAULT_255_1_234
10
13.5362141
20
70.9400704
40
0.3612768
50
129.2532479
51
133.4242687
0
ARC
8
DEFAULT_255_1_234
10
13.5508591
20
70.9180965
40
0.3875675
50
101.98776
51
128.8742646
0
ARC
8
DEFAULT_255_1_234
10
13.5907202
20
70.7459741
40
0.5642249
50
89.5906553
51
102.3169264
0
ARC
8
DEFAULT_255_1_234
10
13.5977694
20
70.7778148
40
0.5323783
50
77.2360837
51
90.3248275
0
ARC
8
DEFAULT_255_1_234
10
13.6184773
20
70.87454
40
0.4334697
50
63.837784
51
77.0809408
0
ARC
8
DEFAULT_255_1_234
10
13.6462535
20
70.9262911
40
0.3747796
50
45.9864267
51
64.1607727
0
ARC
8
DEFAULT_255_1_234
10
13.6723416
20
70.9560866
40
0.3352302
50
32.2747395
51
45.6547121
0
ARC
8
DEFAULT_255_1_234
10
13.6789857
20
70.957988
40
0.328603
50
359.6507365
51
32.6130309
0
ARC
8
DEFAULT_255_1_234
10
13.5846952
20
70.958466
40
0.2678863
50
359.469343
51
14.9832209
0
ARC
8
DEFAULT_255_1_234
10
13.6552014
20
70.9773539
40
0.1948938
50
14.9781179
51
48.2004265
0
ARC
8
DEFAULT_255_1_234
10
13.6387658
20
70.9566983
40
0.2212521
50
48.5927837
51
74.1241538
0
ARC
8
DEFAULT_255_1_234
10
13.6054148
20
70.8466248
40
0.3362561
50
73.7888341
51
86.6652678
0
ARC
8
DEFAULT_255_1_234
10
13.5951714
20
70.7258881
40
0.4573953
50
86.2640471
51
90.0526343
0
ARC
8
DEFAULT_255_1_234
10
13.5923426
20
70.7654192
40
0.4178709
50
89.6697524
51
99.2309573
0
ARC
8
DEFAULT_255_1_234
10
13.5680877
20
70.9098964
40
0.2713749
50
99.069534
51
113.7658566
0
ARC
8
DEFAULT_255_1_234
10
13.5407068
20
70.9744677
40
0.2012469
50
114.0401004
51
127.9850673
0
ARC
8
DEFAULT_255_1_234
10
13.5166632
20
71.004073
40
0.1631167
50
127.7287463
51
176.7105154
0
ARC
8
DEFAULT_255_1_234
10
13.5845349
20
70.9939693
40
0.2315392
50
175.1779447
51
180.0581938
0
ARC
8
DEFAULT_255_1_234
10
13.5002196
20
70.9927428
40
0.1472271
50
179.6142195
51
228.1246017
0
ARC
8
DEFAULT_255_1_234
10
13.5443865
20
71.0336308
40
0.2072299
50
226.5779593
51
230.8800004
0
ARC
8
DEFAULT_255_1_234
10
13.5914944
20
71.0961636
40
0.2854818
50
231.4635071
51
241.9260842
0
ARC
8
DEFAULT_255_1_234
10
13.7112122
20
71.31648
40
0.53622
50
241.7178533
51
248.3259551
0
ARC
8
DEFAULT_255_1_234
10
13.8497493
20
71.6597064
40
0.9063478
50
248.2007737
51
252.4528373
0
ARC
8
DEFAULT_255_1_234
10
13.9701218
20
72.0318441
40
1.2974635
50
252.3391078
51
254.3469452
0
ARC
8
DEFAULT_255_1_234
10
13.2158921
20
69.3341148
40
1.5037162
50
71.0197183
51
74.4087047
0
ARC
8
DEFAULT_255_1_234
10
13.3853606
20
69.8233111
40
0.9859993
50
66.1847285
51
71.086374
0
ARC
8
DEFAULT_255_1_234
10
13.5409918
20
70.17372
40
0.6025855
50
59.3536294
51
66.2691831
0
ARC
8
DEFAULT_255_1_234
10
13.6298571
20
70.3240609
40
0.4279449
50
49.1020879
51
59.3293958
0
ARC
8
DEFAULT_255_1_234
10
13.7117311
20
70.4173834
40
0.3038015
50
32.7919921
51
49.2505539
0
ARC
8
DEFAULT_255_1_234
10
13.7438401
20
70.4402191
40
0.264448
50
31.1181161
51
32.4005348
0
ARC
8
DEFAULT_255_1_234
10
13.7349938
20
70.4366779
40
0.2738556
50
8.1116974
51
30.7958831
0
ARC
8
DEFAULT_255_1_234
10
13.6539607
20
70.4228753
40
0.3560327
50
359.8389159
51
8.4706516
0
ARC
8
DEFAULT_255_1_234
10
13.7165398
20
70.4180137
40
0.2934776
50
337.4731098
51
0.7537279
0
ARC
8
DEFAULT_255_1_234
10
13.7344093
20
70.4160387
40
0.2762607
50
307.5917067
51
336.4315538
0
ARC
8
DEFAULT_255_1_234
10
13.6883921
20
70.4673102
40
0.3449979
50
307.6551545
51
308.4529766
0
ARC
8
DEFAULT_255_1_234
10
13.665364
20
70.502825
40
0.3871988
50
284.3734338
51
307.1424381
0
ARC
8
DEFAULT_255_1_234
10
13.615847
20
70.6849932
40
0.5759636
50
272.4382747
51
284.646547
0
ARC
8
DEFAULT_255_1_234
10
13.6031679
20
70.8649893
40
0.7563528
50
269.9708387
51
272.8178037
0
ARC
8
DEFAULT_255_1_234
10
13.5988718
20
70.6611716
40
0.5525489
50
248.2707594
51
270.4055579
0
ARC
8
DEFAULT_255_1_234
10
13.5934459
20
70.6421192
40
0.5328452
50
246.1383403
51
248.0542782
0
ARC
8
DEFAULT_255_1_234
10
13.5515838
20
70.5541843
40
0.4355005
50
233.1670131
51
246.4950969
0
ARC
8
DEFAULT_255_1_234
10
13.4961743
20
70.4793812
40
0.3424126
50
215.3403242
51
233.0843104
0
ARC
8
DEFAULT_255_1_234
10
13.4689175
20
70.4595549
40
0.3087104
50
179.2419209
51
215.2648451
0
ARC
8
DEFAULT_255_1_234
10
13.5456768
20
70.4609666
40
0.2304457
50
179.335461
51
199.1045811
0
ARC
8
DEFAULT_255_1_234
10
13.5124445
20
70.4522766
40
0.1962176
50
199.8828939
51
232.7063202
0
ARC
8
DEFAULT_255_1_234
10
13.5596713
20
70.5116788
40
0.2720938
50
232.3738199
51
255.5136649
0
ARC
8
DEFAULT_255_1_234
10
13.593758
20
70.6360835
40
0.4010747
50
255.2446292
51
267.5320849
0
ARC
8
DEFAULT_255_1_234
10
13.6025203
20
70.7593702
40
0.5246356
50
267.1557994
51
270.0286766
0
ARC
8
DEFAULT_255_1_234
10
13.6052976
20
70.714995
40
0.4802668
50
269.7000017
51
278.1660162
0
ARC
8
DEFAULT_255_1_234
10
13.630898
20
70.5419515
40
0.3053425
50
278.0231263
51
290.625471
0
ARC
8
DEFAULT_255_1_234
10
13.6656667
20
70.4492025
40
0.206291
50
290.6619762
51
307.0370976
0
ARC
8
DEFAULT_255_1_234
10
13.6957057
20
70.4123504
40
0.1587906
50
306.3943566
51
355.3030547
0
ARC
8
DEFAULT_255_1_234
10
13.6444988
20
70.4200113
40
0.2104809
50
354.3660432
51
0.0698737
0
ARC
8
DEFAULT_255_1_234
10
13.6587333
20
70.4222617
40
0.1962563
50
359.417946
51
16.1971788
0
ARC
8
DEFAULT_255_1_234
10
13.7042644
20
70.4347418
40
0.149053
50
16.4723299
51
52.6262157
0
ARC
8
DEFAULT_255_1_234
10
13.6221698
20
70.3263433
40
0.2850296
50
52.7386432
51
62.4979148
0
ARC
8
DEFAULT_255_1_234
10
13.4836774
20
70.0657283
40
0.5801521
50
62.2515216
51
68.1220564
0
ARC
8
DEFAULT_255_1_234
10
13.3116685
20
69.6429872
40
1.0365451
50
68.0062803
51
71.8053402
0
ARC
8
DEFAULT_255_1_234
10
13.1321057
20
69.1044758
40
1.6042013
50
71.7183119
51
73.9258742
0
LINE
8
DEFAULT_255_1_234
10
14.1465316
20
70.5351218
11
14.1465316
21
70.5624297
0
LINE
8
DEFAULT_255_1_234
10
14.8838452
20
70.5784932
11
14.8838452
21
70.5166488
0
LINE
8
DEFAULT_255_1_234
10
14.8838452
20
70.5166488
11
14.2951188
21
70.5166488
0
LINE
8
DEFAULT_255_1_234
10
14.7818421
20
70.3471792
11
14.8726007
21
70.2764999
0
LINE
8
DEFAULT_255_1_234
10
14.2999378
20
70.6387313
11
14.735258
21
70.6387313
0
LINE
8
DEFAULT_255_1_234
10
14.735258
20
70.6387313
11
14.735258
21
70.6499757
0
ARC
8
DEFAULT_255_1_234
10
14.5404681
20
70.5462332
40
0.4376191
50
252.3266134
51
270.5810217
0
ARC
8
DEFAULT_255_1_234
10
14.519977
20
70.4721644
40
0.3608374
50
223.3000567
51
251.8561855
0
ARC
8
DEFAULT_255_1_234
10
14.5411131
20
70.4926937
40
0.3902993
50
190.9374509
51
223.3654032
0
ARC
8
DEFAULT_255_1_234
10
14.7136103
20
70.5316885
40
0.5670891
50
179.6531105
51
191.4989439
0
ARC
8
DEFAULT_255_1_234
10
14.7258115
20
70.5656417
40
0.5792888
50
167.4007466
51
180.3176909
0
ARC
8
DEFAULT_255_1_234
10
14.6206177
20
70.5878885
40
0.471777
50
154.1835823
51
167.250763
0
ARC
8
DEFAULT_255_1_234
10
14.5574644
20
70.6211417
40
0.4004528
50
134.3149965
51
154.5315275
0
ARC
8
DEFAULT_255_1_234
10
14.5357139
20
70.6402228
40
0.371612
50
122.8616532
51
133.9707695
0
ARC
8
DEFAULT_255_1_234
10
14.5253714
20
70.6624703
40
0.3473289
50
89.8249009
51
123.4199222
0
ARC
8
DEFAULT_255_1_234
10
14.5303755
20
70.5977967
40
0.4120197
50
74.7876118
51
90.5482747
0
ARC
8
DEFAULT_255_1_234
10
14.5597498
20
70.706303
40
0.2996077
50
39.8178249
51
74.7633718
0
ARC
8
DEFAULT_255_1_234
10
14.5084818
20
70.6663351
40
0.3645855
50
16.8990863
51
39.4829761
0
ARC
8
DEFAULT_255_1_234
10
14.3190114
20
70.6056526
40
0.5635218
50
4.9636328
51
17.2026414
0
ARC
8
DEFAULT_255_1_234
10
14.0772185
20
70.580134
40
0.8066286
50
359.8834553
51
5.2834307
0
ARC
8
DEFAULT_255_1_234
10
14.6809709
20
70.5232803
40
0.3859091
50
180.9846213
51
194.9401313
0
ARC
8
DEFAULT_255_1_234
10
14.5759987
20
70.4945849
40
0.2770883
50
194.80314
51
222.0412631
0
ARC
8
DEFAULT_255_1_234
10
14.5455869
20
70.4644116
40
0.2343055
50
221.5417084
51
268.8614402
0
ARC
8
DEFAULT_255_1_234
10
14.5528863
20
70.5320686
40
0.3021528
50
267.732405
51
270.0097136
0
ARC
8
DEFAULT_255_1_234
10
14.5546673
20
70.5522105
40
0.3222994
50
269.6924892
51
280.4117579
0
ARC
8
DEFAULT_255_1_234
10
14.572308
20
70.4603193
40
0.2287344
50
280.2255091
51
298.6338936
0
ARC
8
DEFAULT_255_1_234
10
14.5839872
20
70.4359223
40
0.2017294
50
299.0430333
51
300.4643464
0
ARC
8
DEFAULT_255_1_234
10
14.5159878
20
70.5493038
40
0.3339357
50
300.6577328
51
322.0378878
0
ARC
8
DEFAULT_255_1_234
10
14.4809417
20
70.5797021
40
0.3802736
50
321.6750233
51
322.3046845
0
ARC
8
DEFAULT_255_1_234
10
14.5740378
20
70.463037
40
0.3520454
50
276.9728461
51
328.0035423
0
ARC
8
DEFAULT_255_1_234
10
14.5463431
20
70.6110841
40
0.5024498
50
269.8361028
51
278.0581756
0
ARC
8
DEFAULT_255_1_234
10
14.5236168
20
70.6855757
40
0.202159
50
89.2018686
51
117.2851756
0
ARC
8
DEFAULT_255_1_234
10
14.5289337
20
70.6813752
40
0.2083484
50
118.0551165
51
137.4540413
0
ARC
8
DEFAULT_255_1_234
10
14.5664077
20
70.6473304
40
0.2589774
50
137.5109581
51
158.8516286
0
ARC
8
DEFAULT_255_1_234
10
14.6801913
20
70.6014074
40
0.38167
50
158.5845963
51
170.1721436
0
ARC
8
DEFAULT_255_1_234
10
14.7971302
20
70.5781823
40
0.5008657
50
169.8376422
51
173.0566086
0
ARC
8
DEFAULT_255_1_234
10
14.3274376
20
70.6292509
40
0.4083467
50
2.9091802
51
12.8847116
0
ARC
8
DEFAULT_255_1_234
10
14.4645053
20
70.6615101
40
0.2675383
50
12.6957781
51
28.6404489
0
ARC
8
DEFAULT_255_1_234
10
14.5186723
20
70.6895458
40
0.2065654
50
29.0169854
51
41.1487595
0
ARC
8
DEFAULT_255_1_234
10
14.5389509
20
70.7072003
40
0.1796786
50
41.1646065
51
85.0013516
0
ARC
8
DEFAULT_255_1_234
10
14.5268605
20
70.6337431
40
0.2539726
50
83.7280015
51
90.0964893
0
LINE
8
DEFAULT_255_1_234
10
15.4757843
20
70.9985531
11
15.4757843
21
70.8604072
0
LINE
8
DEFAULT_255_1_234
10
15.2043115
20
70.7415375
11
15.2043115
21
70.1247
0
LINE
8
DEFAULT_255_1_234
10
15.2043115
20
70.1247
11
15.0557244
21
70.1247
0
LINE
8
DEFAULT_255_1_234
10
15.0557244
20
70.1247
11
15.0557244
21
70.9937341
0
LINE
8
DEFAULT_255_1_234
10
15.0557244
20
70.9937341
11
15.2002957
21
70.9937341
0
LINE
8
DEFAULT_255_1_234
10
15.2002957
20
70.9937341
11
15.2027052
21
70.8933374
0
ARC
8
DEFAULT_255_1_234
10
15.4091248
20
70.4544342
40
0.4114092
50
80.6754243
51
86.8932892
0
ARC
8
DEFAULT_255_1_234
10
15.4030783
20
70.35767
40
0.5083596
50
86.8038578
51
90.0431435
0
ARC
8
DEFAULT_255_1_234
10
15.3993763
20
70.6033866
40
0.2626638
50
89.2759698
51
106.6213787
0
ARC
8
DEFAULT_255_1_234
10
15.3789327
20
70.677683
40
0.1856317
50
107.1346045
51
157.6458115
0
ARC
8
DEFAULT_255_1_234
10
15.4480929
20
70.6393311
40
0.2643398
50
155.6586782
51
157.2539184
0
ARC
8
DEFAULT_255_1_234
10
15.4276131
20
70.7562157
40
0.2634121
50
127.8165941
51
148.6302098
0
ARC
8
DEFAULT_255_1_234
10
15.40226
20
70.7822218
40
0.2273596
50
91.3329982
51
126.7875809
0
ARC
8
DEFAULT_255_1_234
10
15.409854
20
70.7107195
40
0.299078
50
89.986594
51
92.4688449
0
ARC
8
DEFAULT_255_1_234
10
15.4106935
20
70.7382078
40
0.2715908
50
85.3589899
51
90.1623399
0
ARC
8
DEFAULT_255_1_234
10
15.4191451
20
70.8386164
40
0.1708278
50
78.401942
51
85.4594656
0
ARC
8
DEFAULT_255_1_234
10
15.4336335
20
70.9077236
40
0.1002194
50
67.7858312
51
78.5728455
0
ARC
8
DEFAULT_255_1_234
10
15.4444188
20
70.9356887
40
0.0702548
50
63.4835954
51
67.3062642
0
LINE
8
DEFAULT_255_1_234
10
15.7737618
20
70.9937341
11
15.7737618
21
70.1247
0
LINE
8
DEFAULT_255_1_234
10
15.7737618
20
70.1247
11
15.6251746
21
70.1247
0
LINE
8
DEFAULT_255_1_234
10
15.6251746
20
70.1247
11
15.6251746
21
70.9937341
0
LINE
8
DEFAULT_255_1_234
10
15.6251746
20
70.9937341
11
15.7737618
21
70.9937341
0
ARC
8
DEFAULT_255_1_234
10
15.7109895
20
71.2251889
40
0.097867
50
161.415052
51
180.5526306
0
ARC
8
DEFAULT_255_1_234
10
15.6985673
20
71.2286077
40
0.0850062
50
138.1827368
51
160.9307106
0
ARC
8
DEFAULT_255_1_234
10
15.6875619
20
71.2381588
40
0.0704362
50
104.6368899
51
138.0039868
0
ARC
8
DEFAULT_255_1_234
10
15.6982773
20
71.2014963
40
0.1086221
50
92.0600725
51
105.2189128
0
ARC
8
DEFAULT_255_1_234
10
15.7006122
20
71.1672117
40
0.1429728
50
89.9756393
51
92.5012496
0
ARC
8
DEFAULT_255_1_234
10
15.7016141
20
71.1897731
40
0.1204151
50
78.0235316
51
90.4478182
0
ARC
8
DEFAULT_255_1_234
10
15.7108233
20
71.2311295
40
0.0780493
50
55.051506
51
78.3369085
0
ARC
8
DEFAULT_255_1_234
10
15.7158507
20
71.2395711
40
0.0682538
50
42.0501187
51
54.4513741
0
ARC
8
DEFAULT_255_1_234
10
15.7023374
20
71.2271798
40
0.0865878
50
1.7497075
51
42.1496013
0
ARC
8
DEFAULT_255_1_234
10
15.6768707
20
71.2242738
40
0.1121515
50
359.9852656
51
2.8364544
0
ARC
8
DEFAULT_255_1_234
10
15.6934699
20
71.2233229
40
0.0955566
50
342.1070653
51
0.552888
0
ARC
8
DEFAULT_255_1_234
10
15.7077397
20
71.2193904
40
0.0807713
50
316.7107116
51
341.6516965
0
ARC
8
DEFAULT_255_1_234
10
15.7144434
20
71.2133823
40
0.0717724
50
285.4397031
51
316.5324284
0
ARC
8
DEFAULT_255_1_234
10
15.7034351
20
71.2499554
40
0.1099597
50
272.3547054
51
285.8953117
0
ARC
8
DEFAULT_255_1_234
10
15.7007509
20
71.2865048
40
0.1465932
50
269.9695369
51
272.8160237
0
ARC
8
DEFAULT_255_1_234
10
15.699769
20
71.2645863
40
0.1246779
50
258.8431134
51
270.4153935
0
ARC
8
DEFAULT_255_1_234
10
15.6907733
20
71.2210414
40
0.0802162
50
238.5431189
51
259.1288175
0
ARC
8
DEFAULT_255_1_234
10
15.6839618
20
71.2086856
40
0.0661247
50
222.5062634
51
237.9906969
0
ARC
8
DEFAULT_255_1_234
10
15.6967205
20
71.2202889
40
0.0833707
50
184.1069131
51
222.460413
0
ARC
8
DEFAULT_255_1_234
10
15.7236446
20
71.2241349
40
0.1105176
50
179.9429482
51
185.0960898
0
LINE
8
DEFAULT_255_1_234
10
15.9737521
20
70.5351218
11
15.9737521
21
70.5624297
0
LINE
8
DEFAULT_255_1_234
10
16.7110656
20
70.5784932
11
16.7110656
21
70.5166488
0
LINE
8
DEFAULT_255_1_234
10
16.7110656
20
70.5166488
11
16.1223392
21
70.5166488
0
LINE
8
DEFAULT_255_1_234
10
16.6090625
20
70.3471792
11
16.6998212
21
70.2764999
0
LINE
8
DEFAULT_255_1_234
10
16.1271583
20
70.6387313
11
16.5624785
21
70.6387313
0
LINE
8
DEFAULT_255_1_234
10
16.5624785
20
70.6387313
11
16.5624785
21
70.6499757
0
ARC
8
DEFAULT_255_1_234
10
16.3676886
20
70.5462332
40
0.4376191
50
252.3266134
51
270.5810217
0
ARC
8
DEFAULT_255_1_234
10
16.3471975
20
70.4721644
40
0.3608374
50
223.3000567
51
251.8561855
0
ARC
8
DEFAULT_255_1_234
10
16.3683335
20
70.4926937
40
0.3902993
50
190.9374509
51
223.3654032
0
ARC
8
DEFAULT_255_1_234
10
16.5408308
20
70.5316885
40
0.5670891
50
179.6531105
51
191.4989439
0
ARC
8
DEFAULT_255_1_234
10
16.553032
20
70.5656417
40
0.5792888
50
167.4007466
51
180.3176909
0
ARC
8
DEFAULT_255_1_234
10
16.4478381
20
70.5878885
40
0.471777
50
154.1835823
51
167.250763
0
ARC
8
DEFAULT_255_1_234
10
16.3846849
20
70.6211417
40
0.4004528
50
134.3149965
51
154.5315275
0
ARC
8
DEFAULT_255_1_234
10
16.3629344
20
70.6402228
40
0.371612
50
122.8616532
51
133.9707695
0
ARC
8
DEFAULT_255_1_234
10
16.3525918
20
70.6624703
40
0.3473289
50
89.8249009
51
123.4199222
0
ARC
8
DEFAULT_255_1_234
10
16.3575959
20
70.5977967
40
0.4120197
50
74.7876118
51
90.5482747
0
ARC
8
DEFAULT_255_1_234
10
16.3869702
20
70.706303
40
0.2996077
50
39.8178249
51
74.7633718
0
ARC
8
DEFAULT_255_1_234
10
16.3357023
20
70.6663351
40
0.3645855
50
16.8990863
51
39.4829761
0
ARC
8
DEFAULT_255_1_234
10
16.1462319
20
70.6056526
40
0.5635218
50
4.9636328
51
17.2026414
0
ARC
8
DEFAULT_255_1_234
10
15.9044389
20
70.580134
40
0.8066286
50
359.8834553
51
5.2834307
0
ARC
8
DEFAULT_255_1_234
10
16.5081914
20
70.5232803
40
0.3859091
50
180.9846213
51
194.9401313
0
ARC
8
DEFAULT_255_1_234
10
16.4032191
20
70.4945849
40
0.2770883
50
194.80314
51
222.0412631
0
ARC
8
DEFAULT_255_1_234
10
16.3728073
20
70.4644116
40
0.2343055
50
221.5417084
51
268.8614402
0
ARC
8
DEFAULT_255_1_234
10
16.3801068
20
70.5320686
40
0.3021528
50
267.732405
51
270.0097136
0
ARC
8
DEFAULT_255_1_234
10
16.3818878
20
70.5522105
40
0.3222994
50
269.6924892
51
280.4117579
0
ARC
8
DEFAULT_255_1_234
10
16.3995285
20
70.4603193
40
0.2287344
50
280.2255091
51
298.6338936
0
ARC
8
DEFAULT_255_1_234
10
16.4112077
20
70.4359223
40
0.2017294
50
299.0430333
51
300.4643464
0
ARC
8
DEFAULT_255_1_234
10
16.3432082
20
70.5493038
40
0.3339357
50
300.6577328
51
322.0378878
0
ARC
8
DEFAULT_255_1_234
10
16.3081621
20
70.5797021
40
0.3802736
50
321.6750233
51
322.3046845
0
ARC
8
DEFAULT_255_1_234
10
16.4012583
20
70.463037
40
0.3520454
50
276.9728461
51
328.0035423
0
ARC
8
DEFAULT_255_1_234
10
16.3735635
20
70.6110841
40
0.5024498
50
269.8361028
51
278.0581756
0
ARC
8
DEFAULT_255_1_234
10
16.3508373
20
70.6855757
40
0.202159
50
89.2018686
51
117.2851756
0
ARC
8
DEFAULT_255_1_234
10
16.3561542
20
70.6813752
40
0.2083484
50
118.0551165
51
137.4540413
0
ARC
8
DEFAULT_255_1_234
10
16.3936282
20
70.6473304
40
0.2589774
50
137.5109581
51
158.8516286
0
ARC
8
DEFAULT_255_1_234
10
16.5074117
20
70.6014074
40
0.38167
50
158.5845963
51
170.1721436
0
ARC
8
DEFAULT_255_1_234
10
16.6243507
20
70.5781823
40
0.5008657
50
169.8376422
51
173.0566086
0
ARC
8
DEFAULT_255_1_234
10
16.1546581
20
70.6292509
40
0.4083467
50
2.9091802
51
12.8847116
0
ARC
8
DEFAULT_255_1_234
10
16.2917257
20
70.6615101
40
0.2675383
50
12.6957781
51
28.6404489
0
ARC
8
DEFAULT_255_1_234
10
16.3458928
20
70.6895458
40
0.2065654
50
29.0169854
51
41.1487595
0
ARC
8
DEFAULT_255_1_234
10
16.3661713
20
70.7072003
40
0.1796786
50
41.1646065
51
85.0013516
0
ARC
8
DEFAULT_255_1_234
10
16.354081
20
70.6337431
40
0.2539726
50
83.7280015
51
90.0964893
0
LINE
8
DEFAULT_255_1_234
10
17.5294998
20
70.7383248
11
17.3801094
21
70.7383248
0
LINE
8
DEFAULT_255_1_234
10
16.846802
20
70.3921569
11
16.9953892
21
70.3921569
0
ARC
8
DEFAULT_255_1_234
10
17.2612913
20
70.3566959
40
0.1276617
50
359.3334982
51
18.5871358
0
ARC
8
DEFAULT_255_1_234
10
17.282155
20
70.3622133
40
0.1061371
50
19.3540742
51
54.6485071
0
ARC
8
DEFAULT_255_1_234
10
17.2317452
20
70.2926919
40
0.1920087
50
54.3827097
51
65.0622807
0
ARC
8
DEFAULT_255_1_234
10
17.1548848
20
70.13099
40
0.3710447
50
64.8282493
51
71.4200025
0
ARC
8
DEFAULT_255_1_234
10
17.0646724
20
69.8663107
40
0.6506741
50
71.3164301
51
75.8006402
0
ARC
8
DEFAULT_255_1_234
10
16.9805544
20
69.5422561
40
0.9854641
50
75.6809531
51
78.0061883
0
ARC
8
DEFAULT_255_1_234
10
17.4254077
20
71.640177
40
1.1591028
50
254.6901892
51
258.0466452
0
ARC
8
DEFAULT_255_1_234
10
17.3215985
20
71.2642781
40
0.7691345
50
249.9010773
51
254.755261
0
ARC
8
DEFAULT_255_1_234
10
17.2212327
20
70.9916982
40
0.478665
50
243.3097214
51
249.9709442
0
ARC
8
DEFAULT_255_1_234
10
17.1583349
20
70.8662778
40
0.3383568
50
234.4047477
51
243.2862168
0
ARC
8
DEFAULT_255_1_234
10
17.0960872
20
70.7803232
40
0.2322322
50
220.8667099
51
234.5493881
0
ARC
8
DEFAULT_255_1_234
10
17.0618813
20
70.7491817
40
0.1859923
50
214.3062465
51
220.5065136
0
ARC
8
DEFAULT_255_1_234
10
17.0592892
20
70.746088
40
0.1821108
50
186.912965
51
213.9618616
0
ARC
8
DEFAULT_255_1_234
10
17.1124987
20
70.7547009
40
0.2359799
50
179.8808832
51
187.4339886
0
ARC
8
DEFAULT_255_1_234
10
17.097012
20
70.7567088
40
0.2204978
50
132.005434
51
180.3942919
0
ARC
8
DEFAULT_255_1_234
10
17.1626734
20
70.6961083
40
0.3095791
50
129.2319861
51
133.5302299
0
ARC
8
DEFAULT_255_1_234
10
17.1680242
20
70.6866928
40
0.3202615
50
100.4410011
51
128.9081242
0
ARC
8
DEFAULT_255_1_234
10
17.1954126
20
70.5581455
40
0.4516583
50
89.6985377
51
100.9026564
0
ARC
8
DEFAULT_255_1_234
10
17.2011168
20
70.5421166
40
0.4676928
50
77.6965325
51
90.4076836
0
ARC
8
DEFAULT_255_1_234
10
17.2342152
20
70.6848413
40
0.3211988
50
50.7276602
51
78.0399361
0
ARC
8
DEFAULT_255_1_234
10
17.278661
20
70.7366296
40
0.2529778
50
25.7545084
51
51.0957453
0
ARC
8
DEFAULT_255_1_234
10
17.2787835
20
70.7416206
40
0.250738
50
359.2468627
51
24.7394243
0
ARC
8
DEFAULT_255_1_234
10
17.2503287
20
70.7387664
40
0.1297815
50
359.8050318
51
45.1544908
0
ARC
8
DEFAULT_255_1_234
10
17.2096429
20
70.7039794
40
0.1831883
50
43.8047702
51
49.6271585
0
ARC
8
DEFAULT_255_1_234
10
17.210433
20
70.7040678
40
0.18261
50
49.7980766
51
82.1218353
0
ARC
8
DEFAULT_255_1_234
10
17.1985302
20
70.6393998
40
0.2483163
50
81.4465357
51
90.1710293
0
ARC
8
DEFAULT_255_1_234
10
17.1960905
20
70.586788
40
0.300932
50
89.6766211
51
99.1264602
0
ARC
8
DEFAULT_255_1_234
10
17.1789367
20
70.6901537
40
0.1961547
50
98.968313
51
113.4570237
0
ARC
8
DEFAULT_255_1_234
10
17.1593452
20
70.7369965
40
0.1453859
50
113.722589
51
127.4763106
0
ARC
8
DEFAULT_255_1_234
10
17.1425098
20
70.7570124
40
0.1192639
50
126.9083309
51
150.3165862
0
ARC
8
DEFAULT_255_1_234
10
17.1377431
20
70.7620981
40
0.112623
50
151.3635175
51
180.0701457
0
ARC
8
DEFAULT_255_1_234
10
17.1686215
20
70.759999
40
0.1435149
50
179.2169974
51
179.9954013
0
ARC
8
DEFAULT_255_1_234
10
17.1325273
20
70.7587056
40
0.1074286
50
179.3040112
51
198.4225446
0
ARC
8
DEFAULT_255_1_234
10
17.1133406
20
70.7537127
40
0.0876573
50
199.2895851
51
238.6034594
0
ARC
8
DEFAULT_255_1_234
10
17.1736253
20
70.848345
40
0.1998512
50
237.9846301
51
246.8744712
0
ARC
8
DEFAULT_255_1_234
10
17.2594198
20
71.0446205
40
0.4140547
50
246.6234531
51
251.8168941
0
ARC
8
DEFAULT_255_1_234
10
17.3624741
20
71.3540905
40
0.7402308
50
251.713434
51
255.0778414
0
ARC
8
DEFAULT_255_1_234
10
17.4824004
20
71.8007563
40
1.2027155
50
255.0367487
51
257.4705983
0
ARC
8
DEFAULT_255_1_234
10
16.9716014
20
69.4993863
40
1.1546601
50
73.6837552
51
77.5016755
0
ARC
8
DEFAULT_255_1_234
10
17.0804789
20
69.8693581
40
0.7690009
50
68.7044154
51
73.7249639
0
ARC
8
DEFAULT_255_1_234
10
17.1707809
20
70.1020654
40
0.5193873
50
63.590599
51
68.6626804
0
ARC
8
DEFAULT_255_1_234
10
17.2478828
20
70.2558123
40
0.3473927
50
54.7106439
51
63.7013633
0
ARC
8
DEFAULT_255_1_234
10
17.3103283
20
70.34304
40
0.2401192
50
41.0622434
51
54.8487496
0
ARC
8
DEFAULT_255_1_234
10
17.3444669
20
70.3743592
40
0.1938094
50
34.4950568
51
40.7105546
0
ARC
8
DEFAULT_255_1_234
10
17.3491477
20
70.3792078
40
0.1872106
50
9.3763373
51
34.0833615
0
ARC
8
DEFAULT_255_1_234
10
17.2838347
20
70.3666728
40
0.2536988
50
359.7694872
51
9.7663171
0
ARC
8
DEFAULT_255_1_234
10
17.3035848
20
70.3623764
40
0.2339696
50
335.8654732
51
0.8022045
0
ARC
8
DEFAULT_255_1_234
10
17.3110892
20
70.3637197
40
0.2277108
50
307.7357725
51
334.7849066
0
ARC
8
DEFAULT_255_1_234
10
17.2710068
20
70.4087645
40
0.2878951
50
307.0241536
51
308.5578354
0
ARC
8
DEFAULT_255_1_234
10
17.2452399
20
70.4473801
40
0.3342515
50
282.9362969
51
306.5646424
0
ARC
8
DEFAULT_255_1_234
10
17.2090697
20
70.5941108
40
0.4853615
50
271.1026298
51
283.2200835
0
ARC
8
DEFAULT_255_1_234
10
17.2026941
20
70.7182418
40
0.6096052
50
269.9919117
51
271.4772449
0
ARC
8
DEFAULT_255_1_234
10
17.2000696
20
70.6104436
40
0.5018135
50
259.0723564
51
270.289833
0
ARC
8
DEFAULT_255_1_234
10
17.1788428
20
70.4987271
40
0.388099
50
245.4963068
51
259.0227342
0
ARC
8
DEFAULT_255_1_234
10
17.1510384
20
70.4405615
40
0.3236422
50
228.9684658
51
245.7044727
0
ARC
8
DEFAULT_255_1_234
10
17.1244828
20
70.4078575
40
0.2815426
50
214.4011705
51
228.6759915
0
ARC
8
DEFAULT_255_1_234
10
17.0955569
20
70.392029
40
0.2487548
50
179.9705531
51
215.1572795
0
ARC
8
DEFAULT_255_1_234
10
17.1656168
20
70.3993806
40
0.1703809
50
182.4299387
51
203.0329699
0
ARC
8
DEFAULT_255_1_234
10
17.1471826
20
70.3937396
40
0.1512226
50
203.798802
51
232.548466
0
ARC
8
DEFAULT_255_1_234
10
17.1748347
20
70.4288826
40
0.1959374
50
232.3782728
51
256.3934612
0
ARC
8
DEFAULT_255_1_234
10
17.1978709
20
70.5178842
40
0.2878639
50
256.104506
51
268.4626716
0
ARC
8
DEFAULT_255_1_234
10
17.2025193
20
70.5975487
40
0.3676329
50
268.0715632
51
270.0138206
0
ARC
8
DEFAULT_255_1_234
10
17.2043718
20
70.5703083
40
0.3403971
50
269.7031147
51
278.8341955
0
ARC
8
DEFAULT_255_1_234
10
17.2225811
20
70.4572876
40
0.2259217
50
278.6728789
51
292.8232582
0
ARC
8
DEFAULT_255_1_234
10
17.2426349
20
70.4071449
40
0.171929
50
293.1452328
51
303.6655899
0
ARC
8
DEFAULT_255_1_234
10
17.2691228
20
70.3695204
40
0.1259367
50
303.1248165
51
321.742847
0
ARC
8
DEFAULT_255_1_234
10
17.2877109
20
70.3532156
40
0.1012531
50
322.4748573
51
1.1291126
0
LINE
8
DEFAULT_255_2_778
10
9.3932417
20
60.7218492
11
10.7161417
21
60.7218492
0
LINE
8
DEFAULT_255_2_778
10
10.7161417
20
60.7218492
11
10.7161417
21
35.5864492
0
LINE
8
DEFAULT_255_2_778
10
10.7161417
20
30.2947492
11
10.7161417
21
5.1593492
0
LINE
8
DEFAULT_255_2_778
10
10.7161417
20
5.1593492
11
9.3932417
21
5.1593492
0
LINE
8
DEFAULT_255_2_778
10
9.3932834
20
35.5864333
11
12.0390834
21
35.5864333
0
LINE
8
DEFAULT_255_2_778
10
12.0390834
20
35.5864333
11
12.0390834
21
30.2947333
0
LINE
8
DEFAULT_255_2_778
10
12.0390834
20
30.2947333
11
9.3932834
21
30.2947333
0
LINE
8
DEFAULT_255_2_778
10
9.3932834
20
30.2947333
11
9.3932834
21
35.5864333
0
LINE
8
DEFAULT_255_2_778
10
10.187
20
30.8239666
11
10.187
21
35.0572666
0
LINE
8
DEFAULT_255_2_778
10
9.9224167
20
34.263575
11
10.1870167
21
35.057275
0
LINE
8
DEFAULT_255_2_778
10
10.1870167
20
35.057275
11
10.4516167
21
34.263575
0
LINE
8
DEFAULT_255_2_778
10
10.4516167
20
34.263575
11
9.9224167
21
34.263575
0
LINE
8
DEFAULT_255_2_778
10
11.2453
20
35.0572666
11
11.2453
21
30.8239666
0
LINE
8
DEFAULT_255_2_778
10
10.9807167
20
31.617675
11
11.2453167
21
30.823975
0
LINE
8
DEFAULT_255_2_778
10
11.2453167
20
30.823975
11
11.5099167
21
31.617675
0
LINE
8
DEFAULT_255_2_778
10
11.5099167
20
31.617675
11
10.9807167
21
31.617675
0
LINE
8
DEFAULT_255_1_234
10
4.9274119
20
68.2616792
11
4.9274119
21
68.1404
0
LINE
8
DEFAULT_255_1_234
10
4.9274119
20
68.1404
11
4.161184
21
68.1404
0
LINE
8
DEFAULT_255_1_234
10
4.161184
20
68.1404
11
4.161184
21
68.2472221
0
LINE
8
DEFAULT_255_1_234
10
4.161184
20
68.2472221
11
4.5659836
21
68.6969995
0
LINE
8
DEFAULT_255_1_234
10
4.2872823
20
68.9652595
11
4.1386952
21
68.9652595
0
LINE
8
DEFAULT_255_1_234
10
4.6535296
20
68.6014218
11
4.3402918
21
68.2616792
0
LINE
8
DEFAULT_255_1_234
10
4.3402918
20
68.2616792
11
4.9274119
21
68.2616792
0
ARC
8
DEFAULT_255_1_234
10
3.216967
20
69.8899527
40
1.8008286
50
318.5132453
51
320.7828378
0
ARC
8
DEFAULT_255_1_234
10
3.7456644
20
69.4596426
40
1.1191493
50
320.7372736
51
323.9737074
0
ARC
8
DEFAULT_255_1_234
10
4.1376501
20
69.1756361
40
0.6350923
50
323.8961724
51
328.6421089
0
ARC
8
DEFAULT_255_1_234
10
4.3423096
20
69.0494031
40
0.3946393
50
328.8299013
51
331.789948
0
ARC
8
DEFAULT_255_1_234
10
4.4420274
20
68.9979509
40
0.2824501
50
331.4255242
51
352.9364833
0
ARC
8
DEFAULT_255_1_234
10
4.4556775
20
68.9948976
40
0.2685315
50
353.2248685
51
0.0169286
0
ARC
8
DEFAULT_255_1_234
10
4.4766652
20
68.997195
40
0.2475536
50
359.4866256
51
15.9339782
0
ARC
8
DEFAULT_255_1_234
10
4.5273637
20
69.0108286
40
0.1950618
50
16.1714718
51
43.5284424
0
ARC
8
DEFAULT_255_1_234
10
4.5350946
20
69.0185573
40
0.184134
50
43.4415429
51
83.1661404
0
ARC
8
DEFAULT_255_1_234
10
4.5216864
20
68.9448771
40
0.258926
50
82.160215
51
90.1505798
0
ARC
8
DEFAULT_255_1_234
10
4.5185291
20
68.8911865
40
0.3126255
50
89.5460705
51
102.5418777
0
ARC
8
DEFAULT_255_1_234
10
4.4942377
20
68.9942665
40
0.2067346
50
102.1739365
51
129.2061916
0
ARC
8
DEFAULT_255_1_234
10
4.4863449
20
69.0067094
40
0.1921118
50
129.7279328
51
135.7542026
0
ARC
8
DEFAULT_255_1_234
10
4.4984977
20
68.9970045
40
0.2075944
50
136.175737
51
166.3674722
0
ARC
8
DEFAULT_255_1_234
10
4.5991896
20
68.9700182
40
0.3118201
50
165.9092917
51
178.8683903
0
ARC
8
DEFAULT_255_1_234
10
4.6856757
20
68.9653179
40
0.3983935
50
178.438168
51
180.0083905
0
ARC
8
DEFAULT_255_1_234
10
4.5455359
20
68.9692231
40
0.4068601
50
163.2878735
51
180.5581814
0
ARC
8
DEFAULT_255_1_234
10
4.4653621
20
68.991284
40
0.3237344
50
133.454115
51
162.9470031
0
ARC
8
DEFAULT_255_1_234
10
4.4832162
20
68.9723
40
0.349795
50
100.7869394
51
133.4384016
0
ARC
8
DEFAULT_255_1_234
10
4.5179934
20
68.8174319
40
0.5084616
50
89.6605301
51
101.3704185
0
ARC
8
DEFAULT_255_1_234
10
4.5246273
20
68.8235496
40
0.502348
50
78.2171172
51
90.4130393
0
ARC
8
DEFAULT_255_1_234
10
4.5601351
20
68.9859637
40
0.3361092
50
55.9268222
51
78.4888551
0
ARC
8
DEFAULT_255_1_234
10
4.5797791
20
69.0198324
40
0.2970617
50
47.9292255
51
55.4054003
0
ARC
8
DEFAULT_255_1_234
10
4.5899352
20
69.0301502
40
0.2825983
50
4.3347696
51
48.0560701
0
ARC
8
DEFAULT_255_1_234
10
4.4803745
20
69.0131601
40
0.393225
50
359.925209
51
5.5967654
0
ARC
8
DEFAULT_255_1_234
10
4.5232637
20
69.0187816
40
0.3503892
50
337.8914096
51
358.9967724
0
ARC
8
DEFAULT_255_1_234
10
4.2519049
20
69.1234706
40
0.6412172
50
326.9135351
51
338.3505194
0
ARC
8
DEFAULT_255_1_234
10
3.8533353
20
69.3789284
40
1.1146189
50
319.6472867
51
327.095818
0
ARC
8
DEFAULT_255_1_234
10
3.4700356
20
69.6951
40
1.6114559
50
317.2586784
51
319.9046139
0
LINE
8
DEFAULT_255_1_234
10
5.7121127
20
69.3098211
11
5.7121127
21
68.533152
0
LINE
8
DEFAULT_255_1_234
10
5.7121127
20
68.533152
11
5.8743538
21
68.533152
0
LINE
8
DEFAULT_255_1_234
10
5.8743538
20
68.533152
11
5.8743538
21
68.4118728
0
LINE
8
DEFAULT_255_1_234
10
5.8743538
20
68.4118728
11
5.7121127
21
68.4118728
0
LINE
8
DEFAULT_255_1_234
10
5.7121127
20
68.4118728
11
5.7121127
21
68.1404
0
LINE
8
DEFAULT_255_1_234
10
5.7121127
20
68.1404
11
5.5627224
21
68.1404
0
LINE
8
DEFAULT_255_1_234
10
5.5627224
20
68.1404
11
5.5627224
21
68.4118728
0
LINE
8
DEFAULT_255_1_234
10
5.5627224
20
68.4118728
11
5.0302181
21
68.4118728
0
LINE
8
DEFAULT_255_1_234
10
5.0302181
20
68.4118728
11
5.0302181
21
68.4994187
0
LINE
8
DEFAULT_255_1_234
10
5.0302181
20
68.4994187
11
5.5538875
21
69.3098211
0
LINE
8
DEFAULT_255_1_234
10
5.5538875
20
69.3098211
11
5.7121127
21
69.3098211
0
LINE
8
DEFAULT_255_1_234
10
5.5450525
20
69.0744912
11
5.1988846
21
68.533152
0
LINE
8
DEFAULT_255_1_234
10
5.1988846
20
68.533152
11
5.5627224
21
68.533152
0
LINE
8
DEFAULT_255_1_234
10
5.5627224
20
68.533152
11
5.5627224
21
69.1066181
0
LINE
8
DEFAULT_255_1_234
10
5.5627224
20
69.1066181
11
5.5450525
21
69.0744912
0
LINE
8
DEFAULT_255_1_234
10
6.101652
20
69.3098211
11
6.434166
21
68.3452093
0
LINE
8
DEFAULT_255_1_234
10
6.434166
20
68.3452093
11
6.7682863
21
69.3098211
0
LINE
8
DEFAULT_255_1_234
10
6.7682863
20
69.3098211
11
6.9369528
21
69.3098211
0
LINE
8
DEFAULT_255_1_234
10
6.9369528
20
69.3098211
11
6.5032389
21
68.1404
0
LINE
8
DEFAULT_255_1_234
10
6.5032389
20
68.1404
11
6.3666994
21
68.1404
0
LINE
8
DEFAULT_255_1_234
10
6.3666994
20
68.1404
11
5.9337887
21
69.3098211
0
LINE
8
DEFAULT_255_1_234
10
5.9337887
20
69.3098211
11
6.101652
21
69.3098211
0
LINE
8
DEFAULT_255_1_234
10
4.7556674
20
5.8098211
11
4.7556674
21
5.726291
0
LINE
8
DEFAULT_255_1_234
10
4.7556674
20
5.726291
11
4.2713536
21
4.6404
0
LINE
8
DEFAULT_255_1_234
10
4.2713536
20
4.6404
11
4.1155379
21
4.6404
0
LINE
8
DEFAULT_255_1_234
10
4.1155379
20
4.6404
11
4.5982454
21
5.6877387
0
LINE
8
DEFAULT_255_1_234
10
4.5982454
20
5.6877387
11
3.9653444
21
5.6877387
0
LINE
8
DEFAULT_255_1_234
10
3.9653444
20
5.6877387
11
3.9653444
21
5.8098211
0
LINE
8
DEFAULT_255_1_234
10
3.9653444
20
5.8098211
11
4.7556674
21
5.8098211
0
LINE
8
DEFAULT_255_1_234
10
4.5572835
20
13.7481243
11
4.5837882
21
13.7481243
0
LINE
8
DEFAULT_255_1_234
10
4.5837882
20
13.7481243
11
4.5837882
21
13.622026
0
LINE
8
DEFAULT_255_1_234
10
4.5837882
20
13.622026
11
4.5564803
21
13.622026
0
LINE
8
DEFAULT_255_1_234
10
4.0095189
20
13.0228583
11
4.0095189
21
13.0798836
0
LINE
8
DEFAULT_255_1_234
10
4.1589093
20
13.0606075
11
4.1589093
21
13.0059917
0
ARC
8
DEFAULT_255_1_234
10
4.5617151
20
13.1222455
40
0.4998079
50
90.6001036
51
104.514704
0
ARC
8
DEFAULT_255_1_234
10
4.5228667
20
13.2667131
40
0.3502176
50
104.2855254
51
133.862935
0
ARC
8
DEFAULT_255_1_234
10
4.5392424
20
13.255883
40
0.3693984
50
134.5302688
51
161.6210873
0
ARC
8
DEFAULT_255_1_234
10
4.7045613
20
13.1975895
40
0.5446739
50
161.2849839
51
174.2076652
0
ARC
8
DEFAULT_255_1_234
10
4.845255
20
13.1781787
40
0.6866274
50
173.7810589
51
174.9254635
0
ARC
8
DEFAULT_255_1_234
10
4.3902382
20
13.0398839
40
0.3033419
50
95.8330959
51
138.9954921
0
ARC
8
DEFAULT_255_1_234
10
4.4125738
20
12.9120375
40
0.4328947
50
89.8753725
51
97.0544009
0
ARC
8
DEFAULT_255_1_234
10
4.4173204
20
12.9955748
40
0.3493769
50
71.6407809
51
90.6240094
0
ARC
8
DEFAULT_255_1_234
10
4.4323777
20
13.0510082
40
0.2920396
50
39.6367836
51
71.019018
0
ARC
8
DEFAULT_255_1_234
10
4.368725
20
12.9959998
40
0.3761538
50
10.658731
51
39.9043955
0
ARC
8
DEFAULT_255_1_234
10
4.2139333
20
12.9623686
40
0.5345136
50
359.682601
51
11.132623
0
ARC
8
DEFAULT_255_1_234
10
4.2099464
20
12.955301
40
0.5385081
50
347.2486944
51
0.4369317
0
ARC
8
DEFAULT_255_1_234
10
4.3766941
20
12.9151807
40
0.3670249
50
318.1409698
51
347.6118597
0
ARC
8
DEFAULT_255_1_234
10
4.4091934
20
12.8884702
40
0.3250007
50
275.6342139
51
317.8248465
0
ARC
8
DEFAULT_255_1_234
10
4.3871045
20
13.0184219
40
0.4565864
50
269.8874292
51
276.7917694
0
ARC
8
DEFAULT_255_1_234
10
4.3816116
20
12.9158743
40
0.3540676
50
246.9140195
51
270.7437342
0
ARC
8
DEFAULT_255_1_234
10
4.3822506
20
12.9016384
40
0.3412781
50
218.1665114
51
245.878116
0
ARC
8
DEFAULT_255_1_234
10
4.4701967
20
12.9752279
40
0.455911
50
191.4115814
51
218.6077802
0
ARC
8
DEFAULT_255_1_234
10
4.6640056
20
13.0186833
40
0.6545001
50
179.6345085
51
191.7836486
0
ARC
8
DEFAULT_255_1_234
10
5.2222393
20
13.0865697
40
1.2127388
50
171.4525249
51
180.3158839
0
ARC
8
DEFAULT_255_1_234
10
4.7827269
20
13.1549608
40
0.7679464
50
157.9802646
51
171.6246686
0
ARC
8
DEFAULT_255_1_234
10
4.561329
20
13.2432421
40
0.5296008
50
141.4298019
51
157.854097
0
ARC
8
DEFAULT_255_1_234
10
4.497161
20
13.2886381
40
0.4511509
50
102.8715806
51
140.8564722
0
ARC
8
DEFAULT_255_1_234
10
4.5619226
20
13.0446552
40
0.7034845
50
90.3778349
51
103.5869322
0
ARC
8
DEFAULT_255_1_234
10
4.3881002
20
12.984173
40
0.2370698
50
89.8751008
51
126.2071704
0
ARC
8
DEFAULT_255_1_234
10
4.3926792
20
12.9687303
40
0.2522934
50
124.9745049
51
144.895901
0
ARC
8
DEFAULT_255_1_234
10
4.3750982
20
12.983056
40
0.2296779
50
145.2974905
51
160.2660252
0
ARC
8
DEFAULT_255_1_234
10
4.6823521
20
13.0028071
40
0.5234525
50
179.6514266
51
190.2855912
0
ARC
8
DEFAULT_255_1_234
10
4.5129658
20
12.9708786
40
0.3510893
50
190.0945431
51
207.5098196
0
ARC
8
DEFAULT_255_1_234
10
4.4563928
20
12.9439623
40
0.288489
50
207.9583163
51
216.3251085
0
ARC
8
DEFAULT_255_1_234
10
4.4224036
20
12.9160105
40
0.2445587
50
215.7661442
51
232.5456785
0
ARC
8
DEFAULT_255_1_234
10
4.3841019
20
12.8673482
40
0.1826382
50
232.8005391
51
270.6605633
0
ARC
8
DEFAULT_255_1_234
10
4.388672
20
12.9037612
40
0.2190529
50
269.35537
51
288.4744281
0
ARC
8
DEFAULT_255_1_234
10
4.3979617
20
12.8688118
40
0.1829749
50
289.1833337
51
322.9683818
0
ARC
8
DEFAULT_255_1_234
10
4.3368139
20
12.9170391
40
0.2608399
50
322.6007884
51
346.5182367
0
ARC
8
DEFAULT_255_1_234
10
4.2210735
20
12.9465616
40
0.3802777
50
346.2582162
51
358.7741648
0
ARC
8
DEFAULT_255_1_234
10
4.1192404
20
12.9520965
40
0.4822176
50
358.3755224
51
0.0098023
0
ARC
8
DEFAULT_255_1_234
10
4.1948591
20
12.9548657
40
0.4066078
50
359.6214041
51
11.2839074
0
ARC
8
DEFAULT_255_1_234
10
4.3225738
20
12.9815066
40
0.2761514
50
11.0482309
51
31.8146458
0
ARC
8
DEFAULT_255_1_234
10
4.3534781
20
12.9982584
40
0.2410679
50
32.3035391
51
38.082671
0
ARC
8
DEFAULT_255_1_234
10
4.3955441
20
13.0363662
40
0.1844966
50
36.825067
51
85.7415724
0
ARC
8
DEFAULT_255_1_234
10
4.3888274
20
12.9863301
40
0.2349122
50
85.0140713
51
90.0513278
0
LINE
8
DEFAULT_255_1_234
10
4.1878235
20
21.0711963
11
4.0689538
21
21.1017169
0
LINE
8
DEFAULT_255_1_234
10
4.0689538
20
21.1017169
11
4.1283887
21
21.6848211
0
LINE
8
DEFAULT_255_1_234
10
4.1283887
20
21.6848211
11
4.7275563
21
21.6848211
0
LINE
8
DEFAULT_255_1_234
10
4.7275563
20
21.6848211
11
4.7275563
21
21.5474784
0
LINE
8
DEFAULT_255_1_234
10
4.7275563
20
21.5474784
11
4.254487
21
21.5474784
0
LINE
8
DEFAULT_255_1_234
10
4.254487
20
21.5474784
11
4.2191473
21
21.2286184
0
LINE
8
DEFAULT_255_1_234
10
4.0271888
20
20.8230156
11
4.1677442
21
20.8230156
0
LINE
8
DEFAULT_255_1_234
10
4.2271791
20
21.1033232
11
4.1878235
21
21.0711963
0
ARC
8
DEFAULT_255_1_234
10
4.4046257
20
20.910623
40
0.3681349
50
93.7182161
51
120.2538958
0
ARC
8
DEFAULT_255_1_234
10
4.414052
20
20.8298394
40
0.449379
50
89.9660152
51
94.2496022
0
ARC
8
DEFAULT_255_1_234
10
4.4181254
20
20.8887549
40
0.390482
50
73.8043271
51
90.5585896
0
ARC
8
DEFAULT_255_1_234
10
4.4416151
20
20.9745602
40
0.3015334
50
41.3071453
51
73.5430202
0
ARC
8
DEFAULT_255_1_234
10
4.3999978
20
20.9387324
40
0.3564457
50
13.5075983
51
41.2174222
0
ARC
8
DEFAULT_255_1_234
10
4.2358182
20
20.8957486
40
0.5261351
50
1.1331335
51
13.8829381
0
ARC
8
DEFAULT_255_1_234
10
4.0946551
20
20.8881665
40
0.6674378
50
359.9919444
51
1.544251
0
ARC
8
DEFAULT_255_1_234
10
4.2223377
20
20.884028
40
0.5397702
50
347.8572367
51
0.4293338
0
ARC
8
DEFAULT_255_1_234
10
4.3973695
20
20.8443736
40
0.3603188
50
323.673004
51
348.1672506
0
ARC
8
DEFAULT_255_1_234
10
4.4268203
20
20.8264168
40
0.3259678
50
316.8171152
51
323.1492751
0
ARC
8
DEFAULT_255_1_234
10
4.4329392
20
20.822746
40
0.3189975
50
281.8396411
51
316.5457803
0
ARC
8
DEFAULT_255_1_234
10
4.3953656
20
20.9782762
40
0.4789527
50
269.5770101
51
282.4214771
0
ARC
8
DEFAULT_255_1_234
10
4.3882467
20
20.9569125
40
0.45759
50
256.2427136
51
270.4486331
0
ARC
8
DEFAULT_255_1_234
10
4.358337
20
20.8369229
40
0.3339303
50
228.9023911
51
256.3314342
0
ARC
8
DEFAULT_255_1_234
10
4.3509602
20
20.8252746
40
0.32031
50
193.753695
51
228.5271154
0
ARC
8
DEFAULT_255_1_234
10
4.4747556
20
20.86158
40
0.4492253
50
184.924711
51
194.497588
0
ARC
8
DEFAULT_255_1_234
10
4.4940123
20
20.8651591
40
0.3289787
50
187.3600538
51
198.6732863
0
ARC
8
DEFAULT_255_1_234
10
4.3890417
20
20.8287674
40
0.217884
50
198.4451669
51
217.794479
0
ARC
8
DEFAULT_255_1_234
10
4.3594592
20
20.8078085
40
0.1816698
50
218.2887171
51
228.5612368
0
ARC
8
DEFAULT_255_1_234
10
4.3692379
20
20.8209963
40
0.1980329
50
228.9654866
51
258.1234728
0
ARC
8
DEFAULT_255_1_234
10
4.3898089
20
20.9090833
40
0.2884748
50
257.7258293
51
270.401361
0
ARC
8
DEFAULT_255_1_234
10
4.3942975
20
20.8645821
40
0.2439788
50
269.4204404
51
286.4209037
0
ARC
8
DEFAULT_255_1_234
10
4.4091463
20
20.8106657
40
0.1880666
50
286.7251356
51
320.600362
0
ARC
8
DEFAULT_255_1_234
10
4.3708288
20
20.8417595
40
0.2374121
50
320.6712579
51
344.5441685
0
ARC
8
DEFAULT_255_1_234
10
4.2551614
20
20.8757045
40
0.3579479
50
344.2412205
51
356.7357071
0
ARC
8
DEFAULT_255_1_234
10
4.1302763
20
20.8860444
40
0.4832297
50
356.3548756
51
0.0500261
0
ARC
8
DEFAULT_255_1_234
10
4.2639272
20
20.889165
40
0.3495889
50
359.5576869
51
12.953486
0
ARC
8
DEFAULT_255_1_234
10
4.3694169
20
20.9147434
40
0.2410532
50
12.6490276
51
41.6081334
0
ARC
8
DEFAULT_255_1_234
10
4.392454
20
20.9343321
40
0.2108218
50
41.7850273
51
85.9892764
0
ARC
8
DEFAULT_255_1_234
10
4.3801277
20
20.8530462
40
0.2928454
50
84.6957577
51
90.0676183
0
ARC
8
DEFAULT_255_1_234
10
4.3777761
20
20.7861716
40
0.3597255
50
89.6804936
51
99.1614436
0
ARC
8
DEFAULT_255_1_234
10
4.3572392
20
20.9089131
40
0.235281
50
98.9830931
51
113.8908934
0
ARC
8
DEFAULT_255_1_234
10
4.3342802
20
20.9630587
40
0.176479
50
114.1950727
51
127.3641004
0
LINE
8
DEFAULT_255_1_234
10
4.8395628
20
29.6223211
11
4.8395628
21
28.845652
0
LINE
8
DEFAULT_255_1_234
10
4.8395628
20
28.845652
11
5.0018039
21
28.845652
0
LINE
8
DEFAULT_255_1_234
10
5.0018039
20
28.845652
11
5.0018039
21
28.7243728
0
LINE
8
DEFAULT_255_1_234
10
5.0018039
20
28.7243728
11
4.8395628
21
28.7243728
0
LINE
8
DEFAULT_255_1_234
10
4.8395628
20
28.7243728
11
4.8395628
21
28.4529
0
LINE
8
DEFAULT_255_1_234
10
4.8395628
20
28.4529
11
4.6901725
21
28.4529
0
LINE
8
DEFAULT_255_1_234
10
4.6901725
20
28.4529
11
4.6901725
21
28.7243728
0
LINE
8
DEFAULT_255_1_234
10
4.6901725
20
28.7243728
11
4.1576682
21
28.7243728
0
LINE
8
DEFAULT_255_1_234
10
4.1576682
20
28.7243728
11
4.1576682
21
28.8119187
0
LINE
8
DEFAULT_255_1_234
10
4.1576682
20
28.8119187
11
4.6813375
21
29.6223211
0
LINE
8
DEFAULT_255_1_234
10
4.6813375
20
29.6223211
11
4.8395628
21
29.6223211
0
LINE
8
DEFAULT_255_1_234
10
4.6725026
20
29.3869912
11
4.3263347
21
28.845652
0
LINE
8
DEFAULT_255_1_234
10
4.3263347
20
28.845652
11
4.6901725
21
28.845652
0
LINE
8
DEFAULT_255_1_234
10
4.6901725
20
28.845652
11
4.6901725
21
29.4191181
0
LINE
8
DEFAULT_255_1_234
10
4.6901725
20
29.4191181
11
4.6725026
21
29.3869912
0
LINE
8
DEFAULT_255_1_234
10
4.2167378
20
36.9261169
11
4.2167378
21
37.0473962
0
LINE
8
DEFAULT_255_1_234
10
4.2167378
20
37.0473962
11
4.328379
21
37.0473962
0
LINE
8
DEFAULT_255_1_234
10
4.1380268
20
37.2530087
11
3.9894396
21
37.2530087
0
LINE
8
DEFAULT_255_1_234
10
3.9789983
20
36.6988188
11
4.1283887
21
36.6988188
0
LINE
8
DEFAULT_255_1_234
10
4.328379
20
36.9261169
11
4.2167378
21
36.9261169
0
ARC
8
DEFAULT_255_1_234
10
4.3254656
20
37.3866713
40
0.3392876
50
270.4919872
51
281.8951556
0
ARC
8
DEFAULT_255_1_234
10
4.3495918
20
37.2764702
40
0.2264817
50
281.6691735
51
301.2943132
0
ARC
8
DEFAULT_255_1_234
10
4.3666128
20
37.2453304
40
0.1910381
50
301.7833094
51
311.7545298
0
ARC
8
DEFAULT_255_1_234
10
4.3757704
20
37.2351748
40
0.1773635
50
311.7323931
51
354.2802411
0
ARC
8
DEFAULT_255_1_234
10
4.3031329
20
37.2476722
40
0.2509385
50
353.0937916
51
0.1181479
0
ARC
8
DEFAULT_255_1_234
10
4.2570114
20
37.2524386
40
0.2970898
50
359.1805295
51
15.0453146
0
ARC
8
DEFAULT_255_1_234
10
4.3915951
20
37.2916992
40
0.1569564
50
13.9577229
51
77.6713066
0
ARC
8
DEFAULT_255_1_234
10
4.352948
20
37.1531949
40
0.3006298
50
76.1116566
51
90.7026153
0
ARC
8
DEFAULT_255_1_234
10
4.3470318
20
37.1805545
40
0.2732568
50
89.5324876
51
103.531937
0
ARC
8
DEFAULT_255_1_234
10
4.3269762
20
37.2604884
40
0.1908508
50
103.2931773
51
133.5619022
0
ARC
8
DEFAULT_255_1_234
10
4.3225251
20
37.2664375
40
0.1834746
50
133.8349307
51
173.5344437
0
ARC
8
DEFAULT_255_1_234
10
4.3948294
20
37.2536213
40
0.2568033
50
172.5096846
51
180.1366907
0
ARC
8
DEFAULT_255_1_234
10
4.2997188
20
37.2570622
40
0.3103056
50
155.3484492
51
180.7484736
0
ARC
8
DEFAULT_255_1_234
10
4.2948277
20
37.2541846
40
0.3070957
50
131.5744599
51
154.4798489
0
ARC
8
DEFAULT_255_1_234
10
4.3261424
20
37.222531
40
0.3515643
50
96.9875458
51
131.9690667
0
ARC
8
DEFAULT_255_1_234
10
4.3480904
20
37.0979636
40
0.4779224
50
89.8596053
51
97.7825159
0
ARC
8
DEFAULT_255_1_234
10
4.3528967
20
37.0717616
40
0.5041361
50
78.3655447
51
90.4131539
0
ARC
8
DEFAULT_255_1_234
10
4.3886885
20
37.2376887
40
0.3344039
50
56.6229102
51
78.638727
0
ARC
8
DEFAULT_255_1_234
10
4.4101829
20
37.2752805
40
0.2912001
50
47.0253525
51
56.0854072
0
ARC
8
DEFAULT_255_1_234
10
4.4121609
20
37.2792223
40
0.2869704
50
10.9208013
51
46.7778124
0
ARC
8
DEFAULT_255_1_234
10
4.2757675
20
37.2476857
40
0.426899
50
359.6364486
51
11.6087304
0
ARC
8
DEFAULT_255_1_234
10
4.4592519
20
37.2461752
40
0.243409
50
332.3549906
51
359.7179418
0
ARC
8
DEFAULT_255_1_234
10
4.3942121
20
37.2770142
40
0.3153459
50
325.2333722
51
332.8745602
0
ARC
8
DEFAULT_255_1_234
10
4.4094744
20
37.2663828
40
0.2967456
50
292.9802137
51
325.2392345
0
ARC
8
DEFAULT_255_1_234
10
4.3820118
20
37.3197863
40
0.3566604
50
292.5402179
51
293.6924929
0
ARC
8
DEFAULT_255_1_234
10
4.4212714
20
36.6743091
40
0.3307468
50
57.6435486
51
72.8625112
0
ARC
8
DEFAULT_255_1_234
10
4.4567214
20
36.7317549
40
0.2632492
50
36.7248896
51
57.4697979
0
ARC
8
DEFAULT_255_1_234
10
4.4555847
20
36.733022
40
0.2634081
50
8.0545065
51
36.356114
0
ARC
8
DEFAULT_255_1_234
10
4.3693032
20
36.7175174
40
0.3510261
50
359.8320645
51
8.5869982
0
ARC
8
DEFAULT_255_1_234
10
4.3317808
20
36.7127101
40
0.3885653
50
343.9829931
51
0.5571613
0
ARC
8
DEFAULT_255_1_234
10
4.4204005
20
36.6884438
40
0.2966924
50
311.6359546
51
343.7651759
0
ARC
8
DEFAULT_255_1_234
10
4.3825574
20
36.7311102
40
0.3537231
50
279.7829875
51
311.6255694
0
ARC
8
DEFAULT_255_1_234
10
4.3524351
20
36.874828
40
0.5004971
50
269.7286406
51
280.3856417
0
ARC
8
DEFAULT_255_1_234
10
4.3462423
20
36.8706996
40
0.4963778
50
256.6828919
51
270.4412052
0
ARC
8
DEFAULT_255_1_234
10
4.3123719
20
36.7322394
40
0.3538406
50
229.4223008
51
256.8556159
0
ARC
8
DEFAULT_255_1_234
10
4.2709112
20
36.6855736
40
0.2914296
50
181.818294
51
229.6455059
0
ARC
8
DEFAULT_255_1_234
10
4.3749068
20
36.6986496
40
0.3959084
50
179.9755256
51
183.2323064
0
ARC
8
DEFAULT_255_1_234
10
4.3576814
20
36.6966037
40
0.2293034
50
179.4465117
51
196.2869258
0
ARC
8
DEFAULT_255_1_234
10
4.3089222
20
36.6832651
40
0.1787621
50
196.5661473
51
227.705904
0
ARC
8
DEFAULT_255_1_234
10
4.3253317
20
36.7016155
40
0.2033784
50
227.7652068
51
257.8762805
0
ARC
8
DEFAULT_255_1_234
10
4.3478287
20
36.7959156
40
0.3003081
50
257.4584385
51
270.426602
0
ARC
8
DEFAULT_255_1_234
10
4.3523853
20
36.8248996
40
0.329292
50
269.5962073
51
280.8789248
0
ARC
8
DEFAULT_255_1_234
10
4.3753382
20
36.7102685
40
0.2123908
50
280.6346389
51
299.8595945
0
ARC
8
DEFAULT_255_1_234
10
4.3944289
20
36.6740212
40
0.171457
50
300.3576302
51
314.5517981
0
ARC
8
DEFAULT_255_1_234
10
4.3861349
20
36.6800919
40
0.1816095
50
315.0728369
51
345.0431014
0
ARC
8
DEFAULT_255_1_234
10
4.2938163
20
36.7069841
40
0.2777492
50
344.5986631
51
357.9269593
0
ARC
8
DEFAULT_255_1_234
10
4.2042489
20
36.7131276
40
0.3674917
50
357.4748886
51
0.0231117
0
ARC
8
DEFAULT_255_1_234
10
4.3065599
20
36.7155679
40
0.2651907
50
359.5047933
51
13.4239635
0
ARC
8
DEFAULT_255_1_234
10
4.3932242
20
36.7377478
40
0.1757509
50
12.9498199
51
48.7551375
0
ARC
8
DEFAULT_255_1_234
10
4.3749976
20
36.71284
40
0.2065134
50
49.5088623
51
72.1836453
0
ARC
8
DEFAULT_255_1_234
10
4.3392129
20
36.6066291
40
0.3185836
50
71.9010081
51
84.3554254
0
ARC
8
DEFAULT_255_1_234
10
4.3230761
20
36.4705326
40
0.4556151
50
84.0193428
51
89.333121
0
LINE
8
DEFAULT_255_1_234
10
4.7669119
20
44.4491792
11
4.7669119
21
44.3279
0
LINE
8
DEFAULT_255_1_234
10
4.7669119
20
44.3279
11
4.000684
21
44.3279
0
LINE
8
DEFAULT_255_1_234
10
4.000684
20
44.3279
11
4.000684
21
44.4347221
0
LINE
8
DEFAULT_255_1_234
10
4.000684
20
44.4347221
11
4.4054836
21
44.8844995
0
LINE
8
DEFAULT_255_1_234
10
4.1267823
20
45.1527595
11
3.9781952
21
45.1527595
0
LINE
8
DEFAULT_255_1_234
10
4.4930296
20
44.7889218
11
4.1797918
21
44.4491792
0
LINE
8
DEFAULT_255_1_234
10
4.1797918
20
44.4491792
11
4.7669119
21
44.4491792
0
ARC
8
DEFAULT_255_1_234
10
3.056467
20
46.0774527
40
1.8008286
50
318.5132453
51
320.7828378
0
ARC
8
DEFAULT_255_1_234
10
3.5851644
20
45.6471426
40
1.1191493
50
320.7372736
51
323.9737074
0
ARC
8
DEFAULT_255_1_234
10
3.9771501
20
45.3631361
40
0.6350923
50
323.8961724
51
328.6421089
0
ARC
8
DEFAULT_255_1_234
10
4.1818096
20
45.2369031
40
0.3946393
50
328.8299013
51
331.789948
0
ARC
8
DEFAULT_255_1_234
10
4.2815274
20
45.1854509
40
0.2824501
50
331.4255242
51
352.9364833
0
ARC
8
DEFAULT_255_1_234
10
4.2951775
20
45.1823976
40
0.2685315
50
353.2248685
51
0.0169286
0
ARC
8
DEFAULT_255_1_234
10
4.3161652
20
45.184695
40
0.2475536
50
359.4866256
51
15.9339782
0
ARC
8
DEFAULT_255_1_234
10
4.3668637
20
45.1983286
40
0.1950618
50
16.1714718
51
43.5284424
0
ARC
8
DEFAULT_255_1_234
10
4.3745946
20
45.2060573
40
0.184134
50
43.4415429
51
83.1661404
0
ARC
8
DEFAULT_255_1_234
10
4.3611864
20
45.1323771
40
0.258926
50
82.160215
51
90.1505798
0
ARC
8
DEFAULT_255_1_234
10
4.3580291
20
45.0786865
40
0.3126255
50
89.5460705
51
102.5418777
0
ARC
8
DEFAULT_255_1_234
10
4.3337377
20
45.1817665
40
0.2067346
50
102.1739365
51
129.2061916
0
ARC
8
DEFAULT_255_1_234
10
4.3258449
20
45.1942094
40
0.1921118
50
129.7279328
51
135.7542026
0
ARC
8
DEFAULT_255_1_234
10
4.3379977
20
45.1845045
40
0.2075944
50
136.175737
51
166.3674722
0
ARC
8
DEFAULT_255_1_234
10
4.4386896
20
45.1575182
40
0.3118201
50
165.9092917
51
178.8683903
0
ARC
8
DEFAULT_255_1_234
10
4.5251757
20
45.1528179
40
0.3983935
50
178.438168
51
180.0083905
0
ARC
8
DEFAULT_255_1_234
10
4.3850359
20
45.1567231
40
0.4068601
50
163.2878735
51
180.5581814
0
ARC
8
DEFAULT_255_1_234
10
4.3048621
20
45.178784
40
0.3237344
50
133.454115
51
162.9470031
0
ARC
8
DEFAULT_255_1_234
10
4.3227162
20
45.1598
40
0.349795
50
100.7869394
51
133.4384016
0
ARC
8
DEFAULT_255_1_234
10
4.3574934
20
45.0049319
40
0.5084616
50
89.6605301
51
101.3704185
0
ARC
8
DEFAULT_255_1_234
10
4.3641273
20
45.0110496
40
0.502348
50
78.2171172
51
90.4130393
0
ARC
8
DEFAULT_255_1_234
10
4.3996351
20
45.1734637
40
0.3361092
50
55.9268222
51
78.4888551
0
ARC
8
DEFAULT_255_1_234
10
4.4192791
20
45.2073324
40
0.2970617
50
47.9292255
51
55.4054003
0
ARC
8
DEFAULT_255_1_234
10
4.4294352
20
45.2176502
40
0.2825983
50
4.3347696
51
48.0560701
0
ARC
8
DEFAULT_255_1_234
10
4.3198745
20
45.2006601
40
0.393225
50
359.925209
51
5.5967654
0
ARC
8
DEFAULT_255_1_234
10
4.3627637
20
45.2062816
40
0.3503892
50
337.8914096
51
358.9967724
0
ARC
8
DEFAULT_255_1_234
10
4.0914049
20
45.3109706
40
0.6412172
50
326.9135351
51
338.3505194
0
ARC
8
DEFAULT_255_1_234
10
3.6928353
20
45.5664284
40
1.1146189
50
319.6472867
51
327.095818
0
ARC
8
DEFAULT_255_1_234
10
3.3095356
20
45.8826
40
1.6114559
50
317.2586784
51
319.9046139
0
LINE
8
DEFAULT_255_1_234
10
4.4807137
20
53.4404433
11
4.4807137
21
52.2654
0
LINE
8
DEFAULT_255_1_234
10
4.4807137
20
52.2654
11
4.3313234
21
52.2654
0
LINE
8
DEFAULT_255_1_234
10
4.3313234
20
52.2654
11
4.3313234
21
53.2557133
0
LINE
8
DEFAULT_255_1_234
10
4.3313234
20
53.2557133
11
4.0317396
21
53.1456785
0
LINE
8
DEFAULT_255_1_234
10
4.0317396
20
53.1456785
11
4.0317396
21
53.2806117
0
LINE
8
DEFAULT_255_1_234
10
4.0317396
20
53.2806117
11
4.4574217
21
53.4404433
0
LINE
8
DEFAULT_255_1_234
10
4.4574217
20
53.4404433
11
4.4807137
21
53.4404433
0
LINE
8
DEFAULT_255_1_234
10
4.7339817
20
60.8944327
11
4.7339817
21
60.7016709
0
LINE
8
DEFAULT_255_1_234
10
3.995865
20
60.6815916
11
3.995865
21
60.8799755
0
LINE
8
DEFAULT_255_1_234
10
4.5853946
20
60.6615123
11
4.5853946
21
60.9048739
0
LINE
8
DEFAULT_255_1_234
10
4.1444521
20
60.9161184
11
4.1444521
21
60.6783789
0
ARC
8
DEFAULT_255_1_234
10
3.5092707
20
60.6967805
40
1.2247208
50
353.8441951
51
0.2287902
0
ARC
8
DEFAULT_255_1_234
10
3.9732211
20
60.6449806
40
0.7578929
50
344.4934747
51
353.9765454
0
ARC
8
DEFAULT_255_1_234
10
4.2724801
20
60.5598981
40
0.4467846
50
329.2803592
51
344.7472793
0
ARC
8
DEFAULT_255_1_234
10
4.3717626
20
60.5054018
40
0.3336173
50
324.9352394
51
328.6160465
0
ARC
8
DEFAULT_255_1_234
10
4.4094734
20
60.4790427
40
0.2876076
50
280.580143
51
324.9173126
0
ARC
8
DEFAULT_255_1_234
10
4.3693527
20
60.6461099
40
0.4592847
50
269.5977311
51
281.6734359
0
ARC
8
DEFAULT_255_1_234
10
4.3621433
20
60.6341173
40
0.4472986
50
256.6228859
51
270.51044
0
ARC
8
DEFAULT_255_1_234
10
4.321941
20
60.4792877
40
0.2873874
50
215.8618325
51
257.2788573
0
ARC
8
DEFAULT_255_1_234
10
4.4240442
20
60.5477977
40
0.4102928
50
197.9693508
51
215.2623606
0
ARC
8
DEFAULT_255_1_234
10
4.6725558
20
60.6316709
40
0.6725652
50
187.8816417
51
198.2346507
0
ARC
8
DEFAULT_255_1_234
10
5.0683766
20
60.6888079
40
1.0724845
50
180.8976217
51
188.0055519
0
ARC
8
DEFAULT_255_1_234
10
5.3483954
20
60.6991777
40
1.3526448
50
180.7449369
51
181.1510016
0
ARC
8
DEFAULT_255_1_234
10
5.1906683
20
60.8848042
40
1.1948131
50
173.7675579
51
180.231553
0
ARC
8
DEFAULT_255_1_234
10
4.738883
20
60.9358666
40
0.7401564
50
164.3058563
51
173.9002247
0
ARC
8
DEFAULT_255_1_234
10
4.4476899
20
61.0197656
40
0.4371288
50
148.7922025
51
164.568378
0
ARC
8
DEFAULT_255_1_234
10
4.3525351
20
61.0728929
40
0.3282386
50
144.5883898
51
148.1176286
0
ARC
8
DEFAULT_255_1_234
10
4.3182249
20
61.0968315
40
0.2864044
50
101.6440918
51
144.514236
0
ARC
8
DEFAULT_255_1_234
10
4.3607315
20
60.9279069
40
0.4604934
50
89.5284041
51
102.5819763
0
ARC
8
DEFAULT_255_1_234
10
4.3686403
20
60.9240018
40
0.464401
50
77.0437873
51
90.5081339
0
ARC
8
DEFAULT_255_1_234
10
4.4088405
20
61.0882615
40
0.2953195
50
48.2778575
51
77.4994676
0
ARC
8
DEFAULT_255_1_234
10
4.4161036
20
61.1011746
40
0.2808655
50
36.3142134
51
47.6305865
0
ARC
8
DEFAULT_255_1_234
10
4.3292343
20
61.0426515
40
0.3855453
50
18.2931786
51
35.6769206
0
ARC
8
DEFAULT_255_1_234
10
4.0749102
20
60.9553593
40
0.654423
50
8.024666
51
18.5605216
0
ARC
8
DEFAULT_255_1_234
10
3.6586022
20
60.8938792
40
1.0752407
50
1.1274072
51
8.1718305
0
ARC
8
DEFAULT_255_1_234
10
3.3350213
20
60.8811885
40
1.3990231
50
0.5424119
51
1.3863029
0
ARC
8
DEFAULT_255_1_234
10
3.517159
20
60.9084342
40
1.0682415
50
359.8090433
51
4.9407866
0
ARC
8
DEFAULT_255_1_234
10
3.9381604
20
60.9460113
40
0.6455691
50
4.8362157
51
12.2904523
0
ARC
8
DEFAULT_255_1_234
10
4.2136719
20
61.0073965
40
0.3633074
50
12.0805627
51
23.8173984
0
ARC
8
DEFAULT_255_1_234
10
4.3310425
20
61.0570919
40
0.2358723
50
24.2871213
51
31.3935614
0
ARC
8
DEFAULT_255_1_234
10
4.3835122
20
61.0914233
40
0.1732111
50
30.7407893
51
82.4657128
0
ARC
8
DEFAULT_255_1_234
10
4.3655256
20
61.0030691
40
0.263235
50
81.1060089
51
90.2184952
0
ARC
8
DEFAULT_255_1_234
10
4.3619555
20
61.0288924
40
0.2374236
50
89.3806855
51
105.6762551
0
ARC
8
DEFAULT_255_1_234
10
4.3436186
20
61.0955567
40
0.1682847
50
105.7981136
51
149.7388061
0
ARC
8
DEFAULT_255_1_234
10
4.4500264
20
61.031595
40
0.2924306
50
149.4208916
51
163.6286378
0
ARC
8
DEFAULT_255_1_234
10
4.6591152
20
60.967825
40
0.5110213
50
163.3763315
51
172.1410975
0
ARC
8
DEFAULT_255_1_234
10
4.9891871
20
60.9205518
40
0.8444586
50
172.0259487
51
178.0703232
0
ARC
8
DEFAULT_255_1_234
10
5.292196
20
60.9061906
40
1.1477868
50
177.8631668
51
179.5044149
0
ARC
8
DEFAULT_255_1_234
10
5.1849365
20
60.6747389
40
1.0404907
50
179.7995573
51
185.2460446
0
ARC
8
DEFAULT_255_1_234
10
4.7806404
20
60.6364513
40
0.6343885
50
185.1411642
51
193.0079639
0
ARC
8
DEFAULT_255_1_234
10
4.5162877
20
60.5739641
40
0.3627568
50
192.7897626
51
205.2507664
0
ARC
8
DEFAULT_255_1_234
10
4.4116424
20
60.5272415
40
0.2481908
50
205.8005384
51
211.2537509
0
ARC
8
DEFAULT_255_1_234
10
4.3592864
20
60.492158
40
0.1852521
50
210.3789793
51
238.4008143
0
ARC
8
DEFAULT_255_1_234
10
4.3573386
20
60.4968376
40
0.1882621
50
239.6520629
51
265.9793761
0
ARC
8
DEFAULT_255_1_234
10
4.3658586
20
60.5640427
40
0.2559272
50
265.1315437
51
270.060332
0
ARC
8
DEFAULT_255_1_234
10
4.3687365
20
60.5316534
40
0.2235528
50
269.3314664
51
287.2178029
0
ARC
8
DEFAULT_255_1_234
10
4.3825217
20
60.4813279
40
0.1714108
50
287.7958004
51
329.080874
0
ARC
8
DEFAULT_255_1_234
10
4.2867674
20
60.541093
40
0.2842745
50
328.6634704
51
343.3325132
0
ARC
8
DEFAULT_255_1_234
10
4.0694694
20
60.6087863
40
0.5118644
50
343.0499468
51
351.9393422
0
ARC
8
DEFAULT_255_1_234
10
3.7227994
20
60.6598949
40
0.8622784
50
351.8069023
51
357.7959224
0
ARC
8
DEFAULT_255_1_234
10
3.399255
20
60.6766721
40
1.1862365
50
357.5871873
51
359.2677531
0
LINE
8
DEFAULT_255_1_234
10
23.1656817
20
68.8319327
11
23.1656817
21
68.6391709
0
LINE
8
DEFAULT_255_1_234
10
22.427565
20
68.6190916
11
22.427565
21
68.8174755
0
LINE
8
DEFAULT_255_1_234
10
23.0170946
20
68.5990123
11
23.0170946
21
68.8423739
0
LINE
8
DEFAULT_255_1_234
10
22.5761521
20
68.8536184
11
22.5761521
21
68.6158789
0
ARC
8
DEFAULT_255_1_234
10
21.9409707
20
68.6342805
40
1.2247208
50
353.8441951
51
0.2287902
0
ARC
8
DEFAULT_255_1_234
10
22.4049211
20
68.5824806
40
0.7578929
50
344.4934747
51
353.9765454
0
ARC
8
DEFAULT_255_1_234
10
22.7041801
20
68.4973981
40
0.4467846
50
329.2803592
51
344.7472793
0
ARC
8
DEFAULT_255_1_234
10
22.8034626
20
68.4429018
40
0.3336173
50
324.9352394
51
328.6160465
0
ARC
8
DEFAULT_255_1_234
10
22.8411734
20
68.4165427
40
0.2876076
50
280.580143
51
324.9173126
0
ARC
8
DEFAULT_255_1_234
10
22.8010527
20
68.5836099
40
0.4592847
50
269.5977311
51
281.6734359
0
ARC
8
DEFAULT_255_1_234
10
22.7938433
20
68.5716173
40
0.4472986
50
256.6228859
51
270.51044
0
ARC
8
DEFAULT_255_1_234
10
22.753641
20
68.4167877
40
0.2873874
50
215.8618325
51
257.2788573
0
ARC
8
DEFAULT_255_1_234
10
22.8557442
20
68.4852977
40
0.4102928
50
197.9693508
51
215.2623606
0
ARC
8
DEFAULT_255_1_234
10
23.1042558
20
68.5691709
40
0.6725652
50
187.8816417
51
198.2346507
0
ARC
8
DEFAULT_255_1_234
10
23.5000766
20
68.6263079
40
1.0724845
50
180.8976217
51
188.0055519
0
ARC
8
DEFAULT_255_1_234
10
23.7800954
20
68.6366777
40
1.3526448
50
180.7449369
51
181.1510016
0
ARC
8
DEFAULT_255_1_234
10
23.6223683
20
68.8223042
40
1.1948131
50
173.7675579
51
180.231553
0
ARC
8
DEFAULT_255_1_234
10
23.170583
20
68.8733666
40
0.7401564
50
164.3058563
51
173.9002247
0
ARC
8
DEFAULT_255_1_234
10
22.8793899
20
68.9572656
40
0.4371288
50
148.7922025
51
164.568378
0
ARC
8
DEFAULT_255_1_234
10
22.7842351
20
69.0103929
40
0.3282386
50
144.5883898
51
148.1176286
0
ARC
8
DEFAULT_255_1_234
10
22.7499249
20
69.0343315
40
0.2864044
50
101.6440918
51
144.514236
0
ARC
8
DEFAULT_255_1_234
10
22.7924315
20
68.8654069
40
0.4604934
50
89.5284041
51
102.5819763
0
ARC
8
DEFAULT_255_1_234
10
22.8003403
20
68.8615018
40
0.464401
50
77.0437873
51
90.5081339
0
ARC
8
DEFAULT_255_1_234
10
22.8405405
20
69.0257615
40
0.2953195
50
48.2778575
51
77.4994676
0
ARC
8
DEFAULT_255_1_234
10
22.8478036
20
69.0386746
40
0.2808655
50
36.3142134
51
47.6305865
0
ARC
8
DEFAULT_255_1_234
10
22.7609343
20
68.9801515
40
0.3855453
50
18.2931786
51
35.6769206
0
ARC
8
DEFAULT_255_1_234
10
22.5066102
20
68.8928593
40
0.654423
50
8.024666
51
18.5605216
0
ARC
8
DEFAULT_255_1_234
10
22.0903022
20
68.8313792
40
1.0752407
50
1.1274072
51
8.1718305
0
ARC
8
DEFAULT_255_1_234
10
21.7667213
20
68.8186885
40
1.3990231
50
0.5424119
51
1.3863029
0
ARC
8
DEFAULT_255_1_234
10
21.948859
20
68.8459342
40
1.0682415
50
359.8090433
51
4.9407866
0
ARC
8
DEFAULT_255_1_234
10
22.3698604
20
68.8835113
40
0.6455691
50
4.8362157
51
12.2904523
0
ARC
8
DEFAULT_255_1_234
10
22.6453719
20
68.9448965
40
0.3633074
50
12.0805627
51
23.8173984
0
ARC
8
DEFAULT_255_1_234
10
22.7627425
20
68.9945919
40
0.2358723
50
24.2871213
51
31.3935614
0
ARC
8
DEFAULT_255_1_234
10
22.8152122
20
69.0289233
40
0.1732111
50
30.7407893
51
82.4657128
0
ARC
8
DEFAULT_255_1_234
10
22.7972256
20
68.9405691
40
0.263235
50
81.1060089
51
90.2184952
0
ARC
8
DEFAULT_255_1_234
10
22.7936555
20
68.9663924
40
0.2374236
50
89.3806855
51
105.6762551
0
ARC
8
DEFAULT_255_1_234
10
22.7753186
20
69.0330567
40
0.1682847
50
105.7981136
51
149.7388061
0
ARC
8
DEFAULT_255_1_234
10
22.8817264
20
68.969095
40
0.2924306
50
149.4208916
51
163.6286378
0
ARC
8
DEFAULT_255_1_234
10
23.0908152
20
68.905325
40
0.5110213
50
163.3763315
51
172.1410975
0
ARC
8
DEFAULT_255_1_234
10
23.4208871
20
68.8580518
40
0.8444586
50
172.0259487
51
178.0703232
0
ARC
8
DEFAULT_255_1_234
10
23.723896
20
68.8436906
40
1.1477868
50
177.8631668
51
179.5044149
0
ARC
8
DEFAULT_255_1_234
10
23.6166365
20
68.6122389
40
1.0404907
50
179.7995573
51
185.2460446
0
ARC
8
DEFAULT_255_1_234
10
23.2123404
20
68.5739513
40
0.6343885
50
185.1411642
51
193.0079639
0
ARC
8
DEFAULT_255_1_234
10
22.9479877
20
68.5114641
40
0.3627568
50
192.7897626
51
205.2507664
0
ARC
8
DEFAULT_255_1_234
10
22.8433424
20
68.4647415
40
0.2481908
50
205.8005384
51
211.2537509
0
ARC
8
DEFAULT_255_1_234
10
22.7909864
20
68.429658
40
0.1852521
50
210.3789793
51
238.4008143
0
ARC
8
DEFAULT_255_1_234
10
22.7890386
20
68.4343376
40
0.1882621
50
239.6520629
51
265.9793761
0
ARC
8
DEFAULT_255_1_234
10
22.7975586
20
68.5015427
40
0.2559272
50
265.1315437
51
270.060332
0
ARC
8
DEFAULT_255_1_234
10
22.8004365
20
68.4691534
40
0.2235528
50
269.3314664
51
287.2178029
0
ARC
8
DEFAULT_255_1_234
10
22.8142217
20
68.4188279
40
0.1714108
50
287.7958004
51
329.080874
0
ARC
8
DEFAULT_255_1_234
10
22.7184674
20
68.478593
40
0.2842745
50
328.6634704
51
343.3325132
0
ARC
8
DEFAULT_255_1_234
10
22.5011694
20
68.5462863
40
0.5118644
50
343.0499468
51
351.9393422
0
ARC
8
DEFAULT_255_1_234
10
22.1544994
20
68.5973949
40
0.8622784
50
351.8069023
51
357.7959224
0
ARC
8
DEFAULT_255_1_234
10
21.830955
20
68.6141721
40
1.1862365
50
357.5871873
51
359.2677531
0
LINE
8
DEFAULT_255_1_234
10
23.4492021
20
69.3098211
11
23.7817161
21
68.3452093
0
LINE
8
DEFAULT_255_1_234
10
23.7817161
20
68.3452093
11
24.1158364
21
69.3098211
0
LINE
8
DEFAULT_255_1_234
10
24.1158364
20
69.3098211
11
24.2845029
21
69.3098211
0
LINE
8
DEFAULT_255_1_234
10
24.2845029
20
69.3098211
11
23.850789
21
68.1404
0
LINE
8
DEFAULT_255_1_234
10
23.850789
20
68.1404
11
23.7142495
21
68.1404
0
LINE
8
DEFAULT_255_1_234
10
23.7142495
20
68.1404
11
23.2813388
21
69.3098211
0
LINE
8
DEFAULT_255_1_234
10
23.2813388
20
69.3098211
11
23.4492021
21
69.3098211
0
ENDSEC
0
EOF