0
SECTION
2
HEADER
9
$MEASUREMENT
70
1
0
ENDSEC
0
SECTION
2
TABLES
0
TABLE
2
LTYPE
0
LTYPE
72
65
70
64
2
CONTINUOUS
3
______
73
0
40
0
0
ENDTAB
0
TABLE
2
LAYER
0
LAYER
2
DEFAULT_255_2_778
70
0
62
255
6
CONTINUOUS
0
LAYER
2
DEFAULT_255_1_234
70
0
62
255
6
CONTINUOUS
0
ENDTAB
0
ENDSEC
0
SECTION
2
ENTITIES
0
ARC
8
DEFAULT_255_2_778
10
3.5700693
20
139.3052021
40
0.7914215
50
129.1312896
51
180.1450914
0
ARC
8
DEFAULT_255_2_778
10
3.5703345
20
139.3056893
40
0.7912112
50
89.854026
51
129.1684493
0
ARC
8
DEFAULT_255_2_778
10
25.7993937
20
139.3053758
40
0.7915249
50
39.4792447
51
90.147911
0
ARC
8
DEFAULT_255_2_778
10
25.7999935
20
139.3052224
40
0.7911595
50
359.8533901
51
39.5154338
0
ARC
8
DEFAULT_255_2_778
10
25.7996693
20
-1.9863501
40
0.7914836
50
309.4761667
51
0.1482649
0
ARC
8
DEFAULT_255_2_778
10
25.799398
20
-1.9867812
40
0.7913235
50
269.8517415
51
309.511178
0
ARC
8
DEFAULT_255_2_778
10
3.570342
20
-1.986723
40
0.7913815
50
219.1282118
51
270.1454017
0
ARC
8
DEFAULT_255_2_778
10
3.5700247
20
-1.9863406
40
0.7913769
50
179.8524075
51
219.1641908
0
LINE
8
DEFAULT_255_2_778
10
3.5723503
20
140.096898
11
25.7973503
21
140.096898
0
LINE
8
DEFAULT_255_2_778
10
26.5911503
20
139.303198
11
26.5911503
21
-1.984302
0
LINE
8
DEFAULT_255_2_778
10
25.7973503
20
-2.778102
11
3.5723503
21
-2.778102
0
LINE
8
DEFAULT_255_2_778
10
2.7786503
20
-1.984302
11
2.7786503
21
139.303198
0
LINE
8
DEFAULT_255_1_234
10
12.5938657
20
-0.0296435
11
12.5938657
21
-0.1043386
0
LINE
8
DEFAULT_255_1_234
10
12.3890563
20
-0.5878493
11
12.5978815
21
-0.7516967
0
LINE
8
DEFAULT_255_1_234
10
12.5978815
20
-0.7516967
11
12.4926658
21
-0.8488808
0
LINE
8
DEFAULT_255_1_234
10
12.4926658
20
-0.8488808
11
12.2460914
21
-0.6529063
0
LINE
8
DEFAULT_255_1_234
10
11.6525459
20
-0.1147799
11
11.6525459
21
-0.0304466
0
LINE
8
DEFAULT_255_1_234
10
12.4396563
20
-0.1155831
11
12.4396563
21
-0.0288403
0
LINE
8
DEFAULT_255_1_234
10
11.8067553
20
-0.018399
11
11.8067553
21
-0.1043386
0
ARC
8
DEFAULT_255_1_234
10
11.6984909
20
-0.1082293
40
0.8953833
50
351.453011
51
0.2489685
0
ARC
8
DEFAULT_255_1_234
10
11.9569709
20
-0.1482067
40
0.6338333
50
338.6861641
51
351.5540711
0
ARC
8
DEFAULT_255_1_234
10
12.0503593
20
-0.1812172
40
0.5348431
50
336.2887631
51
338.3442418
0
ARC
8
DEFAULT_255_1_234
10
12.0843215
20
-0.1998302
40
0.4962747
50
321.1170344
51
336.6795229
0
ARC
8
DEFAULT_255_1_234
10
12.1475044
20
-0.2484794
40
0.4165565
50
305.4419708
51
320.8705636
0
ARC
8
DEFAULT_255_1_234
10
12.1278514
20
-0.1737293
40
0.4935497
50
271.6373023
51
283.8611969
0
ARC
8
DEFAULT_255_1_234
10
12.1240767
20
-0.1081428
40
0.5592206
50
269.9930596
51
271.8318864
0
ARC
8
DEFAULT_255_1_234
10
12.120321
20
-0.1889319
40
0.4784458
50
252.5219675
51
270.4416499
0
ARC
8
DEFAULT_255_1_234
10
12.1059469
20
-0.2428408
40
0.422716
50
237.5352116
51
252.1857531
0
ARC
8
DEFAULT_255_1_234
10
12.1148665
20
-0.2314637
40
0.4371052
50
209.063312
51
237.3492538
0
ARC
8
DEFAULT_255_1_234
10
12.2018513
20
-0.1768315
40
0.5397041
50
205.1183774
51
209.6470015
0
ARC
8
DEFAULT_255_1_234
10
12.281555
20
-0.143017
40
0.6262326
50
188.7215458
51
204.8240747
0
ARC
8
DEFAULT_255_1_234
10
12.4813078
20
-0.1093933
40
0.8287794
50
180.3723947
51
188.9252049
0
ARC
8
DEFAULT_255_1_234
10
12.478583
20
-0.0264598
40
0.8260467
50
169.5253763
51
180.2765336
0
ARC
8
DEFAULT_255_1_234
10
12.2883279
20
0.0085309
40
0.6326007
50
155.8315255
51
169.5089989
0
ARC
8
DEFAULT_255_1_234
10
12.160278
20
0.0679348
40
0.4914567
50
139.6258461
51
156.0379525
0
ARC
8
DEFAULT_255_1_234
10
12.1013113
20
0.1153799
40
0.4158054
50
122.6416387
51
139.3430715
0
ARC
8
DEFAULT_255_1_234
10
12.1113733
20
0.0970451
40
0.4366739
50
93.0223692
51
122.455762
0
ARC
8
DEFAULT_255_1_234
10
12.122173
20
0.0005709
40
0.5336137
50
89.975342
51
93.6341897
0
ARC
8
DEFAULT_255_1_234
10
12.1260616
20
0.0385375
40
0.4956606
50
73.9665422
51
90.4229648
0
ARC
8
DEFAULT_255_1_234
10
12.1444263
20
0.1100451
40
0.4218674
50
57.5178019
51
73.6813337
0
ARC
8
DEFAULT_255_1_234
10
12.1400046
20
0.1064462
40
0.4272816
50
28.7261108
51
57.2767933
0
ARC
8
DEFAULT_255_1_234
10
12.0489378
20
0.0501688
40
0.534218
50
24.2448911
51
29.3248482
0
ARC
8
DEFAULT_255_1_234
10
11.9563479
20
0.0118819
40
0.6343711
50
9.064382
51
23.9639114
0
ARC
8
DEFAULT_255_1_234
10
11.7307807
20
-0.0260075
40
0.8630926
50
359.7586264
51
9.1891435
0
ARC
8
DEFAULT_255_1_234
10
11.6053287
20
-0.0246657
40
0.834338
50
359.7133237
51
7.96545
0
ARC
8
DEFAULT_255_1_234
10
11.9015504
20
0.0180681
40
0.5350538
50
7.8291991
51
20.0421623
0
ARC
8
DEFAULT_255_1_234
10
12.0640067
20
0.0771606
40
0.3621841
50
20.0677553
51
35.9161685
0
ARC
8
DEFAULT_255_1_234
10
12.1415105
20
0.134767
40
0.2656263
50
35.6594382
51
85.1578074
0
ARC
8
DEFAULT_255_1_234
10
12.1230361
20
0.0232378
40
0.3784238
50
83.7959068
51
90.095906
0
ARC
8
DEFAULT_255_1_234
10
12.1187295
20
0.0965601
40
0.3051229
50
89.3102392
51
109.9889877
0
ARC
8
DEFAULT_255_1_234
10
12.1104778
20
0.1321433
40
0.2688988
50
110.9285147
51
143.9411762
0
ARC
8
DEFAULT_255_1_234
10
12.2035724
20
0.0609236
40
0.3860887
50
143.5289163
51
163.2980757
0
ARC
8
DEFAULT_255_1_234
10
12.3943545
20
0.0009433
40
0.5860659
50
163.0418846
51
174.3140048
0
ARC
8
DEFAULT_255_1_234
10
12.6347657
20
-0.0268146
40
0.8280531
50
174.0509143
51
179.4176892
0
ARC
8
DEFAULT_255_1_234
10
12.5833992
20
-0.1086366
40
0.7766558
50
179.6829237
51
188.9631324
0
ARC
8
DEFAULT_255_1_234
10
12.3163553
20
-0.1521248
40
0.5060992
50
188.8100743
51
202.9300012
0
ARC
8
DEFAULT_255_1_234
10
12.1947182
20
-0.2016145
40
0.3747967
50
203.2069261
51
215.7876482
0
ARC
8
DEFAULT_255_1_234
10
12.1098579
20
-0.2687329
40
0.2667526
50
214.7521006
51
264.2834488
0
ARC
8
DEFAULT_255_1_234
10
12.1234234
20
-0.183222
40
0.3532247
50
263.4755397
51
270.0949833
0
ARC
8
DEFAULT_255_1_234
10
12.1276345
20
-0.2093626
40
0.3271036
50
269.3649385
51
287.5152008
0
ARC
8
DEFAULT_255_1_234
10
12.1454503
20
-0.2740762
40
0.2600406
50
288.0630309
51
323.8113348
0
ARC
8
DEFAULT_255_1_234
10
12.0583345
20
-0.2090951
40
0.3687189
50
323.6547608
51
342.6590488
0
ARC
8
DEFAULT_255_1_234
10
11.855196
20
-0.1430048
40
0.5823286
50
342.4091907
51
353.6451149
0
ARC
8
DEFAULT_255_1_234
10
11.5720471
20
-0.107781
40
0.8676442
50
353.4029884
51
359.4847795
0
LINE
8
DEFAULT_255_1_234
10
12.9311987
20
0.5181211
11
13.2131127
21
0.0699501
0
LINE
8
DEFAULT_255_1_234
10
13.2131127
20
0.0699501
11
13.4934204
21
0.5181211
0
LINE
8
DEFAULT_255_1_234
10
13.4934204
20
0.5181211
11
13.6749376
21
0.5181211
0
LINE
8
DEFAULT_255_1_234
10
13.6749376
20
0.5181211
11
13.3054777
21
-0.0617704
0
LINE
8
DEFAULT_255_1_234
10
13.3054777
20
-0.0617704
11
13.6837726
21
-0.6513
0
LINE
8
DEFAULT_255_1_234
10
13.6837726
20
-0.6513
11
13.5006489
21
-0.6513
0
LINE
8
DEFAULT_255_1_234
10
13.5006489
20
-0.6513
11
13.2131127
21
-0.1950973
0
LINE
8
DEFAULT_255_1_234
10
13.2131127
20
-0.1950973
11
12.9239701
21
-0.6513
0
LINE
8
DEFAULT_255_1_234
10
12.9239701
20
-0.6513
11
12.7416497
21
-0.6513
0
LINE
8
DEFAULT_255_1_234
10
12.7416497
20
-0.6513
11
13.1207477
21
-0.0617704
0
LINE
8
DEFAULT_255_1_234
10
13.1207477
20
-0.0617704
11
12.7504846
21
0.5181211
0
LINE
8
DEFAULT_255_1_234
10
12.7504846
20
0.5181211
11
12.9311987
21
0.5181211
0
LINE
8
DEFAULT_255_1_234
10
14.4516067
20
0.5181211
11
14.4516067
21
-0.258548
0
LINE
8
DEFAULT_255_1_234
10
14.4516067
20
-0.258548
11
14.6138479
21
-0.258548
0
LINE
8
DEFAULT_255_1_234
10
14.6138479
20
-0.258548
11
14.6138479
21
-0.3798272
0
LINE
8
DEFAULT_255_1_234
10
14.6138479
20
-0.3798272
11
14.4516067
21
-0.3798272
0
LINE
8
DEFAULT_255_1_234
10
14.4516067
20
-0.3798272
11
14.4516067
21
-0.6513
0
LINE
8
DEFAULT_255_1_234
10
14.4516067
20
-0.6513
11
14.3022164
21
-0.6513
0
LINE
8
DEFAULT_255_1_234
10
14.3022164
20
-0.6513
11
14.3022164
21
-0.3798272
0
LINE
8
DEFAULT_255_1_234
10
14.3022164
20
-0.3798272
11
13.7697122
21
-0.3798272
0
LINE
8
DEFAULT_255_1_234
10
13.7697122
20
-0.3798272
11
13.7697122
21
-0.2922813
0
LINE
8
DEFAULT_255_1_234
10
13.7697122
20
-0.2922813
11
14.2933815
21
0.5181211
0
LINE
8
DEFAULT_255_1_234
10
14.2933815
20
0.5181211
11
14.4516067
21
0.5181211
0
LINE
8
DEFAULT_255_1_234
10
14.2845466
20
0.2827912
11
13.9383787
21
-0.258548
0
LINE
8
DEFAULT_255_1_234
10
13.9383787
20
-0.258548
11
14.3022164
21
-0.258548
0
LINE
8
DEFAULT_255_1_234
10
14.3022164
20
-0.258548
11
14.3022164
21
0.3149181
0
LINE
8
DEFAULT_255_1_234
10
14.3022164
20
0.3149181
11
14.2845466
21
0.2827912
0
LINE
8
DEFAULT_255_1_234
10
15.4812756
20
0.0402327
11
15.4812756
21
-0.1525291
0
LINE
8
DEFAULT_255_1_234
10
14.7431588
20
-0.1726084
11
14.7431588
21
0.0257755
0
LINE
8
DEFAULT_255_1_234
10
15.3326884
20
-0.1926877
11
15.3326884
21
0.0506739
0
LINE
8
DEFAULT_255_1_234
10
14.891746
20
0.0619184
11
14.891746
21
-0.1758211
0
ARC
8
DEFAULT_255_1_234
10
14.2565645
20
-0.1574195
40
1.2247208
50
353.8441951
51
0.2287902
0
ARC
8
DEFAULT_255_1_234
10
14.7205149
20
-0.2092194
40
0.7578929
50
344.4934747
51
353.9765454
0
ARC
8
DEFAULT_255_1_234
10
15.0197739
20
-0.2943019
40
0.4467846
50
329.2803592
51
344.7472793
0
ARC
8
DEFAULT_255_1_234
10
15.1190564
20
-0.3487982
40
0.3336173
50
324.9352394
51
328.6160465
0
ARC
8
DEFAULT_255_1_234
10
15.1567673
20
-0.3751573
40
0.2876076
50
280.580143
51
324.9173126
0
ARC
8
DEFAULT_255_1_234
10
15.1166465
20
-0.2080901
40
0.4592847
50
269.5977311
51
281.6734359
0
ARC
8
DEFAULT_255_1_234
10
15.1094371
20
-0.2200827
40
0.4472986
50
256.6228859
51
270.51044
0
ARC
8
DEFAULT_255_1_234
10
15.0692349
20
-0.3749123
40
0.2873874
50
215.8618325
51
257.2788573
0
ARC
8
DEFAULT_255_1_234
10
15.171338
20
-0.3064023
40
0.4102928
50
197.9693508
51
215.2623606
0
ARC
8
DEFAULT_255_1_234
10
15.4198496
20
-0.2225291
40
0.6725652
50
187.8816417
51
198.2346507
0
ARC
8
DEFAULT_255_1_234
10
15.8156704
20
-0.1653921
40
1.0724845
50
180.8976217
51
188.0055519
0
ARC
8
DEFAULT_255_1_234
10
16.0956893
20
-0.1550223
40
1.3526448
50
180.7449369
51
181.1510016
0
ARC
8
DEFAULT_255_1_234
10
15.9379622
20
0.0306042
40
1.1948131
50
173.7675579
51
180.231553
0
ARC
8
DEFAULT_255_1_234
10
15.4861768
20
0.0816666
40
0.7401564
50
164.3058563
51
173.9002247
0
ARC
8
DEFAULT_255_1_234
10
15.1949837
20
0.1655656
40
0.4371288
50
148.7922025
51
164.568378
0
ARC
8
DEFAULT_255_1_234
10
15.0998289
20
0.2186929
40
0.3282386
50
144.5883898
51
148.1176286
0
ARC
8
DEFAULT_255_1_234
10
15.0655187
20
0.2426315
40
0.2864044
50
101.6440918
51
144.514236
0
ARC
8
DEFAULT_255_1_234
10
15.1080254
20
0.0737069
40
0.4604934
50
89.5284041
51
102.5819763
0
ARC
8
DEFAULT_255_1_234
10
15.1159342
20
0.0698018
40
0.464401
50
77.0437873
51
90.5081339
0
ARC
8
DEFAULT_255_1_234
10
15.1561343
20
0.2340615
40
0.2953195
50
48.2778575
51
77.4994676
0
ARC
8
DEFAULT_255_1_234
10
15.1633975
20
0.2469746
40
0.2808655
50
36.3142134
51
47.6305865
0
ARC
8
DEFAULT_255_1_234
10
15.0765282
20
0.1884515
40
0.3855453
50
18.2931786
51
35.6769206
0
ARC
8
DEFAULT_255_1_234
10
14.822204
20
0.1011593
40
0.654423
50
8.024666
51
18.5605216
0
ARC
8
DEFAULT_255_1_234
10
14.405896
20
0.0396792
40
1.0752407
50
1.1274072
51
8.1718305
0
ARC
8
DEFAULT_255_1_234
10
14.0823151
20
0.0269885
40
1.3990231
50
0.5424119
51
1.3863029
0
ARC
8
DEFAULT_255_1_234
10
14.2644529
20
0.0542342
40
1.0682415
50
359.8090433
51
4.9407866
0
ARC
8
DEFAULT_255_1_234
10
14.6854543
20
0.0918113
40
0.6455691
50
4.8362157
51
12.2904523
0
ARC
8
DEFAULT_255_1_234
10
14.9609658
20
0.1531965
40
0.3633074
50
12.0805627
51
23.8173984
0
ARC
8
DEFAULT_255_1_234
10
15.0783363
20
0.2028919
40
0.2358723
50
24.2871213
51
31.3935614
0
ARC
8
DEFAULT_255_1_234
10
15.130806
20
0.2372233
40
0.1732111
50
30.7407893
51
82.4657128
0
ARC
8
DEFAULT_255_1_234
10
15.1128195
20
0.1488691
40
0.263235
50
81.1060089
51
90.2184952
0
ARC
8
DEFAULT_255_1_234
10
15.1092493
20
0.1746924
40
0.2374236
50
89.3806855
51
105.6762551
0
ARC
8
DEFAULT_255_1_234
10
15.0909124
20
0.2413567
40
0.1682847
50
105.7981136
51
149.7388061
0
ARC
8
DEFAULT_255_1_234
10
15.1973202
20
0.177395
40
0.2924306
50
149.4208916
51
163.6286378
0
ARC
8
DEFAULT_255_1_234
10
15.406409
20
0.113625
40
0.5110213
50
163.3763315
51
172.1410975
0
ARC
8
DEFAULT_255_1_234
10
15.7364809
20
0.0663518
40
0.8444586
50
172.0259487
51
178.0703232
0
ARC
8
DEFAULT_255_1_234
10
16.0394899
20
0.0519906
40
1.1477868
50
177.8631668
51
179.5044149
0
ARC
8
DEFAULT_255_1_234
10
15.9322303
20
-0.1794611
40
1.0404907
50
179.7995573
51
185.2460446
0
ARC
8
DEFAULT_255_1_234
10
15.5279343
20
-0.2177487
40
0.6343885
50
185.1411642
51
193.0079639
0
ARC
8
DEFAULT_255_1_234
10
15.2635815
20
-0.2802359
40
0.3627568
50
192.7897626
51
205.2507664
0
ARC
8
DEFAULT_255_1_234
10
15.1589362
20
-0.3269585
40
0.2481908
50
205.8005384
51
211.2537509
0
ARC
8
DEFAULT_255_1_234
10
15.1065803
20
-0.362042
40
0.1852521
50
210.3789793
51
238.4008143
0
ARC
8
DEFAULT_255_1_234
10
15.1046325
20
-0.3573624
40
0.1882621
50
239.6520629
51
265.9793761
0
ARC
8
DEFAULT_255_1_234
10
15.1131525
20
-0.2901573
40
0.2559272
50
265.1315437
51
270.060332
0
ARC
8
DEFAULT_255_1_234
10
15.1160304
20
-0.3225466
40
0.2235528
50
269.3314664
51
287.2178029
0
ARC
8
DEFAULT_255_1_234
10
15.1298155
20
-0.3728721
40
0.1714108
50
287.7958004
51
329.080874
0
ARC
8
DEFAULT_255_1_234
10
15.0340612
20
-0.313107
40
0.2842745
50
328.6634704
51
343.3325132
0
ARC
8
DEFAULT_255_1_234
10
14.8167632
20
-0.2454137
40
0.5118644
50
343.0499468
51
351.9393422
0
ARC
8
DEFAULT_255_1_234
10
14.4700932
20
-0.1943051
40
0.8622784
50
351.8069023
51
357.7959224
0
ARC
8
DEFAULT_255_1_234
10
14.1465488
20
-0.1775279
40
1.1862365
50
357.5871873
51
359.2677531
0
LINE
8
DEFAULT_255_1_234
10
16.6089316
20
0.5181211
11
16.6089316
21
-0.6513
0
LINE
8
DEFAULT_255_1_234
10
16.6089316
20
-0.6513
11
16.4539191
21
-0.6513
0
LINE
8
DEFAULT_255_1_234
10
16.4539191
20
-0.6513
11
16.4539191
21
-0.110764
0
LINE
8
DEFAULT_255_1_234
10
16.4539191
20
-0.110764
11
15.8643895
21
-0.110764
0
LINE
8
DEFAULT_255_1_234
10
15.8643895
20
-0.110764
11
15.8643895
21
-0.6513
0
LINE
8
DEFAULT_255_1_234
10
15.8643895
20
-0.6513
11
15.7101801
21
-0.6513
0
LINE
8
DEFAULT_255_1_234
10
15.7101801
20
-0.6513
11
15.7101801
21
0.5181211
0
LINE
8
DEFAULT_255_1_234
10
15.7101801
20
0.5181211
11
15.8643895
21
0.5181211
0
LINE
8
DEFAULT_255_1_234
10
15.8643895
20
0.5181211
11
15.8643895
21
0.0153343
0
LINE
8
DEFAULT_255_1_234
10
15.8643895
20
0.0153343
11
16.4539191
21
0.0153343
0
LINE
8
DEFAULT_255_1_234
10
16.4539191
20
0.0153343
11
16.4539191
21
0.5181211
0
LINE
8
DEFAULT_255_1_234
10
16.4539191
20
0.5181211
11
16.6089316
21
0.5181211
0
LINE
8
DEFAULT_255_2_778
10
10.5738396
20
136.1493073
11
9.3932396
21
136.1493073
0
LINE
8
DEFAULT_255_2_778
10
9.3932396
20
136.1493073
11
9.9837396
21
137.1719073
0
LINE
8
DEFAULT_255_2_778
10
9.9837396
20
137.1719073
11
11.1643396
21
137.1719073
0
LINE
8
DEFAULT_255_2_778
10
11.1643396
20
137.1719073
11
10.5738396
21
136.1493073
0
LINE
8
DEFAULT_255_2_778
10
10.5738396
20
136.1493073
11
10.5738396
21
136.1493073
0
LINE
8
DEFAULT_255_2_778
10
11.7546396
20
136.1493073
11
12.9354396
21
136.1493073
0
LINE
8
DEFAULT_255_2_778
10
12.9354396
20
136.1493073
11
12.3451396
21
137.1719073
0
LINE
8
DEFAULT_255_2_778
10
12.3451396
20
137.1719073
11
11.1643396
21
137.1719073
0
LINE
8
DEFAULT_255_2_778
10
11.1643396
20
137.1719073
11
11.7546396
21
136.1493073
0
LINE
8
DEFAULT_255_2_778
10
11.7546396
20
136.1493073
11
11.7546396
21
136.1493073
0
LINE
8
DEFAULT_255_2_778
10
11.7545823
20
138.1945146
11
11.1642823
21
139.2171146
0
LINE
8
DEFAULT_255_2_778
10
11.1642823
20
139.2171146
11
10.5737823
21
138.1945146
0
LINE
8
DEFAULT_255_2_778
10
10.5737823
20
138.1945146
11
11.1642823
21
137.1719146
0
LINE
8
DEFAULT_255_2_778
10
11.1642823
20
137.1719146
11
11.7545823
21
138.1945146
0
LINE
8
DEFAULT_255_2_778
10
11.7545823
20
138.1945146
11
11.7545823
21
138.1945146
0
ARC
8
DEFAULT_255_2_778
10
16.5183731
20
137.8407426
40
0.5650491
50
268.7543645
51
289.1417717
0
ARC
8
DEFAULT_255_2_778
10
16.606208
20
137.5855531
40
0.2951681
50
289.2776255
51
3.7648372
0
ARC
8
DEFAULT_255_2_778
10
16.3901618
20
137.6121085
40
0.5106278
50
359.1949826
51
0.0020862
0
ARC
8
DEFAULT_255_2_778
10
16.547449
20
137.5980832
40
0.1541914
50
280.2616216
51
358.5297855
0
ARC
8
DEFAULT_255_2_778
10
16.5080075
20
137.710655
40
0.2726346
50
269.5969454
51
284.2065679
0
ARC
8
DEFAULT_255_2_778
10
16.4981967
20
137.6950316
40
0.2571258
50
246.5290903
51
271.7590909
0
ARC
8
DEFAULT_255_2_778
10
16.4527148
20
137.5870009
40
0.1399248
50
188.1071678
51
245.9934684
0
ARC
8
DEFAULT_255_2_778
10
16.4829007
20
137.5939617
40
0.1708111
50
179.9445314
51
188.990814
0
ARC
8
DEFAULT_255_2_778
10
16.4924507
20
137.6007849
40
0.3763411
50
178.2272621
51
205.8283807
0
ARC
8
DEFAULT_255_2_778
10
16.4132476
20
137.5830833
40
0.2979176
50
209.4028057
51
263.0375728
0
ARC
8
DEFAULT_255_2_778
10
16.5005111
20
137.9577629
40
0.6816586
50
259.5722942
51
270.4689037
0
ARC
8
DEFAULT_255_2_778
10
17.411252
20
138.0139767
40
0.1217154
50
2.0482843
51
87.015299
0
ARC
8
DEFAULT_255_2_778
10
17.4060617
20
138.0183852
40
0.126828
50
353.0600847
51
359.9737428
0
ARC
8
DEFAULT_255_2_778
10
17.4110442
20
138.0152555
40
0.1215295
50
270.5739762
51
354.2410513
0
ARC
8
DEFAULT_255_2_778
10
17.4065059
20
138.0514297
40
0.1578027
50
269.9941256
51
272.0902921
0
ARC
8
DEFAULT_255_2_778
10
17.414084
20
137.6005295
40
0.1400686
50
358.2807293
51
95.6106825
0
ARC
8
DEFAULT_255_2_778
10
17.4103233
20
137.5966963
40
0.1437669
50
266.9962473
51
359.8528392
0
ARC
8
DEFAULT_255_2_778
10
17.4725249
20
137.6369988
40
0.3335288
50
268.2414507
51
302.0223478
0
ARC
8
DEFAULT_255_2_778
10
17.5091261
20
137.561683
40
0.2504234
50
304.0600275
51
2.0468005
0
ARC
8
DEFAULT_255_2_778
10
17.4832788
20
137.5683521
40
0.2761203
50
0.4720601
51
65.8403529
0
ARC
8
DEFAULT_255_2_778
10
17.5191655
20
137.6331061
40
0.2024466
50
67.606893
51
75.8693222
0
ARC
8
DEFAULT_255_2_778
10
17.5042026
20
138.040722
40
0.2208874
50
286.9473417
51
358.0074963
0
ARC
8
DEFAULT_255_2_778
10
17.4710866
20
138.0495045
40
0.2544031
50
356.2897886
51
0.0050857
0
ARC
8
DEFAULT_255_2_778
10
17.497262
20
138.0545946
40
0.2282839
50
358.7280137
51
81.8073164
0
ARC
8
DEFAULT_255_2_778
10
17.4216369
20
137.8031283
40
0.4895182
50
77.2355086
51
90.5088275
0
ARC
8
DEFAULT_255_2_778
10
17.5842742
20
136.8386263
40
0.130243
50
89.9974494
51
92.6776592
0
ARC
8
DEFAULT_255_2_778
10
17.5843316
20
136.8391872
40
0.129682
50
45.0880141
51
90.022782
0
ARC
8
DEFAULT_255_2_778
10
17.5844118
20
136.839219
40
0.1296029
50
0.001866
51
45.1031959
0
ARC
8
DEFAULT_255_2_778
10
17.5845123
20
136.8392202
40
0.1295026
50
357.4803735
51
0.0013544
0
ARC
8
DEFAULT_255_2_778
10
17.5901979
20
136.8353512
40
0.1237052
50
339.8672523
51
359.1550732
0
ARC
8
DEFAULT_255_2_778
10
17.5794513
20
136.8325079
40
0.1329691
50
272.0853006
51
342.6124646
0
ARC
8
DEFAULT_255_2_778
10
17.6596145
20
136.8707661
40
0.2575135
50
286.787355
51
290.6121696
0
ARC
8
DEFAULT_255_2_778
10
17.6689461
20
136.8564533
40
0.24086
50
289.7330405
51
342.3216972
0
ARC
8
DEFAULT_255_2_778
10
17.641261
20
136.8612954
40
0.268735
50
343.130572
51
0.3905272
0
ARC
8
DEFAULT_255_2_778
10
17.6578783
20
136.8786767
40
0.2525904
50
356.4706028
51
80.1788963
0
ARC
8
DEFAULT_255_2_778
10
17.5921649
20
136.6517163
40
0.4881286
50
77.1212301
51
90.4900821
0
ARC
8
DEFAULT_255_2_778
10
17.5166337
20
136.354036
40
0.1865405
50
50.1507009
51
92.9634648
0
ARC
8
DEFAULT_255_2_778
10
17.5301354
20
136.3823678
40
0.1563319
50
12.621233
51
47.2950617
0
ARC
8
DEFAULT_255_2_778
10
16.8485884
20
136.2494726
40
0.8506657
50
2.8173892
51
11.3253986
0
ARC
8
DEFAULT_255_2_778
10
-29.2295733
20
132.7531175
40
47.060992
50
4.3048394
51
4.3117143
0
ARC
8
DEFAULT_255_2_778
10
18.5500859
20
136.325584
40
0.8523717
50
182.6850102
51
191.2954256
0
ARC
8
DEFAULT_255_2_778
10
17.9656837
20
136.2192399
40
0.2586603
50
193.5512904
51
195.3825538
0
ARC
8
DEFAULT_255_2_778
10
19.3415679
20
136.4768916
40
1.4608773
50
182.5958701
51
192.9049706
0
ARC
8
DEFAULT_255_2_778
10
17.6207606
20
136.4052215
40
0.261487
50
1.2064311
51
30.4123358
0
ARC
8
DEFAULT_255_2_778
10
17.6663626
20
136.420276
40
0.2147766
50
33.1081154
51
71.7312197
0
LINE
8
DEFAULT_255_2_778
10
13.4657897
20
136.5848271
11
13.9385897
21
136.5848271
0
LINE
8
DEFAULT_255_2_778
10
13.9385897
20
136.5848271
11
13.9385897
21
136.7562271
0
LINE
8
DEFAULT_255_2_778
10
13.9385897
20
136.7562271
11
13.4657897
21
136.7562271
0
LINE
8
DEFAULT_255_2_778
10
13.4657897
20
136.7562271
11
13.4657897
21
136.9671271
0
LINE
8
DEFAULT_255_2_778
10
13.4657897
20
136.9671271
11
13.9977897
21
136.9671271
0
LINE
8
DEFAULT_255_2_778
10
13.9977897
20
136.9671271
11
13.9977897
21
137.1385271
0
LINE
8
DEFAULT_255_2_778
10
13.9977897
20
137.1385271
11
13.4657897
21
137.1385271
0
LINE
8
DEFAULT_255_2_778
10
13.4657897
20
137.1385271
11
13.2651897
21
137.1385271
0
LINE
8
DEFAULT_255_2_778
10
13.2651897
20
137.1385271
11
13.2651897
21
136.9671271
0
LINE
8
DEFAULT_255_2_778
10
13.2651897
20
136.9671271
11
13.2651897
21
136.3207271
0
LINE
8
DEFAULT_255_2_778
10
13.2651897
20
136.3207271
11
13.2651897
21
136.1492271
0
LINE
8
DEFAULT_255_2_778
10
13.2651897
20
136.1492271
11
13.4657897
21
136.1492271
0
LINE
8
DEFAULT_255_2_778
10
13.4657897
20
136.1492271
11
14.0118897
21
136.1492271
0
LINE
8
DEFAULT_255_2_778
10
14.0118897
20
136.1492271
11
14.0118897
21
136.3207271
0
LINE
8
DEFAULT_255_2_778
10
14.0118897
20
136.3207271
11
13.4657897
21
136.3207271
0
LINE
8
DEFAULT_255_2_778
10
13.4657897
20
136.3207271
11
13.4657897
21
136.5845271
0
LINE
8
DEFAULT_255_2_778
10
13.4657897
20
136.5845271
11
13.4657897
21
136.5848271
0
LINE
8
DEFAULT_255_2_778
10
13.4519897
20
138.0389271
11
13.6620897
21
137.3036271
0
LINE
8
DEFAULT_255_2_778
10
13.6620897
20
137.3036271
11
13.6704897
21
137.3036271
0
LINE
8
DEFAULT_255_2_778
10
13.6704897
20
137.3036271
11
13.8464897
21
137.3036271
0
LINE
8
DEFAULT_255_2_778
10
13.8464897
20
137.3036271
11
13.8546897
21
137.3036271
0
LINE
8
DEFAULT_255_2_778
10
13.8546897
20
137.3036271
11
14.0647897
21
138.0389271
0
LINE
8
DEFAULT_255_2_778
10
14.0647897
20
138.0389271
11
14.0647897
21
137.3036271
0
LINE
8
DEFAULT_255_2_778
10
14.0647897
20
137.3036271
11
14.2515897
21
137.3036271
0
LINE
8
DEFAULT_255_2_778
10
14.2515897
20
137.3036271
11
14.2515897
21
138.2929271
0
LINE
8
DEFAULT_255_2_778
10
14.2515897
20
138.2929271
11
14.1496897
21
138.2929271
0
LINE
8
DEFAULT_255_2_778
10
14.1496897
20
138.2929271
11
14.0615897
21
138.2929271
0
LINE
8
DEFAULT_255_2_778
10
14.0615897
20
138.2929271
11
13.9655897
21
138.2929271
0
LINE
8
DEFAULT_255_2_778
10
13.9655897
20
138.2929271
11
13.7583897
21
137.5986271
0
LINE
8
DEFAULT_255_2_778
10
13.7583897
20
137.5986271
11
13.5511897
21
138.2929271
0
LINE
8
DEFAULT_255_2_778
10
13.5511897
20
138.2929271
11
13.4551897
21
138.2929271
0
LINE
8
DEFAULT_255_2_778
10
13.4551897
20
138.2929271
11
13.3669897
21
138.2929271
0
LINE
8
DEFAULT_255_2_778
10
13.3669897
20
138.2929271
11
13.2651897
21
138.2929271
0
LINE
8
DEFAULT_255_2_778
10
13.2651897
20
138.2929271
11
13.2651897
21
137.3036271
0
LINE
8
DEFAULT_255_2_778
10
13.2651897
20
137.3036271
11
13.4519897
21
137.3036271
0
LINE
8
DEFAULT_255_2_778
10
13.4519897
20
137.3036271
11
13.4519897
21
138.0389271
0
LINE
8
DEFAULT_255_2_778
10
13.4519897
20
138.0389271
11
13.4519897
21
138.0389271
0
LINE
8
DEFAULT_255_2_778
10
18.0056897
20
138.2929271
11
17.8064897
21
138.2929271
0
LINE
8
DEFAULT_255_2_778
10
17.8064897
20
138.2929271
11
17.8064897
21
137.3036271
0
LINE
8
DEFAULT_255_2_778
10
17.8064897
20
137.3036271
11
18.0056897
21
137.3036271
0
LINE
8
DEFAULT_255_2_778
10
18.0056897
20
137.3036271
11
18.0056897
21
138.2929271
0
LINE
8
DEFAULT_255_2_778
10
18.0056897
20
138.2929271
11
18.0056897
21
138.2929271
0
LINE
8
DEFAULT_255_2_778
10
18.1681897
20
137.1388271
11
17.9689897
21
137.1388271
0
LINE
8
DEFAULT_255_2_778
10
17.9689897
20
137.1388271
11
17.9689897
21
136.1495271
0
LINE
8
DEFAULT_255_2_778
10
17.9689897
20
136.1495271
11
18.1681897
21
136.1495271
0
LINE
8
DEFAULT_255_2_778
10
18.1681897
20
136.1495271
11
18.1681897
21
137.1388271
0
LINE
8
DEFAULT_255_2_778
10
18.1681897
20
137.1388271
11
18.1681897
21
137.1388271
0
LINE
8
DEFAULT_255_2_778
10
19.9765897
20
138.2929271
11
19.7773897
21
138.2929271
0
LINE
8
DEFAULT_255_2_778
10
19.7773897
20
138.2929271
11
19.7773897
21
137.3036271
0
LINE
8
DEFAULT_255_2_778
10
19.7773897
20
137.3036271
11
19.9765897
21
137.3036271
0
LINE
8
DEFAULT_255_2_778
10
19.9765897
20
137.3036271
11
19.9765897
21
138.2929271
0
LINE
8
DEFAULT_255_2_778
10
19.9765897
20
138.2929271
11
19.9765897
21
138.2929271
0
LINE
8
DEFAULT_255_2_778
10
14.5298897
20
138.2929271
11
14.3306897
21
138.2929271
0
LINE
8
DEFAULT_255_2_778
10
14.3306897
20
138.2929271
11
14.3306897
21
137.3036271
0
LINE
8
DEFAULT_255_2_778
10
14.3306897
20
137.3036271
11
14.5298897
21
137.3036271
0
LINE
8
DEFAULT_255_2_778
10
14.5298897
20
137.3036271
11
14.5298897
21
138.2929271
0
LINE
8
DEFAULT_255_2_778
10
14.5298897
20
138.2929271
11
14.5298897
21
138.2929271
0
LINE
8
DEFAULT_255_2_778
10
19.4989897
20
137.9069271
11
19.1029897
21
137.9069271
0
LINE
8
DEFAULT_255_2_778
10
19.1029897
20
137.9069271
11
19.1029897
21
138.2926271
0
LINE
8
DEFAULT_255_2_778
10
19.1029897
20
138.2926271
11
18.9068897
21
138.2926271
0
LINE
8
DEFAULT_255_2_778
10
18.9068897
20
138.2926271
11
18.9068897
21
137.3036271
0
LINE
8
DEFAULT_255_2_778
10
18.9068897
20
137.3036271
11
19.1029897
21
137.3036271
0
LINE
8
DEFAULT_255_2_778
10
19.1029897
20
137.3036271
11
19.1029897
21
137.7354271
0
LINE
8
DEFAULT_255_2_778
10
19.1029897
20
137.7354271
11
19.4989897
21
137.7354271
0
LINE
8
DEFAULT_255_2_778
10
19.4989897
20
137.7354271
11
19.4989897
21
137.3036271
0
LINE
8
DEFAULT_255_2_778
10
19.4989897
20
137.3036271
11
19.6950897
21
137.3036271
0
LINE
8
DEFAULT_255_2_778
10
19.6950897
20
137.3036271
11
19.6950897
21
138.2926271
0
LINE
8
DEFAULT_255_2_778
10
19.6950897
20
138.2926271
11
19.4989897
21
138.2926271
0
LINE
8
DEFAULT_255_2_778
10
19.4989897
20
138.2926271
11
19.4989897
21
137.9069271
0
LINE
8
DEFAULT_255_2_778
10
19.4989897
20
137.9069271
11
19.4989897
21
137.9069271
0
LINE
8
DEFAULT_255_2_778
10
14.8246897
20
137.3036271
11
15.0280897
21
137.3036271
0
LINE
8
DEFAULT_255_2_778
10
15.0280897
20
137.3036271
11
15.0280897
21
138.1215271
0
LINE
8
DEFAULT_255_2_778
10
15.0280897
20
138.1215271
11
15.2696897
21
138.1215271
0
LINE
8
DEFAULT_255_2_778
10
15.2696897
20
138.1215271
11
15.2696897
21
138.2929271
0
LINE
8
DEFAULT_255_2_778
10
15.2696897
20
138.2929271
11
15.0280897
21
138.2929271
0
LINE
8
DEFAULT_255_2_778
10
15.0280897
20
138.2929271
11
14.8246897
21
138.2929271
0
LINE
8
DEFAULT_255_2_778
10
14.8246897
20
138.2929271
11
14.5830897
21
138.2929271
0
LINE
8
DEFAULT_255_2_778
10
14.5830897
20
138.2929271
11
14.5830897
21
138.1215271
0
LINE
8
DEFAULT_255_2_778
10
14.5830897
20
138.1215271
11
14.8246897
21
138.1215271
0
LINE
8
DEFAULT_255_2_778
10
14.8246897
20
138.1215271
11
14.8246897
21
137.3036271
0
LINE
8
DEFAULT_255_2_778
10
14.8246897
20
137.3036271
11
14.8246897
21
137.3036271
0
LINE
8
DEFAULT_255_2_778
10
16.6422897
20
136.1495271
11
16.8454897
21
136.1495271
0
LINE
8
DEFAULT_255_2_778
10
16.8454897
20
136.1495271
11
16.8454897
21
136.9673271
0
LINE
8
DEFAULT_255_2_778
10
16.8454897
20
136.9673271
11
17.0873897
21
136.9673271
0
LINE
8
DEFAULT_255_2_778
10
17.0873897
20
136.9673271
11
17.0873897
21
137.1391271
0
LINE
8
DEFAULT_255_2_778
10
17.0873897
20
137.1391271
11
16.8454897
21
137.1391271
0
LINE
8
DEFAULT_255_2_778
10
16.8454897
20
137.1391271
11
16.6422897
21
137.1391271
0
LINE
8
DEFAULT_255_2_778
10
16.6422897
20
137.1391271
11
16.4004897
21
137.1391271
0
LINE
8
DEFAULT_255_2_778
10
16.4004897
20
137.1391271
11
16.4004897
21
136.9673271
0
LINE
8
DEFAULT_255_2_778
10
16.4004897
20
136.9673271
11
16.6422897
21
136.9673271
0
LINE
8
DEFAULT_255_2_778
10
16.6422897
20
136.9673271
11
16.6422897
21
136.1495271
0
LINE
8
DEFAULT_255_2_778
10
16.6422897
20
136.1495271
11
16.6422897
21
136.1495271
0
LINE
8
DEFAULT_255_2_778
10
16.9007897
20
137.6121271
11
16.9007897
21
138.2926271
0
LINE
8
DEFAULT_255_2_778
10
16.9007897
20
138.2926271
11
16.7015897
21
138.2926271
0
LINE
8
DEFAULT_255_2_778
10
16.7015897
20
138.2926271
11
16.7015897
21
137.5941271
0
LINE
8
DEFAULT_255_2_778
10
16.3120897
20
137.5941271
11
16.3120897
21
138.2926271
0
LINE
8
DEFAULT_255_2_778
10
16.3120897
20
138.2926271
11
16.1162897
21
138.2926271
0
LINE
8
DEFAULT_255_2_778
10
16.1162897
20
138.2926271
11
16.1162897
21
137.6124271
0
LINE
8
DEFAULT_255_2_778
10
15.0000897
20
136.5848271
11
15.4730897
21
136.5848271
0
LINE
8
DEFAULT_255_2_778
10
15.4730897
20
136.5848271
11
15.4730897
21
136.7562271
0
LINE
8
DEFAULT_255_2_778
10
15.4730897
20
136.7562271
11
15.0000897
21
136.7562271
0
LINE
8
DEFAULT_255_2_778
10
15.0000897
20
136.7562271
11
15.0000897
21
136.9671271
0
LINE
8
DEFAULT_255_2_778
10
15.0000897
20
136.9671271
11
15.5320897
21
136.9671271
0
LINE
8
DEFAULT_255_2_778
10
15.5320897
20
136.9671271
11
15.5320897
21
137.1385271
0
LINE
8
DEFAULT_255_2_778
10
15.5320897
20
137.1385271
11
15.0000897
21
137.1385271
0
LINE
8
DEFAULT_255_2_778
10
15.0000897
20
137.1385271
11
14.7997897
21
137.1385271
0
LINE
8
DEFAULT_255_2_778
10
14.7997897
20
137.1385271
11
14.7997897
21
136.9671271
0
LINE
8
DEFAULT_255_2_778
10
14.7997897
20
136.9671271
11
14.7997897
21
136.3207271
0
LINE
8
DEFAULT_255_2_778
10
14.7997897
20
136.3207271
11
14.7997897
21
136.1492271
0
LINE
8
DEFAULT_255_2_778
10
14.7997897
20
136.1492271
11
15.0000897
21
136.1492271
0
LINE
8
DEFAULT_255_2_778
10
15.0000897
20
136.1492271
11
15.5461897
21
136.1492271
0
LINE
8
DEFAULT_255_2_778
10
15.5461897
20
136.1492271
11
15.5461897
21
136.3207271
0
LINE
8
DEFAULT_255_2_778
10
15.5461897
20
136.3207271
11
15.0000897
21
136.3207271
0
LINE
8
DEFAULT_255_2_778
10
15.0000897
20
136.3207271
11
15.0000897
21
136.5845271
0
LINE
8
DEFAULT_255_2_778
10
15.0000897
20
136.5845271
11
15.0000897
21
136.5848271
0
LINE
8
DEFAULT_255_2_778
10
17.4064897
20
137.8936271
11
17.1690897
21
137.8936271
0
LINE
8
DEFAULT_255_2_778
10
17.1690897
20
137.8936271
11
17.1690897
21
138.1352271
0
LINE
8
DEFAULT_255_2_778
10
17.1690897
20
138.1352271
11
17.4175897
21
138.1352271
0
LINE
8
DEFAULT_255_2_778
10
17.4175897
20
138.1352271
11
17.4175897
21
138.1355271
0
LINE
8
DEFAULT_255_2_778
10
17.4027897
20
137.4528271
11
17.1690897
21
137.4528271
0
LINE
8
DEFAULT_255_2_778
10
17.1690897
20
137.4528271
11
17.1690897
21
137.7399271
0
LINE
8
DEFAULT_255_2_778
10
17.1690897
20
137.7399271
11
17.4003897
21
137.7399271
0
LINE
8
DEFAULT_255_2_778
10
17.1767897
20
137.3036271
11
17.4622897
21
137.3036271
0
LINE
8
DEFAULT_255_2_778
10
17.4172897
20
138.2926271
11
17.1770897
21
138.2926271
0
LINE
8
DEFAULT_255_2_778
10
17.1770897
20
138.2926271
11
16.9722897
21
138.2926271
0
LINE
8
DEFAULT_255_2_778
10
16.9722897
20
138.2926271
11
16.9711897
21
138.2926271
0
LINE
8
DEFAULT_255_2_778
10
16.9711897
20
138.2926271
11
16.9711897
21
137.3036271
0
LINE
8
DEFAULT_255_2_778
10
16.9711897
20
137.3036271
11
16.9722897
21
137.3036271
0
LINE
8
DEFAULT_255_2_778
10
16.9722897
20
137.3036271
11
17.1770897
21
137.3036271
0
LINE
8
DEFAULT_255_2_778
10
17.1770897
20
137.3036271
11
17.1767897
21
137.3036271
0
LINE
8
DEFAULT_255_2_778
10
17.3368897
20
136.6993271
11
17.3368897
21
136.9687271
0
LINE
8
DEFAULT_255_2_778
10
17.3368897
20
136.9687271
11
17.5781897
21
136.9687271
0
LINE
8
DEFAULT_255_2_778
10
17.5842897
20
136.6996271
11
17.3370897
21
136.6996271
0
LINE
8
DEFAULT_255_2_778
10
17.3370897
20
136.6996271
11
17.3368897
21
136.6993271
0
LINE
8
DEFAULT_255_2_778
10
17.5879897
20
137.1398271
11
17.3368897
21
137.1398271
0
LINE
8
DEFAULT_255_2_778
10
17.3368897
20
137.1398271
11
17.1383897
21
137.1398271
0
LINE
8
DEFAULT_255_2_778
10
17.1383897
20
137.1398271
11
17.1362897
21
137.1398271
0
LINE
8
DEFAULT_255_2_778
10
17.1362897
20
137.1398271
11
17.1362897
21
136.1506271
0
LINE
8
DEFAULT_255_2_778
10
17.1362897
20
136.1506271
11
17.3368897
21
136.1506271
0
LINE
8
DEFAULT_255_2_778
10
17.3368897
20
136.1506271
11
17.3368897
21
136.5403271
0
LINE
8
DEFAULT_255_2_778
10
17.3368897
20
136.5403271
11
17.5069897
21
136.5403271
0
LINE
8
DEFAULT_255_2_778
10
17.7162897
20
136.1506271
11
17.9175897
21
136.1506271
0
LINE
8
DEFAULT_255_2_778
10
14.2763897
20
137.1388271
11
14.0760897
21
137.1388271
0
LINE
8
DEFAULT_255_2_778
10
14.0760897
20
137.1388271
11
14.0760897
21
136.3210271
0
LINE
8
DEFAULT_255_2_778
10
14.0760897
20
136.3210271
11
14.0760897
21
136.1495271
0
LINE
8
DEFAULT_255_2_778
10
14.0760897
20
136.1495271
11
14.2763897
21
136.1495271
0
LINE
8
DEFAULT_255_2_778
10
14.2763897
20
136.1495271
11
14.7428897
21
136.1495271
0
LINE
8
DEFAULT_255_2_778
10
14.7428897
20
136.1495271
11
14.7428897
21
136.3210271
0
LINE
8
DEFAULT_255_2_778
10
14.7428897
20
136.3210271
11
14.2763897
21
136.3210271
0
LINE
8
DEFAULT_255_2_778
10
14.2763897
20
136.3210271
11
14.2763897
21
137.1388271
0
LINE
8
DEFAULT_255_2_778
10
14.2763897
20
137.1388271
11
14.2763897
21
137.1388271
0
ARC
8
DEFAULT_255_2_778
10
15.4584271
20
136.7646969
40
0.9681224
50
72.4822103
51
81.3184214
0
ARC
8
DEFAULT_255_2_778
10
15.7160297
20
137.5413918
40
0.1503783
50
28.8883513
51
77.0092434
0
ARC
8
DEFAULT_255_2_778
10
15.7432379
20
137.5703196
40
0.113238
50
358.9917455
51
22.7117017
0
ARC
8
DEFAULT_255_2_778
10
15.7394861
20
137.5744918
40
0.1171346
50
289.2958104
51
356.9831562
0
ARC
8
DEFAULT_255_2_778
10
15.6668261
20
137.7319882
40
0.2902651
50
268.4665462
51
292.5613311
0
ARC
8
DEFAULT_255_2_778
10
15.6496856
20
137.6729179
40
0.2312808
50
236.4956947
51
272.3225735
0
ARC
8
DEFAULT_255_2_778
10
15.6106646
20
137.6046839
40
0.1529307
50
178.9722202
51
234.5742435
0
ARC
8
DEFAULT_255_2_778
10
15.5656113
20
137.5951079
40
0.3002058
50
177.6481608
51
245.5596397
0
ARC
8
DEFAULT_255_2_778
10
15.6409971
20
137.7673561
40
0.488217
50
245.8690375
51
267.169035
0
ARC
8
DEFAULT_255_2_778
10
15.6671503
20
138.0183916
40
0.7403648
50
266.1069867
51
270.0547972
0
ARC
8
DEFAULT_255_2_778
10
15.6772894
20
137.8496135
40
0.5716642
50
269.0547216
51
287.7147747
0
ARC
8
DEFAULT_255_2_778
10
15.7598889
20
137.6039091
40
0.3125017
50
286.995984
51
325.1221533
0
ARC
8
DEFAULT_255_2_778
10
15.7678294
20
137.587361
40
0.2966627
50
326.8673922
51
0.8625726
0
ARC
8
DEFAULT_255_2_778
10
15.7898286
20
137.5959409
40
0.2746606
50
359.1417932
51
76.9739731
0
ARC
8
DEFAULT_255_2_778
10
15.6705461
20
137.3150719
40
0.577616
50
71.7185727
51
79.1315439
0
ARC
8
DEFAULT_255_2_778
10
14.2492968
20
129.961467
40
8.0673056
50
79.0662148
51
79.6216572
0
ARC
8
DEFAULT_255_2_778
10
16.4356585
20
141.8391581
40
4.0099443
50
259.1227669
51
259.4665204
0
ARC
8
DEFAULT_255_2_778
10
15.7836732
20
138.5441142
40
0.6513291
50
249.9945768
51
260.7485895
0
ARC
8
DEFAULT_255_2_778
10
15.5880401
20
138.0330999
40
0.1046098
50
178.6705173
51
254.9333545
0
ARC
8
DEFAULT_255_2_778
10
15.6049957
20
138.0296688
40
0.1216785
50
93.288632
51
177.2403935
0
ARC
8
DEFAULT_255_2_778
10
15.6585677
20
137.8426752
40
0.3143588
50
89.6189463
51
101.1057977
0
ARC
8
DEFAULT_255_2_778
10
15.6722733
20
137.954516
40
0.2028439
50
53.5634072
51
93.2825843
0
ARC
8
DEFAULT_255_2_778
10
15.7018505
20
138.0127144
40
0.1388739
50
357.1985816
51
49.1152298
0
ARC
8
DEFAULT_255_2_778
10
15.7254907
20
138.0059274
40
0.3087677
50
359.9999335
51
2.3703878
0
ARC
8
DEFAULT_255_2_778
10
15.7353555
20
138.0074337
40
0.298851
50
2.1600756
51
60.1092229
0
ARC
8
DEFAULT_255_2_778
10
15.6766212
20
137.9008133
40
0.4205645
50
60.4106856
51
86.1444419
0
ARC
8
DEFAULT_255_2_778
10
15.6536151
20
137.7241228
40
0.5985046
50
85.0843314
51
90.0628677
0
ARC
8
DEFAULT_255_2_778
10
15.6529718
20
137.8475466
40
0.4750804
50
90.001616
51
92.2300394
0
ARC
8
DEFAULT_255_2_778
10
15.6281193
20
137.952687
40
0.3696351
50
89.0131319
51
149.6364996
0
ARC
8
DEFAULT_255_2_778
10
15.5505461
20
138.0249055
40
0.2671974
50
154.5962367
51
180.4885883
0
ARC
8
DEFAULT_255_2_778
10
15.5651524
20
138.023384
40
0.281795
50
180.1539064
51
255.1120325
0
ARC
8
DEFAULT_255_2_778
10
15.7094242
20
138.346232
40
0.6333958
50
249.9962237
51
260.4976723
0
ARC
8
DEFAULT_255_2_778
10
18.2470963
20
136.7658351
40
0.967002
50
72.4685023
51
81.3064395
0
ARC
8
DEFAULT_255_2_778
10
18.5045397
20
137.541427
40
0.1503535
50
28.8782248
51
76.9904304
0
ARC
8
DEFAULT_255_2_778
10
18.5317197
20
137.5703189
40
0.1132561
50
358.9922779
51
22.7082666
0
ARC
8
DEFAULT_255_2_778
10
18.5280402
20
137.5744088
40
0.1170763
50
289.2761556
51
357.0223042
0
ARC
8
DEFAULT_255_2_778
10
18.4553612
20
137.7322836
40
0.2905613
50
268.4611814
51
292.5289055
0
ARC
8
DEFAULT_255_2_778
10
18.4381801
20
137.6738175
40
0.2321799
50
236.6698634
51
272.3149402
0
ARC
8
DEFAULT_255_2_778
10
18.39878
20
137.6046762
40
0.1528464
50
178.9687581
51
234.7686008
0
ARC
8
DEFAULT_255_2_778
10
18.3540113
20
137.5951079
40
0.3002058
50
177.6481608
51
245.5596397
0
ARC
8
DEFAULT_255_2_778
10
18.4293971
20
137.7673561
40
0.488217
50
245.8690375
51
267.169035
0
ARC
8
DEFAULT_255_2_778
10
18.4555503
20
138.0183916
40
0.7403648
50
266.1069867
51
270.0547972
0
ARC
8
DEFAULT_255_2_778
10
18.4656836
20
137.8502451
40
0.5722957
50
269.0563423
51
287.7048702
0
ARC
8
DEFAULT_255_2_778
10
18.548344
20
137.6042682
40
0.312856
50
286.9832601
51
325.0871916
0
ARC
8
DEFAULT_255_2_778
10
18.5567708
20
137.5873856
40
0.2964208
50
326.8311942
51
0.8585267
0
ARC
8
DEFAULT_255_2_778
10
18.5785756
20
137.5960282
40
0.2746149
50
359.1234265
51
76.9343785
0
ARC
8
DEFAULT_255_2_778
10
18.4596421
20
137.3161965
40
0.5764934
50
71.6999697
51
79.1198353
0
ARC
8
DEFAULT_255_2_778
10
17.0173657
20
129.8394392
40
8.1910887
50
79.0843627
51
79.6321368
0
ARC
8
DEFAULT_255_2_778
10
19.2200266
20
141.8189177
40
3.9892176
50
259.1314419
51
259.4772924
0
ARC
8
DEFAULT_255_2_778
10
18.5723251
20
138.5435131
40
0.6507003
50
249.9919323
51
260.7592458
0
ARC
8
DEFAULT_255_2_778
10
18.376901
20
138.0330546
40
0.1045718
50
178.6452075
51
254.9151907
0
ARC
8
DEFAULT_255_2_778
10
18.3939581
20
138.0296016
40
0.121744
50
93.2745253
51
177.21023
0
ARC
8
DEFAULT_255_2_778
10
18.4475726
20
137.8425052
40
0.3145287
50
89.6200387
51
101.1027534
0
ARC
8
DEFAULT_255_2_778
10
18.4613489
20
137.9558453
40
0.2015212
50
53.1490002
51
93.3256649
0
ARC
8
DEFAULT_255_2_778
10
18.4902753
20
138.0126519
40
0.1391457
50
357.2298288
51
48.6469881
0
ARC
8
DEFAULT_255_2_778
10
18.5137232
20
138.0059226
40
0.3092351
50
0.0008291
51
2.3676985
0
ARC
8
DEFAULT_255_2_778
10
18.5240744
20
138.0074868
40
0.2988304
50
2.1500394
51
60.0956838
0
ARC
8
DEFAULT_255_2_778
10
18.4654399
20
137.9009909
40
0.4203859
50
60.40452
51
86.1455285
0
ARC
8
DEFAULT_255_2_778
10
18.4424157
20
137.7241686
40
0.5984588
50
85.0841409
51
90.0629301
0
ARC
8
DEFAULT_255_2_778
10
18.4417778
20
137.8471392
40
0.4754878
50
90.0023409
51
92.3231329
0
ARC
8
DEFAULT_255_2_778
10
18.4167555
20
137.9524604
40
0.3698206
50
89.1093915
51
149.6400816
0
ARC
8
DEFAULT_255_2_778
10
18.338761
20
138.0248917
40
0.2669122
50
154.6001925
51
180.486137
0
ARC
8
DEFAULT_255_2_778
10
18.3537607
20
138.0235152
40
0.2819037
50
180.1805176
51
255.132702
0
ARC
8
DEFAULT_255_2_778
10
18.4982264
20
138.3467784
40
0.6339516
50
250.0026216
51
260.4967164
0
ARC
8
DEFAULT_255_2_778
10
16.008917
20
136.5539283
40
0.2519711
50
190.2626864
51
267.3480013
0
ARC
8
DEFAULT_255_2_778
10
16.2443543
20
136.6452548
40
0.5022041
50
179.6723028
51
195.7380858
0
ARC
8
DEFAULT_255_2_778
10
16.1790511
20
136.6607671
40
0.4370755
50
148.7005643
51
181.6572045
0
ARC
8
DEFAULT_255_2_778
10
15.9957576
20
136.7708723
40
0.2232598
50
89.6148479
51
148.4074796
0
ARC
8
DEFAULT_255_2_778
10
16.0060936
20
136.792949
40
0.201372
50
41.9769772
51
92.5146611
0
ARC
8
DEFAULT_255_2_778
10
15.9522078
20
136.7552523
40
0.2667646
50
15.1848537
51
40.2549591
0
ARC
8
DEFAULT_255_2_778
10
16.028123
20
136.7655326
40
0.3935735
50
8.7091682
51
82.0550801
0
ARC
8
DEFAULT_255_2_778
10
15.9931241
20
136.6190871
40
0.543642
50
80.5350289
51
90.1544743
0
ARC
8
DEFAULT_255_2_778
10
15.9818804
20
136.7077192
40
0.4551129
50
88.7689246
51
119.6437418
0
ARC
8
DEFAULT_255_2_778
10
16.0077717
20
136.7114647
40
0.4653013
50
122.644121
51
173.3997839
0
ARC
8
DEFAULT_255_2_778
10
16.2711934
20
136.6471568
40
0.7351371
50
170.7798304
51
180.1348114
0
ARC
8
DEFAULT_255_2_778
10
16.1377257
20
136.6317615
40
0.6018225
50
178.6988735
51
210.5289552
0
ARC
8
DEFAULT_255_2_778
10
15.970325
20
136.5409953
40
0.4115783
50
211.4828222
51
265.8686737
0
ARC
8
DEFAULT_255_2_778
10
15.9909864
20
136.6657011
40
0.5375742
50
264.6297133
51
270.0503073
0
ARC
8
DEFAULT_255_2_778
10
16.0020995
20
136.5975749
40
0.4695684
50
268.7014824
51
300.1403067
0
ARC
8
DEFAULT_255_2_778
10
16.0350333
20
136.5191852
40
0.385394
50
301.7580058
51
353.77968
0
ARC
8
DEFAULT_255_2_778
10
16.0012256
20
136.5135219
40
0.2113379
50
268.8430278
51
350.1661143
0
ARC
8
DEFAULT_255_2_778
10
18.6896799
20
136.5538824
40
0.2519281
50
190.2538303
51
267.3332171
0
ARC
8
DEFAULT_255_2_778
10
18.9252249
20
136.6452581
40
0.5022746
50
179.672724
51
195.7362088
0
ARC
8
DEFAULT_255_2_778
10
18.8600432
20
136.6607917
40
0.4372682
50
148.7196987
51
181.6596982
0
ARC
8
DEFAULT_255_2_778
10
18.676443
20
136.7709906
40
0.2231415
50
89.6108896
51
148.4244661
0
ARC
8
DEFAULT_255_2_778
10
18.686876
20
136.792967
40
0.2013576
50
42.5913083
51
92.5383066
0
ARC
8
DEFAULT_255_2_778
10
18.6345542
20
136.7565973
40
0.2646316
50
15.0085433
51
40.7215892
0
ARC
8
DEFAULT_255_2_778
10
18.708623
20
136.7655326
40
0.3935735
50
8.7091682
51
82.0550801
0
ARC
8
DEFAULT_255_2_778
10
18.6736241
20
136.6190871
40
0.543642
50
80.5350289
51
90.1544743
0
ARC
8
DEFAULT_255_2_778
10
18.6623804
20
136.7077192
40
0.4551129
50
88.7689246
51
119.6437418
0
ARC
8
DEFAULT_255_2_778
10
18.6882717
20
136.7114647
40
0.4653013
50
122.644121
51
173.3997839
0
ARC
8
DEFAULT_255_2_778
10
18.9516934
20
136.6471568
40
0.7351371
50
170.7798304
51
180.1348114
0
ARC
8
DEFAULT_255_2_778
10
18.8177822
20
136.63182
40
0.6013778
50
178.7034849
51
210.5604279
0
ARC
8
DEFAULT_255_2_778
10
18.6511312
20
136.5413377
40
0.4119265
50
211.5090145
51
265.8592607
0
ARC
8
DEFAULT_255_2_778
10
18.6716883
20
136.6654521
40
0.5373252
50
264.628472
51
270.0501277
0
ARC
8
DEFAULT_255_2_778
10
18.682837
20
136.5973685
40
0.4693629
50
268.6963312
51
300.2191972
0
ARC
8
DEFAULT_255_2_778
10
18.7155684
20
136.5194124
40
0.3856821
50
301.8465101
51
353.7503927
0
ARC
8
DEFAULT_255_2_778
10
18.6820648
20
136.5133604
40
0.2111733
50
268.8857714
51
350.2028431
0
LINE
8
DEFAULT_255_2_778
10
15.4577584
20
137.6074271
11
15.2656584
21
137.6074271
0
LINE
8
DEFAULT_255_2_778
10
15.8405584
20
138.0059271
11
16.0342584
21
138.0059271
0
LINE
8
DEFAULT_255_2_778
10
18.2459584
20
137.6074271
11
18.0540584
21
137.6074271
0
LINE
8
DEFAULT_255_2_778
10
18.6292584
20
138.0059271
11
18.8229584
21
138.0059271
0
LINE
8
DEFAULT_255_2_778
10
16.2096584
20
136.8251271
11
16.4171584
21
136.8251271
0
LINE
8
DEFAULT_255_2_778
10
16.4181584
20
136.4774271
11
16.2094584
21
136.4774271
0
LINE
8
DEFAULT_255_2_778
10
18.8901584
20
136.8251271
11
19.0976584
21
136.8251271
0
LINE
8
DEFAULT_255_2_778
10
19.0989584
20
136.4774271
11
18.8901584
21
136.4774271
0
LINE
8
DEFAULT_255_1_234
10
11.7257657
20
134.2463565
11
11.7257657
21
134.1716614
0
LINE
8
DEFAULT_255_1_234
10
11.5209563
20
133.6881507
11
11.7297815
21
133.5243033
0
LINE
8
DEFAULT_255_1_234
10
11.7297815
20
133.5243033
11
11.6245658
21
133.4271192
0
LINE
8
DEFAULT_255_1_234
10
11.6245658
20
133.4271192
11
11.3779914
21
133.6230937
0
LINE
8
DEFAULT_255_1_234
10
10.7844459
20
134.1612201
11
10.7844459
21
134.2455534
0
LINE
8
DEFAULT_255_1_234
10
11.5715563
20
134.1604169
11
11.5715563
21
134.2471597
0
LINE
8
DEFAULT_255_1_234
10
10.9386553
20
134.257601
11
10.9386553
21
134.1716614
0
ARC
8
DEFAULT_255_1_234
10
10.8303909
20
134.1677707
40
0.8953833
50
351.453011
51
0.2489685
0
ARC
8
DEFAULT_255_1_234
10
11.0888709
20
134.1277933
40
0.6338333
50
338.6861641
51
351.5540711
0
ARC
8
DEFAULT_255_1_234
10
11.1822593
20
134.0947828
40
0.5348431
50
336.2887631
51
338.3442418
0
ARC
8
DEFAULT_255_1_234
10
11.2162215
20
134.0761698
40
0.4962747
50
321.1170344
51
336.6795229
0
ARC
8
DEFAULT_255_1_234
10
11.2794044
20
134.0275206
40
0.4165565
50
305.4419708
51
320.8705636
0
ARC
8
DEFAULT_255_1_234
10
11.2597514
20
134.1022707
40
0.4935497
50
271.6373023
51
283.8611969
0
ARC
8
DEFAULT_255_1_234
10
11.2559767
20
134.1678572
40
0.5592206
50
269.9930596
51
271.8318864
0
ARC
8
DEFAULT_255_1_234
10
11.252221
20
134.0870681
40
0.4784458
50
252.5219675
51
270.4416499
0
ARC
8
DEFAULT_255_1_234
10
11.2378469
20
134.0331592
40
0.422716
50
237.5352116
51
252.1857531
0
ARC
8
DEFAULT_255_1_234
10
11.2467665
20
134.0445363
40
0.4371052
50
209.063312
51
237.3492538
0
ARC
8
DEFAULT_255_1_234
10
11.3337513
20
134.0991685
40
0.5397041
50
205.1183774
51
209.6470015
0
ARC
8
DEFAULT_255_1_234
10
11.413455
20
134.132983
40
0.6262326
50
188.7215458
51
204.8240747
0
ARC
8
DEFAULT_255_1_234
10
11.6132078
20
134.1666067
40
0.8287794
50
180.3723947
51
188.9252049
0
ARC
8
DEFAULT_255_1_234
10
11.610483
20
134.2495402
40
0.8260467
50
169.5253763
51
180.2765336
0
ARC
8
DEFAULT_255_1_234
10
11.4202279
20
134.2845309
40
0.6326007
50
155.8315255
51
169.5089989
0
ARC
8
DEFAULT_255_1_234
10
11.292178
20
134.3439348
40
0.4914567
50
139.6258461
51
156.0379525
0
ARC
8
DEFAULT_255_1_234
10
11.2332113
20
134.3913799
40
0.4158054
50
122.6416387
51
139.3430715
0
ARC
8
DEFAULT_255_1_234
10
11.2432733
20
134.3730451
40
0.4366739
50
93.0223692
51
122.455762
0
ARC
8
DEFAULT_255_1_234
10
11.254073
20
134.2765709
40
0.5336137
50
89.975342
51
93.6341897
0
ARC
8
DEFAULT_255_1_234
10
11.2579616
20
134.3145375
40
0.4956606
50
73.9665422
51
90.4229648
0
ARC
8
DEFAULT_255_1_234
10
11.2763263
20
134.3860451
40
0.4218674
50
57.5178019
51
73.6813337
0
ARC
8
DEFAULT_255_1_234
10
11.2719046
20
134.3824462
40
0.4272816
50
28.7261108
51
57.2767933
0
ARC
8
DEFAULT_255_1_234
10
11.1808378
20
134.3261688
40
0.534218
50
24.2448911
51
29.3248482
0
ARC
8
DEFAULT_255_1_234
10
11.0882479
20
134.2878819
40
0.6343711
50
9.064382
51
23.9639114
0
ARC
8
DEFAULT_255_1_234
10
10.8626807
20
134.2499925
40
0.8630926
50
359.7586264
51
9.1891435
0
ARC
8
DEFAULT_255_1_234
10
10.7372287
20
134.2513343
40
0.834338
50
359.7133237
51
7.96545
0
ARC
8
DEFAULT_255_1_234
10
11.0334504
20
134.2940681
40
0.5350538
50
7.8291991
51
20.0421623
0
ARC
8
DEFAULT_255_1_234
10
11.1959067
20
134.3531606
40
0.3621841
50
20.0677553
51
35.9161685
0
ARC
8
DEFAULT_255_1_234
10
11.2734105
20
134.410767
40
0.2656263
50
35.6594382
51
85.1578074
0
ARC
8
DEFAULT_255_1_234
10
11.2549361
20
134.2992378
40
0.3784238
50
83.7959068
51
90.095906
0
ARC
8
DEFAULT_255_1_234
10
11.2506295
20
134.3725601
40
0.3051229
50
89.3102392
51
109.9889877
0
ARC
8
DEFAULT_255_1_234
10
11.2423778
20
134.4081433
40
0.2688988
50
110.9285147
51
143.9411762
0
ARC
8
DEFAULT_255_1_234
10
11.3354724
20
134.3369236
40
0.3860887
50
143.5289163
51
163.2980757
0
ARC
8
DEFAULT_255_1_234
10
11.5262545
20
134.2769433
40
0.5860659
50
163.0418846
51
174.3140048
0
ARC
8
DEFAULT_255_1_234
10
11.7666657
20
134.2491854
40
0.8280531
50
174.0509143
51
179.4176892
0
ARC
8
DEFAULT_255_1_234
10
11.7152992
20
134.1673634
40
0.7766558
50
179.6829237
51
188.9631324
0
ARC
8
DEFAULT_255_1_234
10
11.4482553
20
134.1238752
40
0.5060992
50
188.8100743
51
202.9300012
0
ARC
8
DEFAULT_255_1_234
10
11.3266182
20
134.0743855
40
0.3747967
50
203.2069261
51
215.7876482
0
ARC
8
DEFAULT_255_1_234
10
11.2417579
20
134.0072671
40
0.2667526
50
214.7521006
51
264.2834488
0
ARC
8
DEFAULT_255_1_234
10
11.2553234
20
134.092778
40
0.3532247
50
263.4755397
51
270.0949833
0
ARC
8
DEFAULT_255_1_234
10
11.2595345
20
134.0666374
40
0.3271036
50
269.3649385
51
287.5152008
0
ARC
8
DEFAULT_255_1_234
10
11.2773503
20
134.0019238
40
0.2600406
50
288.0630309
51
323.8113348
0
ARC
8
DEFAULT_255_1_234
10
11.1902345
20
134.0669049
40
0.3687189
50
323.6547608
51
342.6590488
0
ARC
8
DEFAULT_255_1_234
10
10.987096
20
134.1329952
40
0.5823286
50
342.4091907
51
353.6451149
0
ARC
8
DEFAULT_255_1_234
10
10.7039471
20
134.168219
40
0.8676442
50
353.4029884
51
359.4847795
0
LINE
8
DEFAULT_255_1_234
10
12.6566441
20
134.1821026
11
12.6566441
21
134.0608234
0
LINE
8
DEFAULT_255_1_234
10
12.6566441
20
134.0608234
11
12.2646953
21
134.0608234
0
LINE
8
DEFAULT_255_1_234
10
12.2646953
20
134.0608234
11
12.2646953
21
134.1821026
0
LINE
8
DEFAULT_255_1_234
10
12.2646953
20
134.1821026
11
12.6566441
21
134.1821026
0
LINE
8
DEFAULT_255_1_234
10
14.0075825
20
134.4559849
11
13.85257
21
134.4559849
0
LINE
8
DEFAULT_255_1_234
10
13.1602341
20
133.9636394
11
13.3152467
21
133.9636394
0
ARC
8
DEFAULT_255_1_234
10
13.9184513
20
135.3506768
40
1.252368
50
248.9199003
51
254.1439814
0
ARC
8
DEFAULT_255_1_234
10
13.7504007
20
134.9180234
40
0.788226
50
241.633709
51
249.0064503
0
ARC
8
DEFAULT_255_1_234
10
13.5975402
20
134.6379317
40
0.4691427
50
230.498225
51
241.8087113
0
ARC
8
DEFAULT_255_1_234
10
13.5190976
20
134.5379906
40
0.3421437
50
227.4064532
51
229.9881192
0
ARC
8
DEFAULT_255_1_234
10
13.4703497
20
134.4904088
40
0.2741476
50
200.6781896
51
228.1763934
0
ARC
8
DEFAULT_255_1_234
10
13.4775807
20
134.4889077
40
0.2804109
50
179.5061581
51
199.8694617
0
ARC
8
DEFAULT_255_1_234
10
13.4766559
20
134.496321
40
0.2795204
50
132.4834203
51
181.0242172
0
ARC
8
DEFAULT_255_1_234
10
13.5362141
20
134.4400704
40
0.3612768
50
129.2532479
51
133.4242687
0
ARC
8
DEFAULT_255_1_234
10
13.5508591
20
134.4180965
40
0.3875675
50
101.98776
51
128.8742646
0
ARC
8
DEFAULT_255_1_234
10
13.5907202
20
134.2459741
40
0.5642249
50
89.5906553
51
102.3169264
0
ARC
8
DEFAULT_255_1_234
10
13.5977694
20
134.2778148
40
0.5323783
50
77.2360837
51
90.3248275
0
ARC
8
DEFAULT_255_1_234
10
13.6184773
20
134.37454
40
0.4334697
50
63.837784
51
77.0809408
0
ARC
8
DEFAULT_255_1_234
10
13.6462535
20
134.4262911
40
0.3747796
50
45.9864267
51
64.1607727
0
ARC
8
DEFAULT_255_1_234
10
13.6723416
20
134.4560866
40
0.3352302
50
32.2747395
51
45.6547121
0
ARC
8
DEFAULT_255_1_234
10
13.6789857
20
134.457988
40
0.328603
50
359.6507365
51
32.6130309
0
ARC
8
DEFAULT_255_1_234
10
13.5846952
20
134.458466
40
0.2678863
50
359.469343
51
14.9832209
0
ARC
8
DEFAULT_255_1_234
10
13.6552014
20
134.4773539
40
0.1948938
50
14.9781179
51
48.2004265
0
ARC
8
DEFAULT_255_1_234
10
13.6387658
20
134.4566983
40
0.2212521
50
48.5927837
51
74.1241538
0
ARC
8
DEFAULT_255_1_234
10
13.6054148
20
134.3466248
40
0.3362561
50
73.7888341
51
86.6652678
0
ARC
8
DEFAULT_255_1_234
10
13.5951714
20
134.2258881
40
0.4573953
50
86.2640471
51
90.0526343
0
ARC
8
DEFAULT_255_1_234
10
13.5923426
20
134.2654192
40
0.4178709
50
89.6697524
51
99.2309573
0
ARC
8
DEFAULT_255_1_234
10
13.5680877
20
134.4098964
40
0.2713749
50
99.069534
51
113.7658566
0
ARC
8
DEFAULT_255_1_234
10
13.5407068
20
134.4744677
40
0.2012469
50
114.0401004
51
127.9850673
0
ARC
8
DEFAULT_255_1_234
10
13.5166632
20
134.504073
40
0.1631167
50
127.7287463
51
176.7105154
0
ARC
8
DEFAULT_255_1_234
10
13.5845349
20
134.4939693
40
0.2315392
50
175.1779447
51
180.0581938
0
ARC
8
DEFAULT_255_1_234
10
13.5002196
20
134.4927428
40
0.1472271
50
179.6142195
51
228.1246017
0
ARC
8
DEFAULT_255_1_234
10
13.5443865
20
134.5336308
40
0.2072299
50
226.5779593
51
230.8800004
0
ARC
8
DEFAULT_255_1_234
10
13.5914944
20
134.5961636
40
0.2854818
50
231.4635071
51
241.9260842
0
ARC
8
DEFAULT_255_1_234
10
13.7112122
20
134.81648
40
0.53622
50
241.7178533
51
248.3259551
0
ARC
8
DEFAULT_255_1_234
10
13.8497493
20
135.1597064
40
0.9063478
50
248.2007737
51
252.4528373
0
ARC
8
DEFAULT_255_1_234
10
13.9701218
20
135.5318441
40
1.2974635
50
252.3391078
51
254.3469452
0
ARC
8
DEFAULT_255_1_234
10
13.2158921
20
132.8341148
40
1.5037162
50
71.0197183
51
74.4087047
0
ARC
8
DEFAULT_255_1_234
10
13.3853606
20
133.3233111
40
0.9859993
50
66.1847285
51
71.086374
0
ARC
8
DEFAULT_255_1_234
10
13.5409918
20
133.67372
40
0.6025855
50
59.3536294
51
66.2691831
0
ARC
8
DEFAULT_255_1_234
10
13.6298571
20
133.8240609
40
0.4279449
50
49.1020879
51
59.3293958
0
ARC
8
DEFAULT_255_1_234
10
13.7117311
20
133.9173834
40
0.3038015
50
32.7919921
51
49.2505539
0
ARC
8
DEFAULT_255_1_234
10
13.7438401
20
133.9402191
40
0.264448
50
31.1181161
51
32.4005348
0
ARC
8
DEFAULT_255_1_234
10
13.7349938
20
133.9366779
40
0.2738556
50
8.1116974
51
30.7958831
0
ARC
8
DEFAULT_255_1_234
10
13.6539607
20
133.9228753
40
0.3560327
50
359.8389159
51
8.4706516
0
ARC
8
DEFAULT_255_1_234
10
13.7165398
20
133.9180137
40
0.2934776
50
337.4731098
51
0.7537279
0
ARC
8
DEFAULT_255_1_234
10
13.7344093
20
133.9160387
40
0.2762607
50
307.5917067
51
336.4315538
0
ARC
8
DEFAULT_255_1_234
10
13.6883921
20
133.9673102
40
0.3449979
50
307.6551545
51
308.4529766
0
ARC
8
DEFAULT_255_1_234
10
13.665364
20
134.002825
40
0.3871988
50
284.3734338
51
307.1424381
0
ARC
8
DEFAULT_255_1_234
10
13.615847
20
134.1849932
40
0.5759636
50
272.4382747
51
284.646547
0
ARC
8
DEFAULT_255_1_234
10
13.6031679
20
134.3649893
40
0.7563528
50
269.9708387
51
272.8178037
0
ARC
8
DEFAULT_255_1_234
10
13.5988718
20
134.1611716
40
0.5525489
50
248.2707594
51
270.4055579
0
ARC
8
DEFAULT_255_1_234
10
13.5934459
20
134.1421192
40
0.5328452
50
246.1383403
51
248.0542782
0
ARC
8
DEFAULT_255_1_234
10
13.5515838
20
134.0541843
40
0.4355005
50
233.1670131
51
246.4950969
0
ARC
8
DEFAULT_255_1_234
10
13.4961743
20
133.9793812
40
0.3424126
50
215.3403242
51
233.0843104
0
ARC
8
DEFAULT_255_1_234
10
13.4689175
20
133.9595549
40
0.3087104
50
179.2419209
51
215.2648451
0
ARC
8
DEFAULT_255_1_234
10
13.5456768
20
133.9609666
40
0.2304457
50
179.335461
51
199.1045811
0
ARC
8
DEFAULT_255_1_234
10
13.5124445
20
133.9522766
40
0.1962176
50
199.8828939
51
232.7063202
0
ARC
8
DEFAULT_255_1_234
10
13.5596713
20
134.0116788
40
0.2720938
50
232.3738199
51
255.5136649
0
ARC
8
DEFAULT_255_1_234
10
13.593758
20
134.1360835
40
0.4010747
50
255.2446292
51
267.5320849
0
ARC
8
DEFAULT_255_1_234
10
13.6025203
20
134.2593702
40
0.5246356
50
267.1557994
51
270.0286766
0
ARC
8
DEFAULT_255_1_234
10
13.6052976
20
134.214995
40
0.4802668
50
269.7000017
51
278.1660162
0
ARC
8
DEFAULT_255_1_234
10
13.630898
20
134.0419515
40
0.3053425
50
278.0231263
51
290.625471
0
ARC
8
DEFAULT_255_1_234
10
13.6656667
20
133.9492025
40
0.206291
50
290.6619762
51
307.0370976
0
ARC
8
DEFAULT_255_1_234
10
13.6957057
20
133.9123504
40
0.1587906
50
306.3943566
51
355.3030547
0
ARC
8
DEFAULT_255_1_234
10
13.6444988
20
133.9200113
40
0.2104809
50
354.3660432
51
0.0698737
0
ARC
8
DEFAULT_255_1_234
10
13.6587333
20
133.9222617
40
0.1962563
50
359.417946
51
16.1971788
0
ARC
8
DEFAULT_255_1_234
10
13.7042644
20
133.9347418
40
0.149053
50
16.4723299
51
52.6262157
0
ARC
8
DEFAULT_255_1_234
10
13.6221698
20
133.8263433
40
0.2850296
50
52.7386432
51
62.4979148
0
ARC
8
DEFAULT_255_1_234
10
13.4836774
20
133.5657283
40
0.5801521
50
62.2515216
51
68.1220564
0
ARC
8
DEFAULT_255_1_234
10
13.3116685
20
133.1429872
40
1.0365451
50
68.0062803
51
71.8053402
0
ARC
8
DEFAULT_255_1_234
10
13.1321057
20
132.6044758
40
1.6042013
50
71.7183119
51
73.9258742
0
LINE
8
DEFAULT_255_1_234
10
14.1465316
20
134.0351218
11
14.1465316
21
134.0624297
0
LINE
8
DEFAULT_255_1_234
10
14.8838452
20
134.0784932
11
14.8838452
21
134.0166488
0
LINE
8
DEFAULT_255_1_234
10
14.8838452
20
134.0166488
11
14.2951188
21
134.0166488
0
LINE
8
DEFAULT_255_1_234
10
14.7818421
20
133.8471792
11
14.8726007
21
133.7764999
0
LINE
8
DEFAULT_255_1_234
10
14.2999378
20
134.1387313
11
14.735258
21
134.1387313
0
LINE
8
DEFAULT_255_1_234
10
14.735258
20
134.1387313
11
14.735258
21
134.1499757
0
ARC
8
DEFAULT_255_1_234
10
14.5404681
20
134.0462332
40
0.4376191
50
252.3266134
51
270.5810217
0
ARC
8
DEFAULT_255_1_234
10
14.519977
20
133.9721644
40
0.3608374
50
223.3000567
51
251.8561855
0
ARC
8
DEFAULT_255_1_234
10
14.5411131
20
133.9926937
40
0.3902993
50
190.9374509
51
223.3654032
0
ARC
8
DEFAULT_255_1_234
10
14.7136103
20
134.0316885
40
0.5670891
50
179.6531105
51
191.4989439
0
ARC
8
DEFAULT_255_1_234
10
14.7258115
20
134.0656417
40
0.5792888
50
167.4007466
51
180.3176909
0
ARC
8
DEFAULT_255_1_234
10
14.6206177
20
134.0878885
40
0.471777
50
154.1835823
51
167.250763
0
ARC
8
DEFAULT_255_1_234
10
14.5574644
20
134.1211417
40
0.4004528
50
134.3149965
51
154.5315275
0
ARC
8
DEFAULT_255_1_234
10
14.5357139
20
134.1402228
40
0.371612
50
122.8616532
51
133.9707695
0
ARC
8
DEFAULT_255_1_234
10
14.5253714
20
134.1624703
40
0.3473289
50
89.8249009
51
123.4199222
0
ARC
8
DEFAULT_255_1_234
10
14.5303755
20
134.0977967
40
0.4120197
50
74.7876118
51
90.5482747
0
ARC
8
DEFAULT_255_1_234
10
14.5597498
20
134.206303
40
0.2996077
50
39.8178249
51
74.7633718
0
ARC
8
DEFAULT_255_1_234
10
14.5084818
20
134.1663351
40
0.3645855
50
16.8990863
51
39.4829761
0
ARC
8
DEFAULT_255_1_234
10
14.3190114
20
134.1056526
40
0.5635218
50
4.9636328
51
17.2026414
0
ARC
8
DEFAULT_255_1_234
10
14.0772185
20
134.080134
40
0.8066286
50
359.8834553
51
5.2834307
0
ARC
8
DEFAULT_255_1_234
10
14.6809709
20
134.0232803
40
0.3859091
50
180.9846213
51
194.9401313
0
ARC
8
DEFAULT_255_1_234
10
14.5759987
20
133.9945849
40
0.2770883
50
194.80314
51
222.0412631
0
ARC
8
DEFAULT_255_1_234
10
14.5455869
20
133.9644116
40
0.2343055
50
221.5417084
51
268.8614402
0
ARC
8
DEFAULT_255_1_234
10
14.5528863
20
134.0320686
40
0.3021528
50
267.732405
51
270.0097136
0
ARC
8
DEFAULT_255_1_234
10
14.5546673
20
134.0522105
40
0.3222994
50
269.6924892
51
280.4117579
0
ARC
8
DEFAULT_255_1_234
10
14.572308
20
133.9603193
40
0.2287344
50
280.2255091
51
298.6338936
0
ARC
8
DEFAULT_255_1_234
10
14.5839872
20
133.9359223
40
0.2017294
50
299.0430333
51
300.4643464
0
ARC
8
DEFAULT_255_1_234
10
14.5159878
20
134.0493038
40
0.3339357
50
300.6577328
51
322.0378878
0
ARC
8
DEFAULT_255_1_234
10
14.4809417
20
134.0797021
40
0.3802736
50
321.6750233
51
322.3046845
0
ARC
8
DEFAULT_255_1_234
10
14.5740378
20
133.963037
40
0.3520454
50
276.9728461
51
328.0035423
0
ARC
8
DEFAULT_255_1_234
10
14.5463431
20
134.1110841
40
0.5024498
50
269.8361028
51
278.0581756
0
ARC
8
DEFAULT_255_1_234
10
14.5236168
20
134.1855757
40
0.202159
50
89.2018686
51
117.2851756
0
ARC
8
DEFAULT_255_1_234
10
14.5289337
20
134.1813752
40
0.2083484
50
118.0551165
51
137.4540413
0
ARC
8
DEFAULT_255_1_234
10
14.5664077
20
134.1473304
40
0.2589774
50
137.5109581
51
158.8516286
0
ARC
8
DEFAULT_255_1_234
10
14.6801913
20
134.1014074
40
0.38167
50
158.5845963
51
170.1721436
0
ARC
8
DEFAULT_255_1_234
10
14.7971302
20
134.0781823
40
0.5008657
50
169.8376422
51
173.0566086
0
ARC
8
DEFAULT_255_1_234
10
14.3274376
20
134.1292509
40
0.4083467
50
2.9091802
51
12.8847116
0
ARC
8
DEFAULT_255_1_234
10
14.4645053
20
134.1615101
40
0.2675383
50
12.6957781
51
28.6404489
0
ARC
8
DEFAULT_255_1_234
10
14.5186723
20
134.1895458
40
0.2065654
50
29.0169854
51
41.1487595
0
ARC
8
DEFAULT_255_1_234
10
14.5389509
20
134.2072003
40
0.1796786
50
41.1646065
51
85.0013516
0
ARC
8
DEFAULT_255_1_234
10
14.5268605
20
134.1337431
40
0.2539726
50
83.7280015
51
90.0964893
0
LINE
8
DEFAULT_255_1_234
10
15.4757843
20
134.4985531
11
15.4757843
21
134.3604072
0
LINE
8
DEFAULT_255_1_234
10
15.2043115
20
134.2415375
11
15.2043115
21
133.6247
0
LINE
8
DEFAULT_255_1_234
10
15.2043115
20
133.6247
11
15.0557244
21
133.6247
0
LINE
8
DEFAULT_255_1_234
10
15.0557244
20
133.6247
11
15.0557244
21
134.4937341
0
LINE
8
DEFAULT_255_1_234
10
15.0557244
20
134.4937341
11
15.2002957
21
134.4937341
0
LINE
8
DEFAULT_255_1_234
10
15.2002957
20
134.4937341
11
15.2027052
21
134.3933374
0
ARC
8
DEFAULT_255_1_234
10
15.4091248
20
133.9544342
40
0.4114092
50
80.6754243
51
86.8932892
0
ARC
8
DEFAULT_255_1_234
10
15.4030783
20
133.85767
40
0.5083596
50
86.8038578
51
90.0431435
0
ARC
8
DEFAULT_255_1_234
10
15.3993763
20
134.1033866
40
0.2626638
50
89.2759698
51
106.6213787
0
ARC
8
DEFAULT_255_1_234
10
15.3789327
20
134.177683
40
0.1856317
50
107.1346045
51
157.6458115
0
ARC
8
DEFAULT_255_1_234
10
15.4480929
20
134.1393311
40
0.2643398
50
155.6586782
51
157.2539184
0
ARC
8
DEFAULT_255_1_234
10
15.4276131
20
134.2562157
40
0.2634121
50
127.8165941
51
148.6302098
0
ARC
8
DEFAULT_255_1_234
10
15.40226
20
134.2822218
40
0.2273596
50
91.3329982
51
126.7875809
0
ARC
8
DEFAULT_255_1_234
10
15.409854
20
134.2107195
40
0.299078
50
89.986594
51
92.4688449
0
ARC
8
DEFAULT_255_1_234
10
15.4106935
20
134.2382078
40
0.2715908
50
85.3589899
51
90.1623399
0
ARC
8
DEFAULT_255_1_234
10
15.4191451
20
134.3386164
40
0.1708278
50
78.401942
51
85.4594656
0
ARC
8
DEFAULT_255_1_234
10
15.4336335
20
134.4077236
40
0.1002194
50
67.7858312
51
78.5728455
0
ARC
8
DEFAULT_255_1_234
10
15.4444188
20
134.4356887
40
0.0702548
50
63.4835954
51
67.3062642
0
LINE
8
DEFAULT_255_1_234
10
15.7737618
20
134.4937341
11
15.7737618
21
133.6247
0
LINE
8
DEFAULT_255_1_234
10
15.7737618
20
133.6247
11
15.6251746
21
133.6247
0
LINE
8
DEFAULT_255_1_234
10
15.6251746
20
133.6247
11
15.6251746
21
134.4937341
0
LINE
8
DEFAULT_255_1_234
10
15.6251746
20
134.4937341
11
15.7737618
21
134.4937341
0
ARC
8
DEFAULT_255_1_234
10
15.7109895
20
134.7251889
40
0.097867
50
161.415052
51
180.5526306
0
ARC
8
DEFAULT_255_1_234
10
15.6985673
20
134.7286077
40
0.0850062
50
138.1827368
51
160.9307106
0
ARC
8
DEFAULT_255_1_234
10
15.6875619
20
134.7381588
40
0.0704362
50
104.6368899
51
138.0039868
0
ARC
8
DEFAULT_255_1_234
10
15.6982773
20
134.7014963
40
0.1086221
50
92.0600725
51
105.2189128
0
ARC
8
DEFAULT_255_1_234
10
15.7006122
20
134.6672117
40
0.1429728
50
89.9756393
51
92.5012496
0
ARC
8
DEFAULT_255_1_234
10
15.7016141
20
134.6897731
40
0.1204151
50
78.0235316
51
90.4478182
0
ARC
8
DEFAULT_255_1_234
10
15.7108233
20
134.7311295
40
0.0780493
50
55.051506
51
78.3369085
0
ARC
8
DEFAULT_255_1_234
10
15.7158507
20
134.7395711
40
0.0682538
50
42.0501187
51
54.4513741
0
ARC
8
DEFAULT_255_1_234
10
15.7023374
20
134.7271798
40
0.0865878
50
1.7497075
51
42.1496013
0
ARC
8
DEFAULT_255_1_234
10
15.6768707
20
134.7242738
40
0.1121515
50
359.9852656
51
2.8364544
0
ARC
8
DEFAULT_255_1_234
10
15.6934699
20
134.7233229
40
0.0955566
50
342.1070653
51
0.552888
0
ARC
8
DEFAULT_255_1_234
10
15.7077397
20
134.7193904
40
0.0807713
50
316.7107116
51
341.6516965
0
ARC
8
DEFAULT_255_1_234
10
15.7144434
20
134.7133823
40
0.0717724
50
285.4397031
51
316.5324284
0
ARC
8
DEFAULT_255_1_234
10
15.7034351
20
134.7499554
40
0.1099597
50
272.3547054
51
285.8953117
0
ARC
8
DEFAULT_255_1_234
10
15.7007509
20
134.7865048
40
0.1465932
50
269.9695369
51
272.8160237
0
ARC
8
DEFAULT_255_1_234
10
15.699769
20
134.7645863
40
0.1246779
50
258.8431134
51
270.4153935
0
ARC
8
DEFAULT_255_1_234
10
15.6907733
20
134.7210414
40
0.0802162
50
238.5431189
51
259.1288175
0
ARC
8
DEFAULT_255_1_234
10
15.6839618
20
134.7086856
40
0.0661247
50
222.5062634
51
237.9906969
0
ARC
8
DEFAULT_255_1_234
10
15.6967205
20
134.7202889
40
0.0833707
50
184.1069131
51
222.460413
0
ARC
8
DEFAULT_255_1_234
10
15.7236446
20
134.7241349
40
0.1105176
50
179.9429482
51
185.0960898
0
LINE
8
DEFAULT_255_1_234
10
15.9737521
20
134.0351218
11
15.9737521
21
134.0624297
0
LINE
8
DEFAULT_255_1_234
10
16.7110656
20
134.0784932
11
16.7110656
21
134.0166488
0
LINE
8
DEFAULT_255_1_234
10
16.7110656
20
134.0166488
11
16.1223392
21
134.0166488
0
LINE
8
DEFAULT_255_1_234
10
16.6090625
20
133.8471792
11
16.6998212
21
133.7764999
0
LINE
8
DEFAULT_255_1_234
10
16.1271583
20
134.1387313
11
16.5624785
21
134.1387313
0
LINE
8
DEFAULT_255_1_234
10
16.5624785
20
134.1387313
11
16.5624785
21
134.1499757
0
ARC
8
DEFAULT_255_1_234
10
16.3676886
20
134.0462332
40
0.4376191
50
252.3266134
51
270.5810217
0
ARC
8
DEFAULT_255_1_234
10
16.3471975
20
133.9721644
40
0.3608374
50
223.3000567
51
251.8561855
0
ARC
8
DEFAULT_255_1_234
10
16.3683335
20
133.9926937
40
0.3902993
50
190.9374509
51
223.3654032
0
ARC
8
DEFAULT_255_1_234
10
16.5408308
20
134.0316885
40
0.5670891
50
179.6531105
51
191.4989439
0
ARC
8
DEFAULT_255_1_234
10
16.553032
20
134.0656417
40
0.5792888
50
167.4007466
51
180.3176909
0
ARC
8
DEFAULT_255_1_234
10
16.4478381
20
134.0878885
40
0.471777
50
154.1835823
51
167.250763
0
ARC
8
DEFAULT_255_1_234
10
16.3846849
20
134.1211417
40
0.4004528
50
134.3149965
51
154.5315275
0
ARC
8
DEFAULT_255_1_234
10
16.3629344
20
134.1402228
40
0.371612
50
122.8616532
51
133.9707695
0
ARC
8
DEFAULT_255_1_234
10
16.3525918
20
134.1624703
40
0.3473289
50
89.8249009
51
123.4199222
0
ARC
8
DEFAULT_255_1_234
10
16.3575959
20
134.0977967
40
0.4120197
50
74.7876118
51
90.5482747
0
ARC
8
DEFAULT_255_1_234
10
16.3869702
20
134.206303
40
0.2996077
50
39.8178249
51
74.7633718
0
ARC
8
DEFAULT_255_1_234
10
16.3357023
20
134.1663351
40
0.3645855
50
16.8990863
51
39.4829761
0
ARC
8
DEFAULT_255_1_234
10
16.1462319
20
134.1056526
40
0.5635218
50
4.9636328
51
17.2026414
0
ARC
8
DEFAULT_255_1_234
10
15.9044389
20
134.080134
40
0.8066286
50
359.8834553
51
5.2834307
0
ARC
8
DEFAULT_255_1_234
10
16.5081914
20
134.0232803
40
0.3859091
50
180.9846213
51
194.9401313
0
ARC
8
DEFAULT_255_1_234
10
16.4032191
20
133.9945849
40
0.2770883
50
194.80314
51
222.0412631
0
ARC
8
DEFAULT_255_1_234
10
16.3728073
20
133.9644116
40
0.2343055
50
221.5417084
51
268.8614402
0
ARC
8
DEFAULT_255_1_234
10
16.3801068
20
134.0320686
40
0.3021528
50
267.732405
51
270.0097136
0
ARC
8
DEFAULT_255_1_234
10
16.3818878
20
134.0522105
40
0.3222994
50
269.6924892
51
280.4117579
0
ARC
8
DEFAULT_255_1_234
10
16.3995285
20
133.9603193
40
0.2287344
50
280.2255091
51
298.6338936
0
ARC
8
DEFAULT_255_1_234
10
16.4112077
20
133.9359223
40
0.2017294
50
299.0430333
51
300.4643464
0
ARC
8
DEFAULT_255_1_234
10
16.3432082
20
134.0493038
40
0.3339357
50
300.6577328
51
322.0378878
0
ARC
8
DEFAULT_255_1_234
10
16.3081621
20
134.0797021
40
0.3802736
50
321.6750233
51
322.3046845
0
ARC
8
DEFAULT_255_1_234
10
16.4012583
20
133.963037
40
0.3520454
50
276.9728461
51
328.0035423
0
ARC
8
DEFAULT_255_1_234
10
16.3735635
20
134.1110841
40
0.5024498
50
269.8361028
51
278.0581756
0
ARC
8
DEFAULT_255_1_234
10
16.3508373
20
134.1855757
40
0.202159
50
89.2018686
51
117.2851756
0
ARC
8
DEFAULT_255_1_234
10
16.3561542
20
134.1813752
40
0.2083484
50
118.0551165
51
137.4540413
0
ARC
8
DEFAULT_255_1_234
10
16.3936282
20
134.1473304
40
0.2589774
50
137.5109581
51
158.8516286
0
ARC
8
DEFAULT_255_1_234
10
16.5074117
20
134.1014074
40
0.38167
50
158.5845963
51
170.1721436
0
ARC
8
DEFAULT_255_1_234
10
16.6243507
20
134.0781823
40
0.5008657
50
169.8376422
51
173.0566086
0
ARC
8
DEFAULT_255_1_234
10
16.1546581
20
134.1292509
40
0.4083467
50
2.9091802
51
12.8847116
0
ARC
8
DEFAULT_255_1_234
10
16.2917257
20
134.1615101
40
0.2675383
50
12.6957781
51
28.6404489
0
ARC
8
DEFAULT_255_1_234
10
16.3458928
20
134.1895458
40
0.2065654
50
29.0169854
51
41.1487595
0
ARC
8
DEFAULT_255_1_234
10
16.3661713
20
134.2072003
40
0.1796786
50
41.1646065
51
85.0013516
0
ARC
8
DEFAULT_255_1_234
10
16.354081
20
134.1337431
40
0.2539726
50
83.7280015
51
90.0964893
0
LINE
8
DEFAULT_255_1_234
10
17.5294998
20
134.2383248
11
17.3801094
21
134.2383248
0
LINE
8
DEFAULT_255_1_234
10
16.846802
20
133.8921569
11
16.9953892
21
133.8921569
0
ARC
8
DEFAULT_255_1_234
10
17.2612913
20
133.8566959
40
0.1276617
50
359.3334982
51
18.5871358
0
ARC
8
DEFAULT_255_1_234
10
17.282155
20
133.8622133
40
0.1061371
50
19.3540742
51
54.6485071
0
ARC
8
DEFAULT_255_1_234
10
17.2317452
20
133.7926919
40
0.1920087
50
54.3827097
51
65.0622807
0
ARC
8
DEFAULT_255_1_234
10
17.1548848
20
133.63099
40
0.3710447
50
64.8282493
51
71.4200025
0
ARC
8
DEFAULT_255_1_234
10
17.0646724
20
133.3663107
40
0.6506741
50
71.3164301
51
75.8006402
0
ARC
8
DEFAULT_255_1_234
10
16.9805544
20
133.0422561
40
0.9854641
50
75.6809531
51
78.0061883
0
ARC
8
DEFAULT_255_1_234
10
17.4254077
20
135.140177
40
1.1591028
50
254.6901892
51
258.0466452
0
ARC
8
DEFAULT_255_1_234
10
17.3215985
20
134.7642781
40
0.7691345
50
249.9010773
51
254.755261
0
ARC
8
DEFAULT_255_1_234
10
17.2212327
20
134.4916982
40
0.478665
50
243.3097214
51
249.9709442
0
ARC
8
DEFAULT_255_1_234
10
17.1583349
20
134.3662778
40
0.3383568
50
234.4047477
51
243.2862168
0
ARC
8
DEFAULT_255_1_234
10
17.0960872
20
134.2803232
40
0.2322322
50
220.8667099
51
234.5493881
0
ARC
8
DEFAULT_255_1_234
10
17.0618813
20
134.2491817
40
0.1859923
50
214.3062465
51
220.5065136
0
ARC
8
DEFAULT_255_1_234
10
17.0592892
20
134.246088
40
0.1821108
50
186.912965
51
213.9618616
0
ARC
8
DEFAULT_255_1_234
10
17.1124987
20
134.2547009
40
0.2359799
50
179.8808832
51
187.4339886
0
ARC
8
DEFAULT_255_1_234
10
17.097012
20
134.2567088
40
0.2204978
50
132.005434
51
180.3942919
0
ARC
8
DEFAULT_255_1_234
10
17.1626734
20
134.1961083
40
0.3095791
50
129.2319861
51
133.5302299
0
ARC
8
DEFAULT_255_1_234
10
17.1680242
20
134.1866928
40
0.3202615
50
100.4410011
51
128.9081242
0
ARC
8
DEFAULT_255_1_234
10
17.1954126
20
134.0581455
40
0.4516583
50
89.6985377
51
100.9026564
0
ARC
8
DEFAULT_255_1_234
10
17.2011168
20
134.0421166
40
0.4676928
50
77.6965325
51
90.4076836
0
ARC
8
DEFAULT_255_1_234
10
17.2342152
20
134.1848413
40
0.3211988
50
50.7276602
51
78.0399361
0
ARC
8
DEFAULT_255_1_234
10
17.278661
20
134.2366296
40
0.2529778
50
25.7545084
51
51.0957453
0
ARC
8
DEFAULT_255_1_234
10
17.2787835
20
134.2416206
40
0.250738
50
359.2468627
51
24.7394243
0
ARC
8
DEFAULT_255_1_234
10
17.2503287
20
134.2387664
40
0.1297815
50
359.8050318
51
45.1544908
0
ARC
8
DEFAULT_255_1_234
10
17.2096429
20
134.2039794
40
0.1831883
50
43.8047702
51
49.6271585
0
ARC
8
DEFAULT_255_1_234
10
17.210433
20
134.2040678
40
0.18261
50
49.7980766
51
82.1218353
0
ARC
8
DEFAULT_255_1_234
10
17.1985302
20
134.1393998
40
0.2483163
50
81.4465357
51
90.1710293
0
ARC
8
DEFAULT_255_1_234
10
17.1960905
20
134.086788
40
0.300932
50
89.6766211
51
99.1264602
0
ARC
8
DEFAULT_255_1_234
10
17.1789367
20
134.1901537
40
0.1961547
50
98.968313
51
113.4570237
0
ARC
8
DEFAULT_255_1_234
10
17.1593452
20
134.2369965
40
0.1453859
50
113.722589
51
127.4763106
0
ARC
8
DEFAULT_255_1_234
10
17.1425098
20
134.2570124
40
0.1192639
50
126.9083309
51
150.3165862
0
ARC
8
DEFAULT_255_1_234
10
17.1377431
20
134.2620981
40
0.112623
50
151.3635175
51
180.0701457
0
ARC
8
DEFAULT_255_1_234
10
17.1686215
20
134.259999
40
0.1435149
50
179.2169974
51
179.9954013
0
ARC
8
DEFAULT_255_1_234
10
17.1325273
20
134.2587056
40
0.1074286
50
179.3040112
51
198.4225446
0
ARC
8
DEFAULT_255_1_234
10
17.1133406
20
134.2537127
40
0.0876573
50
199.2895851
51
238.6034594
0
ARC
8
DEFAULT_255_1_234
10
17.1736253
20
134.348345
40
0.1998512
50
237.9846301
51
246.8744712
0
ARC
8
DEFAULT_255_1_234
10
17.2594198
20
134.5446205
40
0.4140547
50
246.6234531
51
251.8168941
0
ARC
8
DEFAULT_255_1_234
10
17.3624741
20
134.8540905
40
0.7402308
50
251.713434
51
255.0778414
0
ARC
8
DEFAULT_255_1_234
10
17.4824004
20
135.3007563
40
1.2027155
50
255.0367487
51
257.4705983
0
ARC
8
DEFAULT_255_1_234
10
16.9716014
20
132.9993863
40
1.1546601
50
73.6837552
51
77.5016755
0
ARC
8
DEFAULT_255_1_234
10
17.0804789
20
133.3693581
40
0.7690009
50
68.7044154
51
73.7249639
0
ARC
8
DEFAULT_255_1_234
10
17.1707809
20
133.6020654
40
0.5193873
50
63.590599
51
68.6626804
0
ARC
8
DEFAULT_255_1_234
10
17.2478828
20
133.7558123
40
0.3473927
50
54.7106439
51
63.7013633
0
ARC
8
DEFAULT_255_1_234
10
17.3103283
20
133.84304
40
0.2401192
50
41.0622434
51
54.8487496
0
ARC
8
DEFAULT_255_1_234
10
17.3444669
20
133.8743592
40
0.1938094
50
34.4950568
51
40.7105546
0
ARC
8
DEFAULT_255_1_234
10
17.3491477
20
133.8792078
40
0.1872106
50
9.3763373
51
34.0833615
0
ARC
8
DEFAULT_255_1_234
10
17.2838347
20
133.8666728
40
0.2536988
50
359.7694872
51
9.7663171
0
ARC
8
DEFAULT_255_1_234
10
17.3035848
20
133.8623764
40
0.2339696
50
335.8654732
51
0.8022045
0
ARC
8
DEFAULT_255_1_234
10
17.3110892
20
133.8637197
40
0.2277108
50
307.7357725
51
334.7849066
0
ARC
8
DEFAULT_255_1_234
10
17.2710068
20
133.9087645
40
0.2878951
50
307.0241536
51
308.5578354
0
ARC
8
DEFAULT_255_1_234
10
17.2452399
20
133.9473801
40
0.3342515
50
282.9362969
51
306.5646424
0
ARC
8
DEFAULT_255_1_234
10
17.2090697
20
134.0941108
40
0.4853615
50
271.1026298
51
283.2200835
0
ARC
8
DEFAULT_255_1_234
10
17.2026941
20
134.2182418
40
0.6096052
50
269.9919117
51
271.4772449
0
ARC
8
DEFAULT_255_1_234
10
17.2000696
20
134.1104436
40
0.5018135
50
259.0723564
51
270.289833
0
ARC
8
DEFAULT_255_1_234
10
17.1788428
20
133.9987271
40
0.388099
50
245.4963068
51
259.0227342
0
ARC
8
DEFAULT_255_1_234
10
17.1510384
20
133.9405615
40
0.3236422
50
228.9684658
51
245.7044727
0
ARC
8
DEFAULT_255_1_234
10
17.1244828
20
133.9078575
40
0.2815426
50
214.4011705
51
228.6759915
0
ARC
8
DEFAULT_255_1_234
10
17.0955569
20
133.892029
40
0.2487548
50
179.9705531
51
215.1572795
0
ARC
8
DEFAULT_255_1_234
10
17.1656168
20
133.8993806
40
0.1703809
50
182.4299387
51
203.0329699
0
ARC
8
DEFAULT_255_1_234
10
17.1471826
20
133.8937396
40
0.1512226
50
203.798802
51
232.548466
0
ARC
8
DEFAULT_255_1_234
10
17.1748347
20
133.9288826
40
0.1959374
50
232.3782728
51
256.3934612
0
ARC
8
DEFAULT_255_1_234
10
17.1978709
20
134.0178842
40
0.2878639
50
256.104506
51
268.4626716
0
ARC
8
DEFAULT_255_1_234
10
17.2025193
20
134.0975487
40
0.3676329
50
268.0715632
51
270.0138206
0
ARC
8
DEFAULT_255_1_234
10
17.2043718
20
134.0703083
40
0.3403971
50
269.7031147
51
278.8341955
0
ARC
8
DEFAULT_255_1_234
10
17.2225811
20
133.9572876
40
0.2259217
50
278.6728789
51
292.8232582
0
ARC
8
DEFAULT_255_1_234
10
17.2426349
20
133.9071449
40
0.171929
50
293.1452328
51
303.6655899
0
ARC
8
DEFAULT_255_1_234
10
17.2691228
20
133.8695204
40
0.1259367
50
303.1248165
51
321.742847
0
ARC
8
DEFAULT_255_1_234
10
17.2877109
20
133.8532156
40
0.1012531
50
322.4748573
51
1.1291126
0
LINE
8
DEFAULT_255_2_778
10
9.3932417
20
124.2218483
11
10.7161417
21
124.2218483
0
LINE
8
DEFAULT_255_2_778
10
10.7161417
20
124.2218483
11
10.7161417
21
67.3364483
0
LINE
8
DEFAULT_255_2_778
10
10.7161417
20
62.0447483
11
10.7161417
21
5.1593483
0
LINE
8
DEFAULT_255_2_778
10
10.7161417
20
5.1593483
11
9.3932417
21
5.1593483
0
LINE
8
DEFAULT_255_2_778
10
9.3932834
20
67.3364333
11
12.0390834
21
67.3364333
0
LINE
8
DEFAULT_255_2_778
10
12.0390834
20
67.3364333
11
12.0390834
21
62.0447333
0
LINE
8
DEFAULT_255_2_778
10
12.0390834
20
62.0447333
11
9.3932834
21
62.0447333
0
LINE
8
DEFAULT_255_2_778
10
9.3932834
20
62.0447333
11
9.3932834
21
67.3364333
0
LINE
8
DEFAULT_255_2_778
10
10.187
20
62.5739666
11
10.187
21
66.8072666
0
LINE
8
DEFAULT_255_2_778
10
9.9224167
20
66.013575
11
10.1870167
21
66.807275
0
LINE
8
DEFAULT_255_2_778
10
10.1870167
20
66.807275
11
10.4516167
21
66.013575
0
LINE
8
DEFAULT_255_2_778
10
10.4516167
20
66.013575
11
9.9224167
21
66.013575
0
LINE
8
DEFAULT_255_2_778
10
11.2453
20
66.8072666
11
11.2453
21
62.5739666
0
LINE
8
DEFAULT_255_2_778
10
10.9807167
20
63.367675
11
11.2453167
21
62.573975
0
LINE
8
DEFAULT_255_2_778
10
11.2453167
20
62.573975
11
11.5099167
21
63.367675
0
LINE
8
DEFAULT_255_2_778
10
11.5099167
20
63.367675
11
10.9807167
21
63.367675
0
LINE
8
DEFAULT_255_1_234
10
4.9274119
20
131.7616792
11
4.9274119
21
131.6404
0
LINE
8
DEFAULT_255_1_234
10
4.9274119
20
131.6404
11
4.161184
21
131.6404
0
LINE
8
DEFAULT_255_1_234
10
4.161184
20
131.6404
11
4.161184
21
131.7472221
0
LINE
8
DEFAULT_255_1_234
10
4.161184
20
131.7472221
11
4.5659836
21
132.1969995
0
LINE
8
DEFAULT_255_1_234
10
4.2872823
20
132.4652595
11
4.1386952
21
132.4652595
0
LINE
8
DEFAULT_255_1_234
10
4.6535296
20
132.1014218
11
4.3402918
21
131.7616792
0
LINE
8
DEFAULT_255_1_234
10
4.3402918
20
131.7616792
11
4.9274119
21
131.7616792
0
ARC
8
DEFAULT_255_1_234
10
3.216967
20
133.3899527
40
1.8008286
50
318.5132453
51
320.7828378
0
ARC
8
DEFAULT_255_1_234
10
3.7456644
20
132.9596426
40
1.1191493
50
320.7372736
51
323.9737074
0
ARC
8
DEFAULT_255_1_234
10
4.1376501
20
132.6756361
40
0.6350923
50
323.8961724
51
328.6421089
0
ARC
8
DEFAULT_255_1_234
10
4.3423096
20
132.5494031
40
0.3946393
50
328.8299013
51
331.789948
0
ARC
8
DEFAULT_255_1_234
10
4.4420274
20
132.4979509
40
0.2824501
50
331.4255242
51
352.9364833
0
ARC
8
DEFAULT_255_1_234
10
4.4556775
20
132.4948976
40
0.2685315
50
353.2248685
51
0.0169286
0
ARC
8
DEFAULT_255_1_234
10
4.4766652
20
132.497195
40
0.2475536
50
359.4866256
51
15.9339782
0
ARC
8
DEFAULT_255_1_234
10
4.5273637
20
132.5108286
40
0.1950618
50
16.1714718
51
43.5284424
0
ARC
8
DEFAULT_255_1_234
10
4.5350946
20
132.5185573
40
0.184134
50
43.4415429
51
83.1661404
0
ARC
8
DEFAULT_255_1_234
10
4.5216864
20
132.4448771
40
0.258926
50
82.160215
51
90.1505798
0
ARC
8
DEFAULT_255_1_234
10
4.5185291
20
132.3911865
40
0.3126255
50
89.5460705
51
102.5418777
0
ARC
8
DEFAULT_255_1_234
10
4.4942377
20
132.4942665
40
0.2067346
50
102.1739365
51
129.2061916
0
ARC
8
DEFAULT_255_1_234
10
4.4863449
20
132.5067094
40
0.1921118
50
129.7279328
51
135.7542026
0
ARC
8
DEFAULT_255_1_234
10
4.4984977
20
132.4970045
40
0.2075944
50
136.175737
51
166.3674722
0
ARC
8
DEFAULT_255_1_234
10
4.5991896
20
132.4700182
40
0.3118201
50
165.9092917
51
178.8683903
0
ARC
8
DEFAULT_255_1_234
10
4.6856757
20
132.4653179
40
0.3983935
50
178.438168
51
180.0083905
0
ARC
8
DEFAULT_255_1_234
10
4.5455359
20
132.4692231
40
0.4068601
50
163.2878735
51
180.5581814
0
ARC
8
DEFAULT_255_1_234
10
4.4653621
20
132.491284
40
0.3237344
50
133.454115
51
162.9470031
0
ARC
8
DEFAULT_255_1_234
10
4.4832162
20
132.4723
40
0.349795
50
100.7869394
51
133.4384016
0
ARC
8
DEFAULT_255_1_234
10
4.5179934
20
132.3174319
40
0.5084616
50
89.6605301
51
101.3704185
0
ARC
8
DEFAULT_255_1_234
10
4.5246273
20
132.3235496
40
0.502348
50
78.2171172
51
90.4130393
0
ARC
8
DEFAULT_255_1_234
10
4.5601351
20
132.4859637
40
0.3361092
50
55.9268222
51
78.4888551
0
ARC
8
DEFAULT_255_1_234
10
4.5797791
20
132.5198324
40
0.2970617
50
47.9292255
51
55.4054003
0
ARC
8
DEFAULT_255_1_234
10
4.5899352
20
132.5301502
40
0.2825983
50
4.3347696
51
48.0560701
0
ARC
8
DEFAULT_255_1_234
10
4.4803745
20
132.5131601
40
0.393225
50
359.925209
51
5.5967654
0
ARC
8
DEFAULT_255_1_234
10
4.5232637
20
132.5187816
40
0.3503892
50
337.8914096
51
358.9967724
0
ARC
8
DEFAULT_255_1_234
10
4.2519049
20
132.6234706
40
0.6412172
50
326.9135351
51
338.3505194
0
ARC
8
DEFAULT_255_1_234
10
3.8533353
20
132.8789284
40
1.1146189
50
319.6472867
51
327.095818
0
ARC
8
DEFAULT_255_1_234
10
3.4700356
20
133.1951
40
1.6114559
50
317.2586784
51
319.9046139
0
LINE
8
DEFAULT_255_1_234
10
5.7121127
20
132.8098211
11
5.7121127
21
132.033152
0
LINE
8
DEFAULT_255_1_234
10
5.7121127
20
132.033152
11
5.8743538
21
132.033152
0
LINE
8
DEFAULT_255_1_234
10
5.8743538
20
132.033152
11
5.8743538
21
131.9118728
0
LINE
8
DEFAULT_255_1_234
10
5.8743538
20
131.9118728
11
5.7121127
21
131.9118728
0
LINE
8
DEFAULT_255_1_234
10
5.7121127
20
131.9118728
11
5.7121127
21
131.6404
0
LINE
8
DEFAULT_255_1_234
10
5.7121127
20
131.6404
11
5.5627224
21
131.6404
0
LINE
8
DEFAULT_255_1_234
10
5.5627224
20
131.6404
11
5.5627224
21
131.9118728
0
LINE
8
DEFAULT_255_1_234
10
5.5627224
20
131.9118728
11
5.0302181
21
131.9118728
0
LINE
8
DEFAULT_255_1_234
10
5.0302181
20
131.9118728
11
5.0302181
21
131.9994187
0
LINE
8
DEFAULT_255_1_234
10
5.0302181
20
131.9994187
11
5.5538875
21
132.8098211
0
LINE
8
DEFAULT_255_1_234
10
5.5538875
20
132.8098211
11
5.7121127
21
132.8098211
0
LINE
8
DEFAULT_255_1_234
10
5.5450525
20
132.5744912
11
5.1988846
21
132.033152
0
LINE
8
DEFAULT_255_1_234
10
5.1988846
20
132.033152
11
5.5627224
21
132.033152
0
LINE
8
DEFAULT_255_1_234
10
5.5627224
20
132.033152
11
5.5627224
21
132.6066181
0
LINE
8
DEFAULT_255_1_234
10
5.5627224
20
132.6066181
11
5.5450525
21
132.5744912
0
LINE
8
DEFAULT_255_1_234
10
6.101652
20
132.8098211
11
6.434166
21
131.8452093
0
LINE
8
DEFAULT_255_1_234
10
6.434166
20
131.8452093
11
6.7682863
21
132.8098211
0
LINE
8
DEFAULT_255_1_234
10
6.7682863
20
132.8098211
11
6.9369528
21
132.8098211
0
LINE
8
DEFAULT_255_1_234
10
6.9369528
20
132.8098211
11
6.5032389
21
131.6404
0
LINE
8
DEFAULT_255_1_234
10
6.5032389
20
131.6404
11
6.3666994
21
131.6404
0
LINE
8
DEFAULT_255_1_234
10
6.3666994
20
131.6404
11
5.9337887
21
132.8098211
0
LINE
8
DEFAULT_255_1_234
10
5.9337887
20
132.8098211
11
6.101652
21
132.8098211
0
LINE
8
DEFAULT_255_1_234
10
4.690985
20
5.2829391
11
4.690985
21
5.1568408
0
LINE
8
DEFAULT_255_1_234
10
4.690985
20
5.1568408
11
4.2002458
21
5.1568408
0
LINE
8
DEFAULT_255_1_234
10
4.2002458
20
5.1568408
11
4.2002458
21
4.6404
0
LINE
8
DEFAULT_255_1_234
10
4.2002458
20
4.6404
11
4.0460364
21
4.6404
0
LINE
8
DEFAULT_255_1_234
10
4.0460364
20
4.6404
11
4.0460364
21
5.8098211
0
LINE
8
DEFAULT_255_1_234
10
4.0460364
20
5.8098211
11
4.7704992
21
5.8098211
0
LINE
8
DEFAULT_255_1_234
10
4.7704992
20
5.8098211
11
4.7704992
21
5.6829196
0
LINE
8
DEFAULT_255_1_234
10
4.7704992
20
5.6829196
11
4.2002458
21
5.6829196
0
LINE
8
DEFAULT_255_1_234
10
4.2002458
20
5.6829196
11
4.2002458
21
5.2829391
0
LINE
8
DEFAULT_255_1_234
10
4.2002458
20
5.2829391
11
4.690985
21
5.2829391
0
LINE
8
DEFAULT_255_1_234
10
4.7991484
20
13.2445343
11
4.7991484
21
13.118436
0
LINE
8
DEFAULT_255_1_234
10
4.7991484
20
13.118436
11
4.2923458
21
13.118436
0
LINE
8
DEFAULT_255_1_234
10
4.2923458
20
13.118436
11
4.2923458
21
12.7039983
0
LINE
8
DEFAULT_255_1_234
10
4.2923458
20
12.7039983
11
4.8810722
21
12.7039983
0
LINE
8
DEFAULT_255_1_234
10
4.8810722
20
12.7039983
11
4.8810722
21
12.5779
0
LINE
8
DEFAULT_255_1_234
10
4.8810722
20
12.5779
11
4.1381364
21
12.5779
0
LINE
8
DEFAULT_255_1_234
10
4.1381364
20
12.5779
11
4.1381364
21
13.7473211
0
LINE
8
DEFAULT_255_1_234
10
4.1381364
20
13.7473211
11
4.8730404
21
13.7473211
0
LINE
8
DEFAULT_255_1_234
10
4.8730404
20
13.7473211
11
4.8730404
21
13.6204196
0
LINE
8
DEFAULT_255_1_234
10
4.8730404
20
13.6204196
11
4.2923458
21
13.6204196
0
LINE
8
DEFAULT_255_1_234
10
4.2923458
20
13.6204196
11
4.2923458
21
13.2445343
0
LINE
8
DEFAULT_255_1_234
10
4.2923458
20
13.2445343
11
4.7991484
21
13.2445343
0
LINE
8
DEFAULT_255_1_234
10
4.3901154
20
20.5154
11
4.0664364
21
20.5154
0
LINE
8
DEFAULT_255_1_234
10
4.0664364
20
20.5154
11
4.0664364
21
21.6848211
0
LINE
8
DEFAULT_255_1_234
10
4.0664364
20
21.6848211
11
4.3965408
21
21.6848211
0
LINE
8
DEFAULT_255_1_234
10
4.9121784
20
21.1394661
11
4.9121784
21
21.0647709
0
LINE
8
DEFAULT_255_1_234
10
4.4005567
20
21.5579196
11
4.2206458
21
21.5579196
0
LINE
8
DEFAULT_255_1_234
10
4.2206458
20
21.5579196
11
4.2206458
21
20.6414983
0
LINE
8
DEFAULT_255_1_234
10
4.2206458
20
20.6414983
11
4.3828869
21
20.6414983
0
LINE
8
DEFAULT_255_1_234
10
4.7595754
20
21.0679836
11
4.7595754
21
21.1362534
0
ARC
8
DEFAULT_255_1_234
10
4.4004351
20
21.0982894
40
0.5865446
50
75.4101064
51
90.3804066
0
ARC
8
DEFAULT_255_1_234
10
4.4233864
20
21.1939492
40
0.4881916
50
60.145586
51
75.1888407
0
ARC
8
DEFAULT_255_1_234
10
4.439264
20
21.2216199
40
0.4562893
50
26.5253612
51
60.1450928
0
ARC
8
DEFAULT_255_1_234
10
4.3272389
20
21.1622158
40
0.5830602
50
7.4030428
51
26.8320788
0
ARC
8
DEFAULT_255_1_234
10
4.1678146
20
21.1373804
40
0.7443669
50
0.1605367
51
7.7176192
0
ARC
8
DEFAULT_255_1_234
10
4.184205
20
21.0609434
40
0.7279835
50
348.7289388
51
0.3012466
0
ARC
8
DEFAULT_255_1_234
10
4.3498481
20
21.0280386
40
0.559104
50
333.0706509
51
348.7181832
0
ARC
8
DEFAULT_255_1_234
10
4.4465238
20
20.9755319
40
0.4491417
50
299.2531685
51
333.4571258
0
ARC
8
DEFAULT_255_1_234
10
4.4104378
20
21.0440828
40
0.5265881
50
278.107187
51
299.0339503
0
ARC
8
DEFAULT_255_1_234
10
4.3848457
20
21.1948216
40
0.679442
50
270.4443897
51
278.4511052
0
ARC
8
DEFAULT_255_1_234
10
4.3869287
20
21.1019213
40
0.4604407
50
269.4970433
51
284.0205042
0
ARC
8
DEFAULT_255_1_234
10
4.4224588
20
20.9653978
40
0.3193797
50
283.7700273
51
318.1555492
0
ARC
8
DEFAULT_255_1_234
10
4.3887346
20
20.9906367
40
0.3613588
50
318.7415601
51
343.6873628
0
ARC
8
DEFAULT_255_1_234
10
4.2083369
20
21.0469832
40
0.5503313
50
343.3325091
51
355.8548958
0
ARC
8
DEFAULT_255_1_234
10
3.9985054
20
21.0669319
40
0.7610708
50
355.4988528
51
0.0791727
0
ARC
8
DEFAULT_255_1_234
10
4.0767676
20
21.140478
40
0.6828208
50
359.6455037
51
9.8607896
0
ARC
8
DEFAULT_255_1_234
10
4.3128374
20
21.1831099
40
0.4429406
50
9.6571907
51
26.1932807
0
ARC
8
DEFAULT_255_1_234
10
4.4056363
20
21.2262118
40
0.3406537
50
26.5777228
51
40.1532208
0
ARC
8
DEFAULT_255_1_234
10
4.4312089
20
21.2461619
40
0.308246
50
40.3840491
51
80.1431104
0
ARC
8
DEFAULT_255_1_234
10
4.3985207
20
21.1012333
40
0.4566909
50
79.2152159
51
89.7445637
0
LINE
8
DEFAULT_255_1_234
10
4.774423
20
28.8239663
11
4.9294355
21
28.8239663
0
LINE
8
DEFAULT_255_1_234
10
4.0290777
20
28.9829947
11
4.0290777
21
29.0954391
0
LINE
8
DEFAULT_255_1_234
10
4.9294355
20
29.2464357
11
4.774423
21
29.2464357
0
LINE
8
DEFAULT_255_1_234
10
4.1840902
20
29.0914232
11
4.1840902
21
28.9781757
0
ARC
8
DEFAULT_255_1_234
10
4.3813742
20
28.8836846
40
0.5513052
50
340.1774281
51
353.7814284
0
ARC
8
DEFAULT_255_1_234
10
4.5385095
20
28.8251582
40
0.3836379
50
311.4558989
51
340.4421614
0
ARC
8
DEFAULT_255_1_234
10
4.5351763
20
28.8362528
40
0.3941894
50
282.4333181
51
310.7513653
0
ARC
8
DEFAULT_255_1_234
10
4.4912502
20
29.0177679
40
0.5809175
50
269.9358511
51
282.809604
0
ARC
8
DEFAULT_255_1_234
10
4.4860568
20
29.1635212
40
0.7266847
50
270.0021091
51
270.3581957
0
ARC
8
DEFAULT_255_1_234
10
4.4807985
20
28.9034585
40
0.4666519
50
250.7884749
51
270.6489167
0
ARC
8
DEFAULT_255_1_234
10
4.463982
20
28.8397319
40
0.4009729
50
219.3627325
51
250.0611886
0
ARC
8
DEFAULT_255_1_234
10
4.5469031
20
28.9102042
40
0.5097822
50
193.5479632
51
219.5756669
0
ARC
8
DEFAULT_255_1_234
10
4.7840652
20
28.9717919
40
0.7547848
50
181.1218675
51
193.87563
0
ARC
8
DEFAULT_255_1_234
10
4.9910833
20
28.982858
40
0.9620055
50
179.9918545
51
181.5394234
0
ARC
8
DEFAULT_255_1_234
10
4.8059935
20
29.0991788
40
0.7769248
50
169.5837241
51
180.2757934
0
ARC
8
DEFAULT_255_1_234
10
4.6222873
20
29.1331229
40
0.590109
50
155.0365899
51
169.6003176
0
ARC
8
DEFAULT_255_1_234
10
4.5087337
20
29.1878677
40
0.4640625
50
136.783148
51
155.2472683
0
ARC
8
DEFAULT_255_1_234
10
4.4697814
20
29.2209562
40
0.4130255
50
121.7633186
51
136.428115
0
ARC
8
DEFAULT_255_1_234
10
4.4832776
20
29.1960227
40
0.4413323
50
95.6459699
51
121.5490577
0
ARC
8
DEFAULT_255_1_234
10
4.4990058
20
29.0851949
40
0.55319
50
89.924208
51
96.1377933
0
ARC
8
DEFAULT_255_1_234
10
4.5040491
20
29.0970542
40
0.5413475
50
76.6779277
51
90.4563316
0
ARC
8
DEFAULT_255_1_234
10
4.5434114
20
29.2561114
40
0.3775041
50
47.485847
51
76.9287264
0
ARC
8
DEFAULT_255_1_234
10
4.5287087
20
29.2461159
40
0.3948286
50
16.5424086
51
46.8933463
0
ARC
8
DEFAULT_255_1_234
10
4.3679244
20
29.1932861
40
0.564021
50
5.4072051
51
17.0365086
0
ARC
8
DEFAULT_255_1_234
10
4.2240261
20
29.1701679
40
0.5556559
50
7.8891745
51
15.9239216
0
ARC
8
DEFAULT_255_1_234
10
4.4227274
20
29.2278631
40
0.3487515
50
15.7653144
51
27.9410532
0
ARC
8
DEFAULT_255_1_234
10
4.5331492
20
29.286979
40
0.2235026
50
27.8166557
51
46.4008329
0
ARC
8
DEFAULT_255_1_234
10
4.5381135
20
29.2864082
40
0.2205286
50
47.4371857
51
75.0698205
0
ARC
8
DEFAULT_255_1_234
10
4.5072529
20
29.1789765
40
0.3322915
50
74.7008593
51
87.8124495
0
ARC
8
DEFAULT_255_1_234
10
4.4999217
20
29.0733844
40
0.4380987
50
87.3814673
51
90.0240855
0
ARC
8
DEFAULT_255_1_234
10
4.496076
20
29.1911291
40
0.3203749
50
89.3451631
51
108.5745436
0
ARC
8
DEFAULT_255_1_234
10
4.4823865
20
29.2424908
40
0.2673494
50
109.2998449
51
143.3037509
0
ARC
8
DEFAULT_255_1_234
10
4.5585938
20
29.1838881
40
0.3634757
50
143.0753173
51
163.1916937
0
ARC
8
DEFAULT_255_1_234
10
4.7537666
20
29.1222967
40
0.5681262
50
162.9373603
51
174.6208611
0
ARC
8
DEFAULT_255_1_234
10
5.0163708
20
29.093501
40
0.8322832
50
174.3419979
51
180.1430411
0
ARC
8
DEFAULT_255_1_234
10
4.9232864
20
28.9740698
40
0.7392076
50
179.6817502
51
189.150529
0
ARC
8
DEFAULT_255_1_234
10
4.6732112
20
28.932419
40
0.4856932
50
188.9910863
51
203.5773039
0
ARC
8
DEFAULT_255_1_234
10
4.5652445
20
28.8876211
40
0.3688271
50
203.9077269
51
215.1312379
0
ARC
8
DEFAULT_255_1_234
10
4.4729539
20
28.8160941
40
0.2522457
50
213.9071664
51
263.8849284
0
ARC
8
DEFAULT_255_1_234
10
4.4854868
20
28.8945518
40
0.3316174
50
263.1758525
51
270.1031083
0
ARC
8
DEFAULT_255_1_234
10
4.488696
20
29.0192365
40
0.4563091
50
269.6719807
51
279.0609165
0
ARC
8
DEFAULT_255_1_234
10
4.5153728
20
28.8579907
40
0.2928759
50
278.8750225
51
293.6346586
0
ARC
8
DEFAULT_255_1_234
10
4.5473936
20
28.78279
40
0.2111472
50
293.8553404
51
310.0518804
0
ARC
8
DEFAULT_255_1_234
10
4.547879
20
28.7765516
40
0.2060917
50
311.0646779
51
332.0108348
0
ARC
8
DEFAULT_255_1_234
10
4.4286517
20
28.8422978
40
0.3422352
50
331.6588543
51
343.2878891
0
ARC
8
DEFAULT_255_1_234
10
4.2224032
20
28.9056798
40
0.5580003
50
343.1446044
51
351.010618
0
ARC
8
DEFAULT_255_1_234
10
4.0682678
20
28.9337871
40
0.7146438
50
350.7157277
51
351.1602153
0
LINE
8
DEFAULT_255_1_234
10
4.4996392
20
36.3904
11
4.0940364
21
36.3904
0
LINE
8
DEFAULT_255_1_234
10
4.0940364
20
36.3904
11
4.0940364
21
37.5598211
0
LINE
8
DEFAULT_255_1_234
10
4.0940364
20
37.5598211
11
4.4763471
21
37.5598211
0
LINE
8
DEFAULT_255_1_234
10
4.5052614
20
36.9373614
11
4.2482458
21
36.9373614
0
LINE
8
DEFAULT_255_1_234
10
4.2482458
20
36.9373614
11
4.2482458
21
36.5164983
0
LINE
8
DEFAULT_255_1_234
10
4.2482458
20
36.5164983
11
4.5028519
21
36.5164983
0
LINE
8
DEFAULT_255_1_234
10
4.2482458
20
37.4329196
11
4.2482458
21
37.0610501
0
LINE
8
DEFAULT_255_1_234
10
4.2482458
20
37.0610501
11
4.4811662
21
37.0610501
0
LINE
8
DEFAULT_255_1_234
10
4.4763471
20
37.4329196
11
4.2482458
21
37.4329196
0
ARC
8
DEFAULT_255_1_234
10
4.480118
20
36.8230901
40
0.7367406
50
82.1257326
51
90.2932599
0
ARC
8
DEFAULT_255_1_234
10
4.5190135
20
37.0949013
40
0.4621653
50
69.9044149
51
82.2857423
0
ARC
8
DEFAULT_255_1_234
10
4.5760813
20
37.2491637
40
0.2976871
50
51.1838526
51
70.0181538
0
ARC
8
DEFAULT_255_1_234
10
4.6015779
20
37.286224
40
0.2528517
50
12.1017251
51
50.4214761
0
ARC
8
DEFAULT_255_1_234
10
4.4631653
20
37.2514676
40
0.3955061
50
359.5251267
51
12.8211707
0
ARC
8
DEFAULT_255_1_234
10
4.6211579
20
37.2445344
40
0.2375281
50
323.4908128
51
0.8817314
0
ARC
8
DEFAULT_255_1_234
10
4.5793266
20
37.276855
40
0.2903817
50
298.6825083
51
323.2756573
0
ARC
8
DEFAULT_255_1_234
10
4.5431629
20
37.3369649
40
0.3604842
50
293.1999386
51
299.1396394
0
ARC
8
DEFAULT_255_1_234
10
4.6104602
20
36.7284126
40
0.2871098
50
54.0011765
51
74.9167975
0
ARC
8
DEFAULT_255_1_234
10
4.6220961
20
36.7481332
40
0.2643248
50
36.3580696
51
53.5291921
0
ARC
8
DEFAULT_255_1_234
10
4.6094203
20
36.7390998
40
0.2798884
50
4.8189881
51
36.3089977
0
ARC
8
DEFAULT_255_1_234
10
4.5315038
20
36.728127
40
0.358478
50
359.9370252
51
5.5204067
0
ARC
8
DEFAULT_255_1_234
10
4.499056
20
36.7240667
40
0.3909429
50
344.7478609
51
0.5373281
0
ARC
8
DEFAULT_255_1_234
10
4.5981531
20
36.6973544
40
0.2883093
50
311.1786488
51
344.6886812
0
ARC
8
DEFAULT_255_1_234
10
4.5689578
20
36.7336987
40
0.3348923
50
286.0418249
51
310.8441291
0
ARC
8
DEFAULT_255_1_234
10
4.518241
20
36.8983807
40
0.5071869
50
274.1042341
51
286.4071509
0
ARC
8
DEFAULT_255_1_234
10
4.5005666
20
37.0867229
40
0.6963234
50
269.9236873
51
274.445647
0
ARC
8
DEFAULT_255_1_234
10
4.5051667
20
36.8527537
40
0.3362634
50
269.6055768
51
281.3740047
0
ARC
8
DEFAULT_255_1_234
10
4.5282305
20
36.7434353
40
0.224546
50
281.1055983
51
302.5132223
0
ARC
8
DEFAULT_255_1_234
10
4.5429204
20
36.7170823
40
0.1944357
50
303.0368945
51
311.8811219
0
ARC
8
DEFAULT_255_1_234
10
4.5500611
20
36.708589
40
0.1833454
50
311.9916004
51
351.7143462
0
ARC
8
DEFAULT_255_1_234
10
4.4683841
20
36.725093
40
0.2665871
50
350.7339597
51
0.2221581
0
ARC
8
DEFAULT_255_1_234
10
4.4576287
20
36.7307467
40
0.2773789
50
359.0456241
51
17.2296242
0
ARC
8
DEFAULT_255_1_234
10
4.5615404
20
36.7616163
40
0.1689915
50
17.6685481
51
78.9940892
0
ARC
8
DEFAULT_255_1_234
10
4.5098568
20
36.5761224
40
0.3612658
50
76.5635957
51
90.6980921
0
LINE
8
DEFAULT_255_1_234
10
4.5054552
20
36.9373613
11
4.5052614
21
36.9373614
0
ARC
8
DEFAULT_255_1_234
10
4.4834228
20
37.3896036
40
0.3285612
50
269.6064736
51
281.4533503
0
ARC
8
DEFAULT_255_1_234
10
4.5057048
20
37.2844688
40
0.2210975
50
281.2041486
51
302.5148063
0
ARC
8
DEFAULT_255_1_234
10
4.5193898
20
37.2598241
40
0.1929674
50
303.021671
51
309.8369575
0
ARC
8
DEFAULT_255_1_234
10
4.5377359
20
37.2392488
40
0.1654181
50
309.5228395
51
356.9509836
0
ARC
8
DEFAULT_255_1_234
10
4.4713942
20
37.2487932
40
0.2322512
50
355.4701227
51
0.0492546
0
ARC
8
DEFAULT_255_1_234
10
4.4435033
20
37.2510094
40
0.2601498
50
359.5558597
51
11.2096359
0
ARC
8
DEFAULT_255_1_234
10
4.5392323
20
37.270823
40
0.1623975
50
10.9182341
51
31.3230275
0
ARC
8
DEFAULT_255_1_234
10
4.5678056
20
37.2867214
40
0.1297302
50
31.8852677
51
52.1412565
0
ARC
8
DEFAULT_255_1_234
10
4.5403789
20
37.247975
40
0.1771663
50
52.8285564
51
71.9850297
0
ARC
8
DEFAULT_255_1_234
10
4.5027965
20
37.1373664
40
0.2939794
50
71.6863486
51
82.8455995
0
ARC
8
DEFAULT_255_1_234
10
4.4788501
20
36.9564149
40
0.476506
50
82.6984714
51
90.1729175
0
ARC
8
DEFAULT_255_1_234
10
4.4766136
20
37.0787623
40
0.3541573
50
89.8708275
51
90.0431131
0
LINE
8
DEFAULT_255_1_234
10
5.0383293
20
44.3279
11
4.9266881
21
44.6331061
0
LINE
8
DEFAULT_255_1_234
10
4.9266881
20
44.6331061
11
4.4367521
21
44.6331061
0
LINE
8
DEFAULT_255_1_234
10
4.4367521
20
44.6331061
11
4.3267173
21
44.3279
0
LINE
8
DEFAULT_255_1_234
10
4.3267173
20
44.3279
11
4.1676889
21
44.3279
0
LINE
8
DEFAULT_255_1_234
10
4.1676889
20
44.3279
11
4.6142535
21
45.4973211
0
LINE
8
DEFAULT_255_1_234
10
4.6142535
20
45.4973211
11
4.7491867
21
45.4973211
0
LINE
8
DEFAULT_255_1_234
10
4.7491867
20
45.4973211
11
5.1965545
21
44.3279
0
LINE
8
DEFAULT_255_1_234
10
5.1965545
20
44.3279
11
5.0383293
21
44.3279
0
LINE
8
DEFAULT_255_1_234
10
4.6817201
20
45.3069689
11
4.4833362
21
44.7600075
0
LINE
8
DEFAULT_255_1_234
10
4.4833362
20
44.7600075
11
4.8809072
21
44.7600075
0
LINE
8
DEFAULT_255_1_234
10
4.8809072
20
44.7600075
11
4.6817201
21
45.3069689
0
LINE
8
DEFAULT_255_1_234
10
4.7181246
20
52.9673739
11
4.7181246
21
52.9240025
0
LINE
8
DEFAULT_255_1_234
10
4.1759823
20
52.2645968
11
4.147068
21
52.2645968
0
LINE
8
DEFAULT_255_1_234
10
4.147068
20
52.2645968
11
4.147068
21
52.3898919
0
LINE
8
DEFAULT_255_1_234
10
4.147068
20
52.3898919
11
4.1783918
21
52.3898919
0
LINE
8
DEFAULT_255_1_234
10
4.5695375
20
52.9384597
11
4.5695375
21
52.9978945
0
ARC
8
DEFAULT_255_1_234
10
4.2901644
20
53.0130403
40
0.3635579
50
297.4037347
51
320.016758
0
ARC
8
DEFAULT_255_1_234
10
4.3191593
20
52.957324
40
0.3007486
50
270.2633101
51
297.3851877
0
ARC
8
DEFAULT_255_1_234
10
4.3157549
20
53.0036904
40
0.3471448
50
269.9966443
51
270.7900392
0
ARC
8
DEFAULT_255_1_234
10
4.313203
20
53.0035143
40
0.3469779
50
254.5999133
51
270.4180344
0
ARC
8
DEFAULT_255_1_234
10
4.2989389
20
52.9470647
40
0.2887697
50
236.4717942
51
254.3541279
0
ARC
8
DEFAULT_255_1_234
10
4.3145607
20
52.9680711
40
0.3149125
50
208.4727207
51
236.2134933
0
ARC
8
DEFAULT_255_1_234
10
4.3784382
20
53.0071455
40
0.3897115
50
204.3447514
51
209.0453999
0
ARC
8
DEFAULT_255_1_234
10
4.4463958
20
53.0359656
40
0.4635101
50
183.9375985
51
204.1276318
0
ARC
8
DEFAULT_255_1_234
10
4.5372209
20
53.0457482
40
0.5548037
50
179.9652252
51
184.3013875
0
ARC
8
DEFAULT_255_1_234
10
4.5132255
20
53.0490507
40
0.5308164
50
166.7585989
51
180.3201225
0
ARC
8
DEFAULT_255_1_234
10
4.4285869
20
53.0674488
40
0.4442163
50
154.6955053
51
166.5679793
0
ARC
8
DEFAULT_255_1_234
10
4.3432739
20
53.110421
40
0.3487299
50
136.3324195
51
155.0871442
0
ARC
8
DEFAULT_255_1_234
10
4.3151812
20
53.1344954
40
0.3117924
50
121.236733
51
135.9680508
0
ARC
8
DEFAULT_255_1_234
10
4.329231
20
53.1084743
40
0.3413302
50
96.845628
51
120.9881519
0
ARC
8
DEFAULT_255_1_234
10
4.3437892
20
53.0149515
40
0.4359341
50
89.8870174
51
97.2802754
0
ARC
8
DEFAULT_255_1_234
10
4.349033
20
53.0787095
40
0.3722009
50
70.6505584
51
90.6749113
0
ARC
8
DEFAULT_255_1_234
10
4.3621609
20
53.1300361
40
0.3194571
50
36.7492984
51
69.8219918
0
ARC
8
DEFAULT_255_1_234
10
4.2622774
20
53.0521993
40
0.4460685
50
15.39587
51
37.0840084
0
ARC
8
DEFAULT_255_1_234
10
4.0493207
20
52.9901242
40
0.6678714
50
3.9488873
51
15.6798563
0
ARC
8
DEFAULT_255_1_234
10
3.8091835
20
52.9684964
40
0.9089418
50
359.929245
51
4.2665314
0
ARC
8
DEFAULT_255_1_234
10
3.3486272
20
52.9173513
40
1.3695135
50
352.8366322
51
0.2782669
0
ARC
8
DEFAULT_255_1_234
10
3.8773951
20
52.8486629
40
0.8363105
50
341.8359505
51
352.9884176
0
ARC
8
DEFAULT_255_1_234
10
4.199267
20
52.74017
40
0.4966642
50
322.8578092
51
342.1527901
0
ARC
8
DEFAULT_255_1_234
10
4.2856626
20
52.6812384
40
0.3922466
50
319.334325
51
322.0998941
0
ARC
8
DEFAULT_255_1_234
10
4.2546963
20
52.7123209
40
0.4360033
50
285.9541367
51
318.8878087
0
ARC
8
DEFAULT_255_1_234
10
4.1820224
20
52.94336
40
0.678149
50
272.9281676
51
286.4922826
0
ARC
8
DEFAULT_255_1_234
10
4.1630342
20
53.1684587
40
0.9039547
50
270.8207226
51
273.4012994
0
ARC
8
DEFAULT_255_1_234
10
4.1719193
20
52.9865666
40
0.5967098
50
270.6214993
51
281.4062806
0
ARC
8
DEFAULT_255_1_234
10
4.2149174
20
52.7809833
40
0.3866861
50
281.1852553
51
299.0621114
0
ARC
8
DEFAULT_255_1_234
10
4.2522745
20
52.7088798
40
0.3055236
50
299.5067782
51
313.1200873
0
ARC
8
DEFAULT_255_1_234
10
4.2544712
20
52.7009554
40
0.2982623
50
313.8526205
51
338.5989322
0
ARC
8
DEFAULT_255_1_234
10
4.0920786
20
52.7676781
40
0.4738131
50
338.2523585
51
351.2430902
0
ARC
8
DEFAULT_255_1_234
10
3.8510082
20
52.8086447
40
0.7183203
50
350.9409515
51
357.6691871
0
ARC
8
DEFAULT_255_1_234
10
4.3400512
20
53.0088764
40
0.2294452
50
269.9447023
51
306.8248917
0
ARC
8
DEFAULT_255_1_234
10
4.3163427
20
53.0511898
40
0.2775994
50
305.5072438
51
327.0773448
0
ARC
8
DEFAULT_255_1_234
10
4.3281868
20
53.0417025
40
0.2625056
50
327.4104943
51
336.840169
0
ARC
8
DEFAULT_255_1_234
10
4.0187933
20
53.0011302
40
0.5507537
50
359.6633817
51
10.117533
0
ARC
8
DEFAULT_255_1_234
10
4.1941731
20
53.0335777
40
0.372403
50
9.9430141
51
26.7700076
0
ARC
8
DEFAULT_255_1_234
10
4.2538943
20
53.0611187
40
0.3066865
50
27.2015464
51
34.6829435
0
ARC
8
DEFAULT_255_1_234
10
4.3028423
20
53.0978977
40
0.245519
50
34.1250343
51
50.3070065
0
ARC
8
DEFAULT_255_1_234
10
4.3475103
20
53.1513385
40
0.1758693
50
50.3851167
51
90.6705993
0
ARC
8
DEFAULT_255_1_234
10
4.3428336
20
53.1208799
40
0.2063326
50
89.272901
51
111.9140407
0
ARC
8
DEFAULT_255_1_234
10
4.3408864
20
53.134944
40
0.1925887
50
112.9382311
51
142.5320782
0
ARC
8
DEFAULT_255_1_234
10
4.3955044
20
53.0905969
40
0.2629232
50
142.1021256
51
166.3835592
0
ARC
8
DEFAULT_255_1_234
10
4.5136349
20
53.0600915
40
0.3849193
50
166.1100289
51
178.665427
0
ARC
8
DEFAULT_255_1_234
10
4.6183938
20
53.0542117
40
0.4897989
50
178.2632126
51
180.0111093
0
ARC
8
DEFAULT_255_1_234
10
4.5382059
20
53.0513728
40
0.40962
50
179.6161962
51
191.8787166
0
ARC
8
DEFAULT_255_1_234
10
4.4161898
20
53.0243896
40
0.2846655
50
191.6191692
51
215.2972286
0
ARC
8
DEFAULT_255_1_234
10
4.3965089
20
53.0128918
40
0.2619665
50
215.7320102
51
216.5355409
0
ARC
8
DEFAULT_255_1_234
10
4.3426175
20
52.9696647
40
0.1929497
50
215.7486685
51
239.9727502
0
ARC
8
DEFAULT_255_1_234
10
4.3356091
20
52.9645894
40
0.1850822
50
241.0650169
51
269.2810483
0
ARC
8
DEFAULT_255_1_234
10
4.3398006
20
53.0136371
40
0.2342059
50
268.4062526
51
270.0071348
0
ARC
8
DEFAULT_255_1_234
10
4.4262624
20
61.0645703
40
0.2822356
50
338.8763615
51
0.5166041
0
ARC
8
DEFAULT_255_1_234
10
4.4431278
20
61.0600208
40
0.2648703
50
325.8412414
51
338.4795939
0
ARC
8
DEFAULT_255_1_234
10
4.4040646
20
61.0871042
40
0.3124019
50
296.7586019
51
325.753654
0
ARC
8
DEFAULT_255_1_234
10
4.3752754
20
61.1355789
40
0.368668
50
296.0902311
51
297.3618122
0
ARC
8
DEFAULT_255_1_234
10
4.4010212
20
60.4801041
40
0.3518806
50
47.9009248
51
67.1946869
0
ARC
8
DEFAULT_255_1_234
10
4.4206454
20
60.5047395
40
0.320451
50
35.236241
51
47.551371
0
ARC
8
DEFAULT_255_1_234
10
4.4468072
20
60.5221993
40
0.2890103
50
359.2759738
51
35.4014081
0
ARC
8
DEFAULT_255_1_234
10
4.3723103
20
60.5148826
40
0.3635026
50
343.1294516
51
0.5776525
0
ARC
8
DEFAULT_255_1_234
10
4.4447648
20
60.494933
40
0.2883832
50
310.8497458
51
342.744803
0
ARC
8
DEFAULT_255_1_234
10
4.4029761
20
60.5426294
40
0.3517954
50
281.5473923
51
310.9169905
0
ARC
8
DEFAULT_255_1_234
10
4.367321
20
60.6979084
40
0.5110832
50
269.6192722
51
281.9789957
0
ARC
8
DEFAULT_255_1_234
10
4.3601
20
60.6979828
40
0.5111606
50
257.4584469
51
270.4287458
0
ARC
8
DEFAULT_255_1_234
10
4.3220143
20
60.5376344
40
0.3463762
50
228.7553743
51
257.8484423
0
ARC
8
DEFAULT_255_1_234
10
4.2910341
20
60.5003442
40
0.297916
50
184.0104442
51
228.5071787
0
ARC
8
DEFAULT_255_1_234
10
4.4073285
20
60.5180512
40
0.4152734
50
179.9315461
51
185.3254504
0
ARC
8
DEFAULT_255_1_234
10
4.2896931
20
60.5217992
40
0.2976554
50
145.6795913
51
180.6259649
0
ARC
8
DEFAULT_255_1_234
10
4.306028
20
60.5103929
40
0.3175776
50
115.5537925
51
145.6416199
0
ARC
8
DEFAULT_255_1_234
10
4.340121
20
60.4493028
40
0.3874232
50
113.2437915
51
116.2054627
0
ARC
8
DEFAULT_255_1_234
10
4.3248423
20
61.089158
40
0.3154751
50
222.9548379
51
244.1372485
0
ARC
8
DEFAULT_255_1_234
10
4.3126498
20
61.0754834
40
0.2972382
50
213.3439227
51
222.6271327
0
ARC
8
DEFAULT_255_1_234
10
4.2934433
20
61.0624308
40
0.274019
50
180.4316517
51
213.2713999
0
ARC
8
DEFAULT_255_1_234
10
4.3509434
20
61.067111
40
0.33158
50
179.9992944
51
181.1655061
0
ARC
8
DEFAULT_255_1_234
10
4.3918851
20
61.0705561
40
0.3725376
50
164.6186108
51
180.5292368
0
ARC
8
DEFAULT_255_1_234
10
4.3020714
20
61.0947101
40
0.2795349
50
132.2454369
51
164.5092287
0
ARC
8
DEFAULT_255_1_234
10
4.3307818
20
61.0622028
40
0.3229019
50
100.7052766
51
132.1387266
0
ARC
8
DEFAULT_255_1_234
10
4.361279
20
60.9244086
40
0.4639835
50
89.6732617
51
101.2449487
0
ARC
8
DEFAULT_255_1_234
10
4.3674988
20
60.941899
40
0.4464999
50
76.2876631
51
90.4586123
0
ARC
8
DEFAULT_255_1_234
10
4.398122
20
61.064122
40
0.3205023
50
47.8240157
51
76.4266918
0
ARC
8
DEFAULT_255_1_234
10
4.420377
20
61.090159
40
0.2862661
50
6.9168658
51
47.6261438
0
ARC
8
DEFAULT_255_1_234
10
4.3017173
20
61.068237
40
0.4067708
50
359.8419705
51
7.9694496
0
ARC
8
DEFAULT_255_1_234
10
4.335907
20
60.5241925
40
0.2513121
50
359.4454068
51
16.9256425
0
ARC
8
DEFAULT_255_1_234
10
4.3827881
20
60.5371033
40
0.2027071
50
17.292259
51
45.462717
0
ARC
8
DEFAULT_255_1_234
10
4.3773817
20
60.5324434
40
0.2098212
50
45.3028762
51
83.1921472
0
ARC
8
DEFAULT_255_1_234
10
4.3630501
20
60.4522895
40
0.2911472
50
82.2614531
51
90.143954
0
ARC
8
DEFAULT_255_1_234
10
4.3599621
20
60.475595
40
0.2678513
50
89.4959189
51
104.8579811
0
ARC
8
DEFAULT_255_1_234
10
4.342288
20
60.542589
40
0.1985654
50
104.8855873
51
135.2448349
0
ARC
8
DEFAULT_255_1_234
10
4.3472653
20
60.5381336
40
0.2052373
50
135.3398955
51
172.104394
0
ARC
8
DEFAULT_255_1_234
10
4.4279711
20
60.5226925
40
0.2873299
50
171.2651929
51
180.1859362
0
ARC
8
DEFAULT_255_1_234
10
4.4110412
20
60.5194733
40
0.2704083
50
179.515471
51
193.6466734
0
ARC
8
DEFAULT_255_1_234
10
4.3294181
20
60.4986777
40
0.1861855
50
193.3540587
51
225.8256931
0
ARC
8
DEFAULT_255_1_234
10
4.3334938
20
60.5057524
40
0.1941102
50
226.418029
51
255.8553723
0
ARC
8
DEFAULT_255_1_234
10
4.3591371
20
60.5993998
40
0.2911917
50
255.4655572
51
268.7985967
0
ARC
8
DEFAULT_255_1_234
10
4.3638563
20
60.6832491
40
0.3751331
50
268.3464808
51
270.0104874
0
ARC
8
DEFAULT_255_1_234
10
4.3661951
20
60.6148138
40
0.3067064
50
269.575914
51
282.0823146
0
ARC
8
DEFAULT_255_1_234
10
4.388686
20
60.5153803
40
0.2047712
50
281.7522535
51
306.6056425
0
ARC
8
DEFAULT_255_1_234
10
4.3985286
20
60.4992487
40
0.1859604
50
307.1350025
51
314.0277951
0
ARC
8
DEFAULT_255_1_234
10
4.394937
20
60.5018766
40
0.1903475
50
314.2553419
51
350.169324
0
ARC
8
DEFAULT_255_1_234
10
4.3097839
20
60.5203409
40
0.2774269
50
349.4145679
51
0.2930737
0
ARC
8
DEFAULT_255_1_234
10
4.3618272
20
61.0362353
40
0.2300764
50
89.477591
51
105.729794
0
ARC
8
DEFAULT_255_1_234
10
4.3482185
20
61.0867637
40
0.1777519
50
105.922966
51
135.1662921
0
ARC
8
DEFAULT_255_1_234
10
4.3502688
20
61.0853419
40
0.1802087
50
135.3053131
51
168.9882338
0
ARC
8
DEFAULT_255_1_234
10
4.433026
20
61.0663721
40
0.2650806
50
168.3802067
51
180.3602358
0
ARC
8
DEFAULT_255_1_234
10
4.410184
20
61.0626041
40
0.2422425
50
179.5029707
51
194.9126783
0
ARC
8
DEFAULT_255_1_234
10
4.3516501
20
61.047211
40
0.1817188
50
194.9722181
51
224.1943972
0
ARC
8
DEFAULT_255_1_234
10
4.3488368
20
61.0449169
40
0.1781027
50
224.2961434
51
262.0157375
0
ARC
8
DEFAULT_255_1_234
10
4.3630611
20
61.1180661
40
0.2525492
50
261.1250369
51
270.1959853
0
ARC
8
DEFAULT_255_1_234
10
4.3660366
20
61.0993339
40
0.233825
50
269.4825617
51
285.0988277
0
ARC
8
DEFAULT_255_1_234
10
4.3814525
20
61.041499
40
0.1739712
50
285.1585659
51
315.9484648
0
ARC
8
DEFAULT_255_1_234
10
4.3725537
20
61.0496886
40
0.1860616
50
316.0412958
51
351.9162715
0
ARC
8
DEFAULT_255_1_234
10
4.2992492
20
61.0638245
40
0.2606517
50
351.1056823
51
0.1936567
0
ARC
8
DEFAULT_255_1_234
10
4.3255321
20
61.0668369
40
0.234377
50
359.4789506
51
16.0679113
0
ARC
8
DEFAULT_255_1_234
10
4.373128
20
61.079681
40
0.1850875
50
16.3251951
51
44.791304
0
ARC
8
DEFAULT_255_1_234
10
4.3713561
20
61.0797339
40
0.186312
50
44.3958661
51
88.2498933
0
ARC
8
DEFAULT_255_1_234
10
4.3640115
20
61.0186154
40
0.2476868
50
86.9833827
51
90.0200148
0
LINE
8
DEFAULT_255_1_234
10
4.7542674
20
69.3098211
11
4.7542674
21
69.226291
0
LINE
8
DEFAULT_255_1_234
10
4.7542674
20
69.226291
11
4.2699536
21
68.1404
0
LINE
8
DEFAULT_255_1_234
10
4.2699536
20
68.1404
11
4.1141379
21
68.1404
0
LINE
8
DEFAULT_255_1_234
10
4.1141379
20
68.1404
11
4.5968454
21
69.1877387
0
LINE
8
DEFAULT_255_1_234
10
4.5968454
20
69.1877387
11
3.9639444
21
69.1877387
0
LINE
8
DEFAULT_255_1_234
10
3.9639444
20
69.1877387
11
3.9639444
21
69.3098211
0
LINE
8
DEFAULT_255_1_234
10
3.9639444
20
69.3098211
11
4.7542674
21
69.3098211
0
LINE
8
DEFAULT_255_1_234
10
4.5558835
20
77.2481243
11
4.5823882
21
77.2481243
0
LINE
8
DEFAULT_255_1_234
10
4.5823882
20
77.2481243
11
4.5823882
21
77.122026
0
LINE
8
DEFAULT_255_1_234
10
4.5823882
20
77.122026
11
4.5550803
21
77.122026
0
LINE
8
DEFAULT_255_1_234
10
4.0081189
20
76.5228583
11
4.0081189
21
76.5798836
0
LINE
8
DEFAULT_255_1_234
10
4.1575093
20
76.5606075
11
4.1575093
21
76.5059917
0
ARC
8
DEFAULT_255_1_234
10
4.5603151
20
76.6222455
40
0.4998079
50
90.6001036
51
104.514704
0
ARC
8
DEFAULT_255_1_234
10
4.5214667
20
76.7667131
40
0.3502176
50
104.2855254
51
133.862935
0
ARC
8
DEFAULT_255_1_234
10
4.5378424
20
76.755883
40
0.3693984
50
134.5302688
51
161.6210873
0
ARC
8
DEFAULT_255_1_234
10
4.7031613
20
76.6975895
40
0.5446739
50
161.2849839
51
174.2076652
0
ARC
8
DEFAULT_255_1_234
10
4.843855
20
76.6781787
40
0.6866274
50
173.7810589
51
174.9254635
0
ARC
8
DEFAULT_255_1_234
10
4.3888382
20
76.5398839
40
0.3033419
50
95.8330959
51
138.9954921
0
ARC
8
DEFAULT_255_1_234
10
4.4111738
20
76.4120375
40
0.4328947
50
89.8753725
51
97.0544009
0
ARC
8
DEFAULT_255_1_234
10
4.4159204
20
76.4955748
40
0.3493769
50
71.6407809
51
90.6240094
0
ARC
8
DEFAULT_255_1_234
10
4.4309777
20
76.5510082
40
0.2920396
50
39.6367836
51
71.019018
0
ARC
8
DEFAULT_255_1_234
10
4.367325
20
76.4959998
40
0.3761538
50
10.658731
51
39.9043955
0
ARC
8
DEFAULT_255_1_234
10
4.2125333
20
76.4623686
40
0.5345136
50
359.682601
51
11.132623
0
ARC
8
DEFAULT_255_1_234
10
4.2085464
20
76.455301
40
0.5385081
50
347.2486944
51
0.4369317
0
ARC
8
DEFAULT_255_1_234
10
4.3752941
20
76.4151807
40
0.3670249
50
318.1409698
51
347.6118597
0
ARC
8
DEFAULT_255_1_234
10
4.4077934
20
76.3884702
40
0.3250007
50
275.6342139
51
317.8248465
0
ARC
8
DEFAULT_255_1_234
10
4.3857045
20
76.5184219
40
0.4565864
50
269.8874292
51
276.7917694
0
ARC
8
DEFAULT_255_1_234
10
4.3802116
20
76.4158743
40
0.3540676
50
246.9140195
51
270.7437342
0
ARC
8
DEFAULT_255_1_234
10
4.3808506
20
76.4016384
40
0.3412781
50
218.1665114
51
245.878116
0
ARC
8
DEFAULT_255_1_234
10
4.4687967
20
76.4752279
40
0.455911
50
191.4115814
51
218.6077802
0
ARC
8
DEFAULT_255_1_234
10
4.6626056
20
76.5186833
40
0.6545001
50
179.6345085
51
191.7836486
0
ARC
8
DEFAULT_255_1_234
10
5.2208393
20
76.5865697
40
1.2127388
50
171.4525249
51
180.3158839
0
ARC
8
DEFAULT_255_1_234
10
4.7813269
20
76.6549608
40
0.7679464
50
157.9802646
51
171.6246686
0
ARC
8
DEFAULT_255_1_234
10
4.559929
20
76.7432421
40
0.5296008
50
141.4298019
51
157.854097
0
ARC
8
DEFAULT_255_1_234
10
4.495761
20
76.7886381
40
0.4511509
50
102.8715806
51
140.8564722
0
ARC
8
DEFAULT_255_1_234
10
4.5605226
20
76.5446552
40
0.7034845
50
90.3778349
51
103.5869322
0
ARC
8
DEFAULT_255_1_234
10
4.3867002
20
76.484173
40
0.2370698
50
89.8751008
51
126.2071704
0
ARC
8
DEFAULT_255_1_234
10
4.3912792
20
76.4687303
40
0.2522934
50
124.9745049
51
144.895901
0
ARC
8
DEFAULT_255_1_234
10
4.3736982
20
76.483056
40
0.2296779
50
145.2974905
51
160.2660252
0
ARC
8
DEFAULT_255_1_234
10
4.6809521
20
76.5028071
40
0.5234525
50
179.6514266
51
190.2855912
0
ARC
8
DEFAULT_255_1_234
10
4.5115658
20
76.4708786
40
0.3510893
50
190.0945431
51
207.5098196
0
ARC
8
DEFAULT_255_1_234
10
4.4549928
20
76.4439623
40
0.288489
50
207.9583163
51
216.3251085
0
ARC
8
DEFAULT_255_1_234
10
4.4210036
20
76.4160105
40
0.2445587
50
215.7661442
51
232.5456785
0
ARC
8
DEFAULT_255_1_234
10
4.3827019
20
76.3673482
40
0.1826382
50
232.8005391
51
270.6605633
0
ARC
8
DEFAULT_255_1_234
10
4.387272
20
76.4037612
40
0.2190529
50
269.35537
51
288.4744281
0
ARC
8
DEFAULT_255_1_234
10
4.3965617
20
76.3688118
40
0.1829749
50
289.1833337
51
322.9683818
0
ARC
8
DEFAULT_255_1_234
10
4.3354139
20
76.4170391
40
0.2608399
50
322.6007884
51
346.5182367
0
ARC
8
DEFAULT_255_1_234
10
4.2196735
20
76.4465616
40
0.3802777
50
346.2582162
51
358.7741648
0
ARC
8
DEFAULT_255_1_234
10
4.1178404
20
76.4520965
40
0.4822176
50
358.3755224
51
0.0098023
0
ARC
8
DEFAULT_255_1_234
10
4.1934591
20
76.4548657
40
0.4066078
50
359.6214041
51
11.2839074
0
ARC
8
DEFAULT_255_1_234
10
4.3211738
20
76.4815066
40
0.2761514
50
11.0482309
51
31.8146458
0
ARC
8
DEFAULT_255_1_234
10
4.3520781
20
76.4982584
40
0.2410679
50
32.3035391
51
38.082671
0
ARC
8
DEFAULT_255_1_234
10
4.3941441
20
76.5363662
40
0.1844966
50
36.825067
51
85.7415724
0
ARC
8
DEFAULT_255_1_234
10
4.3874274
20
76.4863301
40
0.2349122
50
85.0140713
51
90.0513278
0
LINE
8
DEFAULT_255_1_234
10
4.1864235
20
84.5711963
11
4.0675538
21
84.6017169
0
LINE
8
DEFAULT_255_1_234
10
4.0675538
20
84.6017169
11
4.1269887
21
85.1848211
0
LINE
8
DEFAULT_255_1_234
10
4.1269887
20
85.1848211
11
4.7261563
21
85.1848211
0
LINE
8
DEFAULT_255_1_234
10
4.7261563
20
85.1848211
11
4.7261563
21
85.0474784
0
LINE
8
DEFAULT_255_1_234
10
4.7261563
20
85.0474784
11
4.253087
21
85.0474784
0
LINE
8
DEFAULT_255_1_234
10
4.253087
20
85.0474784
11
4.2177473
21
84.7286184
0
LINE
8
DEFAULT_255_1_234
10
4.0257888
20
84.3230156
11
4.1663442
21
84.3230156
0
LINE
8
DEFAULT_255_1_234
10
4.2257791
20
84.6033232
11
4.1864235
21
84.5711963
0
ARC
8
DEFAULT_255_1_234
10
4.4032257
20
84.410623
40
0.3681349
50
93.7182161
51
120.2538958
0
ARC
8
DEFAULT_255_1_234
10
4.412652
20
84.3298394
40
0.449379
50
89.9660152
51
94.2496022
0
ARC
8
DEFAULT_255_1_234
10
4.4167254
20
84.3887549
40
0.390482
50
73.8043271
51
90.5585896
0
ARC
8
DEFAULT_255_1_234
10
4.4402151
20
84.4745602
40
0.3015334
50
41.3071453
51
73.5430202
0
ARC
8
DEFAULT_255_1_234
10
4.3985978
20
84.4387324
40
0.3564457
50
13.5075983
51
41.2174222
0
ARC
8
DEFAULT_255_1_234
10
4.2344182
20
84.3957486
40
0.5261351
50
1.1331335
51
13.8829381
0
ARC
8
DEFAULT_255_1_234
10
4.0932551
20
84.3881665
40
0.6674378
50
359.9919444
51
1.544251
0
ARC
8
DEFAULT_255_1_234
10
4.2209377
20
84.384028
40
0.5397702
50
347.8572367
51
0.4293338
0
ARC
8
DEFAULT_255_1_234
10
4.3959695
20
84.3443736
40
0.3603188
50
323.673004
51
348.1672506
0
ARC
8
DEFAULT_255_1_234
10
4.4254203
20
84.3264168
40
0.3259678
50
316.8171152
51
323.1492751
0
ARC
8
DEFAULT_255_1_234
10
4.4315392
20
84.322746
40
0.3189975
50
281.8396411
51
316.5457803
0
ARC
8
DEFAULT_255_1_234
10
4.3939656
20
84.4782762
40
0.4789527
50
269.5770101
51
282.4214771
0
ARC
8
DEFAULT_255_1_234
10
4.3868467
20
84.4569125
40
0.45759
50
256.2427136
51
270.4486331
0
ARC
8
DEFAULT_255_1_234
10
4.356937
20
84.3369229
40
0.3339303
50
228.9023911
51
256.3314342
0
ARC
8
DEFAULT_255_1_234
10
4.3495602
20
84.3252746
40
0.32031
50
193.753695
51
228.5271154
0
ARC
8
DEFAULT_255_1_234
10
4.4733556
20
84.36158
40
0.4492253
50
184.924711
51
194.497588
0
ARC
8
DEFAULT_255_1_234
10
4.4926123
20
84.3651591
40
0.3289787
50
187.3600538
51
198.6732863
0
ARC
8
DEFAULT_255_1_234
10
4.3876417
20
84.3287674
40
0.217884
50
198.4451669
51
217.794479
0
ARC
8
DEFAULT_255_1_234
10
4.3580592
20
84.3078085
40
0.1816698
50
218.2887171
51
228.5612368
0
ARC
8
DEFAULT_255_1_234
10
4.3678379
20
84.3209963
40
0.1980329
50
228.9654866
51
258.1234728
0
ARC
8
DEFAULT_255_1_234
10
4.3884089
20
84.4090833
40
0.2884748
50
257.7258293
51
270.401361
0
ARC
8
DEFAULT_255_1_234
10
4.3928975
20
84.3645821
40
0.2439788
50
269.4204404
51
286.4209037
0
ARC
8
DEFAULT_255_1_234
10
4.4077463
20
84.3106657
40
0.1880666
50
286.7251356
51
320.600362
0
ARC
8
DEFAULT_255_1_234
10
4.3694288
20
84.3417595
40
0.2374121
50
320.6712579
51
344.5441685
0
ARC
8
DEFAULT_255_1_234
10
4.2537614
20
84.3757045
40
0.3579479
50
344.2412205
51
356.7357071
0
ARC
8
DEFAULT_255_1_234
10
4.1288763
20
84.3860444
40
0.4832297
50
356.3548756
51
0.0500261
0
ARC
8
DEFAULT_255_1_234
10
4.2625272
20
84.389165
40
0.3495889
50
359.5576869
51
12.953486
0
ARC
8
DEFAULT_255_1_234
10
4.3680169
20
84.4147434
40
0.2410532
50
12.6490276
51
41.6081334
0
ARC
8
DEFAULT_255_1_234
10
4.391054
20
84.4343321
40
0.2108218
50
41.7850273
51
85.9892764
0
ARC
8
DEFAULT_255_1_234
10
4.3787277
20
84.3530462
40
0.2928454
50
84.6957577
51
90.0676183
0
ARC
8
DEFAULT_255_1_234
10
4.3763761
20
84.2861716
40
0.3597255
50
89.6804936
51
99.1614436
0
ARC
8
DEFAULT_255_1_234
10
4.3558392
20
84.4089131
40
0.235281
50
98.9830931
51
113.8908934
0
ARC
8
DEFAULT_255_1_234
10
4.3328802
20
84.4630587
40
0.176479
50
114.1950727
51
127.3641004
0
LINE
8
DEFAULT_255_1_234
10
4.8381628
20
93.1223211
11
4.8381628
21
92.345652
0
LINE
8
DEFAULT_255_1_234
10
4.8381628
20
92.345652
11
5.0004039
21
92.345652
0
LINE
8
DEFAULT_255_1_234
10
5.0004039
20
92.345652
11
5.0004039
21
92.2243728
0
LINE
8
DEFAULT_255_1_234
10
5.0004039
20
92.2243728
11
4.8381628
21
92.2243728
0
LINE
8
DEFAULT_255_1_234
10
4.8381628
20
92.2243728
11
4.8381628
21
91.9529
0
LINE
8
DEFAULT_255_1_234
10
4.8381628
20
91.9529
11
4.6887725
21
91.9529
0
LINE
8
DEFAULT_255_1_234
10
4.6887725
20
91.9529
11
4.6887725
21
92.2243728
0
LINE
8
DEFAULT_255_1_234
10
4.6887725
20
92.2243728
11
4.1562682
21
92.2243728
0
LINE
8
DEFAULT_255_1_234
10
4.1562682
20
92.2243728
11
4.1562682
21
92.3119187
0
LINE
8
DEFAULT_255_1_234
10
4.1562682
20
92.3119187
11
4.6799375
21
93.1223211
0
LINE
8
DEFAULT_255_1_234
10
4.6799375
20
93.1223211
11
4.8381628
21
93.1223211
0
LINE
8
DEFAULT_255_1_234
10
4.6711026
20
92.8869912
11
4.3249347
21
92.345652
0
LINE
8
DEFAULT_255_1_234
10
4.3249347
20
92.345652
11
4.6887725
21
92.345652
0
LINE
8
DEFAULT_255_1_234
10
4.6887725
20
92.345652
11
4.6887725
21
92.9191181
0
LINE
8
DEFAULT_255_1_234
10
4.6887725
20
92.9191181
11
4.6711026
21
92.8869912
0
LINE
8
DEFAULT_255_1_234
10
4.2153378
20
100.4261169
11
4.2153378
21
100.5473962
0
LINE
8
DEFAULT_255_1_234
10
4.2153378
20
100.5473962
11
4.326979
21
100.5473962
0
LINE
8
DEFAULT_255_1_234
10
4.1366268
20
100.7530087
11
3.9880396
21
100.7530087
0
LINE
8
DEFAULT_255_1_234
10
3.9775983
20
100.1988188
11
4.1269887
21
100.1988188
0
LINE
8
DEFAULT_255_1_234
10
4.326979
20
100.4261169
11
4.2153378
21
100.4261169
0
ARC
8
DEFAULT_255_1_234
10
4.3240656
20
100.8866713
40
0.3392876
50
270.4919872
51
281.8951556
0
ARC
8
DEFAULT_255_1_234
10
4.3481918
20
100.7764702
40
0.2264817
50
281.6691735
51
301.2943132
0
ARC
8
DEFAULT_255_1_234
10
4.3652128
20
100.7453304
40
0.1910381
50
301.7833094
51
311.7545298
0
ARC
8
DEFAULT_255_1_234
10
4.3743704
20
100.7351748
40
0.1773635
50
311.7323931
51
354.2802411
0
ARC
8
DEFAULT_255_1_234
10
4.3017329
20
100.7476722
40
0.2509385
50
353.0937916
51
0.1181479
0
ARC
8
DEFAULT_255_1_234
10
4.2556114
20
100.7524386
40
0.2970898
50
359.1805295
51
15.0453146
0
ARC
8
DEFAULT_255_1_234
10
4.3901951
20
100.7916992
40
0.1569564
50
13.9577229
51
77.6713066
0
ARC
8
DEFAULT_255_1_234
10
4.351548
20
100.6531949
40
0.3006298
50
76.1116566
51
90.7026153
0
ARC
8
DEFAULT_255_1_234
10
4.3456318
20
100.6805545
40
0.2732568
50
89.5324876
51
103.531937
0
ARC
8
DEFAULT_255_1_234
10
4.3255762
20
100.7604884
40
0.1908508
50
103.2931773
51
133.5619022
0
ARC
8
DEFAULT_255_1_234
10
4.3211251
20
100.7664375
40
0.1834746
50
133.8349307
51
173.5344437
0
ARC
8
DEFAULT_255_1_234
10
4.3934294
20
100.7536213
40
0.2568033
50
172.5096846
51
180.1366907
0
ARC
8
DEFAULT_255_1_234
10
4.2983188
20
100.7570622
40
0.3103056
50
155.3484492
51
180.7484736
0
ARC
8
DEFAULT_255_1_234
10
4.2934277
20
100.7541846
40
0.3070957
50
131.5744599
51
154.4798489
0
ARC
8
DEFAULT_255_1_234
10
4.3247424
20
100.722531
40
0.3515643
50
96.9875458
51
131.9690667
0
ARC
8
DEFAULT_255_1_234
10
4.3466904
20
100.5979636
40
0.4779224
50
89.8596053
51
97.7825159
0
ARC
8
DEFAULT_255_1_234
10
4.3514967
20
100.5717616
40
0.5041361
50
78.3655447
51
90.4131539
0
ARC
8
DEFAULT_255_1_234
10
4.3872885
20
100.7376887
40
0.3344039
50
56.6229102
51
78.638727
0
ARC
8
DEFAULT_255_1_234
10
4.4087829
20
100.7752805
40
0.2912001
50
47.0253525
51
56.0854072
0
ARC
8
DEFAULT_255_1_234
10
4.4107609
20
100.7792223
40
0.2869704
50
10.9208013
51
46.7778124
0
ARC
8
DEFAULT_255_1_234
10
4.2743675
20
100.7476857
40
0.426899
50
359.6364486
51
11.6087304
0
ARC
8
DEFAULT_255_1_234
10
4.4578519
20
100.7461752
40
0.243409
50
332.3549906
51
359.7179418
0
ARC
8
DEFAULT_255_1_234
10
4.3928121
20
100.7770142
40
0.3153459
50
325.2333722
51
332.8745602
0
ARC
8
DEFAULT_255_1_234
10
4.4080744
20
100.7663828
40
0.2967456
50
292.9802137
51
325.2392345
0
ARC
8
DEFAULT_255_1_234
10
4.3806118
20
100.8197863
40
0.3566604
50
292.5402179
51
293.6924929
0
ARC
8
DEFAULT_255_1_234
10
4.4198714
20
100.1743091
40
0.3307468
50
57.6435486
51
72.8625112
0
ARC
8
DEFAULT_255_1_234
10
4.4553214
20
100.2317549
40
0.2632492
50
36.7248896
51
57.4697979
0
ARC
8
DEFAULT_255_1_234
10
4.4541847
20
100.233022
40
0.2634081
50
8.0545065
51
36.356114
0
ARC
8
DEFAULT_255_1_234
10
4.3679032
20
100.2175174
40
0.3510261
50
359.8320645
51
8.5869982
0
ARC
8
DEFAULT_255_1_234
10
4.3303808
20
100.2127101
40
0.3885653
50
343.9829931
51
0.5571613
0
ARC
8
DEFAULT_255_1_234
10
4.4190005
20
100.1884438
40
0.2966924
50
311.6359546
51
343.7651759
0
ARC
8
DEFAULT_255_1_234
10
4.3811574
20
100.2311102
40
0.3537231
50
279.7829875
51
311.6255694
0
ARC
8
DEFAULT_255_1_234
10
4.3510351
20
100.374828
40
0.5004971
50
269.7286406
51
280.3856417
0
ARC
8
DEFAULT_255_1_234
10
4.3448423
20
100.3706996
40
0.4963778
50
256.6828919
51
270.4412052
0
ARC
8
DEFAULT_255_1_234
10
4.3109719
20
100.2322394
40
0.3538406
50
229.4223008
51
256.8556159
0
ARC
8
DEFAULT_255_1_234
10
4.2695112
20
100.1855736
40
0.2914296
50
181.818294
51
229.6455059
0
ARC
8
DEFAULT_255_1_234
10
4.3735068
20
100.1986496
40
0.3959084
50
179.9755256
51
183.2323064
0
ARC
8
DEFAULT_255_1_234
10
4.3562814
20
100.1966037
40
0.2293034
50
179.4465117
51
196.2869258
0
ARC
8
DEFAULT_255_1_234
10
4.3075222
20
100.1832651
40
0.1787621
50
196.5661473
51
227.705904
0
ARC
8
DEFAULT_255_1_234
10
4.3239317
20
100.2016155
40
0.2033784
50
227.7652068
51
257.8762805
0
ARC
8
DEFAULT_255_1_234
10
4.3464287
20
100.2959156
40
0.3003081
50
257.4584385
51
270.426602
0
ARC
8
DEFAULT_255_1_234
10
4.3509853
20
100.3248996
40
0.329292
50
269.5962073
51
280.8789248
0
ARC
8
DEFAULT_255_1_234
10
4.3739382
20
100.2102685
40
0.2123908
50
280.6346389
51
299.8595945
0
ARC
8
DEFAULT_255_1_234
10
4.3930289
20
100.1740212
40
0.171457
50
300.3576302
51
314.5517981
0
ARC
8
DEFAULT_255_1_234
10
4.3847349
20
100.1800919
40
0.1816095
50
315.0728369
51
345.0431014
0
ARC
8
DEFAULT_255_1_234
10
4.2924163
20
100.2069841
40
0.2777492
50
344.5986631
51
357.9269593
0
ARC
8
DEFAULT_255_1_234
10
4.2028489
20
100.2131276
40
0.3674917
50
357.4748886
51
0.0231117
0
ARC
8
DEFAULT_255_1_234
10
4.3051599
20
100.2155679
40
0.2651907
50
359.5047933
51
13.4239635
0
ARC
8
DEFAULT_255_1_234
10
4.3918242
20
100.2377478
40
0.1757509
50
12.9498199
51
48.7551375
0
ARC
8
DEFAULT_255_1_234
10
4.3735976
20
100.21284
40
0.2065134
50
49.5088623
51
72.1836453
0
ARC
8
DEFAULT_255_1_234
10
4.3378129
20
100.1066291
40
0.3185836
50
71.9010081
51
84.3554254
0
ARC
8
DEFAULT_255_1_234
10
4.3216761
20
99.9705326
40
0.4556151
50
84.0193428
51
89.333121
0
LINE
8
DEFAULT_255_1_234
10
4.7655119
20
107.9491792
11
4.7655119
21
107.8279
0
LINE
8
DEFAULT_255_1_234
10
4.7655119
20
107.8279
11
3.999284
21
107.8279
0
LINE
8
DEFAULT_255_1_234
10
3.999284
20
107.8279
11
3.999284
21
107.9347221
0
LINE
8
DEFAULT_255_1_234
10
3.999284
20
107.9347221
11
4.4040836
21
108.3844995
0
LINE
8
DEFAULT_255_1_234
10
4.1253823
20
108.6527595
11
3.9767952
21
108.6527595
0
LINE
8
DEFAULT_255_1_234
10
4.4916296
20
108.2889218
11
4.1783918
21
107.9491792
0
LINE
8
DEFAULT_255_1_234
10
4.1783918
20
107.9491792
11
4.7655119
21
107.9491792
0
ARC
8
DEFAULT_255_1_234
10
3.055067
20
109.5774527
40
1.8008286
50
318.5132453
51
320.7828378
0
ARC
8
DEFAULT_255_1_234
10
3.5837644
20
109.1471426
40
1.1191493
50
320.7372736
51
323.9737074
0
ARC
8
DEFAULT_255_1_234
10
3.9757501
20
108.8631361
40
0.6350923
50
323.8961724
51
328.6421089
0
ARC
8
DEFAULT_255_1_234
10
4.1804096
20
108.7369031
40
0.3946393
50
328.8299013
51
331.789948
0
ARC
8
DEFAULT_255_1_234
10
4.2801274
20
108.6854509
40
0.2824501
50
331.4255242
51
352.9364833
0
ARC
8
DEFAULT_255_1_234
10
4.2937775
20
108.6823976
40
0.2685315
50
353.2248685
51
0.0169286
0
ARC
8
DEFAULT_255_1_234
10
4.3147652
20
108.684695
40
0.2475536
50
359.4866256
51
15.9339782
0
ARC
8
DEFAULT_255_1_234
10
4.3654637
20
108.6983286
40
0.1950618
50
16.1714718
51
43.5284424
0
ARC
8
DEFAULT_255_1_234
10
4.3731946
20
108.7060573
40
0.184134
50
43.4415429
51
83.1661404
0
ARC
8
DEFAULT_255_1_234
10
4.3597864
20
108.6323771
40
0.258926
50
82.160215
51
90.1505798
0
ARC
8
DEFAULT_255_1_234
10
4.3566291
20
108.5786865
40
0.3126255
50
89.5460705
51
102.5418777
0
ARC
8
DEFAULT_255_1_234
10
4.3323377
20
108.6817665
40
0.2067346
50
102.1739365
51
129.2061916
0
ARC
8
DEFAULT_255_1_234
10
4.3244449
20
108.6942094
40
0.1921118
50
129.7279328
51
135.7542026
0
ARC
8
DEFAULT_255_1_234
10
4.3365977
20
108.6845045
40
0.2075944
50
136.175737
51
166.3674722
0
ARC
8
DEFAULT_255_1_234
10
4.4372896
20
108.6575182
40
0.3118201
50
165.9092917
51
178.8683903
0
ARC
8
DEFAULT_255_1_234
10
4.5237757
20
108.6528179
40
0.3983935
50
178.438168
51
180.0083905
0
ARC
8
DEFAULT_255_1_234
10
4.3836359
20
108.6567231
40
0.4068601
50
163.2878735
51
180.5581814
0
ARC
8
DEFAULT_255_1_234
10
4.3034621
20
108.678784
40
0.3237344
50
133.454115
51
162.9470031
0
ARC
8
DEFAULT_255_1_234
10
4.3213162
20
108.6598
40
0.349795
50
100.7869394
51
133.4384016
0
ARC
8
DEFAULT_255_1_234
10
4.3560934
20
108.5049319
40
0.5084616
50
89.6605301
51
101.3704185
0
ARC
8
DEFAULT_255_1_234
10
4.3627273
20
108.5110496
40
0.502348
50
78.2171172
51
90.4130393
0
ARC
8
DEFAULT_255_1_234
10
4.3982351
20
108.6734637
40
0.3361092
50
55.9268222
51
78.4888551
0
ARC
8
DEFAULT_255_1_234
10
4.4178791
20
108.7073324
40
0.2970617
50
47.9292255
51
55.4054003
0
ARC
8
DEFAULT_255_1_234
10
4.4280352
20
108.7176502
40
0.2825983
50
4.3347696
51
48.0560701
0
ARC
8
DEFAULT_255_1_234
10
4.3184745
20
108.7006601
40
0.393225
50
359.925209
51
5.5967654
0
ARC
8
DEFAULT_255_1_234
10
4.3613637
20
108.7062816
40
0.3503892
50
337.8914096
51
358.9967724
0
ARC
8
DEFAULT_255_1_234
10
4.0900049
20
108.8109706
40
0.6412172
50
326.9135351
51
338.3505194
0
ARC
8
DEFAULT_255_1_234
10
3.6914353
20
109.0664284
40
1.1146189
50
319.6472867
51
327.095818
0
ARC
8
DEFAULT_255_1_234
10
3.3081356
20
109.3826
40
1.6114559
50
317.2586784
51
319.9046139
0
LINE
8
DEFAULT_255_1_234
10
4.4793137
20
116.9404433
11
4.4793137
21
115.7654
0
LINE
8
DEFAULT_255_1_234
10
4.4793137
20
115.7654
11
4.3299234
21
115.7654
0
LINE
8
DEFAULT_255_1_234
10
4.3299234
20
115.7654
11
4.3299234
21
116.7557133
0
LINE
8
DEFAULT_255_1_234
10
4.3299234
20
116.7557133
11
4.0303396
21
116.6456785
0
LINE
8
DEFAULT_255_1_234
10
4.0303396
20
116.6456785
11
4.0303396
21
116.7806117
0
LINE
8
DEFAULT_255_1_234
10
4.0303396
20
116.7806117
11
4.4560217
21
116.9404433
0
LINE
8
DEFAULT_255_1_234
10
4.4560217
20
116.9404433
11
4.4793137
21
116.9404433
0
LINE
8
DEFAULT_255_1_234
10
4.7325817
20
124.3944327
11
4.7325817
21
124.2016709
0
LINE
8
DEFAULT_255_1_234
10
3.994465
20
124.1815916
11
3.994465
21
124.3799755
0
LINE
8
DEFAULT_255_1_234
10
4.5839946
20
124.1615123
11
4.5839946
21
124.4048739
0
LINE
8
DEFAULT_255_1_234
10
4.1430521
20
124.4161184
11
4.1430521
21
124.1783789
0
ARC
8
DEFAULT_255_1_234
10
3.5078707
20
124.1967805
40
1.2247208
50
353.8441951
51
0.2287902
0
ARC
8
DEFAULT_255_1_234
10
3.9718211
20
124.1449806
40
0.7578929
50
344.4934747
51
353.9765454
0
ARC
8
DEFAULT_255_1_234
10
4.2710801
20
124.0598981
40
0.4467846
50
329.2803592
51
344.7472793
0
ARC
8
DEFAULT_255_1_234
10
4.3703626
20
124.0054018
40
0.3336173
50
324.9352394
51
328.6160465
0
ARC
8
DEFAULT_255_1_234
10
4.4080734
20
123.9790427
40
0.2876076
50
280.580143
51
324.9173126
0
ARC
8
DEFAULT_255_1_234
10
4.3679527
20
124.1461099
40
0.4592847
50
269.5977311
51
281.6734359
0
ARC
8
DEFAULT_255_1_234
10
4.3607433
20
124.1341173
40
0.4472986
50
256.6228859
51
270.51044
0
ARC
8
DEFAULT_255_1_234
10
4.320541
20
123.9792877
40
0.2873874
50
215.8618325
51
257.2788573
0
ARC
8
DEFAULT_255_1_234
10
4.4226442
20
124.0477977
40
0.4102928
50
197.9693508
51
215.2623606
0
ARC
8
DEFAULT_255_1_234
10
4.6711558
20
124.1316709
40
0.6725652
50
187.8816417
51
198.2346507
0
ARC
8
DEFAULT_255_1_234
10
5.0669766
20
124.1888079
40
1.0724845
50
180.8976217
51
188.0055519
0
ARC
8
DEFAULT_255_1_234
10
5.3469954
20
124.1991777
40
1.3526448
50
180.7449369
51
181.1510016
0
ARC
8
DEFAULT_255_1_234
10
5.1892683
20
124.3848042
40
1.1948131
50
173.7675579
51
180.231553
0
ARC
8
DEFAULT_255_1_234
10
4.737483
20
124.4358666
40
0.7401564
50
164.3058563
51
173.9002247
0
ARC
8
DEFAULT_255_1_234
10
4.4462899
20
124.5197656
40
0.4371288
50
148.7922025
51
164.568378
0
ARC
8
DEFAULT_255_1_234
10
4.3511351
20
124.5728929
40
0.3282386
50
144.5883898
51
148.1176286
0
ARC
8
DEFAULT_255_1_234
10
4.3168249
20
124.5968315
40
0.2864044
50
101.6440918
51
144.514236
0
ARC
8
DEFAULT_255_1_234
10
4.3593315
20
124.4279069
40
0.4604934
50
89.5284041
51
102.5819763
0
ARC
8
DEFAULT_255_1_234
10
4.3672403
20
124.4240018
40
0.464401
50
77.0437873
51
90.5081339
0
ARC
8
DEFAULT_255_1_234
10
4.4074405
20
124.5882615
40
0.2953195
50
48.2778575
51
77.4994676
0
ARC
8
DEFAULT_255_1_234
10
4.4147036
20
124.6011746
40
0.2808655
50
36.3142134
51
47.6305865
0
ARC
8
DEFAULT_255_1_234
10
4.3278343
20
124.5426515
40
0.3855453
50
18.2931786
51
35.6769206
0
ARC
8
DEFAULT_255_1_234
10
4.0735102
20
124.4553593
40
0.654423
50
8.024666
51
18.5605216
0
ARC
8
DEFAULT_255_1_234
10
3.6572022
20
124.3938792
40
1.0752407
50
1.1274072
51
8.1718305
0
ARC
8
DEFAULT_255_1_234
10
3.3336213
20
124.3811885
40
1.3990231
50
0.5424119
51
1.3863029
0
ARC
8
DEFAULT_255_1_234
10
3.515759
20
124.4084342
40
1.0682415
50
359.8090433
51
4.9407866
0
ARC
8
DEFAULT_255_1_234
10
3.9367604
20
124.4460113
40
0.6455691
50
4.8362157
51
12.2904523
0
ARC
8
DEFAULT_255_1_234
10
4.2122719
20
124.5073965
40
0.3633074
50
12.0805627
51
23.8173984
0
ARC
8
DEFAULT_255_1_234
10
4.3296425
20
124.5570919
40
0.2358723
50
24.2871213
51
31.3935614
0
ARC
8
DEFAULT_255_1_234
10
4.3821122
20
124.5914233
40
0.1732111
50
30.7407893
51
82.4657128
0
ARC
8
DEFAULT_255_1_234
10
4.3641256
20
124.5030691
40
0.263235
50
81.1060089
51
90.2184952
0
ARC
8
DEFAULT_255_1_234
10
4.3605555
20
124.5288924
40
0.2374236
50
89.3806855
51
105.6762551
0
ARC
8
DEFAULT_255_1_234
10
4.3422186
20
124.5955567
40
0.1682847
50
105.7981136
51
149.7388061
0
ARC
8
DEFAULT_255_1_234
10
4.4486264
20
124.531595
40
0.2924306
50
149.4208916
51
163.6286378
0
ARC
8
DEFAULT_255_1_234
10
4.6577152
20
124.467825
40
0.5110213
50
163.3763315
51
172.1410975
0
ARC
8
DEFAULT_255_1_234
10
4.9877871
20
124.4205518
40
0.8444586
50
172.0259487
51
178.0703232
0
ARC
8
DEFAULT_255_1_234
10
5.290796
20
124.4061906
40
1.1477868
50
177.8631668
51
179.5044149
0
ARC
8
DEFAULT_255_1_234
10
5.1835365
20
124.1747389
40
1.0404907
50
179.7995573
51
185.2460446
0
ARC
8
DEFAULT_255_1_234
10
4.7792404
20
124.1364513
40
0.6343885
50
185.1411642
51
193.0079639
0
ARC
8
DEFAULT_255_1_234
10
4.5148877
20
124.0739641
40
0.3627568
50
192.7897626
51
205.2507664
0
ARC
8
DEFAULT_255_1_234
10
4.4102424
20
124.0272415
40
0.2481908
50
205.8005384
51
211.2537509
0
ARC
8
DEFAULT_255_1_234
10
4.3578864
20
123.992158
40
0.1852521
50
210.3789793
51
238.4008143
0
ARC
8
DEFAULT_255_1_234
10
4.3559386
20
123.9968376
40
0.1882621
50
239.6520629
51
265.9793761
0
ARC
8
DEFAULT_255_1_234
10
4.3644586
20
124.0640427
40
0.2559272
50
265.1315437
51
270.060332
0
ARC
8
DEFAULT_255_1_234
10
4.3673365
20
124.0316534
40
0.2235528
50
269.3314664
51
287.2178029
0
ARC
8
DEFAULT_255_1_234
10
4.3811217
20
123.9813279
40
0.1714108
50
287.7958004
51
329.080874
0
ARC
8
DEFAULT_255_1_234
10
4.2853674
20
124.041093
40
0.2842745
50
328.6634704
51
343.3325132
0
ARC
8
DEFAULT_255_1_234
10
4.0680694
20
124.1087863
40
0.5118644
50
343.0499468
51
351.9393422
0
ARC
8
DEFAULT_255_1_234
10
3.7213994
20
124.1598949
40
0.8622784
50
351.8069023
51
357.7959224
0
ARC
8
DEFAULT_255_1_234
10
3.397855
20
124.1766721
40
1.1862365
50
357.5871873
51
359.2677531
0
LINE
8
DEFAULT_255_1_234
10
23.1643817
20
132.3319327
11
23.1643817
21
132.1391709
0
LINE
8
DEFAULT_255_1_234
10
22.426265
20
132.1190916
11
22.426265
21
132.3174755
0
LINE
8
DEFAULT_255_1_234
10
23.0157946
20
132.0990123
11
23.0157946
21
132.3423739
0
LINE
8
DEFAULT_255_1_234
10
22.5748521
20
132.3536184
11
22.5748521
21
132.1158789
0
ARC
8
DEFAULT_255_1_234
10
21.9396707
20
132.1342805
40
1.2247208
50
353.8441951
51
0.2287902
0
ARC
8
DEFAULT_255_1_234
10
22.4036211
20
132.0824806
40
0.7578929
50
344.4934747
51
353.9765454
0
ARC
8
DEFAULT_255_1_234
10
22.7028801
20
131.9973981
40
0.4467846
50
329.2803592
51
344.7472793
0
ARC
8
DEFAULT_255_1_234
10
22.8021626
20
131.9429018
40
0.3336173
50
324.9352394
51
328.6160465
0
ARC
8
DEFAULT_255_1_234
10
22.8398734
20
131.9165427
40
0.2876076
50
280.580143
51
324.9173126
0
ARC
8
DEFAULT_255_1_234
10
22.7997527
20
132.0836099
40
0.4592847
50
269.5977311
51
281.6734359
0
ARC
8
DEFAULT_255_1_234
10
22.7925433
20
132.0716173
40
0.4472986
50
256.6228859
51
270.51044
0
ARC
8
DEFAULT_255_1_234
10
22.752341
20
131.9167877
40
0.2873874
50
215.8618325
51
257.2788573
0
ARC
8
DEFAULT_255_1_234
10
22.8544442
20
131.9852977
40
0.4102928
50
197.9693508
51
215.2623606
0
ARC
8
DEFAULT_255_1_234
10
23.1029558
20
132.0691709
40
0.6725652
50
187.8816417
51
198.2346507
0
ARC
8
DEFAULT_255_1_234
10
23.4987766
20
132.1263079
40
1.0724845
50
180.8976217
51
188.0055519
0
ARC
8
DEFAULT_255_1_234
10
23.7787954
20
132.1366777
40
1.3526448
50
180.7449369
51
181.1510016
0
ARC
8
DEFAULT_255_1_234
10
23.6210683
20
132.3223042
40
1.1948131
50
173.7675579
51
180.231553
0
ARC
8
DEFAULT_255_1_234
10
23.169283
20
132.3733666
40
0.7401564
50
164.3058563
51
173.9002247
0
ARC
8
DEFAULT_255_1_234
10
22.8780899
20
132.4572656
40
0.4371288
50
148.7922025
51
164.568378
0
ARC
8
DEFAULT_255_1_234
10
22.7829351
20
132.5103929
40
0.3282386
50
144.5883898
51
148.1176286
0
ARC
8
DEFAULT_255_1_234
10
22.7486249
20
132.5343315
40
0.2864044
50
101.6440918
51
144.514236
0
ARC
8
DEFAULT_255_1_234
10
22.7911315
20
132.3654069
40
0.4604934
50
89.5284041
51
102.5819763
0
ARC
8
DEFAULT_255_1_234
10
22.7990403
20
132.3615018
40
0.464401
50
77.0437873
51
90.5081339
0
ARC
8
DEFAULT_255_1_234
10
22.8392405
20
132.5257615
40
0.2953195
50
48.2778575
51
77.4994676
0
ARC
8
DEFAULT_255_1_234
10
22.8465036
20
132.5386746
40
0.2808655
50
36.3142134
51
47.6305865
0
ARC
8
DEFAULT_255_1_234
10
22.7596343
20
132.4801515
40
0.3855453
50
18.2931786
51
35.6769206
0
ARC
8
DEFAULT_255_1_234
10
22.5053102
20
132.3928593
40
0.654423
50
8.024666
51
18.5605216
0
ARC
8
DEFAULT_255_1_234
10
22.0890022
20
132.3313792
40
1.0752407
50
1.1274072
51
8.1718305
0
ARC
8
DEFAULT_255_1_234
10
21.7654213
20
132.3186885
40
1.3990231
50
0.5424119
51
1.3863029
0
ARC
8
DEFAULT_255_1_234
10
21.947559
20
132.3459342
40
1.0682415
50
359.8090433
51
4.9407866
0
ARC
8
DEFAULT_255_1_234
10
22.3685604
20
132.3835113
40
0.6455691
50
4.8362157
51
12.2904523
0
ARC
8
DEFAULT_255_1_234
10
22.6440719
20
132.4448965
40
0.3633074
50
12.0805627
51
23.8173984
0
ARC
8
DEFAULT_255_1_234
10
22.7614425
20
132.4945919
40
0.2358723
50
24.2871213
51
31.3935614
0
ARC
8
DEFAULT_255_1_234
10
22.8139122
20
132.5289233
40
0.1732111
50
30.7407893
51
82.4657128
0
ARC
8
DEFAULT_255_1_234
10
22.7959256
20
132.4405691
40
0.263235
50
81.1060089
51
90.2184952
0
ARC
8
DEFAULT_255_1_234
10
22.7923555
20
132.4663924
40
0.2374236
50
89.3806855
51
105.6762551
0
ARC
8
DEFAULT_255_1_234
10
22.7740186
20
132.5330567
40
0.1682847
50
105.7981136
51
149.7388061
0
ARC
8
DEFAULT_255_1_234
10
22.8804264
20
132.469095
40
0.2924306
50
149.4208916
51
163.6286378
0
ARC
8
DEFAULT_255_1_234
10
23.0895152
20
132.405325
40
0.5110213
50
163.3763315
51
172.1410975
0
ARC
8
DEFAULT_255_1_234
10
23.4195871
20
132.3580518
40
0.8444586
50
172.0259487
51
178.0703232
0
ARC
8
DEFAULT_255_1_234
10
23.722596
20
132.3436906
40
1.1477868
50
177.8631668
51
179.5044149
0
ARC
8
DEFAULT_255_1_234
10
23.6153365
20
132.1122389
40
1.0404907
50
179.7995573
51
185.2460446
0
ARC
8
DEFAULT_255_1_234
10
23.2110404
20
132.0739513
40
0.6343885
50
185.1411642
51
193.0079639
0
ARC
8
DEFAULT_255_1_234
10
22.9466877
20
132.0114641
40
0.3627568
50
192.7897626
51
205.2507664
0
ARC
8
DEFAULT_255_1_234
10
22.8420424
20
131.9647415
40
0.2481908
50
205.8005384
51
211.2537509
0
ARC
8
DEFAULT_255_1_234
10
22.7896864
20
131.929658
40
0.1852521
50
210.3789793
51
238.4008143
0
ARC
8
DEFAULT_255_1_234
10
22.7877386
20
131.9343376
40
0.1882621
50
239.6520629
51
265.9793761
0
ARC
8
DEFAULT_255_1_234
10
22.7962586
20
132.0015427
40
0.2559272
50
265.1315437
51
270.060332
0
ARC
8
DEFAULT_255_1_234
10
22.7991365
20
131.9691534
40
0.2235528
50
269.3314664
51
287.2178029
0
ARC
8
DEFAULT_255_1_234
10
22.8129217
20
131.9188279
40
0.1714108
50
287.7958004
51
329.080874
0
ARC
8
DEFAULT_255_1_234
10
22.7171674
20
131.978593
40
0.2842745
50
328.6634704
51
343.3325132
0
ARC
8
DEFAULT_255_1_234
10
22.4998694
20
132.0462863
40
0.5118644
50
343.0499468
51
351.9393422
0
ARC
8
DEFAULT_255_1_234
10
22.1531994
20
132.0973949
40
0.8622784
50
351.8069023
51
357.7959224
0
ARC
8
DEFAULT_255_1_234
10
21.829655
20
132.1141721
40
1.1862365
50
357.5871873
51
359.2677531
0
LINE
8
DEFAULT_255_1_234
10
23.4479021
20
132.8098211
11
23.7804161
21
131.8452093
0
LINE
8
DEFAULT_255_1_234
10
23.7804161
20
131.8452093
11
24.1145364
21
132.8098211
0
LINE
8
DEFAULT_255_1_234
10
24.1145364
20
132.8098211
11
24.2832029
21
132.8098211
0
LINE
8
DEFAULT_255_1_234
10
24.2832029
20
132.8098211
11
23.849489
21
131.6404
0
LINE
8
DEFAULT_255_1_234
10
23.849489
20
131.6404
11
23.7129495
21
131.6404
0
LINE
8
DEFAULT_255_1_234
10
23.7129495
20
131.6404
11
23.2800388
21
132.8098211
0
LINE
8
DEFAULT_255_1_234
10
23.2800388
20
132.8098211
11
23.4479021
21
132.8098211
0
ENDSEC
0
EOF