0
SECTION
2
HEADER
9
$MEASUREMENT
70
1
0
ENDSEC
0
SECTION
2
TABLES
0
TABLE
2
LTYPE
0
LTYPE
72
65
70
64
2
CONTINUOUS
3
______
73
0
40
0
0
ENDTAB
0
TABLE
2
LAYER
0
LAYER
2
DEFAULT_255_2_778
70
0
62
255
6
CONTINUOUS
0
ENDTAB
0
ENDSEC
0
SECTION
2
ENTITIES
0
ARC
8
DEFAULT_255_2_778
10
3.2523307
20
30.868433
40
0.5000409
50
120.0026942
51
180.0072759
0
ARC
8
DEFAULT_255_2_778
10
3.7522064
20
32.3119457
40
0.5002833
50
300.0187406
51
359.9912701
0
ARC
8
DEFAULT_255_2_778
10
3.7521661
20
40.2345698
40
0.5003237
50
359.9999585
51
59.9785993
0
ARC
8
DEFAULT_255_2_778
10
3.2523309
20
41.6781058
40
0.500041
50
179.9927027
51
239.9972766
0
ARC
8
DEFAULT_255_2_778
10
3.2520372
20
90.5729673
40
0.4997474
50
134.9793514
51
180.0112208
0
ARC
8
DEFAULT_255_2_778
10
3.2522919
20
90.573222
40
0.4997474
50
89.9887792
51
135.0206486
0
ARC
8
DEFAULT_255_2_778
10
11.1956258
20
0.7733098
40
0.5000404
50
210.0026728
51
270.0073343
0
ARC
8
DEFAULT_255_2_778
10
91.3521413
20
0.9734178
40
0.7001484
50
270.0121482
51
359.9960421
0
ARC
8
DEFAULT_255_2_778
10
7.8518372
20
97.7730673
40
0.4997474
50
134.9793514
51
180.0112208
0
ARC
8
DEFAULT_255_2_778
10
7.852068
20
97.7733796
40
0.4996898
50
89.9974993
51
135.0233811
0
ARC
8
DEFAULT_255_2_778
10
91.6519199
20
97.5728996
40
0.7001699
50
0.0057163
51
89.9942837
0
ARC
8
DEFAULT_255_2_778
10
91.8519929
20
37.2728664
40
0.5000969
50
269.9996485
51
0.0003515
0
LINE
8
DEFAULT_255_2_778
10
6.6514898
20
-0.2270305
11
4.7522898
21
-0.2270305
0
LINE
8
DEFAULT_255_2_778
10
4.7522898
20
-0.2270305
11
2.7522898
21
3.7728695
0
LINE
8
DEFAULT_255_2_778
10
2.7522898
20
3.7728695
11
2.7522898
21
30.8683695
0
LINE
8
DEFAULT_255_2_778
10
3.0022898
20
31.3014695
11
4.0024898
21
31.8787695
0
LINE
8
DEFAULT_255_2_778
10
4.2524898
20
32.3118695
11
4.2524898
21
40.2345695
0
LINE
8
DEFAULT_255_2_778
10
4.0024898
20
40.6677695
11
3.0022898
21
41.2450695
0
LINE
8
DEFAULT_255_2_778
10
2.7522898
20
41.6781695
11
2.7522898
21
90.5728695
0
LINE
8
DEFAULT_255_2_778
10
3.2523898
20
91.0729695
11
7.3522898
21
91.0729695
0
LINE
8
DEFAULT_255_2_778
10
10.0407898
20
2.7732695
11
9.7520898
21
2.2732695
0
LINE
8
DEFAULT_255_2_778
10
9.7520898
20
2.2732695
11
10.7625898
21
0.5232695
0
LINE
8
DEFAULT_255_2_778
10
11.1956898
20
0.2732695
11
91.3522898
21
0.2732695
0
LINE
8
DEFAULT_255_2_778
10
92.0522898
20
0.9733695
11
92.0522898
21
4.2732695
0
LINE
8
DEFAULT_255_2_778
10
92.0522898
20
4.2732695
11
89.0521898
21
4.2732695
0
LINE
8
DEFAULT_255_2_778
10
89.0521898
20
4.2732695
11
89.0521898
21
18.7731695
0
LINE
8
DEFAULT_255_2_778
10
89.0521898
20
18.7731695
11
92.0522898
21
18.7731695
0
LINE
8
DEFAULT_255_2_778
10
92.0522898
20
18.7731695
11
92.0522898
21
20.7731695
0
LINE
8
DEFAULT_255_2_778
10
92.0522898
20
20.7731695
11
90.0523898
21
20.7731695
0
LINE
8
DEFAULT_255_2_778
10
7.8520898
20
90.5731695
11
7.3520898
21
91.0732695
0
LINE
8
DEFAULT_255_2_778
10
7.3520898
20
91.0732695
11
7.3520898
21
97.7729695
0
LINE
8
DEFAULT_255_2_778
10
7.8520898
20
98.2730695
11
91.6519898
21
98.2730695
0
LINE
8
DEFAULT_255_2_778
10
92.3520898
20
97.5729695
11
92.3520898
21
37.2728695
0
LINE
8
DEFAULT_255_2_778
10
13.3521247
20
1.0730382
11
13.3521247
21
0.2729382
0
LINE
8
DEFAULT_255_2_778
10
13.8521247
20
90.5731382
11
13.8521247
21
98.2730382
0
LINE
8
DEFAULT_255_2_778
10
19.9204247
20
90.5728382
11
19.8746247
21
91.2729382
0
LINE
8
DEFAULT_255_2_778
10
19.8746247
20
91.2729382
11
13.8521247
21
91.2729382
0
LINE
8
DEFAULT_255_2_778
10
9.7519247
20
2.2729382
11
3.5019247
21
2.2729382
0
LINE
8
DEFAULT_255_2_778
10
3.5019247
20
2.2729382
11
3.8109247
21
2.7730382
0
LINE
8
DEFAULT_255_2_778
10
56.8520247
20
0.2729382
11
56.8520247
21
1.0730382
0
LINE
8
DEFAULT_255_2_778
10
57.0520247
20
0.2729382
11
57.0520247
21
1.0730382
0
LINE
8
DEFAULT_255_2_778
10
57.0520247
20
1.0730382
11
13.2521247
21
1.0730382
0
LINE
8
DEFAULT_255_2_778
10
13.2521247
20
1.0730382
11
13.2521247
21
0.2729382
0
LINE
8
DEFAULT_255_2_778
10
59.7521247
20
0.2729382
11
59.7521247
21
98.2730382
0
LINE
8
DEFAULT_255_2_778
10
4.2520247
20
0.7730382
11
6.2520247
21
0.7730382
0
LINE
8
DEFAULT_255_2_778
10
7.4021247
20
1.7731382
11
7.8022247
21
1.7731382
0
LINE
8
DEFAULT_255_2_778
10
73.0905169
20
97.5730143
11
73.0447169
21
98.2731143
0
LINE
8
DEFAULT_255_2_778
10
73.0447169
20
98.2731143
11
19.8743169
21
91.2730143
0
LINE
8
DEFAULT_255_2_778
10
90.0521169
20
4.3733143
11
91.5521169
21
4.3733143
0
LINE
8
DEFAULT_255_2_778
10
91.5521169
20
4.3733143
11
91.0520169
21
5.3734143
0
LINE
8
DEFAULT_255_2_778
10
91.0520169
20
5.3734143
11
91.0520169
21
5.8735143
0
LINE
8
DEFAULT_255_2_778
10
91.0520169
20
5.8735143
11
89.0520169
21
5.8735143
0
LINE
8
DEFAULT_255_2_778
10
85.5521169
20
10.8730143
11
87.0520169
21
10.8730143
0
ARC
8
DEFAULT_255_2_778
10
91.5520378
20
4.8733047
40
0.4999904
50
269.9989007
51
0.0011051
0
ARC
8
DEFAULT_255_2_778
10
91.5520167
20
18.1732027
40
0.5000116
50
359.9898688
51
89.9986732
0
LINE
8
DEFAULT_255_2_778
10
87.0519282
20
5.7732143
11
87.0519282
21
11.2731143
0
LINE
8
DEFAULT_255_2_778
10
87.0519282
20
11.2731143
11
84.5519282
21
11.2731143
0
LINE
8
DEFAULT_255_2_778
10
84.5519282
20
11.2731143
11
84.5519282
21
5.7732143
0
LINE
8
DEFAULT_255_2_778
10
84.5519282
20
5.7732143
11
87.0519282
21
5.7732143
0
LINE
8
DEFAULT_255_2_778
10
90.0521282
20
20.8732143
11
91.5520282
21
20.8732143
0
LINE
8
DEFAULT_255_2_778
10
91.5520282
20
20.8732143
11
91.0519282
21
21.8733143
0
LINE
8
DEFAULT_255_2_778
10
91.0519282
20
21.8733143
11
91.0519282
21
22.8735143
0
LINE
8
DEFAULT_255_2_778
10
91.0519282
20
22.8735143
11
90.0518282
21
22.8735143
0
LINE
8
DEFAULT_255_2_778
10
92.0520282
20
4.8733143
11
92.0520282
21
18.1731143
0
LINE
8
DEFAULT_255_2_778
10
91.5520282
20
18.6732143
11
89.0519282
21
18.6732143
0
LINE
8
DEFAULT_255_2_778
10
89.0519282
20
98.2731143
11
89.0519282
21
36.7731143
0
LINE
8
DEFAULT_255_2_778
10
89.0519282
20
36.7731143
11
91.8520282
21
36.7731143
0
LINE
8
DEFAULT_255_2_778
10
91.8520282
20
36.7731143
11
91.3520282
21
37.7732143
0
LINE
8
DEFAULT_255_2_778
10
91.3520282
20
37.7732143
11
91.3520282
21
38.7733143
0
LINE
8
DEFAULT_255_2_778
10
91.3520282
20
38.7733143
11
89.0519282
21
38.7733143
0
ARC
8
DEFAULT_255_2_778
10
91.5520685
20
34.6731133
40
0.5000634
50
11.3792093
51
90.007612
0
ARC
8
DEFAULT_255_2_778
10
90.052668
20
34.9952732
40
0.1779043
50
89.9392935
51
90.1822648
0
ARC
8
DEFAULT_255_2_778
10
90.0529028
20
34.8735773
40
0.2996002
50
45.0405596
51
90.0088452
0
ARC
8
DEFAULT_255_2_778
10
90.0530159
20
34.874188
40
0.2990884
50
0.0032224
51
44.973231
0
ARC
8
DEFAULT_255_2_778
10
90.0337732
20
34.8742614
40
0.3183311
50
359.7867466
51
359.9898071
0
LINE
8
DEFAULT_255_2_778
10
90.0521021
20
18.6728766
11
90.0521021
21
29.7729766
0
LINE
8
DEFAULT_255_2_778
10
90.0521021
20
34.7730766
11
90.0521021
21
36.7730766
0
LINE
8
DEFAULT_255_2_778
10
91.5520021
20
35.1731766
11
90.0521021
21
35.1731766
0
LINE
8
DEFAULT_255_2_778
10
90.3521021
20
34.8730766
11
90.3521021
21
34.7730766
0
LINE
8
DEFAULT_255_2_778
10
90.7519021
20
53.7730766
11
90.7519021
21
52.7729766
0
ARC
8
DEFAULT_255_2_778
10
90.5517503
20
34.8730545
40
0.3001309
50
0.0058902
51
89.9750049
0
LINE
8
DEFAULT_255_2_778
10
90.8100813
20
38.2846854
11
90.8100813
21
38.7730854
0
LINE
8
DEFAULT_255_2_778
10
90.8518813
20
34.7730854
11
90.8518813
21
34.8730854
0
ARC
8
DEFAULT_255_2_778
10
90.3518543
20
38.473035
40
0.5000969
50
269.9996485
51
0.0003515
0
LINE
8
DEFAULT_255_2_778
10
89.0519512
20
37.9729381
11
90.3518512
21
37.9729381
0
LINE
8
DEFAULT_255_2_778
10
90.8519512
20
38.4730381
11
90.8519512
21
38.7730381
0
LINE
8
DEFAULT_255_2_778
10
3.2521512
20
3.8911381
11
2.7520512
21
3.7731381
0
ARC
8
DEFAULT_255_2_778
10
89.2520554
20
38.7730664
40
0.5000969
50
269.9996485
51
0.0003515
0
ARC
8
DEFAULT_255_2_778
10
0.7521492
20
7.0408006
40
0.5000971
50
120.0064002
51
179.9691998
0
ARC
8
DEFAULT_255_2_778
10
0.7520639
20
5.273081
40
0.5000116
50
180.0013268
51
270.0101312
0
ARC
8
DEFAULT_255_2_778
10
91.5520554
20
28.6730725
40
0.5000969
50
359.9996485
51
90.0003515
0
ARC
8
DEFAULT_255_2_778
10
88.720978
20
96.3535017
40
1.9195691
50
80.0622883
51
90.0694169
0
LINE
8
DEFAULT_255_2_778
10
89.2520523
20
38.2729695
11
89.0520523
21
38.2729695
0
LINE
8
DEFAULT_255_2_778
10
2.7520523
20
8.7729695
11
0.5020523
21
7.4738695
0
LINE
8
DEFAULT_255_2_778
10
0.2520523
20
7.0410695
11
0.2520523
21
5.2730695
0
LINE
8
DEFAULT_255_2_778
10
0.7521523
20
4.7730695
11
2.7520523
21
4.7730695
0
LINE
8
DEFAULT_255_2_778
10
90.7519523
20
78.3229695
11
90.8519523
21
78.3152695
0
LINE
8
DEFAULT_255_2_778
10
91.8470523
20
4.4692695
11
91.7330523
21
4.5565695
0
LINE
8
DEFAULT_255_2_778
10
91.7330523
20
4.5565695
11
91.6100523
21
4.6563695
0
LINE
8
DEFAULT_255_2_778
10
91.6100523
20
4.6563695
11
91.3520523
21
4.8727695
0
LINE
8
DEFAULT_255_2_778
10
6.6520523
20
2.2729695
11
6.6520523
21
-0.2270305
0
LINE
8
DEFAULT_255_2_778
10
6.2520523
20
-0.2270305
11
6.2520523
21
2.2729695
0
LINE
8
DEFAULT_255_2_778
10
8.7520523
20
2.2729695
11
8.7520523
21
0.7730695
0
LINE
8
DEFAULT_255_2_778
10
8.7520523
20
0.7730695
11
7.3521523
21
0.7730695
0
LINE
8
DEFAULT_255_2_778
10
7.3521523
20
0.7730695
11
7.3521523
21
2.2729695
0
LINE
8
DEFAULT_255_2_778
10
7.8019581
20
0.7730644
11
7.8019581
21
2.2729644
0
LINE
8
DEFAULT_255_2_778
10
7.4021581
20
2.2729644
11
7.4021581
21
0.7730644
0
LINE
8
DEFAULT_255_2_778
10
65.7520581
20
6.5232644
11
64.3021581
21
6.5232644
0
LINE
8
DEFAULT_255_2_778
10
64.3021581
20
6.5232644
11
64.3021581
21
14.0230644
0
LINE
8
DEFAULT_255_2_778
10
64.3021581
20
14.0230644
11
65.7520581
21
14.0230644
0
LINE
8
DEFAULT_255_2_778
10
63.7520581
20
5.5228644
11
63.7520581
21
15.0229644
0
LINE
8
DEFAULT_255_2_778
10
65.7519792
20
5.5228645
11
63.3019792
21
5.5228645
0
LINE
8
DEFAULT_255_2_778
10
63.3019792
20
5.5228645
11
63.3019792
21
15.0229645
0
LINE
8
DEFAULT_255_2_778
10
63.3019792
20
15.0229645
11
65.7519792
21
15.0229645
0
LINE
8
DEFAULT_255_2_778
10
65.7520698
20
15.2730269
11
63.1519698
21
15.2730269
0
LINE
8
DEFAULT_255_2_778
10
63.1519698
20
15.2730269
11
63.1519698
21
5.2730269
0
LINE
8
DEFAULT_255_2_778
10
63.1519698
20
5.2730269
11
65.7520698
21
5.2730269
0
LINE
8
DEFAULT_255_2_778
10
65.7520698
20
5.2730269
11
65.7520698
21
15.2730269
0
LINE
8
DEFAULT_255_2_778
10
65.7520698
20
84.5232269
11
64.3020698
21
84.5232269
0
LINE
8
DEFAULT_255_2_778
10
64.3020698
20
84.5232269
11
64.3020698
21
92.0230269
0
LINE
8
DEFAULT_255_2_778
10
64.3020698
20
92.0230269
11
65.7520698
21
92.0230269
0
LINE
8
DEFAULT_255_2_778
10
63.7520698
20
83.5228269
11
63.7520698
21
93.0229269
0
LINE
8
DEFAULT_255_2_778
10
65.7519792
20
83.5228645
11
63.3019792
21
83.5228645
0
LINE
8
DEFAULT_255_2_778
10
63.3019792
20
83.5228645
11
63.3019792
21
93.0229645
0
LINE
8
DEFAULT_255_2_778
10
63.3019792
20
93.0229645
11
65.7519792
21
93.0229645
0
ARC
8
DEFAULT_255_2_778
10
85.5520834
20
10.3729616
40
0.5000757
50
89.9972237
51
179.991324
0
ARC
8
DEFAULT_255_2_778
10
85.5521046
20
6.3730343
40
0.5000969
50
179.9996485
51
270.0003515
0
LINE
8
DEFAULT_255_2_778
10
65.7520077
20
93.2730373
11
63.1519077
21
93.2730373
0
LINE
8
DEFAULT_255_2_778
10
63.1519077
20
93.2730373
11
63.1519077
21
83.2731373
0
LINE
8
DEFAULT_255_2_778
10
63.1519077
20
83.2731373
11
65.7520077
21
83.2731373
0
LINE
8
DEFAULT_255_2_778
10
65.7520077
20
83.2731373
11
65.7520077
21
93.2730373
0
LINE
8
DEFAULT_255_2_778
10
89.0520077
20
11.8731373
11
90.5519077
21
11.8731373
0
LINE
8
DEFAULT_255_2_778
10
90.5519077
20
11.8731373
11
90.5519077
21
5.8732373
0
LINE
8
DEFAULT_255_2_778
10
90.5519077
20
10.8730373
11
89.0520077
21
10.8730373
0
LINE
8
DEFAULT_255_2_778
10
85.0520077
20
10.3730373
11
85.0520077
21
6.3730373
0
LINE
8
DEFAULT_255_2_778
10
85.5521077
20
5.8729373
11
87.0520077
21
5.8729373
0
LINE
8
DEFAULT_255_2_778
10
89.0520077
20
9.3731373
11
89.6520077
21
9.3731373
0
LINE
8
DEFAULT_255_2_778
10
89.6520077
20
9.3731373
11
89.6520077
21
7.3731373
0
LINE
8
DEFAULT_255_2_778
10
89.6520077
20
7.3731373
11
89.0520077
21
7.3731373
0
LINE
8
DEFAULT_255_2_778
10
88.5519077
20
35.2732373
11
88.5519077
21
34.7731373
0
LINE
8
DEFAULT_255_2_778
10
87.6521077
20
35.2732373
11
87.6521077
21
34.7731373
0
LINE
8
DEFAULT_255_2_778
10
87.0519844
20
34.7731573
11
87.0519844
21
35.2731573
0
LINE
8
DEFAULT_255_2_778
10
85.8520844
20
35.2731573
11
85.8520844
21
34.7731573
0
LINE
8
DEFAULT_255_2_778
10
90.3518844
20
11.8731573
11
90.3518844
21
10.8730573
0
LINE
8
DEFAULT_255_2_778
10
90.0520844
20
11.8731573
11
90.0520844
21
10.8730573
0
LINE
8
DEFAULT_255_2_778
10
89.0519844
20
78.7730573
11
90.8518844
21
78.7730573
0
LINE
8
DEFAULT_255_2_778
10
90.8518844
20
78.7730573
11
90.8518844
21
77.7729573
0
LINE
8
DEFAULT_255_2_778
10
90.8518844
20
77.7729573
11
89.0519844
21
77.7729573
0
LINE
8
DEFAULT_255_2_778
10
89.0519844
20
83.7731573
11
90.8518844
21
83.7731573
0
LINE
8
DEFAULT_255_2_778
10
90.8518844
20
83.7731573
11
90.8518844
21
82.7730573
0
LINE
8
DEFAULT_255_2_778
10
90.8518844
20
82.7730573
11
89.0519844
21
82.7730573
0
LINE
8
DEFAULT_255_2_778
10
90.7519198
20
78.7730328
11
90.7519198
21
77.7729328
0
LINE
8
DEFAULT_255_2_778
10
90.7519198
20
83.7731328
11
90.7519198
21
82.7730328
0
LINE
8
DEFAULT_255_2_778
10
89.0520198
20
48.7730328
11
90.8520198
21
48.7730328
0
LINE
8
DEFAULT_255_2_778
10
90.8520198
20
48.7730328
11
90.8520198
21
47.7728328
0
LINE
8
DEFAULT_255_2_778
10
90.8520198
20
47.7728328
11
89.0520198
21
47.7728328
0
LINE
8
DEFAULT_255_2_778
10
89.0520198
20
53.7731328
11
90.8520198
21
53.7731328
0
LINE
8
DEFAULT_255_2_778
10
90.8520198
20
53.7731328
11
90.8520198
21
52.7729328
0
LINE
8
DEFAULT_255_2_778
10
90.8520198
20
52.7729328
11
89.0520198
21
52.7729328
0
LINE
8
DEFAULT_255_2_778
10
90.3518886
20
48.7729629
11
90.3518886
21
47.7728629
0
LINE
8
DEFAULT_255_2_778
10
89.7520886
20
48.7729629
11
89.7520886
21
47.7728629
0
LINE
8
DEFAULT_255_2_778
10
90.8519886
20
29.1728629
11
90.8519886
21
29.7729629
0
LINE
8
DEFAULT_255_2_778
10
90.3518886
20
29.7729629
11
90.3518886
21
29.1728629
0
LINE
8
DEFAULT_255_2_778
10
91.0519886
20
4.2729629
11
91.0519886
21
4.3729629
0
LINE
8
DEFAULT_255_2_778
10
90.0520886
20
5.8731629
11
90.0520886
21
2.2732629
0
LINE
8
DEFAULT_255_2_778
10
90.0520886
20
2.2732629
11
92.0520886
21
2.2732629
0
ARC
8
DEFAULT_255_2_778
10
80.3019286
20
29.5229696
40
0.2499846
50
179.9964679
51
270.0264344
0
ARC
8
DEFAULT_255_2_778
10
80.3019285
20
29.5230005
40
0.2499845
50
89.973538
51
180.0035598
0
LINE
8
DEFAULT_255_2_778
10
90.6519439
20
4.272985
11
90.6519439
21
4.372985
0
LINE
8
DEFAULT_255_2_778
10
91.0520439
20
20.773185
11
91.0520439
21
20.873285
0
LINE
8
DEFAULT_255_2_778
10
91.0520439
20
18.773285
11
91.0520439
21
18.673185
0
LINE
8
DEFAULT_255_2_778
10
90.6519439
20
20.773185
11
90.6519439
21
20.873285
0
LINE
8
DEFAULT_255_2_778
10
90.6519439
20
18.773285
11
90.6519439
21
18.673185
0
LINE
8
DEFAULT_255_2_778
10
91.0520439
20
35.173185
11
91.0520439
21
35.273185
0
LINE
8
DEFAULT_255_2_778
10
90.6519439
20
35.173185
11
90.6519439
21
35.273185
0
LINE
8
DEFAULT_255_2_778
10
90.0518439
20
29.272985
11
80.3020439
21
29.272985
0
LINE
8
DEFAULT_255_2_778
10
80.3020439
20
29.772985
11
92.0518439
21
29.772985
0
ARC
8
DEFAULT_255_2_778
10
91.5520895
20
21.3733218
40
0.5000543
50
270.0062367
51
359.9937747
0
ARC
8
DEFAULT_255_2_778
10
80.3022069
20
35.0231305
40
0.249963
50
179.9915148
51
270.0084738
0
ARC
8
DEFAULT_255_2_778
10
80.3022072
20
35.0232042
40
0.2499633
50
89.9915768
51
180.0084184
0
LINE
8
DEFAULT_255_2_778
10
92.0521439
20
21.3732675
11
92.0521439
21
34.7731675
0
LINE
8
DEFAULT_255_2_778
10
92.0521439
20
34.7731675
11
80.3022439
21
34.7731675
0
LINE
8
DEFAULT_255_2_778
10
80.3022439
20
35.2731675
11
92.0521439
21
35.2731675
0
LINE
8
DEFAULT_255_2_778
10
92.0521439
20
35.2731675
11
92.0521439
21
36.2732675
0
LINE
8
DEFAULT_255_2_778
10
92.0521439
20
36.2732675
11
91.5521439
21
36.7733675
0
LINE
8
DEFAULT_255_2_778
10
88.5519439
20
29.7730675
11
88.5519439
21
29.2729675
0
LINE
8
DEFAULT_255_2_778
10
87.6521439
20
29.7730675
11
87.6521439
21
29.2729675
0
LINE
8
DEFAULT_255_2_778
10
90.8520439
20
29.6613675
11
90.5519439
21
29.6613675
0
LINE
8
DEFAULT_255_2_778
10
90.8520439
20
29.5123675
11
90.5519439
21
29.5123675
0
LINE
8
DEFAULT_255_2_778
10
90.8520439
20
29.3263675
11
90.5519439
21
29.3263675
0
LINE
8
DEFAULT_255_2_778
10
90.8520439
20
29.2890675
11
90.5519439
21
29.2890675
0
ARC
8
DEFAULT_255_2_778
10
85.5521349
20
49.2730949
40
0.5000755
50
180.0086483
51
270.0028154
0
ARC
8
DEFAULT_255_2_778
10
85.5521564
20
52.2731225
40
0.5000969
50
89.9996485
51
180.0003515
0
LINE
8
DEFAULT_255_2_778
10
90.8519595
20
29.1771195
11
90.5519595
21
29.1771195
0
LINE
8
DEFAULT_255_2_778
10
90.5519595
20
29.1771195
11
90.5519595
21
29.6730195
0
LINE
8
DEFAULT_255_2_778
10
90.0521595
20
29.6730195
11
92.0521595
21
29.6730195
0
LINE
8
DEFAULT_255_2_778
10
92.0521595
20
29.1732195
11
90.0521595
21
29.1732195
0
LINE
8
DEFAULT_255_2_778
10
87.0520595
20
48.7730195
11
85.5521595
21
48.7730195
0
LINE
8
DEFAULT_255_2_778
10
85.0520595
20
49.2730195
11
85.0520595
21
52.2731195
0
LINE
8
DEFAULT_255_2_778
10
85.5521595
20
52.7732195
11
87.0520595
21
52.7732195
0
ARC
8
DEFAULT_255_2_778
10
85.5520974
20
79.2730958
40
0.5000754
50
179.9971846
51
269.9913517
0
ARC
8
DEFAULT_255_2_778
10
85.5520976
20
82.2729446
40
0.5000756
50
90.0086621
51
180.0027821
0
LINE
8
DEFAULT_255_2_778
10
84.551922
20
52.9730204
11
87.051922
21
52.9730204
0
LINE
8
DEFAULT_255_2_778
10
87.051922
20
52.9730204
11
87.051922
21
48.5730204
0
LINE
8
DEFAULT_255_2_778
10
87.051922
20
48.5730204
11
84.551922
21
48.5730204
0
LINE
8
DEFAULT_255_2_778
10
84.551922
20
48.5730204
11
84.551922
21
52.9730204
0
LINE
8
DEFAULT_255_2_778
10
90.551922
20
48.7730204
11
90.551922
21
52.7730204
0
LINE
8
DEFAULT_255_2_778
10
87.051922
20
78.7730204
11
85.552022
21
78.7730204
0
LINE
8
DEFAULT_255_2_778
10
85.052022
20
79.2731204
11
85.052022
21
82.2729204
0
LINE
8
DEFAULT_255_2_778
10
85.552022
20
82.7730204
11
87.051922
21
82.7730204
0
ARC
8
DEFAULT_255_2_778
10
3.875394
20
17.5158654
40
2.8717247
50
113.2271128
51
139.8131456
0
ARC
8
DEFAULT_255_2_778
10
3.8771705
20
17.5128487
40
2.8750287
50
139.7900628
51
175.9641925
0
ARC
8
DEFAULT_255_2_778
10
3.8891322
20
17.5125765
40
2.8869798
50
175.9755112
51
179.9869616
0
ARC
8
DEFAULT_255_2_778
10
3.872673
20
17.512251
40
2.8705208
50
179.9803912
51
206.6736585
0
ARC
8
DEFAULT_255_2_778
10
3.8765477
20
17.512837
40
2.8742465
50
206.6494231
51
242.7493402
0
ARC
8
DEFAULT_255_2_778
10
3.8812852
20
17.5233015
40
2.8857187
50
242.7608531
51
246.7648441
0
ARC
8
DEFAULT_255_2_778
10
3.8734023
20
17.5171315
40
3.1197827
50
111.4397246
51
135.5713426
0
ARC
8
DEFAULT_255_2_778
10
3.8764446
20
17.512972
40
3.1248671
50
135.5559281
51
174.2987029
0
ARC
8
DEFAULT_255_2_778
10
3.8860948
20
17.513248
40
3.1344423
50
174.3212454
51
180.0039216
0
ARC
8
DEFAULT_255_2_778
10
3.8714452
20
17.5117358
40
3.119793
50
179.9761697
51
204.1080372
0
ARC
8
DEFAULT_255_2_778
10
3.8764744
20
17.513088
40
3.1249359
50
204.0930028
51
242.8249307
0
ARC
8
DEFAULT_255_2_778
10
3.8798898
20
17.5223946
40
3.1347752
50
242.8470829
51
248.5404927
0
LINE
8
DEFAULT_255_2_778
10
84.5519524
20
82.9730334
11
87.0520524
21
82.9730334
0
LINE
8
DEFAULT_255_2_778
10
87.0520524
20
82.9730334
11
87.0520524
21
78.5730334
0
LINE
8
DEFAULT_255_2_778
10
87.0520524
20
78.5730334
11
84.5519524
21
78.5730334
0
LINE
8
DEFAULT_255_2_778
10
84.5519524
20
78.5730334
11
84.5519524
21
82.9730334
0
LINE
8
DEFAULT_255_2_778
10
90.5519524
20
78.7730334
11
90.5519524
21
82.7730334
0
ENDSEC
0
EOF