0
SECTION
2
HEADER
9
$MEASUREMENT
70
1
0
ENDSEC
0
SECTION
2
TABLES
0
TABLE
2
LTYPE
0
LTYPE
72
65
70
64
2
CONTINUOUS
3
______
73
0
40
0
0
ENDTAB
0
TABLE
2
LAYER
0
LAYER
2
DEFAULT_255_2_778
70
0
62
255
6
CONTINUOUS
0
ENDTAB
0
ENDSEC
0
SECTION
2
ENTITIES
0
ARC
8
DEFAULT_255_2_778
10
7.2123017
20
36.0407054
40
0.999843
50
224.9876198
51
270.0029524
0
ARC
8
DEFAULT_255_2_778
10
7.212
20
36.0408712
40
0.9997468
50
179.9890368
51
225.0065606
0
ARC
8
DEFAULT_255_2_778
10
5.7121563
20
40.0409655
40
0.5000969
50
359.9996485
51
90.0003515
0
LINE
8
DEFAULT_255_2_778
10
5.2123532
20
22.6657625
11
5.2123532
21
26.6657625
0
LINE
8
DEFAULT_255_2_778
10
5.2123532
20
18.6658625
11
5.2123532
21
21.6659625
0
LINE
8
DEFAULT_255_2_778
10
5.7124532
20
90.7867625
11
5.7124532
21
96.9409625
0
LINE
8
DEFAULT_255_2_778
10
5.7124532
20
96.9409625
11
7.4123532
21
96.9409625
0
LINE
8
DEFAULT_255_2_778
10
7.4123532
20
96.9409625
11
7.4123532
21
95.5410625
0
LINE
8
DEFAULT_255_2_778
10
7.4123532
20
95.5410625
11
8.9122532
21
95.5410625
0
LINE
8
DEFAULT_255_2_778
10
8.9122532
20
95.5410625
11
8.9122532
21
92.2411625
0
LINE
8
DEFAULT_255_2_778
10
8.9122532
20
92.2411625
11
9.4123532
21
91.7410625
0
LINE
8
DEFAULT_255_2_778
10
9.4123532
20
91.7410625
11
11.8123532
21
91.7410625
0
LINE
8
DEFAULT_255_2_778
10
11.8123532
20
91.7410625
11
12.3124532
21
92.2411625
0
LINE
8
DEFAULT_255_2_778
10
6.2122532
20
36.0410625
11
6.2122532
21
40.0409625
0
LINE
8
DEFAULT_255_2_778
10
5.7124532
20
33.4909625
11
7.3123532
21
33.4909625
0
LINE
8
DEFAULT_255_2_778
10
7.3123532
20
33.4909625
11
7.3123532
21
35.0408625
0
ARC
8
DEFAULT_255_2_778
10
8.2189769
20
32.434656
40
0.4938898
50
269.2443015
51
358.983369
0
ARC
8
DEFAULT_255_2_778
10
8.213093
20
32.4258755
40
0.4996961
50
0.0020138
51
1.7240341
0
ARC
8
DEFAULT_255_2_778
10
2.7061751
20
74.2473632
40
0.4937556
50
91.0206695
51
180.7605643
0
ARC
8
DEFAULT_255_2_778
10
2.6973676
20
74.2415727
40
0.4994677
50
88.2566143
51
89.9986021
0
ARC
8
DEFAULT_255_2_778
10
2.7060491
20
77.234656
40
0.4938898
50
181.016631
51
270.7556985
0
ARC
8
DEFAULT_255_2_778
10
2.711933
20
77.2258755
40
0.4996961
50
178.2759659
51
179.9979862
0
LINE
8
DEFAULT_255_2_778
10
8.462463
20
2.2408091
11
7.712363
21
3.7407091
0
LINE
8
DEFAULT_255_2_778
10
7.712363
20
3.7407091
11
7.712363
21
31.9408091
0
LINE
8
DEFAULT_255_2_778
10
7.712363
20
31.9408091
11
8.212463
21
31.9408091
0
LINE
8
DEFAULT_255_2_778
10
8.712563
20
32.4409091
11
8.712563
21
34.4408091
0
LINE
8
DEFAULT_255_2_778
10
8.712563
20
34.4408091
11
7.412663
21
34.4408091
0
LINE
8
DEFAULT_255_2_778
10
7.412663
20
34.4408091
11
7.412663
21
32.9409091
0
LINE
8
DEFAULT_255_2_778
10
7.412663
20
32.9409091
11
5.712663
21
32.9409091
0
LINE
8
DEFAULT_255_2_778
10
5.712663
20
32.9409091
11
5.712663
21
40.5408091
0
LINE
8
DEFAULT_255_2_778
10
5.712663
20
40.5408091
11
3.212663
21
40.5408091
0
LINE
8
DEFAULT_255_2_778
10
3.212663
20
40.5408091
11
2.212463
21
41.5409091
0
LINE
8
DEFAULT_255_2_778
10
2.212463
20
41.5409091
11
2.212463
21
74.2408091
0
LINE
8
DEFAULT_255_2_778
10
2.712563
20
74.7408091
11
3.712663
21
74.7408091
0
LINE
8
DEFAULT_255_2_778
10
3.712663
20
74.7408091
11
3.712663
21
76.7408091
0
LINE
8
DEFAULT_255_2_778
10
3.712663
20
76.7408091
11
2.712563
21
76.7408091
0
LINE
8
DEFAULT_255_2_778
10
2.212463
20
77.2409091
11
2.212463
21
95.5408091
0
LINE
8
DEFAULT_255_2_778
10
2.212463
20
95.5408091
11
5.712363
21
95.5408091
0
ARC
8
DEFAULT_255_2_778
10
8.4120039
20
90.3422139
40
0.6985557
50
89.9604118
51
112.845929
0
LINE
8
DEFAULT_255_2_778
10
8.0124866
20
93.2407695
11
8.0124866
21
95.5407695
0
LINE
8
DEFAULT_255_2_778
10
11.3125866
20
91.7408695
11
11.3125866
21
98.2408695
0
LINE
8
DEFAULT_255_2_778
10
11.4126866
20
2.6408695
11
11.4126866
21
2.2407695
0
LINE
8
DEFAULT_255_2_778
10
11.0125866
20
2.2407695
11
11.0125866
21
2.6408695
0
LINE
8
DEFAULT_255_2_778
10
11.4126866
20
0.2407695
11
11.4126866
21
0.1407695
0
LINE
8
DEFAULT_255_2_778
10
11.4126866
20
0.1407695
11
11.0125866
21
-0.2592305
0
LINE
8
DEFAULT_255_2_778
10
11.0125866
20
0.2407695
11
11.0125866
21
-0.2592305
0
LINE
8
DEFAULT_255_2_778
10
11.0125866
20
-0.2592305
11
9.7126866
21
-0.2592305
0
LINE
8
DEFAULT_255_2_778
10
9.7126866
20
-0.2592305
11
9.4626866
21
0.2407695
0
LINE
8
DEFAULT_255_2_778
10
8.4124866
20
91.0407695
11
12.3124866
21
91.0407695
0
LINE
8
DEFAULT_255_2_778
10
12.3124866
20
91.0407695
11
12.3124866
21
98.2408695
0
LINE
8
DEFAULT_255_2_778
10
18.8124866
20
90.2409695
11
18.8124866
21
98.2408695
0
ARC
8
DEFAULT_255_2_778
10
20.9216264
20
92.5855733
40
0.9947648
50
269.4722353
51
350.9517152
0
ARC
8
DEFAULT_255_2_778
10
20.9448902
20
92.5607851
40
0.968116
50
352.1840623
51
0.0324305
0
ARC
8
DEFAULT_255_2_778
10
20.9124488
20
92.5612934
40
1.0005573
50
0.0022734
51
1.7042721
0
ARC
8
DEFAULT_255_2_778
10
20.917839
20
96.9002237
40
0.9947668
50
359.4716566
51
80.947311
0
ARC
8
DEFAULT_255_2_778
10
20.9427235
20
96.9237776
40
0.9678158
50
82.1828452
51
90.0324067
0
ARC
8
DEFAULT_255_2_778
10
20.9422157
20
96.8913875
40
1.0002057
50
90.0022653
51
91.7045718
0
ARC
8
DEFAULT_255_2_778
10
45.6122298
20
97.5407169
40
0.7002338
50
0.0109457
51
89.9890584
0
ARC
8
DEFAULT_255_2_778
10
45.6122297
20
32.9410846
40
0.7002338
50
270.0109498
51
359.9890485
0
ARC
8
DEFAULT_255_2_778
10
69.2931251
20
84.7330019
40
1.24237
50
256.1450245
51
270.3153776
0
ARC
8
DEFAULT_255_2_778
10
69.1685399
20
84.2490224
40
0.7426554
50
239.9261832
51
256.5357266
0
ARC
8
DEFAULT_255_2_778
10
68.9399652
20
83.8690487
40
0.2993827
50
209.5805849
51
241.3412835
0
ARC
8
DEFAULT_255_2_778
10
68.8167851
20
83.791732
40
0.1542246
50
180.3645429
51
207.1903844
0
ARC
8
DEFAULT_255_2_778
10
68.8614178
20
92.6774831
40
0.1992964
50
124.4260609
51
176.1828591
0
ARC
8
DEFAULT_255_2_778
10
69.0968788
20
92.3873489
40
0.5725284
50
108.2483824
51
127.4493639
0
ARC
8
DEFAULT_255_2_778
10
69.2681525
20
91.9005383
40
1.0885362
50
94.5512613
51
108.7864128
0
ARC
8
DEFAULT_255_2_778
10
69.2993376
20
91.6355445
40
1.3552064
50
89.9735369
51
94.9765523
0
ARC
8
DEFAULT_255_2_778
10
69.1653932
20
6.2760302
40
0.7853113
50
249.6255377
51
270.5158527
0
ARC
8
DEFAULT_255_2_778
10
69.0391305
20
5.9540818
40
0.4395908
50
223.2239794
51
250.4435368
0
ARC
8
DEFAULT_255_2_778
10
68.8706453
20
5.7956846
40
0.20834
50
181.3569956
51
223.214685
0
ARC
8
DEFAULT_255_2_778
10
68.8984817
20
14.6769817
40
0.2365251
50
122.9176413
51
176.6384353
0
ARC
8
DEFAULT_255_2_778
10
69.1011883
20
14.413009
40
0.5689026
50
102.5659794
51
125.6087817
0
ARC
8
DEFAULT_255_2_778
10
69.1698187
20
14.1595078
40
0.8313472
50
89.8177183
51
103.3815805
0
LINE
8
DEFAULT_255_2_778
10
21.9125635
20
92.5910507
11
21.9125635
21
96.8910507
0
LINE
8
DEFAULT_255_2_778
10
20.9124635
20
97.8911507
11
20.0123635
21
97.8911507
0
LINE
8
DEFAULT_255_2_778
10
20.0123635
20
97.8911507
11
20.0123635
21
91.5908507
0
LINE
8
DEFAULT_255_2_778
10
20.0123635
20
91.5908507
11
20.9124635
21
91.5908507
0
LINE
8
DEFAULT_255_2_778
10
18.8124635
20
91.7409507
11
19.3125635
21
91.7409507
0
LINE
8
DEFAULT_255_2_778
10
19.3125635
20
91.7409507
11
19.3125635
21
97.7408507
0
LINE
8
DEFAULT_255_2_778
10
19.3125635
20
97.7408507
11
18.8124635
21
97.7408507
0
LINE
8
DEFAULT_255_2_778
10
20.7124635
20
98.2409507
11
20.7124635
21
97.8908507
0
LINE
8
DEFAULT_255_2_778
10
46.3124635
20
97.5408507
11
46.3124635
21
32.9409507
0
LINE
8
DEFAULT_255_2_778
10
45.6123635
20
32.2408507
11
44.3124635
21
32.2408507
0
LINE
8
DEFAULT_255_2_778
10
44.3124635
20
32.2408507
11
44.3124635
21
98.2409507
0
LINE
8
DEFAULT_255_2_778
10
46.3124635
20
94.2409507
11
46.6124635
21
94.2409507
0
LINE
8
DEFAULT_255_2_778
10
46.6124635
20
94.2409507
11
46.6124635
21
92.2409507
0
LINE
8
DEFAULT_255_2_778
10
46.6124635
20
92.2409507
11
46.3124635
21
92.2409507
0
LINE
8
DEFAULT_255_2_778
10
46.3124635
20
97.2410507
11
46.6124635
21
97.2410507
0
LINE
8
DEFAULT_255_2_778
10
46.6124635
20
97.2410507
11
46.6124635
21
95.2410507
0
LINE
8
DEFAULT_255_2_778
10
46.6124635
20
95.2410507
11
46.3124635
21
95.2410507
0
LINE
8
DEFAULT_255_2_778
10
64.7123635
20
0.2408507
11
64.7123635
21
98.2409507
0
LINE
8
DEFAULT_255_2_778
10
70.7025635
20
9.7409507
11
69.2624635
21
9.7409507
0
LINE
8
DEFAULT_255_2_778
10
69.2624635
20
9.7409507
11
69.2624635
21
6.4911507
0
LINE
8
DEFAULT_255_2_778
10
69.2624635
20
6.4911507
11
70.7025635
21
6.4911507
0
LINE
8
DEFAULT_255_2_778
10
70.7025635
20
6.4911507
11
70.7025635
21
9.7409507
0
LINE
8
DEFAULT_255_2_778
10
70.7025635
20
13.9909507
11
69.2624635
21
13.9909507
0
LINE
8
DEFAULT_255_2_778
10
69.2624635
20
13.9909507
11
69.2624635
21
10.7411507
0
LINE
8
DEFAULT_255_2_778
10
69.2624635
20
10.7411507
11
70.7025635
21
10.7411507
0
LINE
8
DEFAULT_255_2_778
10
70.7025635
20
10.7411507
11
70.7025635
21
13.9909507
0
LINE
8
DEFAULT_255_2_778
10
69.2624635
20
91.9909507
11
70.5750635
21
91.9909507
0
LINE
8
DEFAULT_255_2_778
10
70.5750635
20
91.9909507
11
70.5750635
21
88.7410507
0
LINE
8
DEFAULT_255_2_778
10
70.5750635
20
88.7410507
11
69.2624635
21
88.7410507
0
LINE
8
DEFAULT_255_2_778
10
69.2624635
20
88.7410507
11
69.2624635
21
91.9909507
0
LINE
8
DEFAULT_255_2_778
10
69.2624635
20
87.7409507
11
70.5750635
21
87.7409507
0
LINE
8
DEFAULT_255_2_778
10
70.5750635
20
87.7409507
11
70.5750635
21
84.4910507
0
LINE
8
DEFAULT_255_2_778
10
70.5750635
20
84.4910507
11
69.2624635
21
84.4910507
0
LINE
8
DEFAULT_255_2_778
10
69.2624635
20
84.4910507
11
69.2624635
21
87.7409507
0
LINE
8
DEFAULT_255_2_778
10
70.5750635
20
93.2408507
11
70.5750635
21
92.9907507
0
LINE
8
DEFAULT_255_2_778
10
70.5750635
20
92.9907507
11
68.3125635
21
92.9907507
0
LINE
8
DEFAULT_255_2_778
10
68.3125635
20
92.9907507
11
68.3125635
21
83.4906507
0
LINE
8
DEFAULT_255_2_778
10
68.3125635
20
83.4906507
11
70.5750635
21
83.4906507
0
LINE
8
DEFAULT_255_2_778
10
70.5750635
20
83.4906507
11
70.5750635
21
83.2406507
0
LINE
8
DEFAULT_255_2_778
10
68.6625635
20
83.7907507
11
68.6625635
21
92.6907507
0
LINE
8
DEFAULT_255_2_778
10
70.7125635
20
93.2408507
11
68.2125635
21
93.2408507
0
LINE
8
DEFAULT_255_2_778
10
68.2125635
20
93.2408507
11
68.2125635
21
83.2409507
0
LINE
8
DEFAULT_255_2_778
10
68.2125635
20
83.2409507
11
70.7125635
21
83.2409507
0
LINE
8
DEFAULT_255_2_778
10
70.7125635
20
83.2409507
11
70.7125635
21
93.2408507
0
LINE
8
DEFAULT_255_2_778
10
70.7025635
20
15.2408507
11
70.7025635
21
14.9908507
0
LINE
8
DEFAULT_255_2_778
10
70.7025635
20
14.9908507
11
68.3125635
21
14.9908507
0
LINE
8
DEFAULT_255_2_778
10
68.3125635
20
14.9908507
11
68.3125635
21
5.4907507
0
LINE
8
DEFAULT_255_2_778
10
68.3125635
20
5.4907507
11
70.7025635
21
5.4907507
0
LINE
8
DEFAULT_255_2_778
10
70.7025635
20
5.4907507
11
70.7025635
21
5.2406507
0
LINE
8
DEFAULT_255_2_778
10
68.6623635
20
5.7907507
11
68.6623635
21
14.6908507
0
LINE
8
DEFAULT_255_2_778
10
70.7123635
20
15.2408507
11
68.2122635
21
15.2408507
0
LINE
8
DEFAULT_255_2_778
10
68.2122635
20
15.2408507
11
68.2122635
21
5.2409507
0
LINE
8
DEFAULT_255_2_778
10
68.2122635
20
5.2409507
11
70.7123635
21
5.2409507
0
LINE
8
DEFAULT_255_2_778
10
70.7123635
20
5.2409507
11
70.7123635
21
15.2408507
0
LINE
8
DEFAULT_255_2_778
10
71.3123635
20
98.2409507
11
71.3123635
21
98.4409507
0
LINE
8
DEFAULT_255_2_778
10
71.3123635
20
98.4409507
11
71.6624635
21
98.4409507
0
LINE
8
DEFAULT_255_2_778
10
71.6624635
20
98.4409507
11
71.9762635
21
98.2409507
0
LINE
8
DEFAULT_255_2_778
10
94.0123635
20
18.8407507
11
84.0123635
21
18.8407507
0
LINE
8
DEFAULT_255_2_778
10
84.0123635
20
18.8407507
11
84.0123635
21
38.8409507
0
LINE
8
DEFAULT_255_2_778
10
84.0123635
20
38.8409507
11
94.0123635
21
38.8409507
0
ARC
8
DEFAULT_255_2_778
10
16.2711249
20
0.9407039
40
0.6998945
50
209.9949978
51
270.0035228
0
ARC
8
DEFAULT_255_2_778
10
97.512134
20
0.9410436
40
0.700234
50
270.0109585
51
359.9890333
0
ARC
8
DEFAULT_255_2_778
10
97.7185211
20
82.2472235
40
0.4938898
50
359.2443015
51
88.983369
0
ARC
8
DEFAULT_255_2_778
10
97.7273015
20
82.2413396
40
0.4996961
50
90.0020138
51
91.7240341
0
LINE
8
DEFAULT_255_2_778
10
8.6987679
20
3.3409096
11
8.2624679
21
2.6408096
0
LINE
8
DEFAULT_255_2_778
10
8.2624679
20
2.6408096
11
14.4814679
21
2.6408096
0
LINE
8
DEFAULT_255_2_778
10
14.4814679
20
2.6408096
11
15.6649679
21
0.5908096
0
LINE
8
DEFAULT_255_2_778
10
16.2711679
20
0.2408096
11
97.5122679
21
0.2408096
0
LINE
8
DEFAULT_255_2_778
10
98.2123679
20
0.9409096
11
98.2123679
21
82.2407096
0
LINE
8
DEFAULT_255_2_778
10
97.7122679
20
82.7408096
11
94.0123679
21
82.7408096
0
ARC
8
DEFAULT_255_2_778
10
95.2189234
20
2.4342343
40
0.4937556
50
271.0206695
51
0.7605643
0
ARC
8
DEFAULT_255_2_778
10
95.2277309
20
2.4400248
40
0.4994677
50
268.2566143
51
269.9986021
0
ARC
8
DEFAULT_255_2_778
10
91.3126324
20
84.2406915
40
0.5000969
50
89.9996485
51
180.0003515
0
ARC
8
DEFAULT_255_2_778
10
94.7339705
20
19.320109
40
0.4791598
50
269.2663857
51
358.9702691
0
ARC
8
DEFAULT_255_2_778
10
94.7289634
20
19.3114821
40
0.4840896
50
0.0018708
51
1.7171957
0
ARC
8
DEFAULT_255_2_778
10
94.7338272
20
38.3621402
40
0.4790491
50
359.2522446
51
88.9635789
0
ARC
8
DEFAULT_255_2_778
10
94.7425025
20
38.3573687
40
0.4837422
50
90.0012177
51
91.7374692
0
ARC
8
DEFAULT_255_2_778
10
94.4916837
20
38.3618801
40
0.4790491
50
89.2522446
51
178.9635789
0
ARC
8
DEFAULT_255_2_778
10
94.4964552
20
38.3705554
40
0.4837422
50
180.0012177
51
181.7374692
0
LINE
8
DEFAULT_255_2_778
10
95.2125355
20
1.9407884
11
94.0126355
21
1.9407884
0
LINE
8
DEFAULT_255_2_778
10
95.8123355
20
2.7408884
11
94.0124355
21
2.7408884
0
LINE
8
DEFAULT_255_2_778
10
89.8126355
20
8.2409884
11
89.8126355
21
8.1909884
0
LINE
8
DEFAULT_255_2_778
10
89.8126355
20
8.1909884
11
89.5126355
21
8.1909884
0
LINE
8
DEFAULT_255_2_778
10
90.8125355
20
78.0010884
11
90.8125355
21
80.2409884
0
LINE
8
DEFAULT_255_2_778
10
90.8125355
20
82.2407884
11
90.8125355
21
84.2406884
0
LINE
8
DEFAULT_255_2_778
10
92.0124355
20
80.2407884
11
92.0124355
21
79.7406884
0
LINE
8
DEFAULT_255_2_778
10
92.0124355
20
83.2405884
11
92.0124355
21
82.2404884
0
LINE
8
DEFAULT_255_2_778
10
94.0126355
20
0.2407884
11
94.0126355
21
83.7408884
0
LINE
8
DEFAULT_255_2_778
10
94.5127355
20
18.8409884
11
94.5127355
21
18.8409884
0
LINE
8
DEFAULT_255_2_778
10
94.5127355
20
18.8409884
11
94.7278355
21
18.8409884
0
LINE
8
DEFAULT_255_2_778
10
95.2128355
20
19.3259884
11
95.2128355
21
38.3558884
0
LINE
8
DEFAULT_255_2_778
10
94.7278355
20
38.8408884
11
94.4979355
21
38.8408884
0
LINE
8
DEFAULT_255_2_778
10
95.5123355
20
8.7407884
11
95.5123355
21
7.7406884
0
LINE
8
DEFAULT_255_2_778
10
94.3124355
20
7.7406884
11
94.3124355
21
8.7407884
0
ARC
8
DEFAULT_255_2_778
10
97.5207585
20
97.5479748
40
0.692938
50
3.5991464
51
90.6778147
0
ARC
8
DEFAULT_255_2_778
10
97.5243849
20
97.5617005
40
0.6885888
50
359.9960831
51
2.4781901
0
ARC
8
DEFAULT_255_2_778
10
97.5127487
20
97.5616851
40
0.7002251
50
358.2879003
51
359.9974038
0
ARC
8
DEFAULT_255_2_778
10
97.7125858
20
83.7409398
40
0.5000754
50
269.9971846
51
359.9913517
0
ARC
8
DEFAULT_255_2_778
10
59.3125581
20
28.7408674
40
0.5000969
50
89.9996485
51
180.0003515
0
ARC
8
DEFAULT_255_2_778
10
59.306308
20
5.7344504
40
0.4938898
50
179.2443015
51
268.983369
0
ARC
8
DEFAULT_255_2_778
10
59.2975276
20
5.7403343
40
0.4996961
50
270.0020138
51
271.7240341
0
ARC
8
DEFAULT_255_2_778
10
61.3124643
20
5.7409612
40
0.5000969
50
269.9996485
51
0.0003515
0
ARC
8
DEFAULT_255_2_778
10
61.3124643
20
28.7408674
40
0.5000969
50
359.9996485
51
90.0003515
0
LINE
8
DEFAULT_255_2_778
10
95.7125612
20
2.7408643
11
95.7125612
21
1.9407643
0
LINE
8
DEFAULT_255_2_778
10
97.3124612
20
83.2408643
11
97.3124612
21
82.7407643
0
LINE
8
DEFAULT_255_2_778
10
96.0125612
20
83.2408643
11
96.0125612
21
82.7407643
0
LINE
8
DEFAULT_255_2_778
10
98.2126612
20
97.5407643
11
98.2126612
21
83.7408643
0
LINE
8
DEFAULT_255_2_778
10
94.5124612
20
38.8408643
11
94.5124612
21
38.8405643
0
LINE
8
DEFAULT_255_2_778
10
94.7124612
20
38.8408643
11
94.7124612
21
38.8405643
0
LINE
8
DEFAULT_255_2_778
10
94.7124612
20
18.8407643
11
94.7124612
21
18.8409643
0
LINE
8
DEFAULT_255_2_778
10
58.8124612
20
18.2409643
11
61.3124612
21
18.2409643
0
LINE
8
DEFAULT_255_2_778
10
61.3124612
20
18.2409643
11
61.3124612
21
29.2409643
0
LINE
8
DEFAULT_255_2_778
10
61.3124612
20
29.2409643
11
59.3125612
21
29.2409643
0
LINE
8
DEFAULT_255_2_778
10
58.8124612
20
28.7408643
11
58.8124612
21
5.7409643
0
LINE
8
DEFAULT_255_2_778
10
59.3125612
20
5.2408643
11
61.3124612
21
5.2408643
0
LINE
8
DEFAULT_255_2_778
10
61.8125612
20
5.7409643
11
61.8125612
21
28.7408643
0
LINE
8
DEFAULT_255_2_778
10
90.0126612
20
6.5407643
11
89.5125612
21
6.5407643
0
LINE
8
DEFAULT_255_2_778
10
90.0126612
20
5.9406643
11
89.5125612
21
5.9406643
0
LINE
8
DEFAULT_255_2_778
10
89.5125612
20
7.7409643
11
92.0126612
21
7.7409643
0
ARC
8
DEFAULT_255_2_778
10
90.506329
20
7.2467939
40
0.4939544
50
89.2517689
51
178.9764922
0
ARC
8
DEFAULT_255_2_778
10
90.5118099
20
7.2556347
40
0.4993566
50
180.0020135
51
181.7246271
0
ARC
8
DEFAULT_255_2_778
10
90.5064384
20
3.2341055
40
0.4938018
50
179.2457015
51
268.9927071
0
ARC
8
DEFAULT_255_2_778
10
90.49774
20
3.2404561
40
0.5000762
50
270.0020123
51
271.723394
0
ARC
8
DEFAULT_255_2_778
10
7.2187673
20
12.7344521
40
0.4937556
50
271.0206695
51
0.7605643
0
ARC
8
DEFAULT_255_2_778
10
7.2275748
20
12.7402426
40
0.4994677
50
268.2566143
51
269.9986021
0
ARC
8
DEFAULT_255_2_778
10
2.7061423
20
11.7471818
40
0.4938664
50
89.2531692
51
178.9858301
0
ARC
8
DEFAULT_255_2_778
10
2.712103
20
11.7559406
40
0.4997497
50
180.0020118
51
181.7239408
0
ARC
8
DEFAULT_255_2_778
10
2.7126551
20
2.7410817
40
0.5000756
50
179.9972001
51
269.9913338
0
ARC
8
DEFAULT_255_2_778
10
13.2140495
20
1.2444955
40
0.9965117
50
48.3612403
51
90.08452
0
ARC
8
DEFAULT_255_2_778
10
13.2152073
20
1.2420855
40
0.9975466
50
1.729783
51
48.5029145
0
ARC
8
DEFAULT_255_2_778
10
13.1936787
20
1.240916
40
1.0191008
50
359.999446
51
1.7589697
0
ARC
8
DEFAULT_255_2_778
10
13.2164987
20
1.2394826
40
0.9962817
50
318.352397
51
0.0818679
0
ARC
8
DEFAULT_255_2_778
10
13.2137338
20
1.2385869
40
0.9977557
50
271.7308645
51
318.4963478
0
ARC
8
DEFAULT_255_2_778
10
13.2125891
20
1.2599299
40
1.0191238
50
269.9994553
51
271.7589451
0
ARC
8
DEFAULT_255_2_778
10
1.2112604
20
1.2371278
40
0.9963226
50
228.3541388
51
270.0816049
0
ARC
8
DEFAULT_255_2_778
10
1.2102409
20
1.2397898
40
0.9976376
50
181.732932
51
228.4994886
0
ARC
8
DEFAULT_255_2_778
10
1.2313386
20
1.2408965
40
1.0187592
50
179.9994554
51
181.7592612
0
ARC
8
DEFAULT_255_2_778
10
0.7062916
20
13.7474603
40
0.4937556
50
91.0206695
51
180.7605643
0
ARC
8
DEFAULT_255_2_778
10
0.6974841
20
13.7416698
40
0.4994677
50
88.2566143
51
89.9986021
0
ARC
8
DEFAULT_255_2_778
10
78.2187934
20
28.7471593
40
0.4938898
50
1.016631
51
90.7556985
0
ARC
8
DEFAULT_255_2_778
10
78.2129095
20
28.7559398
40
0.4996961
50
358.2759659
51
359.9979862
0
ARC
8
DEFAULT_255_2_778
10
78.2186018
20
5.7344156
40
0.4938203
50
271.0275454
51
0.7530931
0
ARC
8
DEFAULT_255_2_778
10
78.2274696
20
5.7397986
40
0.4991237
50
268.2560155
51
269.99862
0
ARC
8
DEFAULT_255_2_778
10
76.205746
20
5.7347347
40
0.4938717
50
181.0255497
51
270.7579953
0
ARC
8
DEFAULT_255_2_778
10
76.211307
20
5.7258777
40
0.4993536
50
178.2753716
51
179.9979852
0
ARC
8
DEFAULT_255_2_778
10
76.2060918
20
28.7473566
40
0.4939544
50
91.0235078
51
180.7482311
0
ARC
8
DEFAULT_255_2_778
10
76.1972509
20
28.7418757
40
0.4993566
50
88.2753729
51
89.9979865
0
ARC
8
DEFAULT_255_2_778
10
20.8124825
20
28.7409092
40
0.5000969
50
359.9996485
51
90.0003515
0
ARC
8
DEFAULT_255_2_778
10
18.8125549
20
28.7409307
40
0.5000754
50
90.0086483
51
180.0028154
0
ARC
8
DEFAULT_255_2_778
10
18.8061734
20
5.7343328
40
0.4937377
50
179.2371749
51
268.9703959
0
ARC
8
DEFAULT_255_2_778
10
18.7972893
20
5.7398022
40
0.4991273
50
270.0013986
51
271.74398
0
ARC
8
DEFAULT_255_2_778
10
20.8125037
20
5.7409819
40
0.5000757
50
269.9972237
51
359.991324
0
ARC
8
DEFAULT_255_2_778
10
16.312704
20
28.7409307
40
0.5000755
50
359.9971846
51
89.9913517
0
ARC
8
DEFAULT_255_2_778
10
14.3127764
20
28.7409092
40
0.5000969
50
89.9996485
51
180.0003515
0
ARC
8
DEFAULT_255_2_778
10
14.3063916
20
5.7343521
40
0.4937556
50
179.2394357
51
268.9793305
0
ARC
8
DEFAULT_255_2_778
10
14.2975841
20
5.7401426
40
0.4994677
50
270.0013979
51
271.7433857
0
ARC
8
DEFAULT_255_2_778
10
16.3127251
20
5.7409604
40
0.5000542
50
270.0062229
51
359.9937886
0
ARC
8
DEFAULT_255_2_778
10
29.8125825
20
28.7409092
40
0.5000969
50
359.9996485
51
90.0003515
0
ARC
8
DEFAULT_255_2_778
10
27.8125764
20
28.7409092
40
0.5000969
50
89.9996485
51
180.0003515
0
ARC
8
DEFAULT_255_2_778
10
27.8062571
20
5.7344156
40
0.4938203
50
179.2469069
51
268.9724546
0
ARC
8
DEFAULT_255_2_778
10
27.7973893
20
5.7397986
40
0.4991237
50
270.00138
51
271.7439845
0
ARC
8
DEFAULT_255_2_778
10
29.8126037
20
5.7409819
40
0.5000757
50
269.9972237
51
359.991324
0
ARC
8
DEFAULT_255_2_778
10
25.3127825
20
28.7409092
40
0.5000969
50
359.9996485
51
90.0003515
0
ARC
8
DEFAULT_255_2_778
10
23.3128551
20
28.7409306
40
0.5000756
50
90.0086621
51
180.0028016
0
ARC
8
DEFAULT_255_2_778
10
23.3064734
20
5.7343328
40
0.4937377
50
179.2371749
51
268.9703959
0
ARC
8
DEFAULT_255_2_778
10
23.2975893
20
5.7398022
40
0.4991273
50
270.0013986
51
271.74398
0
ARC
8
DEFAULT_255_2_778
10
25.3128037
20
5.7409819
40
0.5000757
50
269.9972237
51
359.991324
0
ARC
8
DEFAULT_255_2_778
10
38.812604
20
28.7409307
40
0.5000755
50
359.9971846
51
89.9913517
0
ARC
8
DEFAULT_255_2_778
10
36.8126764
20
28.7409092
40
0.5000969
50
89.9996485
51
180.0003515
0
ARC
8
DEFAULT_255_2_778
10
36.8062916
20
5.7343521
40
0.4937556
50
179.2394357
51
268.9793305
0
ARC
8
DEFAULT_255_2_778
10
36.7974841
20
5.7401426
40
0.4994677
50
270.0013979
51
271.7433857
0
ARC
8
DEFAULT_255_2_778
10
38.8126251
20
5.7409604
40
0.5000542
50
270.0062229
51
359.9937886
0
ARC
8
DEFAULT_255_2_778
10
32.3128764
20
28.7409092
40
0.5000969
50
89.9996485
51
180.0003515
0
ARC
8
DEFAULT_255_2_778
10
32.3065571
20
5.7344156
40
0.4938203
50
179.2469069
51
268.9724546
0
ARC
8
DEFAULT_255_2_778
10
32.2976893
20
5.7397986
40
0.4991237
50
270.00138
51
271.7439845
0
ARC
8
DEFAULT_255_2_778
10
34.3129037
20
5.7409819
40
0.5000757
50
269.9972237
51
359.991324
0
ARC
8
DEFAULT_255_2_778
10
34.3128825
20
28.7409092
40
0.5000969
50
359.9996485
51
90.0003515
0
ARC
8
DEFAULT_255_2_778
10
47.8126825
20
28.7409092
40
0.5000969
50
359.9996485
51
90.0003515
0
ARC
8
DEFAULT_255_2_778
10
45.8061254
20
28.747294
40
0.4937556
50
89.2394357
51
178.9793305
0
ARC
8
DEFAULT_255_2_778
10
45.8119159
20
28.7561015
40
0.4994677
50
180.0013979
51
181.7433857
0
ARC
8
DEFAULT_255_2_778
10
45.8063734
20
5.7343328
40
0.4937377
50
179.2371749
51
268.9703959
0
ARC
8
DEFAULT_255_2_778
10
45.7974893
20
5.7398022
40
0.4991273
50
270.0013986
51
271.74398
0
ARC
8
DEFAULT_255_2_778
10
47.8127037
20
5.7409819
40
0.5000757
50
269.9972237
51
359.991324
0
ARC
8
DEFAULT_255_2_778
10
43.312904
20
28.7409307
40
0.5000755
50
359.9971846
51
89.9913517
0
ARC
8
DEFAULT_255_2_778
10
41.3129764
20
28.7409092
40
0.5000969
50
89.9996485
51
180.0003515
0
ARC
8
DEFAULT_255_2_778
10
41.3065916
20
5.7343521
40
0.4937556
50
179.2394357
51
268.9793305
0
ARC
8
DEFAULT_255_2_778
10
41.2977841
20
5.7401426
40
0.4994677
50
270.0013979
51
271.7433857
0
ARC
8
DEFAULT_255_2_778
10
43.3129251
20
5.7409604
40
0.5000542
50
270.0062229
51
359.9937886
0
ARC
8
DEFAULT_255_2_778
10
56.8127825
20
28.7409092
40
0.5000969
50
359.9996485
51
90.0003515
0
ARC
8
DEFAULT_255_2_778
10
54.8062655
20
28.7471593
40
0.4938898
50
89.2443015
51
178.983369
0
ARC
8
DEFAULT_255_2_778
10
54.8121494
20
28.7559398
40
0.4996961
50
180.0020138
51
181.7240341
0
ARC
8
DEFAULT_255_2_778
10
54.8064571
20
5.7344156
40
0.4938203
50
179.2469069
51
268.9724546
0
ARC
8
DEFAULT_255_2_778
10
54.7975893
20
5.7397986
40
0.4991237
50
270.00138
51
271.7439845
0
ARC
8
DEFAULT_255_2_778
10
56.8128037
20
5.7409819
40
0.5000757
50
269.9972237
51
359.991324
0
ARC
8
DEFAULT_255_2_778
10
52.3129825
20
28.7409092
40
0.5000969
50
359.9996485
51
90.0003515
0
ARC
8
DEFAULT_255_2_778
10
50.3064254
20
28.747294
40
0.4937556
50
89.2394357
51
178.9793305
0
ARC
8
DEFAULT_255_2_778
10
50.3122159
20
28.7561015
40
0.4994677
50
180.0013979
51
181.7433857
0
ARC
8
DEFAULT_255_2_778
10
50.3066734
20
5.7343328
40
0.4937377
50
179.2371749
51
268.9703959
0
ARC
8
DEFAULT_255_2_778
10
50.2977893
20
5.7398022
40
0.4991273
50
270.0013986
51
271.74398
0
ARC
8
DEFAULT_255_2_778
10
52.3130037
20
5.7409819
40
0.5000757
50
269.9972237
51
359.991324
0
LINE
8
DEFAULT_255_2_778
10
94.0126795
20
7.7407062
11
95.8125795
21
7.7407062
0
LINE
8
DEFAULT_255_2_778
10
89.5125795
20
8.2407062
11
92.0126795
21
8.2407062
0
LINE
8
DEFAULT_255_2_778
10
92.0126795
20
8.2407062
11
92.0126795
21
2.2408062
0
LINE
8
DEFAULT_255_2_778
10
92.0126795
20
2.2408062
11
89.5125795
21
2.2408062
0
LINE
8
DEFAULT_255_2_778
10
89.5125795
20
2.2408062
11
89.5125795
21
8.2407062
0
LINE
8
DEFAULT_255_2_778
10
94.0126795
20
1.7407062
11
95.8125795
21
1.7407062
0
LINE
8
DEFAULT_255_2_778
10
95.8125795
20
1.7407062
11
95.8125795
21
8.7408062
0
LINE
8
DEFAULT_255_2_778
10
95.8125795
20
8.7408062
11
94.0126795
21
8.7408062
0
LINE
8
DEFAULT_255_2_778
10
90.0126795
20
7.2406062
11
90.0126795
21
3.2406062
0
LINE
8
DEFAULT_255_2_778
10
90.5127795
20
2.7406062
11
92.0126795
21
2.7406062
0
LINE
8
DEFAULT_255_2_778
10
7.2123795
20
12.2410062
11
2.7125795
21
12.2410062
0
LINE
8
DEFAULT_255_2_778
10
2.2125795
20
11.7409062
11
2.2125795
21
2.7411062
0
LINE
8
DEFAULT_255_2_778
10
2.7125795
20
2.2410062
11
13.2125795
21
2.2410062
0
LINE
8
DEFAULT_255_2_778
10
13.2125795
20
0.2408062
11
1.2126795
21
0.2408062
0
LINE
8
DEFAULT_255_2_778
10
0.2125795
20
1.2409062
11
0.2125795
21
13.7409062
0
LINE
8
DEFAULT_255_2_778
10
0.7126795
20
14.2409062
11
5.2126795
21
14.2409062
0
LINE
8
DEFAULT_255_2_778
10
5.2126795
20
14.2409062
11
5.2126795
21
17.6660062
0
LINE
8
DEFAULT_255_2_778
10
78.7123795
20
18.2409062
11
75.7121795
21
18.2409062
0
LINE
8
DEFAULT_255_2_778
10
75.7121795
20
16.2409062
11
78.7123795
21
16.2409062
0
LINE
8
DEFAULT_255_2_778
10
78.7123795
20
28.7409062
11
78.7123795
21
5.7409062
0
LINE
8
DEFAULT_255_2_778
10
78.2122795
20
5.2409062
11
76.2122795
21
5.2409062
0
LINE
8
DEFAULT_255_2_778
10
75.7121795
20
5.7409062
11
75.7121795
21
28.7409062
0
LINE
8
DEFAULT_255_2_778
10
76.2122795
20
29.2410062
11
78.2122795
21
29.2410062
0
LINE
8
DEFAULT_255_2_778
10
18.3124795
20
18.2409062
11
21.3125795
21
18.2409062
0
LINE
8
DEFAULT_255_2_778
10
18.3124795
20
16.2409062
11
21.3125795
21
16.2409062
0
LINE
8
DEFAULT_255_2_778
10
20.8124795
20
29.2410062
11
18.8124795
21
29.2410062
0
LINE
8
DEFAULT_255_2_778
10
18.3124795
20
28.7409062
11
18.3124795
21
5.7409062
0
LINE
8
DEFAULT_255_2_778
10
18.8124795
20
5.2409062
11
20.8124795
21
5.2409062
0
LINE
8
DEFAULT_255_2_778
10
21.3125795
20
5.7409062
11
21.3125795
21
28.7409062
0
LINE
8
DEFAULT_255_2_778
10
13.8126795
20
18.2409062
11
16.8127795
21
18.2409062
0
LINE
8
DEFAULT_255_2_778
10
13.8126795
20
16.2409062
11
16.8127795
21
16.2409062
0
LINE
8
DEFAULT_255_2_778
10
16.3127795
20
29.2410062
11
14.3127795
21
29.2410062
0
LINE
8
DEFAULT_255_2_778
10
13.8126795
20
28.7409062
11
13.8126795
21
5.7409062
0
LINE
8
DEFAULT_255_2_778
10
14.3127795
20
5.2409062
11
16.3127795
21
5.2409062
0
LINE
8
DEFAULT_255_2_778
10
16.8127795
20
5.7409062
11
16.8127795
21
28.7409062
0
LINE
8
DEFAULT_255_2_778
10
27.3124795
20
18.2409062
11
30.3126795
21
18.2409062
0
LINE
8
DEFAULT_255_2_778
10
27.3124795
20
16.2409062
11
30.3126795
21
16.2409062
0
LINE
8
DEFAULT_255_2_778
10
29.8125795
20
29.2410062
11
27.8125795
21
29.2410062
0
LINE
8
DEFAULT_255_2_778
10
27.3124795
20
28.7409062
11
27.3124795
21
5.7409062
0
LINE
8
DEFAULT_255_2_778
10
27.8125795
20
5.2409062
11
29.8125795
21
5.2409062
0
LINE
8
DEFAULT_255_2_778
10
30.3126795
20
5.7409062
11
30.3126795
21
28.7409062
0
LINE
8
DEFAULT_255_2_778
10
22.8127795
20
18.2409062
11
25.8128795
21
18.2409062
0
LINE
8
DEFAULT_255_2_778
10
22.8127795
20
16.2409062
11
25.8128795
21
16.2409062
0
LINE
8
DEFAULT_255_2_778
10
25.3127795
20
29.2410062
11
23.3127795
21
29.2410062
0
LINE
8
DEFAULT_255_2_778
10
22.8127795
20
28.7409062
11
22.8127795
21
5.7409062
0
LINE
8
DEFAULT_255_2_778
10
23.3127795
20
5.2409062
11
25.3127795
21
5.2409062
0
LINE
8
DEFAULT_255_2_778
10
25.8128795
20
5.7409062
11
25.8128795
21
28.7409062
0
LINE
8
DEFAULT_255_2_778
10
36.3125795
20
18.2409062
11
39.3126795
21
18.2409062
0
LINE
8
DEFAULT_255_2_778
10
36.3125795
20
16.2409062
11
39.3126795
21
16.2409062
0
LINE
8
DEFAULT_255_2_778
10
38.8126795
20
29.2410062
11
36.8126795
21
29.2410062
0
LINE
8
DEFAULT_255_2_778
10
36.3125795
20
28.7409062
11
36.3125795
21
5.7409062
0
LINE
8
DEFAULT_255_2_778
10
36.8126795
20
5.2409062
11
38.8126795
21
5.2409062
0
LINE
8
DEFAULT_255_2_778
10
39.3126795
20
5.7409062
11
39.3126795
21
28.7409062
0
LINE
8
DEFAULT_255_2_778
10
31.8127795
20
18.2409062
11
34.8129795
21
18.2409062
0
LINE
8
DEFAULT_255_2_778
10
31.8127795
20
16.2409062
11
34.8129795
21
16.2409062
0
LINE
8
DEFAULT_255_2_778
10
34.3128795
20
29.2410062
11
32.3128795
21
29.2410062
0
LINE
8
DEFAULT_255_2_778
10
31.8127795
20
28.7409062
11
31.8127795
21
5.7409062
0
LINE
8
DEFAULT_255_2_778
10
32.3128795
20
5.2409062
11
34.3128795
21
5.2409062
0
LINE
8
DEFAULT_255_2_778
10
34.8129795
20
5.7409062
11
34.8129795
21
28.7409062
0
LINE
8
DEFAULT_255_2_778
10
45.3126795
20
18.2409062
11
48.3127795
21
18.2409062
0
LINE
8
DEFAULT_255_2_778
10
45.3126795
20
16.2409062
11
48.3127795
21
16.2409062
0
LINE
8
DEFAULT_255_2_778
10
47.8126795
20
29.2410062
11
45.8126795
21
29.2410062
0
LINE
8
DEFAULT_255_2_778
10
45.3126795
20
28.7409062
11
45.3126795
21
5.7409062
0
LINE
8
DEFAULT_255_2_778
10
45.8126795
20
5.2409062
11
47.8126795
21
5.2409062
0
LINE
8
DEFAULT_255_2_778
10
48.3127795
20
5.7409062
11
48.3127795
21
28.7409062
0
LINE
8
DEFAULT_255_2_778
10
40.8128795
20
18.2409062
11
43.8129795
21
18.2409062
0
LINE
8
DEFAULT_255_2_778
10
40.8128795
20
16.2409062
11
43.8129795
21
16.2409062
0
LINE
8
DEFAULT_255_2_778
10
43.3129795
20
29.2410062
11
41.3129795
21
29.2410062
0
LINE
8
DEFAULT_255_2_778
10
40.8128795
20
28.7409062
11
40.8128795
21
5.7409062
0
LINE
8
DEFAULT_255_2_778
10
41.3129795
20
5.2409062
11
43.3129795
21
5.2409062
0
LINE
8
DEFAULT_255_2_778
10
43.8129795
20
5.7409062
11
43.8129795
21
28.7409062
0
LINE
8
DEFAULT_255_2_778
10
54.3126795
20
18.2409062
11
57.3128795
21
18.2409062
0
LINE
8
DEFAULT_255_2_778
10
56.8127795
20
29.2410062
11
54.8127795
21
29.2410062
0
LINE
8
DEFAULT_255_2_778
10
54.3126795
20
28.7409062
11
54.3126795
21
5.7409062
0
LINE
8
DEFAULT_255_2_778
10
54.8127795
20
5.2409062
11
56.8127795
21
5.2409062
0
LINE
8
DEFAULT_255_2_778
10
57.3128795
20
5.7409062
11
57.3128795
21
28.7409062
0
LINE
8
DEFAULT_255_2_778
10
49.8129795
20
18.2409062
11
52.8130795
21
18.2409062
0
LINE
8
DEFAULT_255_2_778
10
49.8129795
20
16.2409062
11
52.8130795
21
16.2409062
0
LINE
8
DEFAULT_255_2_778
10
52.3129795
20
29.2410062
11
50.3129795
21
29.2410062
0
LINE
8
DEFAULT_255_2_778
10
49.8129795
20
28.7409062
11
49.8129795
21
5.7409062
0
LINE
8
DEFAULT_255_2_778
10
50.3129795
20
5.2409062
11
52.3129795
21
5.2409062
0
LINE
8
DEFAULT_255_2_778
10
52.8130795
20
5.7409062
11
52.8130795
21
28.7409062
0
LINE
8
DEFAULT_255_2_778
10
5.712401
20
22.6657655
11
5.212601
21
22.6657655
0
LINE
8
DEFAULT_255_2_778
10
5.212601
20
21.6656655
11
5.712401
21
21.6656655
0
LINE
8
DEFAULT_255_2_778
10
5.712401
20
18.6655655
11
5.212601
21
18.6655655
0
LINE
8
DEFAULT_255_2_778
10
5.212601
20
17.6654655
11
5.712401
21
17.6654655
0
LINE
8
DEFAULT_255_2_778
10
5.212601
20
26.6657655
11
5.712401
21
26.6657655
0
ARC
8
DEFAULT_255_2_778
10
5.2189188
20
14.734832
40
0.4938898
50
269.2443015
51
358.983369
0
ARC
8
DEFAULT_255_2_778
10
5.2130349
20
14.7260515
40
0.4996961
50
0.0020138
51
1.7240341
0
ARC
8
DEFAULT_255_2_778
10
5.218658
20
31.0474991
40
0.4938898
50
359.2443015
51
88.983369
0
ARC
8
DEFAULT_255_2_778
10
5.2274385
20
31.0416152
40
0.4996961
50
90.0020138
51
91.7240341
0
ARC
8
DEFAULT_255_2_778
10
2.706128
20
31.047303
40
0.4938259
50
89.2368991
51
178.9900717
0
ARC
8
DEFAULT_255_2_778
10
2.7124549
20
31.0560246
40
0.5000762
50
180.0020123
51
181.723394
0
ARC
8
DEFAULT_255_2_778
10
1.718758
20
29.5345712
40
0.4938898
50
271.016631
51
0.7556985
0
ARC
8
DEFAULT_255_2_778
10
1.7275385
20
29.5404551
40
0.4996961
50
268.2759659
51
269.9979862
0
ARC
8
DEFAULT_255_2_778
10
0.705891
20
29.534832
40
0.4938898
50
181.016631
51
270.7556985
0
ARC
8
DEFAULT_255_2_778
10
0.7117749
20
29.5260515
40
0.4996961
50
178.2759659
51
179.9979862
0
ARC
8
DEFAULT_255_2_778
10
0.7061517
20
33.0474991
40
0.4938898
50
91.016631
51
180.7556985
0
ARC
8
DEFAULT_255_2_778
10
0.6973713
20
33.0416152
40
0.4996961
50
88.2759659
51
89.9979862
0
ARC
8
DEFAULT_255_2_778
10
3.2190013
20
34.0348489
40
0.4938078
50
269.2346018
51
358.9811536
0
ARC
8
DEFAULT_255_2_778
10
3.2129776
20
34.0260506
40
0.4997534
50
0.0020303
51
1.7239363
0
ARC
8
DEFAULT_255_2_778
10
3.218658
20
34.5976991
40
0.4938898
50
359.2443015
51
88.983369
0
ARC
8
DEFAULT_255_2_778
10
3.2274385
20
34.5918152
40
0.4996961
50
90.0020138
51
91.7240341
0
ARC
8
DEFAULT_255_2_778
10
0.7061183
20
35.585067
40
0.4938258
50
181.0389251
51
270.7642257
0
ARC
8
DEFAULT_255_2_778
10
0.7110806
20
35.5761013
40
0.4987069
50
178.2552758
51
179.9986344
0
ARC
8
DEFAULT_255_2_778
10
2.2125311
20
61.9414237
40
1.9999262
50
138.585242
51
180.0011053
0
ARC
8
DEFAULT_255_2_778
10
0.7061378
20
67.4352853
40
0.4938438
50
181.0300037
51
270.7619316
0
ARC
8
DEFAULT_255_2_778
10
0.7114274
20
67.4263959
40
0.4990537
50
178.2558763
51
179.9986178
0
ARC
8
DEFAULT_255_2_778
10
1.2070865
20
97.2503465
40
0.9945247
50
99.0664609
51
180.5335666
0
ARC
8
DEFAULT_255_2_778
10
1.1819224
20
97.2746443
40
0.9667937
50
89.9676663
51
97.8205918
0
ARC
8
DEFAULT_255_2_778
10
1.1824397
20
97.2426303
40
0.9988076
50
88.2750759
51
89.9983783
0
LINE
8
DEFAULT_255_2_778
10
5.7125049
20
14.7410851
11
5.7125049
21
31.0409851
0
LINE
8
DEFAULT_255_2_778
10
5.2124049
20
31.5410851
11
2.7127049
21
31.5410851
0
LINE
8
DEFAULT_255_2_778
10
2.2126049
20
31.0409851
11
2.2126049
21
29.5410851
0
LINE
8
DEFAULT_255_2_778
10
1.7125049
20
29.0409851
11
0.7124049
21
29.0409851
0
LINE
8
DEFAULT_255_2_778
10
0.2123049
20
29.5410851
11
0.2123049
21
33.0409851
0
LINE
8
DEFAULT_255_2_778
10
0.7124049
20
33.5410851
11
3.2124049
21
33.5410851
0
LINE
8
DEFAULT_255_2_778
10
3.7125049
20
34.0410851
11
3.7125049
21
34.5911851
0
LINE
8
DEFAULT_255_2_778
10
3.2124049
20
35.0912851
11
0.7127049
21
35.0912851
0
LINE
8
DEFAULT_255_2_778
10
0.2126049
20
35.5912851
11
0.2126049
21
61.9413851
0
LINE
8
DEFAULT_255_2_778
10
0.7127049
20
63.2643851
11
0.7127049
21
66.9414851
0
LINE
8
DEFAULT_255_2_778
10
0.2126049
20
67.4415851
11
0.2126049
21
97.2410851
0
LINE
8
DEFAULT_255_2_778
10
1.2125049
20
98.2409851
11
97.5123049
21
98.2409851
0
LINE
8
DEFAULT_255_2_778
10
9.1955049
20
32.2408851
11
9.2127049
21
32.2408851
0
ARC
8
DEFAULT_255_2_778
10
8.7191307
20
34.5470415
40
0.4938717
50
1.0255497
51
90.7579953
0
ARC
8
DEFAULT_255_2_778
10
8.7135697
20
34.5558985
40
0.4993536
50
358.2753716
51
359.9979852
0
ARC
8
DEFAULT_255_2_778
10
43.6127379
20
33.1208578
40
0.6998974
50
270.2995605
51
348.7963547
0
ARC
8
DEFAULT_255_2_778
10
5.2186504
20
39.497184
40
0.4938898
50
359.2443015
51
88.983369
0
ARC
8
DEFAULT_255_2_778
10
5.2274308
20
39.4913001
40
0.4996961
50
90.0020138
51
91.7240341
0
ARC
8
DEFAULT_255_2_778
10
2.2060637
20
40.4845985
40
0.4938717
50
181.0255497
51
270.7579953
0
ARC
8
DEFAULT_255_2_778
10
2.2116247
20
40.4757415
40
0.4993536
50
178.2753716
51
179.9979852
0
ARC
8
DEFAULT_255_2_778
10
2.2062093
20
61.9474241
40
0.4937556
50
91.0206695
51
180.7605643
0
ARC
8
DEFAULT_255_2_778
10
2.1974018
20
61.9416336
40
0.4994677
50
88.2566143
51
89.9986021
0
ARC
8
DEFAULT_255_2_778
10
3.7073483
20
73.2499087
40
0.994694
50
99.0504446
51
180.5321695
0
ARC
8
DEFAULT_255_2_778
10
3.6825307
20
73.2731488
40
0.968064
50
89.967511
51
97.816154
0
ARC
8
DEFAULT_255_2_778
10
3.6830399
20
73.2406582
40
1.0005544
50
88.2957273
51
89.997726
0
ARC
8
DEFAULT_255_2_778
10
3.7127803
20
78.2410372
40
1.0001672
50
225.0034073
51
270.0009706
0
ARC
8
DEFAULT_255_2_778
10
3.7128498
20
78.2409469
40
1.0001527
50
179.9929444
51
224.9969303
0
ARC
8
DEFAULT_255_2_778
10
3.7108748
20
89.6202789
40
0.9981779
50
132.7283405
51
180.0464287
0
ARC
8
DEFAULT_255_2_778
10
3.7112003
20
89.6226259
40
0.9966764
50
94.6156143
51
132.8336349
0
LINE
8
DEFAULT_255_2_778
10
7.2126972
20
35.04087
11
8.7125972
21
35.04087
0
LINE
8
DEFAULT_255_2_778
10
9.2126972
20
34.54087
11
9.2126972
21
32.24087
0
LINE
8
DEFAULT_255_2_778
10
9.2126972
20
32.24087
11
43.6163972
21
32.42097
0
LINE
8
DEFAULT_255_2_778
10
5.7124972
20
35.49097
11
6.3842972
21
35.49097
0
LINE
8
DEFAULT_255_2_778
10
5.2123972
20
39.99077
11
2.2125972
21
39.99077
0
LINE
8
DEFAULT_255_2_778
10
1.7124972
20
40.49077
11
1.7124972
21
61.94087
0
LINE
8
DEFAULT_255_2_778
10
2.2125972
20
62.44087
11
2.7126972
21
62.94097
0
LINE
8
DEFAULT_255_2_778
10
2.7126972
20
62.94097
11
2.7126972
21
73.24067
0
LINE
8
DEFAULT_255_2_778
10
3.7127972
20
74.24077
11
4.7128972
21
74.24077
0
LINE
8
DEFAULT_255_2_778
10
4.7128972
20
74.24077
11
4.7128972
21
77.24087
0
LINE
8
DEFAULT_255_2_778
10
4.7128972
20
77.24087
11
3.7127972
21
77.24087
0
LINE
8
DEFAULT_255_2_778
10
2.7126972
20
78.24107
11
2.7126972
21
89.61947
0
LINE
8
DEFAULT_255_2_778
10
3.6309972
20
90.61607
11
8.8125972
21
91.04077
0
ARC
8
DEFAULT_255_2_778
10
6.0042307
20
69.0481596
40
0.6929029
50
89.3182277
51
176.3907866
0
ARC
8
DEFAULT_255_2_778
10
5.9999198
20
69.0620157
40
0.687862
50
177.5201175
51
180.0043183
0
ARC
8
DEFAULT_255_2_778
10
6.011552
20
69.0619899
40
0.6994941
50
180.0021354
51
181.7266432
0
ARC
8
DEFAULT_255_2_778
10
6.0051602
20
45.4326037
40
0.6928345
50
179.3127925
51
266.3956883
0
ARC
8
DEFAULT_255_2_778
10
5.9913719
20
45.4287699
40
0.6882742
50
267.5212388
51
270.003932
0
ARC
8
DEFAULT_255_2_778
10
5.9913997
20
45.4395042
40
0.6990085
50
270.0015929
51
271.7277823
0
ARC
8
DEFAULT_255_2_778
10
40.6125056
20
45.4409833
40
0.7001699
50
270.0057163
51
359.9942837
0
ARC
8
DEFAULT_255_2_778
10
40.6198216
20
69.0491582
40
0.6929029
50
359.3182277
51
86.3907866
0
ARC
8
DEFAULT_255_2_778
10
40.6336777
20
69.0534691
40
0.687862
50
87.5201175
51
90.0043183
0
ARC
8
DEFAULT_255_2_778
10
40.6336519
20
69.0418369
40
0.6994941
50
90.0021354
51
91.7266432
0
LINE
8
DEFAULT_255_2_778
10
5.3123755
20
69.0409134
11
5.3123755
21
45.4409134
0
LINE
8
DEFAULT_255_2_778
10
6.0124755
20
44.7408134
11
40.6125755
21
44.7408134
0
LINE
8
DEFAULT_255_2_778
10
41.3126755
20
45.4409134
11
41.3126755
21
69.0409134
0
LINE
8
DEFAULT_255_2_778
10
8.4161755
20
3.9060134
11
7.7124755
21
3.7407134
0
LINE
8
DEFAULT_255_2_778
10
94.0126755
20
49.4408134
11
95.5125755
21
49.4408134
0
LINE
8
DEFAULT_255_2_778
10
95.5125755
20
49.9409134
11
95.5125755
21
48.9408134
0
LINE
8
DEFAULT_255_2_778
10
95.8123755
20
49.9409134
11
94.0123755
21
49.9409134
0
ARC
8
DEFAULT_255_2_778
10
90.8805975
20
50.4347149
40
0.4938664
50
181.0141699
51
270.7468308
0
ARC
8
DEFAULT_255_2_778
10
90.8865582
20
50.4259561
40
0.4997497
50
178.2760592
51
179.9979882
0
ARC
8
DEFAULT_255_2_778
10
90.8807286
20
54.4475639
40
0.4937377
50
91.0296041
51
180.7628251
0
ARC
8
DEFAULT_255_2_778
10
90.8718445
20
54.4420945
40
0.4991273
50
88.25602
51
89.9986014
0
LINE
8
DEFAULT_255_2_778
10
94.0126347
20
54.9407905
11
95.8125347
21
54.9407905
0
LINE
8
DEFAULT_255_2_778
10
89.5125347
20
55.4407905
11
92.0126347
21
55.4407905
0
LINE
8
DEFAULT_255_2_778
10
92.0126347
20
55.4407905
11
92.0126347
21
49.4408905
0
LINE
8
DEFAULT_255_2_778
10
92.0126347
20
49.4408905
11
89.5125347
21
49.4408905
0
LINE
8
DEFAULT_255_2_778
10
89.5125347
20
49.4408905
11
89.5125347
21
55.4407905
0
LINE
8
DEFAULT_255_2_778
10
94.0126347
20
48.9407905
11
95.8125347
21
48.9407905
0
LINE
8
DEFAULT_255_2_778
10
95.8125347
20
48.9407905
11
95.8125347
21
55.9408905
0
LINE
8
DEFAULT_255_2_778
10
95.8125347
20
55.9408905
11
94.0126347
21
55.9408905
0
LINE
8
DEFAULT_255_2_778
10
92.0126347
20
49.9408905
11
90.8870347
21
49.9408905
0
LINE
8
DEFAULT_255_2_778
10
90.3870347
20
50.4409905
11
90.3870347
21
54.4409905
0
LINE
8
DEFAULT_255_2_778
10
90.8870347
20
54.9409905
11
92.0126347
21
54.9409905
0
LINE
8
DEFAULT_255_2_778
10
94.0126347
20
55.4407905
11
95.5125347
21
55.4407905
0
LINE
8
DEFAULT_255_2_778
10
95.5125347
20
55.9408905
11
95.5125347
21
54.9407905
0
LINE
8
DEFAULT_255_2_778
10
83.2125347
20
56.7409905
11
80.2125347
21
56.7409905
0
LINE
8
DEFAULT_255_2_778
10
80.2125347
20
55.2410905
11
83.2125347
21
55.2410905
0
LINE
8
DEFAULT_255_2_778
10
87.7126347
20
56.7409905
11
84.7125347
21
56.7409905
0
LINE
8
DEFAULT_255_2_778
10
84.7125347
20
55.2410905
11
87.7126347
21
55.2410905
0
LINE
8
DEFAULT_255_2_778
10
78.7125347
20
56.7409905
11
75.7124347
21
56.7409905
0
LINE
8
DEFAULT_255_2_778
10
75.7124347
20
55.2410905
11
78.7125347
21
55.2410905
0
ARC
8
DEFAULT_255_2_778
10
87.2187543
20
92.7471861
40
0.4938898
50
1.016631
51
90.7556985
0
ARC
8
DEFAULT_255_2_778
10
87.2128704
20
92.7559666
40
0.4996961
50
358.2759659
51
359.9979862
0
ARC
8
DEFAULT_255_2_778
10
87.2186283
20
44.7344789
40
0.4937556
50
271.0206695
51
0.7605643
0
ARC
8
DEFAULT_255_2_778
10
87.2274358
20
44.7402694
40
0.4994677
50
268.2566143
51
269.9986021
0
ARC
8
DEFAULT_255_2_778
10
85.2056671
20
44.734727
40
0.4937377
50
181.0296041
51
270.7628251
0
ARC
8
DEFAULT_255_2_778
10
85.2111364
20
44.7258428
40
0.4991273
50
178.25602
51
179.9986014
0
ARC
8
DEFAULT_255_2_778
10
85.212316
20
92.7409573
40
0.5000756
50
90.0086621
51
180.0027902
0
LINE
8
DEFAULT_255_2_778
10
87.7123404
20
69.240933
11
84.7122404
21
69.240933
0
LINE
8
DEFAULT_255_2_778
10
84.7122404
20
67.741033
11
87.7123404
21
67.741033
0
LINE
8
DEFAULT_255_2_778
10
87.7123404
20
92.740933
11
87.7123404
21
44.741033
0
LINE
8
DEFAULT_255_2_778
10
87.2122404
20
44.241033
11
85.2122404
21
44.241033
0
LINE
8
DEFAULT_255_2_778
10
84.7122404
20
44.741033
11
84.7122404
21
92.740933
0
LINE
8
DEFAULT_255_2_778
10
85.2122404
20
93.241033
11
87.2122404
21
93.241033
0
LINE
8
DEFAULT_255_2_778
10
6.0124404
20
69.741033
11
40.6125404
21
69.741033
0
ARC
8
DEFAULT_255_2_778
10
91.7191324
20
92.7469762
40
0.4938259
50
1.0099283
51
90.7631009
0
ARC
8
DEFAULT_255_2_778
10
91.7128055
20
92.7556978
40
0.5000762
50
358.276606
51
359.9979877
0
ARC
8
DEFAULT_255_2_778
10
89.7064024
20
92.7471723
40
0.4938898
50
91.016631
51
180.7556985
0
ARC
8
DEFAULT_255_2_778
10
89.6976219
20
92.7412884
40
0.4996961
50
88.2759659
51
89.9979862
0
LINE
8
DEFAULT_255_2_778
10
87.7126555
20
82.2406583
11
84.7125555
21
82.2406583
0
LINE
8
DEFAULT_255_2_778
10
84.7125555
20
80.2406583
11
87.7126555
21
80.2406583
0
LINE
8
DEFAULT_255_2_778
10
92.2126555
20
82.2406583
11
89.2125555
21
82.2406583
0
LINE
8
DEFAULT_255_2_778
10
89.2125555
20
80.2406583
11
92.2126555
21
80.2406583
0
LINE
8
DEFAULT_255_2_778
10
92.2126555
20
92.7406583
11
92.2126555
21
69.2406583
0
LINE
8
DEFAULT_255_2_778
10
92.2126555
20
69.2406583
11
89.2125555
21
69.2406583
0
LINE
8
DEFAULT_255_2_778
10
89.2125555
20
69.2406583
11
89.2125555
21
92.7406583
0
LINE
8
DEFAULT_255_2_778
10
89.7126555
20
93.2407583
11
91.7125555
21
93.2407583
0
LINE
8
DEFAULT_255_2_778
10
78.7125555
20
82.2409583
11
75.7124555
21
82.2409583
0
LINE
8
DEFAULT_255_2_778
10
75.7124555
20
80.2409583
11
78.7125555
21
80.2409583
0
LINE
8
DEFAULT_255_2_778
10
83.2125555
20
82.2409583
11
80.2125555
21
82.2409583
0
LINE
8
DEFAULT_255_2_778
10
80.2125555
20
80.2409583
11
83.2125555
21
80.2409583
0
LINE
8
DEFAULT_255_2_778
10
90.8124555
20
83.2407583
11
92.2124555
21
83.2407583
0
LINE
8
DEFAULT_255_2_778
10
90.8124555
20
79.7408583
11
92.2124555
21
79.7408583
0
LINE
8
DEFAULT_255_2_778
10
94.0123555
20
83.2407583
11
97.7059555
21
83.2407583
0
ARC
8
DEFAULT_255_2_778
10
43.6122851
20
90.2405278
40
0.7002339
50
0.0109445
51
89.9890473
0
ARC
8
DEFAULT_255_2_778
10
45.6122065
20
90.5406491
40
0.7002124
50
0.0092046
51
89.9826191
0
ARC
8
DEFAULT_255_2_778
10
8.5121686
20
32.395407
40
0.7002722
50
300.001341
51
355.7541609
0
ARC
8
DEFAULT_255_2_778
10
8.4119454
20
30.7207864
40
0.6998264
50
119.9823543
51
179.9938456
0
ARC
8
DEFAULT_255_2_778
10
80.712509
20
92.7410715
40
0.4999901
50
89.9988615
51
180.0011327
0
ARC
8
DEFAULT_255_2_778
10
82.7190524
20
92.7472331
40
0.4938717
50
1.0255497
51
90.7579953
0
ARC
8
DEFAULT_255_2_778
10
82.7134914
20
92.7560901
40
0.4993536
50
358.2753716
51
359.9979852
0
ARC
8
DEFAULT_255_2_778
10
82.7188599
20
44.7345609
40
0.4938018
50
271.0072929
51
0.7542985
0
ARC
8
DEFAULT_255_2_778
10
82.7275584
20
44.7409116
40
0.5000762
50
268.276606
51
269.9979877
0
ARC
8
DEFAULT_255_2_778
10
80.712509
20
44.7410517
40
0.4999901
50
179.9988673
51
270.0011385
0
ARC
8
DEFAULT_255_2_778
10
76.212773
20
92.7410074
40
0.5000541
50
90.0061976
51
179.9937909
0
ARC
8
DEFAULT_255_2_778
10
78.2192524
20
92.7472331
40
0.4938717
50
1.0255497
51
90.7579953
0
ARC
8
DEFAULT_255_2_778
10
78.2136914
20
92.7560901
40
0.4993536
50
358.2753716
51
359.9979852
0
ARC
8
DEFAULT_255_2_778
10
78.2127435
20
44.7411371
40
0.5000754
50
269.9971846
51
359.9913517
0
ARC
8
DEFAULT_255_2_778
10
76.212773
20
44.7411157
40
0.5000541
50
180.0061976
51
269.9938024
0
LINE
8
DEFAULT_255_2_778
10
92.2124189
20
84.7410616
11
90.3124189
21
84.7410616
0
LINE
8
DEFAULT_255_2_778
10
90.3124189
20
80.2410616
11
90.3124189
21
78.0010616
0
LINE
8
DEFAULT_255_2_778
10
90.3124189
20
78.0010616
11
92.2124189
21
78.0010616
0
LINE
8
DEFAULT_255_2_778
10
92.2124189
20
86.0010616
11
90.3124189
21
86.0010616
0
LINE
8
DEFAULT_255_2_778
10
90.3124189
20
86.0010616
11
90.3124189
21
82.2410616
0
LINE
8
DEFAULT_255_2_778
10
43.6124189
20
90.9407616
11
18.8124189
21
90.9407616
0
LINE
8
DEFAULT_255_2_778
10
45.6124189
20
91.2408616
11
44.3125189
21
91.2408616
0
LINE
8
DEFAULT_255_2_778
10
20.0126189
20
91.9909616
11
19.3125189
21
91.9909616
0
LINE
8
DEFAULT_255_2_778
10
8.8623189
20
31.7889616
11
8.0622189
21
31.3269616
0
LINE
8
DEFAULT_255_2_778
10
8.9125189
20
93.2408616
11
8.0124189
21
93.2408616
0
LINE
8
DEFAULT_255_2_778
10
80.7125189
20
93.2410616
11
82.7125189
21
93.2410616
0
LINE
8
DEFAULT_255_2_778
10
83.2126189
20
92.7410616
11
83.2126189
21
44.7410616
0
LINE
8
DEFAULT_255_2_778
10
82.7125189
20
44.2410616
11
80.7125189
21
44.2410616
0
LINE
8
DEFAULT_255_2_778
10
80.2125189
20
44.7410616
11
80.2125189
21
92.7410616
0
LINE
8
DEFAULT_255_2_778
10
83.2126189
20
69.2409616
11
80.2125189
21
69.2409616
0
LINE
8
DEFAULT_255_2_778
10
80.2125189
20
67.7410616
11
83.2126189
21
67.7410616
0
LINE
8
DEFAULT_255_2_778
10
76.2127189
20
93.2410616
11
78.2127189
21
93.2410616
0
LINE
8
DEFAULT_255_2_778
10
78.7128189
20
92.7410616
11
78.7128189
21
44.7410616
0
LINE
8
DEFAULT_255_2_778
10
78.2127189
20
44.2410616
11
76.2127189
21
44.2410616
0
LINE
8
DEFAULT_255_2_778
10
75.7127189
20
44.7410616
11
75.7127189
21
92.7410616
0
LINE
8
DEFAULT_255_2_778
10
78.7128189
20
69.2409616
11
75.7127189
21
69.2409616
0
LINE
8
DEFAULT_255_2_778
10
75.7127189
20
67.7410616
11
78.7128189
21
67.7410616
0
LINE
8
DEFAULT_255_2_778
10
5.7124189
20
94.4909616
11
7.3123189
21
94.4909616
0
LINE
8
DEFAULT_255_2_778
10
7.3123189
20
90.9180616
11
7.3123189
21
96.4909616
0
LINE
8
DEFAULT_255_2_778
10
7.3123189
20
96.4909616
11
5.7124189
21
96.4909616
0
ARC
8
DEFAULT_255_2_778
10
43.612247
20
93.8406757
40
0.700298
50
0.016197
51
89.9838064
0
ARC
8
DEFAULT_255_2_778
10
94.49612
20
19.3160484
40
0.4747747
50
266.6683965
51
269.990947
0
ARC
8
DEFAULT_255_2_778
10
94.4819542
20
19.3194539
40
0.4775666
50
188.7562148
51
268.3890569
0
ARC
8
DEFAULT_255_2_778
10
94.3842633
20
19.2746517
40
0.3753478
50
179.9931577
51
184.2624835
0
ARC
8
DEFAULT_255_2_778
10
94.3973273
20
19.2744729
40
0.3884119
50
172.3805328
51
179.9670132
0
ARC
8
DEFAULT_255_2_778
10
14.4812909
20
2.6412979
40
0.0004945
50
300.9143685
51
20.4877232
0
ARC
8
DEFAULT_255_2_778
10
14.4279289
20
2.6369953
40
0.0540109
50
4.7532794
51
9.8869392
0
ARC
8
DEFAULT_255_2_778
10
14.5349572
20
2.6544944
40
0.0544446
50
181.0234944
51
188.6891551
0
ARC
8
DEFAULT_255_2_778
10
14.5113961
20
2.6536397
40
0.0308751
50
179.9271064
51
180.2186874
0
ARC
8
DEFAULT_255_2_778
10
14.4903804
20
2.6560355
40
0.0101373
50
91.3272529
51
193.4418574
0
ARC
8
DEFAULT_255_2_778
10
14.4896649
20
2.6433954
40
0.0227797
50
72.9476657
51
88.790715
0
LINE
8
DEFAULT_255_2_778
10
43.6124449
20
94.5409737
11
21.9126449
21
94.5409737
0
LINE
8
DEFAULT_255_2_778
10
20.0126449
20
97.4907737
11
19.3125449
21
97.4907737
0
LINE
8
DEFAULT_255_2_778
10
94.3126449
20
8.2809737
11
94.0126449
21
7.9808737
0
LINE
8
DEFAULT_255_2_778
10
14.4963449
20
2.6651737
11
14.8892449
21
3.3408737
0
ENDSEC
0
EOF