0
SECTION
2
HEADER
9
$MEASUREMENT
70
1
0
ENDSEC
0
SECTION
2
TABLES
0
TABLE
2
LTYPE
0
LTYPE
72
65
70
64
2
CONTINUOUS
3
______
73
0
40
0
0
ENDTAB
0
TABLE
2
LAYER
0
LAYER
2
DEFAULT_255_2_778
70
0
62
255
6
CONTINUOUS
0
ENDTAB
0
ENDSEC
0
SECTION
2
ENTITIES
0
ARC
8
DEFAULT_255_2_778
10
1.8356325
20
21.7728584
40
0.6011678
50
180.0042872
51
210.0115542
0
ARC
8
DEFAULT_255_2_778
10
1.8349709
20
21.7728096
40
0.6005062
50
178.1648503
51
179.9996357
0
ARC
8
DEFAULT_255_2_778
10
1.8339424
20
21.7728607
40
0.5994766
50
162.0743163
51
178.1665841
0
ARC
8
DEFAULT_255_2_778
10
1.8353155
20
21.7726585
40
0.6008453
50
114.1841896
51
162.0962775
0
ARC
8
DEFAULT_255_2_778
10
1.8333236
20
21.7731374
40
0.8995488
50
114.054228
51
162.0899694
0
ARC
8
DEFAULT_255_2_778
10
1.8328729
20
21.7730882
40
0.899135
50
162.0781591
51
178.0758622
0
ARC
8
DEFAULT_255_2_778
10
1.8327156
20
21.773102
40
0.8989774
50
178.0763994
51
179.9999724
0
ARC
8
DEFAULT_255_2_778
10
1.8328205
20
21.7730653
40
0.8990822
50
179.9976369
51
210.1365828
0
ARC
8
DEFAULT_255_2_778
10
5.9841907
20
0.2730452
40
0.5000758
50
269.9972237
51
359.991324
0
ARC
8
DEFAULT_255_2_778
10
3.4338504
20
30.7528342
40
0.699584
50
119.9708713
51
180.0052995
0
ARC
8
DEFAULT_255_2_778
10
3.5347342
20
32.4269327
40
0.6997324
50
299.9873414
51
0.0030068
0
ARC
8
DEFAULT_255_2_778
10
3.5349356
20
40.1189225
40
0.699531
50
359.9792773
51
60.0221844
0
ARC
8
DEFAULT_255_2_778
10
3.4340925
20
41.7930444
40
0.6998259
50
180.006132
51
240.0176707
0
ARC
8
DEFAULT_255_2_778
10
3.4345004
20
90.3727355
40
0.7002339
50
90.0109556
51
179.9890403
0
ARC
8
DEFAULT_255_2_778
10
7.8344369
20
95.2729158
40
0.5001536
50
89.996613
51
135.0013621
0
ARC
8
DEFAULT_255_2_778
10
7.8347867
20
95.2728886
40
0.5004203
50
135.0274793
51
179.9907452
0
ARC
8
DEFAULT_255_2_778
10
11.9332566
20
82.5221594
40
0.4989912
50
179.8840201
51
270.1274379
0
ARC
8
DEFAULT_255_2_778
10
11.6714093
20
83.9224779
40
0.2371438
50
179.83291
51
180.0151867
0
ARC
8
DEFAULT_255_2_778
10
11.7336904
20
83.9222964
40
0.2994249
50
179.9772954
51
224.9733475
0
ARC
8
DEFAULT_255_2_778
10
11.7333965
20
83.922256
40
0.2991886
50
225.0076559
51
269.9703814
0
ARC
8
DEFAULT_255_2_778
10
11.7331854
20
83.9393948
40
0.3163275
50
270.0102256
51
270.2139359
0
ARC
8
DEFAULT_255_2_778
10
46.3863988
20
82.428664
40
1.194407
50
54.5513289
51
90.0926922
0
ARC
8
DEFAULT_255_2_778
10
46.3854378
20
82.423764
40
1.1989577
50
5.3438778
51
54.6497258
0
ARC
8
DEFAULT_255_2_778
10
46.3694713
20
82.4233337
40
1.2148953
50
359.9922565
51
5.293957
0
ARC
8
DEFAULT_255_2_778
10
49.726024
20
62.7292804
40
2.1416676
50
179.8237244
51
190.9768516
0
ARC
8
DEFAULT_255_2_778
10
49.1239322
20
62.6084055
40
1.5275808
50
190.8261586
51
202.532315
0
ARC
8
DEFAULT_255_2_778
10
48.5131076
20
62.3495187
40
0.8641925
50
202.1972592
51
218.2554121
0
ARC
8
DEFAULT_255_2_778
10
48.1429079
20
62.0477836
40
0.3867423
50
217.1110022
51
249.0213576
0
ARC
8
DEFAULT_255_2_778
10
48.084911
20
61.9214162
40
0.2481473
50
251.0791783
51
269.897369
0
ARC
8
DEFAULT_255_2_778
10
12.5329833
20
82.3405843
40
0.317417
50
270.0101746
51
270.2135667
0
ARC
8
DEFAULT_255_2_778
10
12.5330254
20
82.3217018
40
0.2985345
50
224.9556865
51
270.0027531
0
ARC
8
DEFAULT_255_2_778
10
12.5326988
20
82.3220283
40
0.2985344
50
179.9972469
51
225.0443135
0
ARC
8
DEFAULT_255_2_778
10
12.5515813
20
82.3219863
40
0.317417
50
179.7864333
51
179.9898254
0
ARC
8
DEFAULT_255_2_778
10
13.6840094
20
82.423221
40
0.999843
50
134.9876198
51
180.0029524
0
ARC
8
DEFAULT_255_2_778
10
13.684315
20
82.4235265
40
0.999843
50
89.9970476
51
135.0123802
0
ARC
8
DEFAULT_255_2_778
10
46.2843737
20
82.4231782
40
1.0001912
50
44.9958871
51
89.9946851
0
ARC
8
DEFAULT_255_2_778
10
46.2843993
20
82.4231864
40
1.0001674
50
359.9990294
51
44.9965927
0
ARC
8
DEFAULT_255_2_778
10
46.2840512
20
62.6731966
40
1.0005153
50
315.0116676
51
359.992721
0
ARC
8
DEFAULT_255_2_778
10
46.2843394
20
62.6734847
40
1.0005154
50
270.007279
51
314.9883324
0
ARC
8
DEFAULT_255_2_778
10
43.9344419
20
61.172894
40
0.5000755
50
89.9971846
51
179.9913517
0
ARC
8
DEFAULT_255_2_778
10
43.9344634
20
50.1728664
40
0.5000969
50
179.9996485
51
270.0003515
0
ARC
8
DEFAULT_255_2_778
10
46.2845136
20
48.6726745
40
1.000095
50
45.0017048
51
90.0026977
0
ARC
8
DEFAULT_255_2_778
10
46.2843993
20
48.6726864
40
1.0001674
50
359.9990294
51
44.9965927
0
ARC
8
DEFAULT_255_2_778
10
46.2882449
20
28.4216504
40
0.9963226
50
318.3541388
51
0.0816049
0
ARC
8
DEFAULT_255_2_778
10
46.2855828
20
28.4206309
40
0.9976376
50
271.732932
51
318.4994886
0
ARC
8
DEFAULT_255_2_778
10
46.2844762
20
28.4417287
40
1.0187592
50
269.9994554
51
271.7592612
0
ARC
8
DEFAULT_255_2_778
10
13.682922
20
28.4194454
40
0.996477
50
228.3575081
51
270.0830578
0
ARC
8
DEFAULT_255_2_778
10
13.6817864
20
28.421948
40
0.9975959
50
181.7327121
51
228.5017548
0
ARC
8
DEFAULT_255_2_778
10
13.7029257
20
28.4230598
40
1.0187592
50
179.9994554
51
181.7592612
0
LINE
8
DEFAULT_255_2_778
10
2.7342665
20
19.0232695
11
1.3150665
21
21.4721695
0
LINE
8
DEFAULT_255_2_778
10
1.5891665
20
22.3207695
11
2.7340665
21
22.8326695
0
LINE
8
DEFAULT_255_2_778
10
2.7340665
20
22.8326695
11
2.6114665
21
23.1065695
0
LINE
8
DEFAULT_255_2_778
10
2.6114665
20
23.1065695
11
1.4666665
21
22.5945695
0
LINE
8
DEFAULT_255_2_778
10
1.0552665
20
21.3216695
11
2.7340665
21
18.4249695
0
LINE
8
DEFAULT_255_2_778
10
6.4842665
20
2.2729695
11
6.4842665
21
0.2729695
0
LINE
8
DEFAULT_255_2_778
10
5.9841665
20
-0.2270305
11
4.7342665
21
-0.2270305
0
LINE
8
DEFAULT_255_2_778
10
4.7342665
20
-0.2270305
11
2.7342665
21
3.7728695
0
LINE
8
DEFAULT_255_2_778
10
2.7342665
20
3.7728695
11
2.7342665
21
30.7527695
0
LINE
8
DEFAULT_255_2_778
10
3.0843665
20
31.3588695
11
3.8844665
21
31.8208695
0
LINE
8
DEFAULT_255_2_778
10
4.2344665
20
32.4269695
11
4.2344665
21
40.1186695
0
LINE
8
DEFAULT_255_2_778
10
3.8844665
20
40.7248695
11
3.0843665
21
41.1868695
0
LINE
8
DEFAULT_255_2_778
10
2.7342665
20
41.7929695
11
2.7342665
21
90.3728695
0
LINE
8
DEFAULT_255_2_778
10
3.4343665
20
91.0729695
11
7.3343665
21
91.0729695
0
LINE
8
DEFAULT_255_2_778
10
7.3343665
20
95.2729695
11
7.3343665
21
91.0729695
0
LINE
8
DEFAULT_255_2_778
10
7.3343665
20
91.0729695
11
8.0343665
21
90.3728695
0
LINE
8
DEFAULT_255_2_778
10
11.9343665
20
82.0231695
11
11.9343665
21
82.0231695
0
LINE
8
DEFAULT_255_2_778
10
11.4342665
20
82.5231695
11
11.4342665
21
83.9231695
0
LINE
8
DEFAULT_255_2_778
10
11.7343665
20
83.6230695
11
11.7343665
21
83.6230695
0
LINE
8
DEFAULT_255_2_778
10
11.7343665
20
83.6230695
11
46.3844665
21
83.6230695
0
LINE
8
DEFAULT_255_2_778
10
47.5843665
20
82.4231695
11
47.5843665
21
62.7358695
0
LINE
8
DEFAULT_255_2_778
10
48.0844665
20
61.6732695
11
51.4160665
21
61.6732695
0
LINE
8
DEFAULT_255_2_778
10
12.2341665
20
44.6729695
11
12.2341665
21
43.8890695
0
LINE
8
DEFAULT_255_2_778
10
12.2341665
20
27.2231695
11
12.2341665
21
32.9730695
0
LINE
8
DEFAULT_255_2_778
10
12.5341665
20
82.0231695
11
12.5341665
21
82.0231695
0
LINE
8
DEFAULT_255_2_778
10
12.2341665
20
82.3231695
11
12.2341665
21
83.6230695
0
LINE
8
DEFAULT_255_2_778
10
12.6841665
20
81.8731695
11
12.6841665
21
82.4231695
0
LINE
8
DEFAULT_255_2_778
10
13.6843665
20
83.4233695
11
46.2844665
21
83.4233695
0
LINE
8
DEFAULT_255_2_778
10
47.2845665
20
82.4231695
11
47.2845665
21
62.6730695
0
LINE
8
DEFAULT_255_2_778
10
46.2844665
20
61.6729695
11
43.9344665
21
61.6729695
0
LINE
8
DEFAULT_255_2_778
10
43.4343665
20
61.1729695
11
43.4343665
21
50.1728695
0
LINE
8
DEFAULT_255_2_778
10
43.9344665
20
49.6727695
11
46.2844665
21
49.6727695
0
LINE
8
DEFAULT_255_2_778
10
47.2845665
20
48.6726695
11
47.2845665
21
28.4230695
0
LINE
8
DEFAULT_255_2_778
10
46.2844665
20
27.4229695
11
13.6843665
21
27.4229695
0
LINE
8
DEFAULT_255_2_778
10
12.6841665
20
28.4230695
11
12.6841665
21
32.9730695
0
LINE
8
DEFAULT_255_2_778
10
13.8343665
20
89.5730695
11
13.8343665
21
98.2730695
0
LINE
8
DEFAULT_255_2_778
10
13.834353
20
90.2731675
11
19.934353
21
90.2731675
0
LINE
8
DEFAULT_255_2_778
10
19.934353
20
90.2731675
11
19.986953
21
89.5730675
0
LINE
8
DEFAULT_255_2_778
10
36.934353
20
0.2730675
11
36.934353
21
1.0731675
0
LINE
8
DEFAULT_255_2_778
10
36.934353
20
1.0731675
11
80.734253
21
1.0731675
0
LINE
8
DEFAULT_255_2_778
10
80.734253
20
1.0731675
11
80.734253
21
0.2730675
0
ARC
8
DEFAULT_255_2_778
10
46.2341251
20
50.9730977
40
0.3001094
50
270.0208901
51
359.9791099
0
ARC
8
DEFAULT_255_2_778
10
46.2341037
20
60.3730574
40
0.3001308
50
0.0058767
51
89.975024
0
ARC
8
DEFAULT_255_2_778
10
47.2342461
20
58.6728998
40
0.5000116
50
180.0013268
51
270.0101312
0
ARC
8
DEFAULT_255_2_778
10
47.23431
20
52.6729127
40
0.5000755
50
89.9971846
51
179.9913517
0
ARC
8
DEFAULT_255_2_778
10
47.2342794
20
58.6731331
40
0.1999449
50
179.9842058
51
270.0157942
0
LINE
8
DEFAULT_255_2_778
10
46.5342346
20
50.9729882
11
46.5342346
21
53.1729882
0
LINE
8
DEFAULT_255_2_778
10
46.5342346
20
58.1730882
11
46.5342346
21
60.3730882
0
LINE
8
DEFAULT_255_2_778
10
46.7342346
20
61.7809882
11
46.7342346
21
58.6728882
0
LINE
8
DEFAULT_255_2_778
10
46.7342346
20
52.6729882
11
46.7342346
21
49.5648882
0
LINE
8
DEFAULT_255_2_778
10
47.0343346
20
62.0140882
11
47.0343346
21
58.6731882
0
LINE
8
DEFAULT_255_2_778
10
47.2343346
20
58.4731882
11
49.0342346
21
58.4731882
0
LINE
8
DEFAULT_255_2_778
10
9.7341346
20
2.2729882
11
3.4841346
21
2.2729882
0
LINE
8
DEFAULT_255_2_778
10
3.4841346
20
2.2729882
11
3.9167346
21
2.9730882
0
LINE
8
DEFAULT_255_2_778
10
6.4842346
20
0.7730882
11
4.2342346
21
0.7730882
0
LINE
8
DEFAULT_255_2_778
10
7.4343346
20
1.7731882
11
7.8344346
21
1.7731882
0
LINE
8
DEFAULT_255_2_778
10
46.0484346
20
60.3730882
11
45.7494346
21
60.6720882
0
LINE
8
DEFAULT_255_2_778
10
90.8344346
20
97.4729882
11
67.5421346
21
97.4729882
0
LINE
8
DEFAULT_255_2_778
10
67.5421346
20
97.4729882
11
67.5948346
21
96.7728882
0
LINE
8
DEFAULT_255_2_778
10
88.9342346
20
8.5229882
11
91.5628346
21
8.5229882
0
LINE
8
DEFAULT_255_2_778
10
91.5628346
20
8.5229882
11
91.5628346
21
8.2729882
0
LINE
8
DEFAULT_255_2_778
10
80.4342346
20
0.2729882
11
80.4342346
21
1.0730882
0
ARC
8
DEFAULT_255_2_778
10
117.3342692
20
97.5728684
40
0.7001699
50
0.0057163
51
89.9942837
0
ARC
8
DEFAULT_255_2_778
10
117.5343851
20
39.8728922
40
0.500054
50
270.0061838
51
359.9938162
0
ARC
8
DEFAULT_255_2_778
10
117.4346078
20
23.7736001
40
0.2994383
50
44.9468036
51
90.0514071
0
ARC
8
DEFAULT_255_2_778
10
117.4350009
20
23.7732069
40
0.2994383
50
359.9485929
51
45.0531964
0
ARC
8
DEFAULT_255_2_778
10
117.0342051
20
0.9731721
40
0.700234
50
270.0109655
51
359.9890444
0
ARC
8
DEFAULT_255_2_778
10
11.1776658
20
0.7728626
40
0.4999244
50
209.9817615
51
270.0083967
0
LINE
8
DEFAULT_255_2_778
10
85.5343391
20
0.2729382
11
85.5343391
21
98.2730382
0
LINE
8
DEFAULT_255_2_778
10
85.5343391
20
98.2730382
11
117.3343391
21
98.2730382
0
LINE
8
DEFAULT_255_2_778
10
118.0344391
20
97.5729382
11
118.0344391
21
39.8728382
0
LINE
8
DEFAULT_255_2_778
10
117.5344391
20
39.3728382
11
111.1344391
21
39.3728382
0
LINE
8
DEFAULT_255_2_778
10
45.7495391
20
50.6739382
11
46.0484391
21
50.9729382
0
LINE
8
DEFAULT_255_2_778
10
93.3525391
20
97.5729382
11
93.2390391
21
98.2730382
0
LINE
8
DEFAULT_255_2_778
10
93.2390391
20
98.2730382
11
90.8342391
21
97.4729382
0
LINE
8
DEFAULT_255_2_778
10
90.8342391
20
97.4729382
11
90.9477391
21
96.7728382
0
LINE
8
DEFAULT_255_2_778
10
88.9342391
20
18.0230382
11
91.5628391
21
18.0230382
0
LINE
8
DEFAULT_255_2_778
10
91.5628391
20
18.0230382
11
91.5628391
21
18.2731382
0
LINE
8
DEFAULT_255_2_778
10
115.7344391
20
24.0730382
11
117.4343391
21
24.0730382
0
LINE
8
DEFAULT_255_2_778
10
117.7344391
20
23.7729382
11
117.7344391
21
0.9730382
0
LINE
8
DEFAULT_255_2_778
10
117.0343391
20
0.2729382
11
11.1777391
21
0.2729382
0
LINE
8
DEFAULT_255_2_778
10
10.7446391
20
0.5230382
11
9.7341391
21
2.2729382
0
LINE
8
DEFAULT_255_2_778
10
9.7341391
20
2.2729382
11
10.1381391
21
2.9730382
0
LINE
8
DEFAULT_255_2_778
10
91.5628391
20
92.7731382
11
91.5628391
21
92.5231382
0
LINE
8
DEFAULT_255_2_778
10
91.5628391
20
92.5231382
11
88.9342391
21
92.5231382
0
LINE
8
DEFAULT_255_2_778
10
88.9342391
20
83.0229382
11
91.5628391
21
83.0229382
0
LINE
8
DEFAULT_255_2_778
10
91.5628391
20
83.0229382
11
91.5628391
21
82.7729382
0
LINE
8
DEFAULT_255_2_778
10
3.4344391
20
3.9382382
11
2.7343391
21
3.7728382
0
ARC
8
DEFAULT_255_2_778
10
44.3844212
20
30.0730342
40
0.3999751
50
269.9821153
51
0.0035626
0
ARC
8
DEFAULT_255_2_778
10
44.3842717
20
30.0730345
40
0.4001247
50
0.0035242
51
89.9964687
0
ARC
8
DEFAULT_255_2_778
10
15.284421
20
30.0730345
40
0.4001246
50
90.0035313
51
179.9964758
0
ARC
8
DEFAULT_255_2_778
10
15.2842715
20
30.0730342
40
0.3999751
50
179.9964374
51
270.0178847
0
ARC
8
DEFAULT_255_2_778
10
115.5344875
20
31.3732502
40
0.2000088
50
0.0025484
51
89.9974719
0
ARC
8
DEFAULT_255_2_778
10
11.9340803
20
32.522943
40
0.3002161
50
0.0221609
51
89.9778487
0
ARC
8
DEFAULT_255_2_778
10
4.7295748
20
32.323097
40
0.5000621
50
89.9975313
51
175.0254377
0
ARC
8
DEFAULT_255_2_778
10
115.4344344
20
36.8729246
40
0.2997621
50
314.9995216
51
0.0448182
0
ARC
8
DEFAULT_255_2_778
10
115.4343212
20
36.8728444
40
0.2997853
50
269.976134
51
315.0256554
0
ARC
8
DEFAULT_255_2_778
10
117.2340994
20
37.2728621
40
0.5000969
50
359.9996485
51
90.0003515
0
ARC
8
DEFAULT_255_2_778
10
117.2340994
20
24.672956
40
0.5000969
50
269.9996485
51
0.0003515
0
LINE
8
DEFAULT_255_2_778
10
44.3842964
20
30.4731591
11
15.2843964
21
30.4731591
0
LINE
8
DEFAULT_255_2_778
10
15.2843964
20
29.6730591
11
44.3842964
21
29.6730591
0
LINE
8
DEFAULT_255_2_778
10
115.5344964
20
31.5732591
11
111.1343964
21
31.5732591
0
LINE
8
DEFAULT_255_2_778
10
111.1343964
20
31.5732591
11
111.1343964
21
45.6731591
0
LINE
8
DEFAULT_255_2_778
10
111.1343964
20
45.6731591
11
116.2344964
21
45.6731591
0
LINE
8
DEFAULT_255_2_778
10
115.7341964
20
31.5732591
11
116.2342964
21
31.5732591
0
LINE
8
DEFAULT_255_2_778
10
11.9341964
20
32.8231591
11
4.7295964
21
32.8231591
0
LINE
8
DEFAULT_255_2_778
10
115.7341964
20
35.8729591
11
114.3342964
21
35.8729591
0
LINE
8
DEFAULT_255_2_778
10
115.4341964
20
36.5730591
11
114.2924964
21
36.5730591
0
LINE
8
DEFAULT_255_2_778
10
114.2924964
20
36.5730591
11
114.2744964
21
36.5754591
0
LINE
8
DEFAULT_255_2_778
10
114.2744964
20
36.5754591
11
114.2535964
21
36.5820591
0
LINE
8
DEFAULT_255_2_778
10
114.2535964
20
36.5820591
11
114.2302964
21
36.5923591
0
LINE
8
DEFAULT_255_2_778
10
114.2302964
20
36.5923591
11
114.2051964
21
36.6056591
0
LINE
8
DEFAULT_255_2_778
10
114.2051964
20
36.6056591
11
114.1501964
21
36.6392591
0
LINE
8
DEFAULT_255_2_778
10
114.1501964
20
36.6392591
11
114.0908964
21
36.6796591
0
LINE
8
DEFAULT_255_2_778
10
114.0908964
20
36.6796591
11
114.0286964
21
36.7246591
0
LINE
8
DEFAULT_255_2_778
10
114.0286964
20
36.7246591
11
113.9646964
21
36.7728591
0
LINE
8
DEFAULT_255_2_778
10
113.9646964
20
36.7728591
11
113.8341964
21
36.8733591
0
LINE
8
DEFAULT_255_2_778
10
115.9074964
20
37.8729591
11
115.7341964
21
37.7729591
0
LINE
8
DEFAULT_255_2_778
10
115.7341964
20
37.7729591
11
117.2340964
21
37.7729591
0
LINE
8
DEFAULT_255_2_778
10
117.7341964
20
37.2728591
11
117.7341964
21
24.6729591
0
LINE
8
DEFAULT_255_2_778
10
117.2340964
20
24.1728591
11
115.7341964
21
24.1728591
0
LINE
8
DEFAULT_255_2_778
10
115.7341964
20
24.1728591
11
115.9074964
21
24.0728591
0
ARC
8
DEFAULT_255_2_778
10
113.3776134
20
43.5155034
40
0.3568584
50
348.3112167
51
0.0806107
0
ARC
8
DEFAULT_255_2_778
10
113.3822657
20
43.5151216
40
0.3522256
50
336.132921
51
348.2186997
0
ARC
8
DEFAULT_255_2_778
10
113.3708618
20
43.520889
40
0.3649886
50
323.8740373
51
336.0293253
0
ARC
8
DEFAULT_255_2_778
10
113.3440845
20
43.5397402
40
0.3977316
50
312.0295755
51
323.9547588
0
ARC
8
DEFAULT_255_2_778
10
113.306976
20
43.5795749
40
0.4521663
50
300.7066439
51
312.1428908
0
ARC
8
DEFAULT_255_2_778
10
113.2652128
20
43.6501419
40
0.5341654
50
290.0985669
51
300.6930482
0
ARC
8
DEFAULT_255_2_778
10
113.2359445
20
43.7369911
40
0.625788
50
269.9945441
51
289.8826201
0
ARC
8
DEFAULT_255_2_778
10
113.2358849
20
43.7229137
40
0.6117106
50
269.839507
51
269.999999
0
ARC
8
DEFAULT_255_2_778
10
3.2344472
20
44.7230812
40
0.5000758
50
180.008676
51
270.0027763
0
ARC
8
DEFAULT_255_2_778
10
11.734417
20
44.7230598
40
0.5000543
50
270.0062367
51
359.9937747
0
ARC
8
DEFAULT_255_2_778
10
117.0432211
20
44.1728778
40
0.4999722
50
206.5494199
51
269.9828392
0
ARC
8
DEFAULT_255_2_778
10
117.5341745
20
44.1730024
40
0.5000969
50
269.9996485
51
0.0003515
0
LINE
8
DEFAULT_255_2_778
10
113.2341714
20
43.1112054
11
111.1341714
21
43.1112054
0
LINE
8
DEFAULT_255_2_778
10
3.2344714
20
44.2230054
11
11.7344714
21
44.2230054
0
LINE
8
DEFAULT_255_2_778
10
12.2344714
20
44.7230054
11
12.2344714
21
70.9570054
0
LINE
8
DEFAULT_255_2_778
10
12.6816714
20
44.6730054
11
12.2318714
21
44.6730054
0
LINE
8
DEFAULT_255_2_778
10
116.4543714
20
47.0731054
11
116.5342714
21
47.0731054
0
LINE
8
DEFAULT_255_2_778
10
116.2342714
20
44.6730054
11
116.5959714
21
43.9494054
0
LINE
8
DEFAULT_255_2_778
10
117.0430714
20
43.6729054
11
117.5341714
21
43.6729054
0
ARC
8
DEFAULT_255_2_778
10
117.0009506
20
37.2753402
40
0.7667267
50
180.0000011
51
180.1655357
0
ARC
8
DEFAULT_255_2_778
10
117.004376
20
37.275277
40
0.7701521
50
164.6980207
51
179.995298
0
ARC
8
DEFAULT_255_2_778
10
116.8020492
20
37.3345258
40
0.5593746
50
146.8481805
51
165.0824361
0
ARC
8
DEFAULT_255_2_778
10
116.6847638
20
37.4029736
40
0.4238041
50
135.8207476
51
145.9244339
0
ARC
8
DEFAULT_255_2_778
10
116.5884614
20
37.492456
40
0.2923937
50
122.1825472
51
135.2445997
0
ARC
8
DEFAULT_255_2_778
10
116.5528113
20
37.5477867
40
0.2265775
50
106.7725605
51
122.0048989
0
ARC
8
DEFAULT_255_2_778
10
116.5418126
20
37.5886993
40
0.1842358
50
90.0582337
51
107.1692302
0
ARC
8
DEFAULT_255_2_778
10
116.5416061
20
37.5920488
40
0.1808862
50
89.3915103
51
89.9939049
0
LINE
8
DEFAULT_255_2_778
10
113.7342271
20
45.673125
11
113.7342271
21
39.373125
0
LINE
8
DEFAULT_255_2_778
10
114.3343271
20
31.573025
11
114.3343271
21
36.573125
0
LINE
8
DEFAULT_255_2_778
10
114.7343271
20
45.673125
11
114.7343271
21
98.273125
0
LINE
8
DEFAULT_255_2_778
10
115.3344271
20
47.523425
11
115.3344271
21
46.873325
0
LINE
8
DEFAULT_255_2_778
10
115.7344271
20
23.773025
11
115.7344271
21
37.873025
0
LINE
8
DEFAULT_255_2_778
10
116.2342271
20
31.455225
11
116.2342271
21
37.273125
0
ARC
8
DEFAULT_255_2_778
10
116.5434091
20
39.5618342
40
0.1886953
50
265.6803632
51
269.9771882
0
ARC
8
DEFAULT_255_2_778
10
116.5449995
20
39.5789109
40
0.2058435
50
253.7022688
51
265.5969362
0
ARC
8
DEFAULT_255_2_778
10
116.5399327
20
39.5620241
40
0.1882134
50
248.4874382
51
253.7401093
0
ARC
8
DEFAULT_255_2_778
10
116.5566937
20
39.6038598
40
0.2332812
50
237.9015723
51
248.4255394
0
ARC
8
DEFAULT_255_2_778
10
116.5924744
20
39.6592144
40
0.2991883
50
224.9776494
51
237.7297737
0
ARC
8
DEFAULT_255_2_778
10
116.6540543
20
39.7177369
40
0.3841201
50
213.4978274
51
224.6601222
0
ARC
8
DEFAULT_255_2_778
10
116.7532723
20
39.7839866
40
0.5034225
50
203.9610462
51
213.5532642
0
ARC
8
DEFAULT_255_2_778
10
116.8633677
20
39.8323878
40
0.6236866
50
195.3166454
51
203.9168281
0
ARC
8
DEFAULT_255_2_778
10
117.0003275
20
39.8703014
40
0.7657968
50
179.9697525
51
195.3457187
0
ARC
8
DEFAULT_255_2_778
10
117.0137918
20
39.8707057
40
0.7792611
50
179.8357989
51
179.9999992
0
ARC
8
DEFAULT_255_2_778
10
116.4903626
20
24.1227515
40
0.2439716
50
347.8107294
51
0.0909835
0
ARC
8
DEFAULT_255_2_778
10
116.4896727
20
37.8232534
40
0.2446614
50
359.9263646
51
12.1718655
0
ARC
8
DEFAULT_255_2_778
10
117.4345246
20
39.0730296
40
0.3001094
50
45.0270021
51
90.0173076
0
ARC
8
DEFAULT_255_2_778
10
117.4343252
20
39.07323
40
0.3001086
50
359.9826105
51
44.9730267
0
ARC
8
DEFAULT_255_2_778
10
117.4346722
20
38.1728043
40
0.2997619
50
314.999512
51
0.0448454
0
ARC
8
DEFAULT_255_2_778
10
117.4345588
20
38.1727242
40
0.2997853
50
269.976134
51
315.0256554
0
ARC
8
DEFAULT_255_2_778
10
0.7345934
20
7.0407763
40
0.5002596
50
120.0171499
51
179.9699193
0
ARC
8
DEFAULT_255_2_778
10
0.7344309
20
5.2731359
40
0.5000969
50
179.9996485
51
270.0003515
0
ARC
8
DEFAULT_255_2_778
10
48.0973823
20
49.3681883
40
0.3052339
50
92.4688625
51
138.5956587
0
ARC
8
DEFAULT_255_2_778
10
48.3953353
20
49.0712894
40
0.7255295
50
136.5707717
51
154.5503704
0
ARC
8
DEFAULT_255_2_778
10
48.9577387
20
48.7926862
40
1.3531159
50
154.1314231
51
166.406842
0
ARC
8
DEFAULT_255_2_778
10
49.59343
20
48.6329399
40
2.0085542
50
166.2394619
51
177.2960571
0
ARC
8
DEFAULT_255_2_778
10
49.8770552
20
48.6108657
40
2.2929214
50
177.0794212
51
180.0081652
0
ARC
8
DEFAULT_255_2_778
10
46.3897285
20
28.4212067
40
1.194407
50
324.5513289
51
0.0926922
0
ARC
8
DEFAULT_255_2_778
10
46.3848285
20
28.4221676
40
1.1989577
50
275.3438778
51
324.6497258
0
ARC
8
DEFAULT_255_2_778
10
46.3843981
20
28.4381341
40
1.2148953
50
269.9922565
51
275.293957
0
ARC
8
DEFAULT_255_2_778
10
11.7332528
20
26.9069136
40
0.3163276
50
89.7860641
51
89.9897744
0
ARC
8
DEFAULT_255_2_778
10
11.7333958
20
26.9244584
40
0.2987827
50
90.0165924
51
135.0245828
0
ARC
8
DEFAULT_255_2_778
10
11.7330238
20
26.9243562
40
0.2985919
50
134.9602705
51
180.0170946
0
ARC
8
DEFAULT_255_2_778
10
11.7527647
20
26.9243238
40
0.3183329
50
180.0101928
51
180.2132532
0
ARC
8
DEFAULT_255_2_778
10
11.9334239
20
32.3241488
40
0.4989912
50
89.8840201
51
180.1274379
0
LINE
8
DEFAULT_255_2_778
10
116.2345339
20
39.8729389
11
116.2345339
21
45.7908389
0
LINE
8
DEFAULT_255_2_778
10
116.7343339
20
24.1231389
11
116.7343339
21
24.1731389
0
LINE
8
DEFAULT_255_2_778
10
116.7343339
20
37.7729389
11
116.7343339
21
37.8229389
0
LINE
8
DEFAULT_255_2_778
10
117.7344339
20
39.0731389
11
117.7344339
21
38.1730389
0
LINE
8
DEFAULT_255_2_778
10
117.4344339
20
37.8729389
11
111.1344339
21
37.8729389
0
LINE
8
DEFAULT_255_2_778
10
2.7343339
20
8.7730389
11
0.4843339
21
7.4739389
0
LINE
8
DEFAULT_255_2_778
10
0.2343339
20
7.0410389
11
0.2343339
21
5.2731389
0
LINE
8
DEFAULT_255_2_778
10
0.7344339
20
4.7730389
11
2.7343339
21
4.7730389
0
LINE
8
DEFAULT_255_2_778
10
51.4158339
20
49.6731389
11
48.0842339
21
49.6731389
0
LINE
8
DEFAULT_255_2_778
10
47.5841339
20
48.6105389
11
47.5841339
21
28.4231389
0
LINE
8
DEFAULT_255_2_778
10
46.3842339
20
27.2232389
11
11.7344339
21
27.2232389
0
LINE
8
DEFAULT_255_2_778
10
11.4344339
20
26.9231389
11
11.4344339
21
26.9231389
0
LINE
8
DEFAULT_255_2_778
10
11.4344339
20
26.9231389
11
11.4344339
21
32.3230389
0
LINE
8
DEFAULT_255_2_778
10
46.7343339
20
50.6777389
11
46.6586339
21
50.6729389
0
LINE
8
DEFAULT_255_2_778
10
46.6586339
20
50.6729389
11
45.7498339
21
50.6729389
0
ARC
8
DEFAULT_255_2_778
10
47.2342991
20
52.6730057
40
0.2000089
50
90.0025526
51
179.9974415
0
ARC
8
DEFAULT_255_2_778
10
117.2340358
20
33.0731605
40
0.5000543
50
0.0062114
51
89.9937771
0
ARC
8
DEFAULT_255_2_778
10
117.0430278
20
33.0734239
40
0.4997908
50
90.0043154
51
153.4634547
0
ARC
8
DEFAULT_255_2_778
10
11.7345653
20
70.1231803
40
0.4998249
50
359.9810096
51
45.000766
0
ARC
8
DEFAULT_255_2_778
10
11.7343438
20
70.1230191
40
0.5000956
50
44.9958871
51
89.9946851
0
ARC
8
DEFAULT_255_2_778
10
3.2342923
20
70.1233672
40
0.4997474
50
89.9887792
51
135.0206486
0
ARC
8
DEFAULT_255_2_778
10
3.2342117
20
70.1230404
40
0.4999215
50
134.9876238
51
180.0029524
0
ARC
8
DEFAULT_255_2_778
10
44.384187
20
80.7731178
40
0.4001031
50
270.0004471
51
359.9852379
0
ARC
8
DEFAULT_255_2_778
10
44.3841658
20
80.7729904
40
0.4001244
50
0.0034824
51
89.9965104
0
ARC
8
DEFAULT_255_2_778
10
13.7843506
20
80.7730542
40
0.4000605
50
89.9943399
51
180.0056601
0
ARC
8
DEFAULT_255_2_778
10
13.7843293
20
80.7730538
40
0.4000391
50
180.0056111
51
270.0087211
0
ARC
8
DEFAULT_255_2_778
10
3.2342923
20
82.5226621
40
0.4997474
50
224.9793514
51
270.0112208
0
ARC
8
DEFAULT_255_2_778
10
3.2342117
20
82.5229889
40
0.4999215
50
179.9970476
51
225.0123762
0
ARC
8
DEFAULT_255_2_778
10
11.832846
20
28.82223
40
0.7513703
50
11.5922731
51
57.6686316
0
ARC
8
DEFAULT_255_2_778
10
114.826158
20
47.5229122
40
0.5079321
50
359.9890034
51
5.9103063
0
LINE
8
DEFAULT_255_2_778
10
45.7496901
20
50.6740147
11
45.7475901
21
50.6730147
0
LINE
8
DEFAULT_255_2_778
10
45.7475901
20
50.6730147
11
43.4343901
21
50.6730147
0
LINE
8
DEFAULT_255_2_778
10
49.0342901
20
52.8730147
11
47.2342901
21
52.8730147
0
LINE
8
DEFAULT_255_2_778
10
47.0342901
20
52.6730147
11
47.0342901
21
49.3321147
0
LINE
8
DEFAULT_255_2_778
10
45.7496901
20
60.6721147
11
45.7475901
21
60.6732147
0
LINE
8
DEFAULT_255_2_778
10
45.7475901
20
60.6732147
11
45.7475901
21
60.6732147
0
LINE
8
DEFAULT_255_2_778
10
45.7475901
20
60.6732147
11
43.4343901
21
60.6732147
0
LINE
8
DEFAULT_255_2_778
10
45.7494901
20
60.6732147
11
46.7341901
21
60.6732147
0
LINE
8
DEFAULT_255_2_778
10
117.2340901
20
33.5732147
11
117.0429901
21
33.5732147
0
LINE
8
DEFAULT_255_2_778
10
116.5958901
20
33.2967147
11
116.2341901
21
32.5731147
0
LINE
8
DEFAULT_255_2_778
10
11.7343901
20
70.6231147
11
3.2343901
21
70.6231147
0
LINE
8
DEFAULT_255_2_778
10
44.3841901
20
81.1731147
11
13.7843901
21
81.1731147
0
LINE
8
DEFAULT_255_2_778
10
13.7843901
20
80.3730147
11
44.3844901
21
80.3730147
0
LINE
8
DEFAULT_255_2_778
10
12.6841901
20
82.0229147
11
3.2343901
21
82.0229147
0
LINE
8
DEFAULT_255_2_778
10
67.5420901
20
97.4730147
11
19.9342901
21
90.2729147
0
LINE
8
DEFAULT_255_2_778
10
11.7343901
20
44.2648147
11
11.7837901
21
44.2489147
0
LINE
8
DEFAULT_255_2_778
10
11.7837901
20
44.2489147
11
11.8343901
21
44.2436147
0
LINE
8
DEFAULT_255_2_778
10
11.8343901
20
44.2436147
11
11.8848901
21
44.2489147
0
LINE
8
DEFAULT_255_2_778
10
11.8848901
20
44.2489147
11
11.9343901
21
44.2648147
0
ARC
8
DEFAULT_255_2_778
10
51.4755973
20
49.9552215
40
0.2588016
50
0.0000013
51
0.2014803
0
ARC
8
DEFAULT_255_2_778
10
51.4751616
20
49.9555047
40
0.2592375
50
341.6360948
51
359.9374223
0
ARC
8
DEFAULT_255_2_778
10
51.4310333
20
49.9821948
40
0.3097381
50
267.180484
51
339.5216024
0
ARC
8
DEFAULT_255_2_778
10
51.4164149
20
61.3906198
40
0.2826124
50
89.9582947
51
90.125216
0
ARC
8
DEFAULT_255_2_778
10
51.4315829
20
61.3646953
40
0.3088998
50
20.3530069
51
92.7763398
0
ARC
8
DEFAULT_255_2_778
10
51.4557579
20
61.3873495
40
0.2786504
50
0.5103672
51
17.7136275
0
ARC
8
DEFAULT_255_2_778
10
7.8341913
20
32.8731377
40
0.0999939
50
89.9965682
51
180.0607679
0
ARC
8
DEFAULT_255_2_778
10
5.6342035
20
32.8731379
40
0.0999937
50
359.9390854
51
90.0035498
0
ARC
8
DEFAULT_255_2_778
10
7.8341059
20
81.9730401
40
0.0999085
50
179.9475005
51
270.0524185
0
LINE
8
DEFAULT_255_2_778
10
11.9344973
20
70.5812316
11
11.8849973
21
70.5971316
0
LINE
8
DEFAULT_255_2_778
10
11.8849973
20
70.5971316
11
11.8343973
21
70.6024316
0
LINE
8
DEFAULT_255_2_778
10
11.8343973
20
70.6024316
11
11.7838973
21
70.5971316
0
LINE
8
DEFAULT_255_2_778
10
11.7838973
20
70.5971316
11
11.7343973
21
70.5812316
0
LINE
8
DEFAULT_255_2_778
10
7.7341973
20
32.8730316
11
7.7341973
21
32.8230316
0
LINE
8
DEFAULT_255_2_778
10
5.7341973
20
32.8730316
11
5.7341973
21
32.8230316
0
LINE
8
DEFAULT_255_2_778
10
7.7341973
20
81.9731316
11
7.7341973
21
82.0231316
0
ARC
8
DEFAULT_255_2_778
10
5.634227
20
81.9730585
40
0.0999086
50
269.9474921
51
0.0524387
0
LINE
8
DEFAULT_255_2_778
10
5.7341355
20
81.9731499
11
5.7341355
21
82.0231499
0
LINE
8
DEFAULT_255_2_778
10
8.7842355
20
2.2729499
11
8.7842355
21
0.7730499
0
LINE
8
DEFAULT_255_2_778
10
8.7842355
20
0.7730499
11
7.3843355
21
0.7730499
0
LINE
8
DEFAULT_255_2_778
10
7.3843355
20
0.7730499
11
7.3843355
21
2.2729499
0
ARC
8
DEFAULT_255_2_778
10
11.933405
20
44.7219675
40
0.498987
50
179.8860203
51
246.4730232
0
ARC
8
DEFAULT_255_2_778
10
11.9327698
20
70.1243681
40
0.4983529
50
113.4790824
51
180.1618742
0
ARC
8
DEFAULT_255_2_778
10
10.6339226
20
35.0735567
40
0.6004966
50
270.0378177
51
359.952627
0
ARC
8
DEFAULT_255_2_778
10
10.6337728
20
35.0725141
40
0.6006464
50
0.0520945
51
89.9479055
0
ARC
8
DEFAULT_255_2_778
10
11.6846102
20
44.722907
40
0.9997468
50
269.9890368
51
315.0065606
0
ARC
8
DEFAULT_255_2_778
10
11.6847721
20
44.7230689
40
0.9997468
50
314.9934394
51
0.0109632
0
ARC
8
DEFAULT_255_2_778
10
11.6844239
20
70.1233073
40
1.000095
50
359.9973023
51
44.9982952
0
ARC
8
DEFAULT_255_2_778
10
11.684436
20
70.1231928
40
1.0001674
50
45.0034224
51
90.0009797
0
ARC
8
DEFAULT_255_2_778
10
10.6337728
20
79.7737063
40
0.6006464
50
270.0520945
51
359.9479055
0
ARC
8
DEFAULT_255_2_778
10
10.6337943
20
79.7725354
40
0.600625
50
0.0595998
51
89.9499534
0
LINE
8
DEFAULT_255_2_778
10
7.8342189
20
0.7730602
11
7.8342189
21
2.2729602
0
LINE
8
DEFAULT_255_2_778
10
7.4344189
20
2.2729602
11
7.4344189
21
0.7730602
0
LINE
8
DEFAULT_255_2_778
10
9.7344189
20
34.4732602
11
9.7344189
21
35.6731602
0
LINE
8
DEFAULT_255_2_778
10
8.5343189
20
35.6731602
11
8.5343189
21
34.4732602
0
LINE
8
DEFAULT_255_2_778
10
9.7344189
20
43.7231602
11
9.7344189
21
44.2231602
0
LINE
8
DEFAULT_255_2_778
10
8.5343189
20
44.2231602
11
8.5343189
21
43.7231602
0
LINE
8
DEFAULT_255_2_778
10
9.7344189
20
70.6230602
11
9.7344189
21
71.1230602
0
LINE
8
DEFAULT_255_2_778
10
8.5343189
20
71.1230602
11
8.5343189
21
70.6230602
0
LINE
8
DEFAULT_255_2_778
10
9.7344189
20
79.1730602
11
9.7344189
21
80.3729602
0
LINE
8
DEFAULT_255_2_778
10
8.5343189
20
80.3729602
11
8.5343189
21
79.1730602
0
LINE
8
DEFAULT_255_2_778
10
11.4344189
20
44.7229602
11
11.4344189
21
70.1229602
0
LINE
8
DEFAULT_255_2_778
10
12.9843189
20
32.9730602
11
5.2344189
21
32.9730602
0
LINE
8
DEFAULT_255_2_778
10
5.2344189
20
32.9730602
11
5.2344189
21
34.4730602
0
LINE
8
DEFAULT_255_2_778
10
5.2344189
20
34.4730602
11
10.6343189
21
34.4730602
0
LINE
8
DEFAULT_255_2_778
10
10.6343189
20
35.6731602
11
5.2344189
21
35.6731602
0
LINE
8
DEFAULT_255_2_778
10
5.2344189
20
35.6731602
11
5.2344189
21
43.7231602
0
LINE
8
DEFAULT_255_2_778
10
5.2344189
20
43.7231602
11
11.6844189
21
43.7231602
0
LINE
8
DEFAULT_255_2_778
10
12.6845189
20
44.7232602
11
12.6845189
21
70.1232602
0
LINE
8
DEFAULT_255_2_778
10
11.6844189
20
71.1233602
11
5.2344189
21
71.1233602
0
LINE
8
DEFAULT_255_2_778
10
5.2344189
20
71.1233602
11
5.2344189
21
79.1730602
0
LINE
8
DEFAULT_255_2_778
10
5.2344189
20
79.1730602
11
10.6343189
21
79.1730602
0
LINE
8
DEFAULT_255_2_778
10
10.6343189
20
80.3731602
11
5.2344189
21
80.3731602
0
LINE
8
DEFAULT_255_2_778
10
5.2344189
20
80.3731602
11
5.2344189
21
81.8731602
0
LINE
8
DEFAULT_255_2_778
10
5.2344189
20
81.8731602
11
12.9843189
21
81.8731602
0
LINE
8
DEFAULT_255_2_778
10
12.5843189
20
81.8731602
11
12.5843189
21
82.0231602
0
LINE
8
DEFAULT_255_2_778
10
12.2342189
20
82.0231602
11
12.2342189
21
81.8731602
0
LINE
8
DEFAULT_255_2_778
10
43.8829189
20
56.4231602
11
45.0862189
21
56.4231602
0
LINE
8
DEFAULT_255_2_778
10
45.0862189
20
56.4231602
11
45.0862189
21
54.9231602
0
LINE
8
DEFAULT_255_2_778
10
45.0862189
20
54.9231602
11
43.8829189
21
54.9231602
0
LINE
8
DEFAULT_255_2_778
10
43.8829189
20
54.9231602
11
43.8829189
21
56.4231602
0
LINE
8
DEFAULT_255_2_778
10
41.4342189
20
56.1730602
11
39.4342189
21
56.1730602
0
LINE
8
DEFAULT_255_2_778
10
39.4342189
20
56.1730602
11
39.4342189
21
57.0155602
0
LINE
8
DEFAULT_255_2_778
10
39.4342189
20
57.0155602
11
37.8342189
21
55.6730602
0
LINE
8
DEFAULT_255_2_778
10
37.8342189
20
55.6730602
11
39.4342189
21
54.3305602
0
LINE
8
DEFAULT_255_2_778
10
39.4342189
20
54.3305602
11
39.4342189
21
55.1729602
0
LINE
8
DEFAULT_255_2_778
10
39.4342189
20
55.1729602
11
41.4342189
21
55.1729602
0
LINE
8
DEFAULT_255_2_778
10
41.4342189
20
55.1729602
11
41.4342189
21
56.1730602
0
LINE
8
DEFAULT_255_2_778
10
51.7344189
20
61.3898602
11
51.7344189
21
49.9561602
0
LINE
8
DEFAULT_255_2_778
10
48.7343189
20
53.1732602
11
47.2344189
21
53.1732602
0
LINE
8
DEFAULT_255_2_778
10
47.2344189
20
53.1732602
11
47.2344189
21
58.1733602
0
LINE
8
DEFAULT_255_2_778
10
47.2344189
20
58.1733602
11
48.7343189
21
58.1733602
0
LINE
8
DEFAULT_255_2_778
10
48.7343189
20
58.1733602
11
49.0343189
21
58.4733602
0
LINE
8
DEFAULT_255_2_778
10
49.0343189
20
58.4733602
11
49.0343189
21
52.8734602
0
LINE
8
DEFAULT_255_2_778
10
49.0343189
20
52.8734602
11
48.7343189
21
53.1734602
0
LINE
8
DEFAULT_255_2_778
10
48.7343189
20
53.1734602
11
48.7343189
21
58.1735602
0
LINE
8
DEFAULT_255_2_778
10
85.5344189
20
7.5230602
11
85.4344189
21
7.5230602
0
LINE
8
DEFAULT_255_2_778
10
85.5344189
20
4.4229602
11
85.4344189
21
4.4229602
0
LINE
8
DEFAULT_255_2_778
10
85.5344189
20
1.0730602
11
85.4344189
21
1.0730602
0
LINE
8
DEFAULT_255_2_778
10
91.5629189
20
17.0229602
11
91.5629189
21
14.0228602
0
LINE
8
DEFAULT_255_2_778
10
91.5629189
20
14.0228602
11
89.9344189
21
14.0228602
0
LINE
8
DEFAULT_255_2_778
10
89.9344189
20
14.0228602
11
89.9344189
21
17.0229602
0
LINE
8
DEFAULT_255_2_778
10
89.9344189
20
17.0229602
11
91.5629189
21
17.0229602
0
LINE
8
DEFAULT_255_2_778
10
91.5629189
20
12.5231602
11
91.5629189
21
9.5230602
0
LINE
8
DEFAULT_255_2_778
10
91.5629189
20
9.5230602
11
89.9344189
21
9.5230602
0
LINE
8
DEFAULT_255_2_778
10
89.9344189
20
9.5230602
11
89.9344189
21
12.5231602
0
LINE
8
DEFAULT_255_2_778
10
89.9344189
20
12.5231602
11
91.5629189
21
12.5231602
0
LINE
8
DEFAULT_255_2_778
10
85.5344189
20
20.7731602
11
85.4344189
21
20.7731602
0
LINE
8
DEFAULT_255_2_778
10
85.4344189
20
19.0229602
11
85.5344189
21
19.0229602
0
LINE
8
DEFAULT_255_2_778
10
89.3343189
20
18.0230602
11
89.3343189
21
8.5229602
0
LINE
8
DEFAULT_255_2_778
10
91.7344189
20
8.2731602
11
91.7344189
21
18.2730602
0
LINE
8
DEFAULT_255_2_778
10
91.7344189
20
18.2730602
11
88.9343189
21
18.2730602
0
LINE
8
DEFAULT_255_2_778
10
88.9343189
20
18.2730602
11
88.9343189
21
8.2731602
0
LINE
8
DEFAULT_255_2_778
10
88.9343189
20
8.2731602
11
91.7344189
21
8.2731602
0
LINE
8
DEFAULT_255_2_778
10
91.5629189
20
91.5229602
11
89.9344189
21
91.5229602
0
LINE
8
DEFAULT_255_2_778
10
89.9344189
20
91.5229602
11
89.9344189
21
88.5228602
0
LINE
8
DEFAULT_255_2_778
10
89.9344189
20
88.5228602
11
91.5629189
21
88.5228602
0
LINE
8
DEFAULT_255_2_778
10
91.5629189
20
88.5228602
11
91.5629189
21
91.5229602
0
LINE
8
DEFAULT_255_2_778
10
91.5629189
20
87.0229602
11
89.9344189
21
87.0229602
0
LINE
8
DEFAULT_255_2_778
10
89.9344189
20
87.0229602
11
89.9344189
21
84.0228602
0
LINE
8
DEFAULT_255_2_778
10
89.9344189
20
84.0228602
11
91.5629189
21
84.0228602
0
LINE
8
DEFAULT_255_2_778
10
91.5629189
20
84.0228602
11
91.5629189
21
87.0229602
0
LINE
8
DEFAULT_255_2_778
10
88.9343189
20
92.7731602
11
91.7344189
21
92.7731602
0
LINE
8
DEFAULT_255_2_778
10
91.7344189
20
92.7731602
11
91.7344189
21
82.7732602
0
LINE
8
DEFAULT_255_2_778
10
91.7344189
20
82.7732602
11
88.9343189
21
82.7732602
0
LINE
8
DEFAULT_255_2_778
10
88.9343189
20
82.7732602
11
88.9343189
21
92.7731602
0
LINE
8
DEFAULT_255_2_778
10
89.3342837
20
92.5232116
11
89.3342837
21
83.0231116
0
LINE
8
DEFAULT_255_2_778
10
12.6842837
20
28.9732116
11
12.2341837
21
28.9732116
0
LINE
8
DEFAULT_255_2_778
10
12.2341837
20
28.8232116
11
12.6842837
21
28.8232116
0
LINE
8
DEFAULT_255_2_778
10
85.4343837
20
33.1732116
11
85.5343837
21
33.1732116
0
LINE
8
DEFAULT_255_2_778
10
85.5343837
20
31.7730116
11
85.4343837
21
31.7730116
0
LINE
8
DEFAULT_255_2_778
10
85.5343837
20
45.2731116
11
85.4343837
21
45.2731116
0
LINE
8
DEFAULT_255_2_778
10
85.4343837
20
43.8732116
11
85.5343837
21
43.8732116
0
LINE
8
DEFAULT_255_2_778
10
111.1343837
20
71.5843116
11
111.1343837
21
71.3729116
0
LINE
8
DEFAULT_255_2_778
10
111.1343837
20
75.7732116
11
111.1343837
21
75.5618116
0
LINE
8
DEFAULT_255_2_778
10
111.1343837
20
47.5845116
11
111.1343837
21
47.3731116
0
LINE
8
DEFAULT_255_2_778
10
111.1343837
20
51.7731116
11
111.1343837
21
51.5617116
0
LINE
8
DEFAULT_255_2_778
10
116.2341837
20
47.5731116
11
116.2341837
21
51.5731116
0
ARC
8
DEFAULT_255_2_778
10
111.2344043
20
51.0730207
40
0.5000969
50
89.9996485
51
180.0003515
0
ARC
8
DEFAULT_255_2_778
10
111.234383
20
48.0729933
40
0.5000757
50
180.0086621
51
270.0027821
0
LINE
8
DEFAULT_255_2_778
10
112.7343073
20
51.5731177
11
111.2344073
21
51.5731177
0
LINE
8
DEFAULT_255_2_778
10
110.7343073
20
51.0730177
11
110.7343073
21
48.0729177
0
LINE
8
DEFAULT_255_2_778
10
111.2344073
20
47.5729177
11
112.7343073
21
47.5729177
0
LINE
8
DEFAULT_255_2_778
10
112.734322
20
51.7730423
11
110.234322
21
51.7730423
0
LINE
8
DEFAULT_255_2_778
10
110.234322
20
51.7730423
11
110.234322
21
47.3730423
0
LINE
8
DEFAULT_255_2_778
10
110.234322
20
47.3730423
11
112.734322
21
47.3730423
0
LINE
8
DEFAULT_255_2_778
10
112.734322
20
47.3730423
11
112.734322
21
51.7730423
0
LINE
8
DEFAULT_255_2_778
10
116.234322
20
71.5731423
11
116.234322
21
75.5731423
0
ARC
8
DEFAULT_255_2_778
10
111.2344043
20
75.0730207
40
0.5000969
50
89.9996485
51
180.0003515
0
ARC
8
DEFAULT_255_2_778
10
111.234383
20
72.0729933
40
0.5000757
50
180.0086621
51
270.0027821
0
LINE
8
DEFAULT_255_2_778
10
112.7343073
20
75.5731177
11
111.2344073
21
75.5731177
0
LINE
8
DEFAULT_255_2_778
10
110.7343073
20
75.0730177
11
110.7343073
21
72.0729177
0
LINE
8
DEFAULT_255_2_778
10
111.2344073
20
71.5729177
11
112.7343073
21
71.5729177
0
LINE
8
DEFAULT_255_2_778
10
112.7343032
20
75.7732048
11
110.2343032
21
75.7732048
0
LINE
8
DEFAULT_255_2_778
10
110.2343032
20
75.7732048
11
110.2343032
21
71.3731048
0
LINE
8
DEFAULT_255_2_778
10
110.2343032
20
71.3731048
11
112.7343032
21
71.3731048
0
LINE
8
DEFAULT_255_2_778
10
112.7343032
20
71.3731048
11
112.7343032
21
75.7732048
0
LINE
8
DEFAULT_255_2_778
10
116.4343032
20
71.5732048
11
116.4343032
21
71.0731048
0
LINE
8
DEFAULT_255_2_778
10
116.4343032
20
76.0732048
11
116.4343032
21
75.5731048
0
LINE
8
DEFAULT_255_2_778
10
114.7343032
20
51.5730048
11
116.5343032
21
51.5730048
0
LINE
8
DEFAULT_255_2_778
10
116.5343032
20
51.5730048
11
116.5343032
21
52.0731048
0
LINE
8
DEFAULT_255_2_778
10
116.5343032
20
52.0731048
11
114.7343032
21
52.0731048
0
LINE
8
DEFAULT_255_2_778
10
114.7343032
20
46.8730048
11
116.5343032
21
46.8730048
0
LINE
8
DEFAULT_255_2_778
10
116.5343032
20
46.8730048
11
116.5343032
21
47.5731048
0
LINE
8
DEFAULT_255_2_778
10
116.5343032
20
47.5731048
11
114.7343032
21
47.5731048
0
LINE
8
DEFAULT_255_2_778
10
116.4544198
20
51.5730048
11
116.4544198
21
52.0731048
0
LINE
8
DEFAULT_255_2_778
10
116.4544198
20
46.8730048
11
116.4544198
21
47.5731048
0
LINE
8
DEFAULT_255_2_778
10
116.0342198
20
51.5730048
11
116.0342198
21
52.0731048
0
LINE
8
DEFAULT_255_2_778
10
116.0342198
20
46.8730048
11
116.0342198
21
47.5731048
0
LINE
8
DEFAULT_255_2_778
10
114.7343198
20
75.5731048
11
116.5343198
21
75.5731048
0
LINE
8
DEFAULT_255_2_778
10
116.5343198
20
75.5731048
11
116.5343198
21
76.0732048
0
LINE
8
DEFAULT_255_2_778
10
116.5343198
20
76.0732048
11
114.7343198
21
76.0732048
0
LINE
8
DEFAULT_255_2_778
10
114.7343198
20
71.0731048
11
116.5343198
21
71.0731048
0
LINE
8
DEFAULT_255_2_778
10
116.5343198
20
71.0731048
11
116.5343198
21
71.5732048
0
LINE
8
DEFAULT_255_2_778
10
116.5343198
20
71.5732048
11
114.7343198
21
71.5732048
0
LINE
8
DEFAULT_255_2_778
10
116.4543437
20
75.5731195
11
116.4543437
21
76.0732195
0
LINE
8
DEFAULT_255_2_778
10
116.4543437
20
71.0731195
11
116.4543437
21
71.5732195
0
LINE
8
DEFAULT_255_2_778
10
46.5342437
20
52.1731195
11
46.6586437
21
52.1731195
0
LINE
8
DEFAULT_255_2_778
10
46.6586437
20
52.1731195
11
46.6586437
21
52.1731195
0
LINE
8
DEFAULT_255_2_778
10
46.6586437
20
52.1731195
11
46.7342437
21
52.1684195
0
ARC
8
DEFAULT_255_2_778
10
8.3342095
20
97.7732908
40
0.4997474
50
89.9887792
51
135.0206486
0
ARC
8
DEFAULT_255_2_778
10
8.3339548
20
97.7730361
40
0.4997474
50
134.9793514
51
180.0112208
0
ARC
8
DEFAULT_255_2_778
10
46.7341764
20
53.4730691
40
0.3001309
50
270.0249951
51
359.9941098
0
ARC
8
DEFAULT_255_2_778
10
46.7341979
20
57.8729288
40
0.3001094
50
0.0208901
51
89.9791099
0
LINE
8
DEFAULT_255_2_778
10
46.6343073
20
52.1728382
11
46.6343073
21
53.1729382
0
LINE
8
DEFAULT_255_2_778
10
85.4341073
20
0.2729382
11
85.4341073
21
98.2730382
0
LINE
8
DEFAULT_255_2_778
10
85.4341073
20
98.2730382
11
8.3343073
21
98.2730382
0
LINE
8
DEFAULT_255_2_778
10
7.8342073
20
97.7729382
11
7.8342073
21
95.7730382
0
LINE
8
DEFAULT_255_2_778
10
7.8342073
20
95.7730382
11
8.5343073
21
95.0729382
0
LINE
8
DEFAULT_255_2_778
10
85.4344073
20
57.6730382
11
85.5344073
21
57.6730382
0
LINE
8
DEFAULT_255_2_778
10
85.5344073
20
56.2730382
11
85.4344073
21
56.2730382
0
LINE
8
DEFAULT_255_2_778
10
46.5343073
20
59.1729382
11
46.7343073
21
59.1729382
0
LINE
8
DEFAULT_255_2_778
10
46.2342073
20
53.1729382
11
46.7343073
21
53.1729382
0
LINE
8
DEFAULT_255_2_778
10
47.0343073
20
53.4730382
11
47.0343073
21
57.8730382
0
LINE
8
DEFAULT_255_2_778
10
46.7343073
20
58.1730382
11
46.2342073
21
58.1730382
0
ARC
8
DEFAULT_255_2_778
10
114.234285
20
39.8731906
40
0.5000758
50
180.008676
51
270.0027763
0
LINE
8
DEFAULT_255_2_778
10
46.6343093
20
58.1728148
11
46.6343093
21
59.1729148
0
LINE
8
DEFAULT_255_2_778
10
85.5344093
20
69.7729148
11
85.4344093
21
69.7729148
0
LINE
8
DEFAULT_255_2_778
10
85.4344093
20
68.3730148
11
85.5344093
21
68.3730148
0
LINE
8
DEFAULT_255_2_778
10
85.5344093
20
82.0231148
11
85.4344093
21
82.0231148
0
LINE
8
DEFAULT_255_2_778
10
85.5344093
20
80.7730148
11
85.4344093
21
80.7730148
0
LINE
8
DEFAULT_255_2_778
10
85.5344093
20
96.7731148
11
85.4344093
21
96.7731148
0
LINE
8
DEFAULT_255_2_778
10
85.4344093
20
96.5231148
11
85.5344093
21
96.5231148
0
LINE
8
DEFAULT_255_2_778
10
85.4344093
20
95.3229148
11
85.5344093
21
95.3229148
0
LINE
8
DEFAULT_255_2_778
10
85.4344093
20
93.5230148
11
85.5344093
21
93.5230148
0
LINE
8
DEFAULT_255_2_778
10
113.7341688
20
40.8730594
11
113.7976688
21
40.8730594
0
LINE
8
DEFAULT_255_2_778
10
113.7976688
20
40.8730594
11
113.7976688
21
41.8231594
0
LINE
8
DEFAULT_255_2_778
10
113.7976688
20
41.8231594
11
114.2342688
21
41.8231594
0
ARC
8
DEFAULT_255_2_778
10
115.4341644
20
76.2729311
40
0.4999618
50
269.9922692
51
336.4246905
0
LINE
8
DEFAULT_255_2_778
10
113.7341969
20
40.5730693
11
114.2342969
21
40.5730693
0
LINE
8
DEFAULT_255_2_778
10
114.2342969
20
40.5730693
11
114.2342969
21
45.6416693
0
ARC
8
DEFAULT_255_2_778
10
115.934201
20
76.2732067
40
0.5000089
50
269.9972465
51
336.3961286
0
LINE
8
DEFAULT_255_2_778
10
115.934177
20
75.7731977
11
114.734277
21
75.7731977
0
LINE
8
DEFAULT_255_2_778
10
46.658577
20
60.6731977
11
46.734277
21
60.6683977
0
LINE
8
DEFAULT_255_2_778
10
46.734277
20
59.1777977
11
46.658577
21
59.1729977
0
ENDSEC
0
EOF