0
SECTION
2
HEADER
9
$MEASUREMENT
70
1
0
ENDSEC
0
SECTION
2
TABLES
0
TABLE
2
LTYPE
0
LTYPE
72
65
70
64
2
CONTINUOUS
3
______
73
0
40
0
0
ENDTAB
0
TABLE
2
LAYER
0
LAYER
2
DEFAULT_255_2_778
70
0
62
255
6
CONTINUOUS
0
ENDTAB
0
ENDSEC
0
SECTION
2
ENTITIES
0
LINE
8
DEFAULT_255_2_778
10
5.7716146
20
28.38768
11
5.7716146
21
42.88768
0
LINE
8
DEFAULT_255_2_778
10
7.9716146
20
31.38758
11
7.9716146
21
30.98748
0
LINE
8
DEFAULT_255_2_778
10
7.9716146
20
30.98748
11
9.7716146
21
30.98748
0
LINE
8
DEFAULT_255_2_778
10
8.0716146
20
30.98778
11
8.5717146
21
30.48768
0
ARC
8
DEFAULT_255_2_778
10
22.8716084
20
43.3877296
40
0.5000969
50
269.9996485
51
0.0003515
0
LINE
8
DEFAULT_255_2_778
10
23.3717053
20
43.3877327
11
23.3717053
21
44.8876327
0
LINE
8
DEFAULT_255_2_778
10
23.3717053
20
44.8876327
11
33.3716053
21
44.8876327
0
LINE
8
DEFAULT_255_2_778
10
33.3716053
20
44.8876327
11
33.3716053
21
28.3876327
0
LINE
8
DEFAULT_255_2_778
10
33.3716053
20
28.3876327
11
4.7717053
21
28.3876327
0
LINE
8
DEFAULT_255_2_778
10
4.7717053
20
28.3876327
11
4.7717053
21
42.8876327
0
LINE
8
DEFAULT_255_2_778
10
4.7717053
20
42.8876327
11
33.3716053
21
42.8876327
0
LINE
8
DEFAULT_255_2_778
10
38.6717053
20
75.3877327
11
38.6717053
21
75.4877327
0
LINE
8
DEFAULT_255_2_778
10
44.6717053
20
75.3877327
11
44.6717053
21
75.4877327
0
LINE
8
DEFAULT_255_2_778
10
0.1717053
20
74.1875327
11
29.9717053
21
74.1875327
0
LINE
8
DEFAULT_255_2_778
10
29.9717053
20
74.1875327
11
29.9717053
21
45.5877327
0
LINE
8
DEFAULT_255_2_778
10
29.9717053
20
45.5877327
11
0.1717053
21
45.5877327
0
LINE
8
DEFAULT_255_2_778
10
83.1715053
20
45.5877327
11
33.3716053
21
45.5877327
0
LINE
8
DEFAULT_255_2_778
10
33.3716053
20
45.5877327
11
33.3716053
21
74.1875327
0
LINE
8
DEFAULT_255_2_778
10
33.3716053
20
74.1875327
11
83.1715053
21
74.1875327
0
ARC
8
DEFAULT_255_2_778
10
7.5716844
20
29.7827684
40
0.8887561
50
87.6231826
51
90.0070264
0
ARC
8
DEFAULT_255_2_778
10
7.5785815
20
29.8833328
40
0.7879969
50
75.7030441
51
87.8210046
0
ARC
8
DEFAULT_255_2_778
10
7.734475
20
30.2510737
40
0.3861421
50
47.9758734
51
58.7881451
0
ARC
8
DEFAULT_255_2_778
10
7.8171685
20
30.3386773
40
0.2657207
50
34.7203957
51
48.5762403
0
ARC
8
DEFAULT_255_2_778
10
7.8680791
20
30.371079
40
0.2054337
50
19.4616255
51
35.3800151
0
ARC
8
DEFAULT_255_2_778
10
7.8969741
20
30.381554
40
0.1746999
50
1.9256841
51
19.3798218
0
ARC
8
DEFAULT_255_2_778
10
6.2716511
20
28.9878002
40
0.5000758
50
180.008676
51
270.0027763
0
ARC
8
DEFAULT_255_2_778
10
6.2716723
20
42.2875275
40
0.5000969
50
89.9996485
51
180.0003515
0
LINE
8
DEFAULT_255_2_778
10
5.7715754
20
30.6715245
11
7.5715754
21
30.6715245
0
LINE
8
DEFAULT_255_2_778
10
7.7731754
20
30.6469245
11
7.8606754
21
30.6184245
0
LINE
8
DEFAULT_255_2_778
10
7.8606754
20
30.6184245
11
7.9345754
21
30.5813245
0
LINE
8
DEFAULT_255_2_778
10
33.1717754
20
52.8875245
11
30.1716754
21
52.8875245
0
LINE
8
DEFAULT_255_2_778
10
30.1716754
20
66.8877245
11
33.1717754
21
66.8877245
0
LINE
8
DEFAULT_255_2_778
10
29.9703754
20
45.5887245
11
29.9716754
21
45.5874245
0
LINE
8
DEFAULT_255_2_778
10
9.5717754
20
28.4877245
11
9.5717754
21
28.3877245
0
LINE
8
DEFAULT_255_2_778
10
7.9715754
20
28.3877245
11
7.9715754
21
28.4877245
0
LINE
8
DEFAULT_255_2_778
10
9.7715754
20
39.8875245
11
9.7715754
21
40.8876245
0
LINE
8
DEFAULT_255_2_778
10
26.9064754
20
58.6375245
11
29.0715754
21
59.8874245
0
LINE
8
DEFAULT_255_2_778
10
29.0715754
20
59.8874245
11
26.9064754
21
61.1372245
0
LINE
8
DEFAULT_255_2_778
10
26.9064754
20
61.1372245
11
26.9064754
21
58.6372245
0
LINE
8
DEFAULT_255_2_778
10
19.7551448
20
61.1375927
11
20.2927448
21
61.1375927
0
LINE
8
DEFAULT_255_2_778
10
20.2927448
20
61.1375927
11
20.2927448
21
59.6471927
0
ARC
8
DEFAULT_255_2_778
10
21.248681
20
59.634925
40
0.9560149
50
179.2647554
51
191.6790585
0
ARC
8
DEFAULT_255_2_778
10
20.7225057
20
59.5192636
40
0.4173744
50
190.7519144
51
217.1500506
0
ARC
8
DEFAULT_255_2_778
10
20.6120284
20
59.452829
40
0.289525
50
219.8752272
51
273.3297655
0
ARC
8
DEFAULT_255_2_778
10
20.6469886
20
59.4519066
40
0.2886846
50
266.3965861
51
341.6394928
0
ARC
8
DEFAULT_255_2_778
10
20.2917581
20
59.5932478
40
0.6707225
50
339.738444
51
356.4303453
0
ARC
8
DEFAULT_255_2_778
10
19.7783377
20
59.6447116
40
1.1865097
50
355.4936179
51
0.1198118
0
LINE
8
DEFAULT_255_2_778
10
20.9648448
20
59.6471927
11
20.9648448
21
61.1375927
0
LINE
8
DEFAULT_255_2_778
10
20.9648448
20
61.1375927
11
21.5360448
21
61.1375927
0
LINE
8
DEFAULT_255_2_778
10
21.5360448
20
61.1375927
11
21.5360448
21
59.5262927
0
ARC
8
DEFAULT_255_2_778
10
20.2463085
20
59.5134985
40
1.2897998
50
347.7039518
51
0.5683566
0
ARC
8
DEFAULT_255_2_778
10
20.781948
20
59.3906775
40
0.7403151
50
323.5046085
51
348.1630609
0
ARC
8
DEFAULT_255_2_778
10
20.8675237
20
59.3495265
40
0.6472907
50
285.2232879
51
321.9274656
0
ARC
8
DEFAULT_255_2_778
10
20.7258759
20
59.8101236
40
1.1290291
50
271.4982607
51
286.0217332
0
ARC
8
DEFAULT_255_2_778
10
20.6967648
20
60.2609048
40
1.5805122
50
269.9811502
51
272.1259589
0
ARC
8
DEFAULT_255_2_778
10
20.6834173
20
60.1744143
40
1.4940766
50
258.7776711
51
270.4919221
0
ARC
8
DEFAULT_255_2_778
10
20.5578659
20
59.5700147
40
0.8768167
50
238.2011953
51
259.1386832
0
ARC
8
DEFAULT_255_2_778
10
20.4756408
20
59.4101688
40
0.6977831
50
194.9349036
51
237.0231891
0
ARC
8
DEFAULT_255_2_778
10
20.9618236
20
59.5613675
40
1.2066886
50
181.6656521
51
195.9221627
0
LINE
8
DEFAULT_255_2_778
10
19.7556448
20
59.5262927
11
19.7556448
21
61.1375927
0
LINE
8
DEFAULT_255_2_778
10
19.7556448
20
61.1375927
11
19.7551448
21
61.1375927
0
LINE
8
DEFAULT_255_2_778
10
23.6203448
20
59.0865156
11
23.6203448
21
58.7029156
0
LINE
8
DEFAULT_255_2_778
10
23.6203448
20
58.7029156
11
22.1871448
21
58.7029156
0
LINE
8
DEFAULT_255_2_778
10
22.1871448
20
58.7029156
11
22.1871448
21
61.1373156
0
LINE
8
DEFAULT_255_2_778
10
22.1871448
20
61.1373156
11
22.6747448
21
61.1373156
0
LINE
8
DEFAULT_255_2_778
10
22.6747448
20
61.1373156
11
22.6747448
21
59.0863156
0
LINE
8
DEFAULT_255_2_778
10
22.6747448
20
59.0863156
11
23.6206448
21
59.0863156
0
LINE
8
DEFAULT_255_2_778
10
25.3647448
20
59.0865156
11
25.3647448
21
58.7029156
0
LINE
8
DEFAULT_255_2_778
10
25.3647448
20
58.7029156
11
23.9307448
21
58.7029156
0
LINE
8
DEFAULT_255_2_778
10
23.9307448
20
58.7029156
11
23.9307448
21
61.1373156
0
LINE
8
DEFAULT_255_2_778
10
23.9307448
20
61.1373156
11
24.4191448
21
61.1373156
0
LINE
8
DEFAULT_255_2_778
10
24.4191448
20
61.1373156
11
24.4191448
21
59.0863156
0
LINE
8
DEFAULT_255_2_778
10
24.4191448
20
59.0863156
11
25.3650448
21
59.0863156
0
ARC
8
DEFAULT_255_2_778
10
18.4213286
20
58.1807924
40
2.9567851
50
86.0482839
51
90.2564211
0
ARC
8
DEFAULT_255_2_778
10
18.4712049
20
59.0438692
40
2.0923456
50
85.3790801
51
85.7820632
0
ARC
8
DEFAULT_255_2_778
10
18.6004455
20
60.069597
40
1.0605461
50
59.596821
51
87.875
0
ARC
8
DEFAULT_255_2_778
10
18.8167019
20
60.4906835
40
0.5885224
50
24.5868953
51
57.0076401
0
ARC
8
DEFAULT_255_2_778
10
18.6408178
20
60.412752
40
0.7808881
50
8.2494405
51
24.4170405
0
ARC
8
DEFAULT_255_2_778
10
18.381432
20
60.3656814
40
1.0443858
50
4.9032075
51
8.7632756
0
ARC
8
DEFAULT_255_2_778
10
18.6015894
20
60.3544984
40
0.8204246
50
332.9578188
51
359.6193518
0
ARC
8
DEFAULT_255_2_778
10
18.8063736
20
60.2681055
40
0.5989687
50
295.9760426
51
331.4121251
0
ARC
8
DEFAULT_255_2_778
10
18.6689151
20
60.5413608
40
0.9048335
50
280.3623034
51
296.2222128
0
ARC
8
DEFAULT_255_2_778
10
18.5598259
20
61.1068628
40
1.4807448
50
270.4926485
51
280.5786804
0
ARC
8
DEFAULT_255_2_778
10
18.5427027
20
61.5619828
40
1.9360404
50
269.9958923
51
270.8835714
0
ARC
8
DEFAULT_255_2_778
10
18.5428122
20
61.6836943
40
2.0577521
50
268.7985147
51
269.9930873
0
ARC
8
DEFAULT_255_2_778
10
18.5447145
20
61.7864497
40
2.1605247
50
268.4187509
51
268.8052173
0
ARC
8
DEFAULT_255_2_778
10
18.4538076
20
61.2651599
40
1.2547172
50
269.8350718
51
273.2055591
0
ARC
8
DEFAULT_255_2_778
10
18.5404979
20
60.3985832
40
0.386531
50
267.5492149
51
324.5948529
0
ARC
8
DEFAULT_255_2_778
10
18.4787506
20
60.4021057
40
0.440132
50
328.8820529
51
349.5595636
0
ARC
8
DEFAULT_255_2_778
10
18.5770538
20
60.4063523
40
0.3352936
50
2.973931
51
73.5981495
0
ARC
8
DEFAULT_255_2_778
10
18.4944897
20
60.1536584
40
0.6010691
50
72.84981
51
90.9152323
0
ARC
8
DEFAULT_255_2_778
10
18.4851965
20
59.8830681
40
0.8715827
50
90.020233
51
92.3014807
0
LINE
8
DEFAULT_255_2_778
10
19.4219959
20
60.4549479
11
19.4232959
21
60.4014479
0
LINE
8
DEFAULT_255_2_778
10
19.4232959
20
60.4014479
11
19.4219959
21
60.3490479
0
LINE
8
DEFAULT_255_2_778
10
18.4850959
20
59.6267479
11
18.2786959
21
59.6267479
0
LINE
8
DEFAULT_255_2_778
10
18.2786959
20
59.6267479
11
18.2786959
21
58.7028479
0
LINE
8
DEFAULT_255_2_778
10
18.2786959
20
58.7028479
11
17.7902959
21
58.7028479
0
LINE
8
DEFAULT_255_2_778
10
17.7902959
20
58.7028479
11
17.7902959
21
61.1372479
0
LINE
8
DEFAULT_255_2_778
10
17.7902959
20
61.1372479
11
18.4080959
21
61.1375479
0
LINE
8
DEFAULT_255_2_778
10
18.9115959
20
60.3223479
11
18.9141959
21
60.3729479
0
LINE
8
DEFAULT_255_2_778
10
18.9141959
20
60.3729479
11
18.9118959
21
60.4237479
0
LINE
8
DEFAULT_255_2_778
10
18.4501959
20
60.7539479
11
18.2789959
21
60.7539479
0
LINE
8
DEFAULT_255_2_778
10
18.2789959
20
60.7539479
11
18.2789959
21
60.0104479
0
LINE
8
DEFAULT_255_2_778
10
18.2789959
20
60.0104479
11
18.4501959
21
60.0104479
0
LINE
8
DEFAULT_255_2_778
10
36.4368573
20
58.6375239
11
34.2717573
21
59.8874239
0
LINE
8
DEFAULT_255_2_778
10
34.2717573
20
59.8874239
11
36.4368573
21
61.1373239
0
LINE
8
DEFAULT_255_2_778
10
36.4368573
20
61.1373239
11
36.4368573
21
58.6373239
0
ARC
8
DEFAULT_255_2_778
10
11.0714588
20
30.8874868
40
0.5000757
50
359.9972139
51
89.9913281
0
ARC
8
DEFAULT_255_2_778
10
11.0714802
20
30.8875168
40
0.5000542
50
270.0062131
51
359.993773
0
LINE
8
DEFAULT_255_2_778
10
5.7716345
20
31.3875625
11
11.0715345
21
31.3875625
0
LINE
8
DEFAULT_255_2_778
10
11.0715345
20
30.3874625
11
5.7716345
21
30.3874625
0
LINE
8
DEFAULT_255_2_778
10
11.2717323
20
30.4350229
11
11.2717323
21
31.3404229
0
LINE
8
DEFAULT_255_2_778
10
11.2717323
20
28.3877229
11
11.2717323
21
28.4877229
0
LINE
8
DEFAULT_255_2_778
10
9.7715323
20
30.3874229
11
9.7715323
21
31.3875229
0
LINE
8
DEFAULT_255_2_778
10
9.7715323
20
28.3877229
11
9.7715323
21
28.4877229
0
LINE
8
DEFAULT_255_2_778
10
8.0716323
20
30.3874229
11
8.0716323
21
31.3875229
0
ARC
8
DEFAULT_255_2_778
10
11.0714588
20
40.3875868
40
0.5000757
50
359.9972139
51
89.9913281
0
ARC
8
DEFAULT_255_2_778
10
11.0714802
20
40.3876168
40
0.5000542
50
270.0062131
51
359.993773
0
LINE
8
DEFAULT_255_2_778
10
5.7716345
20
40.8876625
11
11.0715345
21
40.8876625
0
LINE
8
DEFAULT_255_2_778
10
11.0715345
20
39.8875625
11
5.7716345
21
39.8875625
0
LINE
8
DEFAULT_255_2_778
10
11.2717261
20
40.8402625
11
11.2717261
21
39.9348625
0
LINE
8
DEFAULT_255_2_778
10
7.9716261
20
40.8876625
11
7.9716261
21
39.8875625
0
ARC
8
DEFAULT_255_2_778
10
32.6714761
20
42.2875618
40
0.5000969
50
359.9996485
51
90.0003515
0
ARC
8
DEFAULT_255_2_778
10
32.6714973
20
28.9875344
40
0.5000758
50
269.9972237
51
359.991324
0
ARC
8
DEFAULT_255_2_778
10
32.6714774
20
66.3877051
40
0.5000956
50
314.9958871
51
359.9946851
0
ARC
8
DEFAULT_255_2_778
10
32.6716386
20
66.387484
40
0.4998253
50
269.9810259
51
315.0007439
0
ARC
8
DEFAULT_255_2_778
10
30.6713114
20
66.3872523
40
0.4995936
50
224.9882566
51
270.018537
0
ARC
8
DEFAULT_255_2_778
10
30.6715687
20
66.3877051
40
0.5000956
50
180.0053149
51
225.0041129
0
LINE
8
DEFAULT_255_2_778
10
5.771573
20
42.7876587
11
32.671473
21
42.7876587
0
LINE
8
DEFAULT_255_2_778
10
33.171573
20
42.2875587
11
33.171573
21
28.9874587
0
LINE
8
DEFAULT_255_2_778
10
32.671473
20
28.4874587
11
5.771573
21
28.4874587
0
LINE
8
DEFAULT_255_2_778
10
83.171773
20
75.4877587
11
0.171673
21
75.4877587
0
LINE
8
DEFAULT_255_2_778
10
0.171673
20
75.3877587
11
83.171773
21
75.3877587
0
LINE
8
DEFAULT_255_2_778
10
83.171773
20
74.3876587
11
33.171573
21
74.3876587
0
LINE
8
DEFAULT_255_2_778
10
33.171573
20
74.3876587
11
33.171573
21
66.3876587
0
LINE
8
DEFAULT_255_2_778
10
32.671473
20
65.8876587
11
30.671473
21
65.8876587
0
LINE
8
DEFAULT_255_2_778
10
30.171473
20
66.3876587
11
30.171473
21
74.3876587
0
LINE
8
DEFAULT_255_2_778
10
30.171473
20
74.3876587
11
0.171673
21
74.3876587
0
ARC
8
DEFAULT_255_2_778
10
82.4715391
20
97.0874042
40
0.7002339
50
0.0109667
51
89.9890415
0
ARC
8
DEFAULT_255_2_778
10
0.8718429
20
97.0874684
40
0.7001699
50
90.0057163
51
179.9942837
0
ARC
8
DEFAULT_255_2_778
10
0.871907
20
0.4877721
40
0.700234
50
180.0109556
51
269.9890345
0
ARC
8
DEFAULT_255_2_778
10
82.4714749
20
0.4878363
40
0.7002981
50
270.0162121
51
359.983792
0
LINE
8
DEFAULT_255_2_778
10
82.471673
20
97.7876382
11
0.871773
21
97.7876382
0
LINE
8
DEFAULT_255_2_778
10
0.171673
20
97.0875382
11
0.171673
21
0.4876382
0
LINE
8
DEFAULT_255_2_778
10
0.871773
20
-0.2124618
11
82.471673
21
-0.2124618
0
LINE
8
DEFAULT_255_2_778
10
83.171773
20
0.4876382
11
83.171773
21
97.0875382
0
ARC
8
DEFAULT_255_2_778
10
30.67177
20
53.387605
40
0.5000969
50
89.9996485
51
180.0003515
0
ARC
8
DEFAULT_255_2_778
10
32.6717761
20
53.387605
40
0.5000969
50
359.9996485
51
90.0003515
0
LINE
8
DEFAULT_255_2_778
10
0.171673
20
45.387702
11
30.171673
21
45.387702
0
LINE
8
DEFAULT_255_2_778
10
30.171673
20
45.387702
11
30.171673
21
53.387602
0
LINE
8
DEFAULT_255_2_778
10
30.671773
20
53.887702
11
32.671773
21
53.887702
0
LINE
8
DEFAULT_255_2_778
10
33.171873
20
53.387602
11
33.171873
21
45.387702
0
LINE
8
DEFAULT_255_2_778
10
33.171873
20
45.387702
11
83.171773
21
45.387702
0
ARC
8
DEFAULT_255_2_778
10
77.6719045
20
48.5875015
40
0.5000755
50
89.9971846
51
179.9913517
0
ARC
8
DEFAULT_255_2_778
10
77.671926
20
48.587574
40
0.5000969
50
179.9996485
51
270.0003515
0
ARC
8
DEFAULT_255_2_778
10
77.6721832
20
71.1874229
40
0.5000541
50
90.0061976
51
179.9938024
0
ARC
8
DEFAULT_255_2_778
10
77.6722047
20
71.1874527
40
0.5000756
50
179.9972098
51
269.9913379
0
ARC
8
DEFAULT_255_2_778
10
41.8225344
20
29.4943595
40
0.1211117
50
278.4967536
51
312.2264766
0
ARC
8
DEFAULT_255_2_778
10
41.3637641
20
28.751925
40
0.5556919
50
96.3784798
51
105.0945064
0
ARC
8
DEFAULT_255_2_778
10
41.2206985
20
29.2580914
40
0.0303972
50
93.0987487
51
151.3255195
0
ARC
8
DEFAULT_255_2_778
10
41.2215321
20
29.2880183
40
0.0314923
50
209.15298
51
267.2247249
0
ARC
8
DEFAULT_255_2_778
10
41.3670266
20
29.8113745
40
0.5739604
50
255.1583194
51
263.7867279
0
ARC
8
DEFAULT_255_2_778
10
41.5887975
20
31.5618672
40
2.3383784
50
263.0268142
51
266.4694444
0
ARC
8
DEFAULT_255_2_778
10
41.7296284
20
33.592521
40
4.3738783
50
266.2662144
51
267.6322489
0
ARC
8
DEFAULT_255_2_778
10
41.4026594
20
25.4793682
40
3.7458657
50
85.0773025
51
87.7621278
0
ARC
8
DEFAULT_255_2_778
10
41.616114
20
27.8749297
40
1.3408424
50
80.2774234
51
85.3807071
0
ARC
8
DEFAULT_255_2_778
10
41.820665
20
29.0209494
40
0.1769234
50
64.000599
51
82.8936452
0
ARC
8
DEFAULT_255_2_778
10
41.8939335
20
29.1708024
40
0.0101189
50
8.9521421
51
64.9278232
0
ARC
8
DEFAULT_255_2_778
10
41.8764411
20
30.5780957
40
0.0314683
50
272.7787537
51
330.8696894
0
ARC
8
DEFAULT_255_2_778
10
41.7312082
20
31.1004015
40
0.5728548
50
276.2029829
51
284.8439786
0
ARC
8
DEFAULT_255_2_778
10
41.5105788
20
32.8441539
40
2.3304426
50
273.5099246
51
276.9632799
0
ARC
8
DEFAULT_255_2_778
10
41.3714882
20
34.859339
40
4.3503904
50
272.3402283
51
273.7135001
0
ARC
8
DEFAULT_255_2_778
10
41.6978875
20
26.7522375
40
3.7632808
50
92.2654294
51
94.9382449
0
ARC
8
DEFAULT_255_2_778
10
41.4825927
20
29.1614288
40
1.3445182
50
94.6353522
51
99.7266416
0
ARC
8
DEFAULT_255_2_778
10
41.2773754
20
30.310805
40
0.1771777
50
97.1119283
51
115.9875684
0
ARC
8
DEFAULT_255_2_778
10
41.2040255
20
30.4608999
40
0.01012
50
115.0506463
51
171.034476
0
ARC
8
DEFAULT_255_2_778
10
41.2238443
20
30.4805129
40
0.0348459
50
211.1706584
51
267.9398735
0
ARC
8
DEFAULT_255_2_778
10
41.3654068
20
31.0010003
40
0.5733814
50
255.5771961
51
263.7042145
0
ARC
8
DEFAULT_255_2_778
10
41.8228063
20
30.2411325
40
0.1208806
50
47.6559755
51
81.4733865
0
ARC
8
DEFAULT_255_2_778
10
41.8228063
20
35.4943215
40
0.1208806
50
278.5266135
51
312.3440245
0
ARC
8
DEFAULT_255_2_778
10
41.3640641
20
34.752125
40
0.5556919
50
96.3784798
51
105.0945064
0
ARC
8
DEFAULT_255_2_778
10
41.2209985
20
35.2582914
40
0.0303972
50
93.0987487
51
151.3255195
0
ARC
8
DEFAULT_255_2_778
10
41.2218285
20
35.2882155
40
0.0314878
50
209.1516788
51
267.2279697
0
ARC
8
DEFAULT_255_2_778
10
41.367145
20
35.8110374
40
0.5733936
50
255.1619282
51
263.7973138
0
ARC
8
DEFAULT_255_2_778
10
41.5878336
20
37.5554566
40
2.3316503
50
263.0375124
51
266.4889838
0
ARC
8
DEFAULT_255_2_778
10
41.7268436
20
39.568989
40
4.3499438
50
266.2856199
51
267.6585614
0
ARC
8
DEFAULT_255_2_778
10
41.4002469
20
31.4579765
40
3.7676432
50
85.0649203
51
87.7353103
0
ARC
8
DEFAULT_255_2_778
10
41.6154993
20
33.8683516
40
1.347705
50
80.288213
51
85.3666527
0
ARC
8
DEFAULT_255_2_778
10
41.8208805
20
35.020493
40
0.1776129
50
64.0787539
51
82.8958122
0
ARC
8
DEFAULT_255_2_778
10
41.8942706
20
35.1710933
40
0.0100836
50
9.0363003
51
65.0675906
0
ARC
8
DEFAULT_255_2_778
10
41.8767302
20
36.5783976
40
0.0315275
50
272.7677196
51
330.7176029
0
ARC
8
DEFAULT_255_2_778
10
41.7310821
20
37.1027088
40
0.5749566
50
276.2189487
51
284.8309446
0
ARC
8
DEFAULT_255_2_778
10
41.5105528
20
38.8424986
40
2.328601
50
273.5198567
51
276.9759107
0
ARC
8
DEFAULT_255_2_778
10
41.3726563
20
40.8353271
40
4.3261632
50
272.3418341
51
273.7223283
0
ARC
8
DEFAULT_255_2_778
10
41.6983113
20
32.7480765
40
3.7676432
50
92.2646897
51
94.9350797
0
ARC
8
DEFAULT_255_2_778
10
41.4830589
20
35.1584516
40
1.347705
50
94.6333473
51
99.711787
0
ARC
8
DEFAULT_255_2_778
10
41.2776777
20
36.310593
40
0.1776129
50
97.1041878
51
115.9212461
0
ARC
8
DEFAULT_255_2_778
10
41.2042876
20
36.4611933
40
0.0100836
50
114.9324094
51
170.9636997
0
ARC
8
DEFAULT_255_2_778
10
41.2241469
20
36.4806368
40
0.0347574
50
210.9200257
51
267.9302001
0
ARC
8
DEFAULT_255_2_778
10
41.3653918
20
36.9990081
40
0.5711678
50
255.5527088
51
263.7115028
0
ARC
8
DEFAULT_255_2_778
10
41.8229483
20
36.2410003
40
0.1212326
50
47.7065654
51
81.4228374
0
ARC
8
DEFAULT_255_2_778
10
37.0843813
20
38.8177249
40
0.3001522
50
90.0099704
51
179.9900487
0
ARC
8
DEFAULT_255_2_778
10
41.6040768
20
38.8177248
40
0.3001523
50
0.0099772
51
89.9900133
0
ARC
8
DEFAULT_255_2_778
10
41.6040983
20
26.918008
40
0.3001309
50
270.0058902
51
359.9750049
0
ARC
8
DEFAULT_255_2_778
10
37.0838385
20
26.9179864
40
0.3001094
50
180.0208901
51
269.9791099
0
ARC
8
DEFAULT_255_2_778
10
39.9855846
20
38.7298787
40
0.2153687
50
331.6344676
51
349.6206976
0
ARC
8
DEFAULT_255_2_778
10
40.1592505
20
38.6351338
40
0.0175623
50
278.7729773
51
334.4461947
0
ARC
8
DEFAULT_255_2_778
10
38.5336962
20
38.6429082
40
0.0261332
50
194.0203021
51
254.0824945
0
ARC
8
DEFAULT_255_2_778
10
38.7677807
20
38.7484831
40
0.2825449
50
191.7227014
51
203.3324052
0
ARC
8
DEFAULT_255_2_778
10
38.7010305
20
27.006727
40
0.2133045
50
151.6166392
51
169.7516859
0
ARC
8
DEFAULT_255_2_778
10
38.5291821
20
27.1005394
40
0.0175395
50
98.6999383
51
154.373132
0
ARC
8
DEFAULT_255_2_778
10
40.154802
20
27.092751
40
0.0261173
50
14.1304592
51
74.1638063
0
ARC
8
DEFAULT_255_2_778
10
39.920424
20
26.9866395
40
0.2830197
50
11.8333226
51
23.4191574
0
ARC
8
DEFAULT_255_2_778
10
40.898617
20
26.9619821
40
0.6533436
50
200.2004031
51
211.946834
0
ARC
8
DEFAULT_255_2_778
10
41.9803033
20
27.3790477
40
1.8125992
50
195.033501
51
200.7662453
0
ARC
8
DEFAULT_255_2_778
10
43.4981935
20
27.8044707
40
3.38893
50
193.0754958
51
195.3233942
0
ARC
8
DEFAULT_255_2_778
10
35.6184667
20
27.6977699
40
2.947504
50
343.0068582
51
347.0608654
0
ARC
8
DEFAULT_255_2_778
10
37.2271353
20
27.1996158
40
1.2634968
50
335.7869152
51
343.2907088
0
ARC
8
DEFAULT_255_2_778
10
37.9091961
20
26.8951273
40
0.5165629
50
327.3287088
51
335.5614337
0
ARC
8
DEFAULT_255_2_778
10
43.0699647
20
38.0375334
40
2.9480661
50
163.0025733
51
167.0543871
0
ARC
8
DEFAULT_255_2_778
10
41.4611137
20
38.5358771
40
1.2638286
50
155.7856071
51
163.2864438
0
ARC
8
DEFAULT_255_2_778
10
40.7788066
20
38.8404986
40
0.5166156
50
147.3287452
51
155.5605029
0
ARC
8
DEFAULT_255_2_778
10
37.7913149
20
38.774346
40
0.6515669
50
20.2019834
51
31.9744153
0
ARC
8
DEFAULT_255_2_778
10
36.7096344
20
38.3571673
40
1.8108574
50
15.0331639
51
20.7707807
0
ARC
8
DEFAULT_255_2_778
10
35.1906452
20
37.9314219
40
3.3883332
50
13.075434
51
15.3237089
0
ARC
8
DEFAULT_255_2_778
10
35.3001973
20
28.4042756
40
0.3762998
50
232.5400156
51
251.5214229
0
ARC
8
DEFAULT_255_2_778
10
35.3028662
20
28.4187862
40
0.3909136
50
251.8245091
51
270.0007527
0
ARC
8
DEFAULT_255_2_778
10
35.3028289
20
28.4201637
40
0.3922911
50
270.0061956
51
270.2775306
0
ARC
8
DEFAULT_255_2_778
10
35.3028289
20
32.6355904
40
0.3922912
50
89.7224694
51
89.9938044
0
ARC
8
DEFAULT_255_2_778
10
35.3028662
20
32.6369678
40
0.3909136
50
89.9992473
51
108.1754909
0
ARC
8
DEFAULT_255_2_778
10
35.3001943
20
32.6514841
40
0.3762934
50
108.4784055
51
127.4601358
0
ARC
8
DEFAULT_255_2_778
10
38.1020828
20
37.7775234
40
0.1401538
50
90.0628214
51
179.9371786
0
ARC
8
DEFAULT_255_2_778
10
38.1020616
20
27.9579095
40
0.1401327
50
180.0950621
51
269.9458285
0
ARC
8
DEFAULT_255_2_778
10
38.1022077
20
37.7773984
40
0.6403787
50
90.0249217
51
179.9750675
0
ARC
8
DEFAULT_255_2_778
10
38.1021864
20
27.9580343
40
0.6403574
50
180.0319661
51
269.9769794
0
ARC
8
DEFAULT_255_2_778
10
35.2975786
20
29.6563344
40
0.3710548
50
108.3717567
51
127.6101768
0
ARC
8
DEFAULT_255_2_778
10
35.3034023
20
29.6337796
40
0.3942986
50
89.9874377
51
108.1418748
0
ARC
8
DEFAULT_255_2_778
10
35.3037237
20
29.7516635
40
0.2764148
50
89.8537851
51
90.0487099
0
ARC
8
DEFAULT_255_2_778
10
35.3037237
20
31.3045906
40
0.2764145
50
269.9512901
51
270.1462149
0
ARC
8
DEFAULT_255_2_778
10
35.3034023
20
31.4224744
40
0.3942985
50
251.8581252
51
270.0125623
0
ARC
8
DEFAULT_255_2_778
10
35.2986941
20
31.4020184
40
0.3733983
50
232.4507646
51
251.567303
0
ARC
8
DEFAULT_255_2_778
10
37.0845752
20
26.9192231
40
0.6006464
50
180.0520945
51
269.9479055
0
ARC
8
DEFAULT_255_2_778
10
41.603383
20
26.9192231
40
0.6006464
50
270.0520945
51
359.9479055
0
ARC
8
DEFAULT_255_2_778
10
37.0845752
20
38.8180309
40
0.6006464
50
90.0520945
51
179.9479055
0
ARC
8
DEFAULT_255_2_778
10
41.603383
20
38.8180309
40
0.6006464
50
0.0520945
51
89.9479055
0
ARC
8
DEFAULT_255_2_778
10
35.5020721
20
37.8668715
40
0.7987673
50
279.8072253
51
290.7623452
0
ARC
8
DEFAULT_255_2_778
10
35.472065
20
38.0169171
40
0.9517399
50
270.0098817
51
280.0486775
0
ARC
8
DEFAULT_255_2_778
10
35.4722051
20
38.0267839
40
0.9616069
50
267.3836442
51
270.001431
0
ARC
8
DEFAULT_255_2_778
10
35.4690007
20
37.9855869
40
0.9203073
50
256.1135984
51
267.4658549
0
ARC
8
DEFAULT_255_2_778
10
35.3459896
20
37.6202466
40
0.5338631
50
239.0750105
51
248.6038913
0
ARC
8
DEFAULT_255_2_778
10
35.4950474
20
36.3447103
40
0.5468363
50
58.0243861
51
74.8643631
0
ARC
8
DEFAULT_255_2_778
10
35.4732934
20
36.2683335
40
0.6262445
50
74.7676558
51
89.9950827
0
ARC
8
DEFAULT_255_2_778
10
35.4730676
20
36.5040184
40
0.3905597
50
89.9589798
51
90.1230041
0
ARC
8
DEFAULT_255_2_778
10
35.4726907
20
36.2560835
40
0.6384937
50
90.0414242
51
100.4548632
0
ARC
8
DEFAULT_255_2_778
10
35.4643447
20
36.2988097
40
0.5949625
50
100.4111111
51
111.3408065
0
ARC
8
DEFAULT_255_2_778
10
35.4366366
20
36.3670282
40
0.5213392
50
111.2328272
51
123.2579899
0
ARC
8
DEFAULT_255_2_778
10
35.3999115
20
36.4247545
40
0.4529284
50
123.377883
51
136.5440726
0
ARC
8
DEFAULT_255_2_778
10
43.1720536
20
25.4788525
40
0.5000754
50
270.0086483
51
0.0028154
0
ARC
8
DEFAULT_255_2_778
10
43.1720536
20
41.0289016
40
0.5000755
50
359.9971846
51
89.9913517
0
ARC
8
DEFAULT_255_2_778
10
35.572226
20
41.0288801
40
0.5000969
50
89.9996485
51
180.0003515
0
ARC
8
DEFAULT_255_2_778
10
35.572226
20
25.478874
40
0.5000969
50
179.9996485
51
270.0003515
0
ARC
8
DEFAULT_255_2_778
10
27.531775
20
25.7881228
40
0.5000541
50
0.0062091
51
89.9938024
0
ARC
8
DEFAULT_255_2_778
10
13.5319045
20
25.7881015
40
0.5000755
50
89.9971846
51
179.9913517
0
ARC
8
DEFAULT_255_2_778
10
13.531926
20
9.288174
40
0.5000969
50
179.9996485
51
270.0003515
0
ARC
8
DEFAULT_255_2_778
10
27.5317535
20
9.2881526
40
0.5000756
50
270.0086621
51
0.0028016
0
LINE
8
DEFAULT_255_2_778
10
77.3718291
20
48.387477
11
77.3718291
21
48.189077
0
LINE
8
DEFAULT_255_2_778
10
78.9718291
20
48.387477
11
78.9718291
21
48.087477
0
LINE
8
DEFAULT_255_2_778
10
83.1718291
20
49.087577
11
77.6719291
21
49.087577
0
LINE
8
DEFAULT_255_2_778
10
77.6719291
20
48.087477
11
83.1718291
21
48.087477
0
LINE
8
DEFAULT_255_2_778
10
81.6719291
20
48.087477
11
81.6719291
21
48.387477
0
LINE
8
DEFAULT_255_2_778
10
81.6719291
20
48.387477
11
77.2194291
21
48.387477
0
LINE
8
DEFAULT_255_2_778
10
79.6719291
20
48.387477
11
79.6719291
21
49.087577
0
LINE
8
DEFAULT_255_2_778
10
79.4718291
20
48.387477
11
79.4718291
21
48.347577
0
LINE
8
DEFAULT_255_2_778
10
79.4718291
20
48.347577
11
78.9718291
21
48.347577
0
LINE
8
DEFAULT_255_2_778
10
78.9718291
20
71.687477
11
78.9718291
21
71.387477
0
LINE
8
DEFAULT_255_2_778
10
80.2717291
20
71.387477
11
80.2717291
21
71.687477
0
LINE
8
DEFAULT_255_2_778
10
77.2194291
20
71.387477
11
81.6719291
21
71.387477
0
LINE
8
DEFAULT_255_2_778
10
81.6719291
20
71.387477
11
81.6719291
21
71.687477
0
LINE
8
DEFAULT_255_2_778
10
77.3718291
20
71.585877
11
77.3718291
21
71.387477
0
LINE
8
DEFAULT_255_2_778
10
80.2719291
20
71.637477
11
78.9720291
21
71.637477
0
LINE
8
DEFAULT_255_2_778
10
77.3721291
20
71.497577
11
77.2837291
21
71.497577
0
LINE
8
DEFAULT_255_2_778
10
83.1720291
20
71.687477
11
77.6721291
21
71.687477
0
LINE
8
DEFAULT_255_2_778
10
77.6721291
20
70.687377
11
83.1720291
21
70.687377
0
LINE
8
DEFAULT_255_2_778
10
79.6721291
20
70.687377
11
79.6721291
21
71.387477
0
LINE
8
DEFAULT_255_2_778
10
41.8404291
20
29.374577
11
41.3020291
21
29.304177
0
LINE
8
DEFAULT_255_2_778
10
41.9039291
20
30.562777
11
41.9039291
21
30.562777
0
LINE
8
DEFAULT_255_2_778
10
41.3025291
20
30.431077
11
41.8407291
21
30.360677
0
LINE
8
DEFAULT_255_2_778
10
41.8407291
20
35.374777
11
41.3023291
21
35.304377
0
LINE
8
DEFAULT_255_2_778
10
41.9042291
20
36.562977
11
41.9042291
21
36.562977
0
LINE
8
DEFAULT_255_2_778
10
41.3028291
20
36.431277
11
41.8410291
21
36.360877
0
LINE
8
DEFAULT_255_2_778
10
37.0843291
20
39.117877
11
41.6041291
21
39.117877
0
LINE
8
DEFAULT_255_2_778
10
41.9042291
20
38.817777
11
41.9042291
21
26.917877
0
LINE
8
DEFAULT_255_2_778
10
41.6041291
20
26.617877
11
37.0837291
21
26.617877
0
LINE
8
DEFAULT_255_2_778
10
36.7837291
20
26.917877
11
36.7842291
21
38.817777
0
LINE
8
DEFAULT_255_2_778
10
41.2642291
20
39.117877
11
41.2642291
21
40.117977
0
LINE
8
DEFAULT_255_2_778
10
41.2642291
20
40.117977
11
37.4243291
21
40.117977
0
LINE
8
DEFAULT_255_2_778
10
37.4243291
20
40.117977
11
37.4243291
21
39.117877
0
LINE
8
DEFAULT_255_2_778
10
40.1619291
20
38.617777
11
38.5265291
21
38.617777
0
LINE
8
DEFAULT_255_2_778
10
41.1943291
20
36.462777
11
41.1943291
21
35.272877
0
LINE
8
DEFAULT_255_2_778
10
41.8743291
20
36.546077
11
41.8743291
21
37.067877
0
LINE
8
DEFAULT_255_2_778
10
37.4243291
20
26.617877
11
37.4243291
21
25.617777
0
LINE
8
DEFAULT_255_2_778
10
37.4243291
20
25.617777
11
41.2642291
21
25.617777
0
LINE
8
DEFAULT_255_2_778
10
41.2642291
20
25.617777
11
41.2642291
21
26.617877
0
LINE
8
DEFAULT_255_2_778
10
38.5265291
20
27.117877
11
40.1619291
21
27.117877
0
LINE
8
DEFAULT_255_2_778
10
41.1943291
20
30.462777
11
41.1943291
21
29.272977
0
LINE
8
DEFAULT_255_2_778
10
43.4721291
20
39.577977
11
43.6721291
21
39.577977
0
LINE
8
DEFAULT_255_2_778
10
43.6721291
20
39.727977
11
43.4721291
21
39.727977
0
LINE
8
DEFAULT_255_2_778
10
43.4721291
20
40.904077
11
43.6721291
21
40.904077
0
LINE
8
DEFAULT_255_2_778
10
36.9440291
20
38.728077
11
36.7840291
21
38.728077
0
LINE
8
DEFAULT_255_2_778
10
36.4839291
20
38.728077
11
35.0719291
21
38.728077
0
LINE
8
DEFAULT_255_2_778
10
43.6719291
20
38.568077
11
42.2040291
21
38.568077
0
LINE
8
DEFAULT_255_2_778
10
41.8825291
20
38.928177
11
41.8219291
21
38.928177
0
LINE
8
DEFAULT_255_2_778
10
41.8219291
20
38.928177
11
41.8219291
21
37.068077
0
LINE
8
DEFAULT_255_2_778
10
41.8219291
20
37.068077
11
41.9039291
21
37.068077
0
LINE
8
DEFAULT_255_2_778
10
41.9039291
20
37.428177
11
41.8219291
21
37.428177
0
LINE
8
DEFAULT_255_2_778
10
41.9039291
20
38.568277
11
41.8219291
21
38.568277
0
LINE
8
DEFAULT_255_2_778
10
36.7840291
20
38.478377
11
35.7838291
21
38.478377
0
LINE
8
DEFAULT_255_2_778
10
35.7838291
20
38.478377
11
35.7838291
21
27.258377
0
LINE
8
DEFAULT_255_2_778
10
35.7838291
20
27.258377
11
36.7840291
21
27.258377
0
LINE
8
DEFAULT_255_2_778
10
41.5740291
20
30.514677
11
41.5740291
21
35.222077
0
LINE
8
DEFAULT_255_2_778
10
41.9039291
20
27.258377
11
42.9040291
21
27.258377
0
LINE
8
DEFAULT_255_2_778
10
42.9040291
20
27.258377
11
42.9040291
21
38.478377
0
LINE
8
DEFAULT_255_2_778
10
42.9040291
20
38.478377
11
41.9039291
21
38.478377
0
LINE
8
DEFAULT_255_2_778
10
38.9218291
20
37.918177
11
38.9218291
21
27.818277
0
LINE
8
DEFAULT_255_2_778
10
38.9218291
20
27.818277
11
39.3017291
21
27.318177
0
LINE
8
DEFAULT_255_2_778
10
39.3017291
20
27.318177
11
39.3017291
21
38.417777
0
LINE
8
DEFAULT_255_2_778
10
39.3017291
20
38.417777
11
38.9218291
21
37.917677
0
LINE
8
DEFAULT_255_2_778
10
38.9218291
20
37.917677
11
38.1019291
21
37.917677
0
LINE
8
DEFAULT_255_2_778
10
37.9619291
20
37.777677
11
37.9619291
21
27.957677
0
LINE
8
DEFAULT_255_2_778
10
38.1019291
20
27.817777
11
38.9218291
21
27.817777
0
LINE
8
DEFAULT_255_2_778
10
39.3017291
20
38.417777
11
38.1019291
21
38.417777
0
LINE
8
DEFAULT_255_2_778
10
37.4618291
20
37.777677
11
37.4618291
21
27.957677
0
LINE
8
DEFAULT_255_2_778
10
38.1019291
20
27.317677
11
39.3017291
21
27.317677
0
LINE
8
DEFAULT_255_2_778
10
42.9038291
20
37.067577
11
43.6719291
21
37.067577
0
LINE
8
DEFAULT_255_2_778
10
42.9038291
20
37.427677
11
43.6719291
21
37.427677
0
LINE
8
DEFAULT_255_2_778
10
43.0538291
20
36.167777
11
43.6719291
21
36.167777
0
LINE
8
DEFAULT_255_2_778
10
43.6719291
20
36.567777
11
43.0538291
21
36.567777
0
LINE
8
DEFAULT_255_2_778
10
42.9038291
20
28.567877
11
43.6719291
21
28.567877
0
LINE
8
DEFAULT_255_2_778
10
42.9038291
20
28.927977
11
43.6719291
21
28.927977
0
LINE
8
DEFAULT_255_2_778
10
42.9038291
20
31.067877
11
43.6719291
21
31.067877
0
LINE
8
DEFAULT_255_2_778
10
42.9038291
20
31.427977
11
43.6719291
21
31.427977
0
LINE
8
DEFAULT_255_2_778
10
42.9038291
20
34.067977
11
43.6719291
21
34.067977
0
LINE
8
DEFAULT_255_2_778
10
42.9038291
20
34.428077
11
43.6719291
21
34.428077
0
LINE
8
DEFAULT_255_2_778
10
35.0719291
20
28.028077
11
35.7838291
21
28.028077
0
LINE
8
DEFAULT_255_2_778
10
35.0719291
20
33.028177
11
35.7838291
21
33.028177
0
LINE
8
DEFAULT_255_2_778
10
35.3044291
20
30.028077
11
35.7841291
21
30.028077
0
LINE
8
DEFAULT_255_2_778
10
35.7841291
20
31.028177
11
35.3044291
21
31.028177
0
LINE
8
DEFAULT_255_2_778
10
43.6719291
20
29.806077
11
43.4718291
21
29.806077
0
LINE
8
DEFAULT_255_2_778
10
43.4718291
20
30.672077
11
43.6719291
21
30.672077
0
LINE
8
DEFAULT_255_2_778
10
43.6719291
20
29.168177
11
43.0538291
21
29.168177
0
LINE
8
DEFAULT_255_2_778
10
43.6719291
20
29.568277
11
43.0538291
21
29.568277
0
LINE
8
DEFAULT_255_2_778
10
41.9039291
20
28.928177
11
41.8219291
21
28.928177
0
LINE
8
DEFAULT_255_2_778
10
41.8219291
20
28.928177
11
41.8219291
21
26.713077
0
LINE
8
DEFAULT_255_2_778
10
41.9039291
20
26.928177
11
41.8219291
21
26.928177
0
LINE
8
DEFAULT_255_2_778
10
41.8219291
20
28.568077
11
41.9039291
21
28.568077
0
LINE
8
DEFAULT_255_2_778
10
43.4718291
20
38.928177
11
43.4718291
21
39.118077
0
LINE
8
DEFAULT_255_2_778
10
43.4718291
20
39.418177
11
43.4718291
21
41.427377
0
LINE
8
DEFAULT_255_2_778
10
43.4718291
20
31.068177
11
43.4718291
21
29.568277
0
LINE
8
DEFAULT_255_2_778
10
43.4718291
20
25.079077
11
43.4718291
21
26.318377
0
LINE
8
DEFAULT_255_2_778
10
43.4718291
20
40.378277
11
43.2718291
21
40.378277
0
LINE
8
DEFAULT_255_2_778
10
43.2718291
20
40.378277
11
43.2718291
21
40.578377
0
LINE
8
DEFAULT_255_2_778
10
43.2718291
20
40.578377
11
43.4718291
21
40.578377
0
LINE
8
DEFAULT_255_2_778
10
43.4718291
20
40.878377
11
43.2718291
21
40.878377
0
LINE
8
DEFAULT_255_2_778
10
43.2718291
20
40.878377
11
43.2718291
21
41.078377
0
LINE
8
DEFAULT_255_2_778
10
43.2718291
20
41.078377
11
43.4718291
21
41.078377
0
LINE
8
DEFAULT_255_2_778
10
43.4718291
20
41.378477
11
43.2718291
21
41.378477
0
LINE
8
DEFAULT_255_2_778
10
43.2718291
20
41.378477
11
43.2718291
21
41.517877
0
LINE
8
DEFAULT_255_2_778
10
42.2738291
20
39.068577
11
42.2738291
21
38.928677
0
LINE
8
DEFAULT_255_2_778
10
42.1468291
20
39.068577
11
43.0538291
21
39.068577
0
LINE
8
DEFAULT_255_2_778
10
43.0538291
20
39.068577
11
43.0538291
21
38.928677
0
LINE
8
DEFAULT_255_2_778
10
36.4839291
20
27.258677
11
36.4839291
21
26.918677
0
LINE
8
DEFAULT_255_2_778
10
37.0840291
20
26.318577
11
37.4240291
21
26.318577
0
LINE
8
DEFAULT_255_2_778
10
42.2040291
20
27.258677
11
42.2040291
21
26.918677
0
LINE
8
DEFAULT_255_2_778
10
37.4240291
20
39.418677
11
37.0840291
21
39.418677
0
LINE
8
DEFAULT_255_2_778
10
36.4839291
20
38.818577
11
36.4839291
21
38.478577
0
LINE
8
DEFAULT_255_2_778
10
42.2040291
20
38.818577
11
42.2040291
21
38.478577
0
LINE
8
DEFAULT_255_2_778
10
41.8740291
20
38.928677
11
41.8740291
21
38.946877
0
LINE
8
DEFAULT_255_2_778
10
41.3065291
20
24.978777
11
41.3065291
21
26.318877
0
LINE
8
DEFAULT_255_2_778
10
41.3065291
20
26.618877
11
41.3065291
21
26.668977
0
LINE
8
DEFAULT_255_2_778
10
39.3020291
20
36.768877
11
39.8471291
21
36.768877
0
LINE
8
DEFAULT_255_2_778
10
39.8471291
20
36.768877
11
39.8471291
21
35.968777
0
LINE
8
DEFAULT_255_2_778
10
39.8471291
20
35.968777
11
39.3020291
21
35.968777
0
LINE
8
DEFAULT_255_2_778
10
39.3020291
20
34.268777
11
39.8471291
21
34.268777
0
LINE
8
DEFAULT_255_2_778
10
39.8471291
20
34.268777
11
39.8471291
21
33.468677
0
LINE
8
DEFAULT_255_2_778
10
39.8471291
20
33.468677
11
39.3020291
21
33.468677
0
LINE
8
DEFAULT_255_2_778
10
39.3020291
20
32.268877
11
39.8471291
21
32.268877
0
LINE
8
DEFAULT_255_2_778
10
39.8471291
20
32.268877
11
39.8471291
21
31.468777
0
LINE
8
DEFAULT_255_2_778
10
39.8471291
20
31.468777
11
39.3020291
21
31.468777
0
LINE
8
DEFAULT_255_2_778
10
39.3020291
20
29.768777
11
39.8471291
21
29.768777
0
LINE
8
DEFAULT_255_2_778
10
39.8471291
20
29.768777
11
39.8471291
21
28.968677
0
LINE
8
DEFAULT_255_2_778
10
39.8471291
20
28.968677
11
39.3020291
21
28.968677
0
LINE
8
DEFAULT_255_2_778
10
35.2481291
20
37.092177
11
35.1512291
21
37.123177
0
LINE
8
DEFAULT_255_2_778
10
41.2642291
20
39.418677
11
43.6721291
21
39.418677
0
LINE
8
DEFAULT_255_2_778
10
42.1238291
20
39.118677
11
43.6721291
21
39.118677
0
LINE
8
DEFAULT_255_2_778
10
41.7698291
20
39.068577
11
40.3191291
21
39.068577
0
LINE
8
DEFAULT_255_2_778
10
43.6721291
20
38.928677
11
42.1934291
21
38.928677
0
LINE
8
DEFAULT_255_2_778
10
35.9720291
20
27.174577
11
36.4839291
21
27.174577
0
LINE
8
DEFAULT_255_2_778
10
42.2040291
20
26.928777
11
43.6719291
21
26.928777
0
LINE
8
DEFAULT_255_2_778
10
40.3188291
20
26.668677
11
41.7695291
21
26.668677
0
LINE
8
DEFAULT_255_2_778
10
42.0886291
20
26.568677
11
43.6719291
21
26.568677
0
LINE
8
DEFAULT_255_2_778
10
41.2639291
20
26.318577
11
43.6719291
21
26.318577
0
LINE
8
DEFAULT_255_2_778
10
36.7840291
20
38.568577
11
37.2840291
21
39.068577
0
LINE
8
DEFAULT_255_2_778
10
37.2840291
20
39.068577
11
38.3691291
21
39.068577
0
LINE
8
DEFAULT_255_2_778
10
38.3691291
20
26.668677
11
37.2840291
21
26.668677
0
LINE
8
DEFAULT_255_2_778
10
37.2840291
20
26.668677
11
36.7840291
21
27.168677
0
LINE
8
DEFAULT_255_2_778
10
43.6721291
20
25.478877
11
43.6721291
21
41.028877
0
LINE
8
DEFAULT_255_2_778
10
43.1721291
20
41.528977
11
35.5722291
21
41.528977
0
LINE
8
DEFAULT_255_2_778
10
35.0721291
20
41.028877
11
35.0721291
21
25.478877
0
LINE
8
DEFAULT_255_2_778
10
35.5722291
20
24.978777
11
43.1721291
21
24.978777
0
LINE
8
DEFAULT_255_2_778
10
43.0541291
20
36.728677
11
43.4721291
21
36.728677
0
LINE
8
DEFAULT_255_2_778
10
43.4721291
20
36.728677
11
43.4721291
21
37.068677
0
LINE
8
DEFAULT_255_2_778
10
43.4242291
20
26.568677
11
43.4242291
21
26.318577
0
LINE
8
DEFAULT_255_2_778
10
43.4242291
20
39.418677
11
43.4242291
21
39.118677
0
LINE
8
DEFAULT_255_2_778
10
43.0543291
20
31.068677
11
43.0543291
21
28.928777
0
LINE
8
DEFAULT_255_2_778
10
43.0543291
20
37.068677
11
43.0543291
21
34.428677
0
LINE
8
DEFAULT_255_2_778
10
41.8743291
20
28.928777
11
41.8743291
21
29.190377
0
LINE
8
DEFAULT_255_2_778
10
41.5743291
20
36.514877
11
41.5743291
21
37.118677
0
LINE
8
DEFAULT_255_2_778
10
41.5743291
20
37.118677
11
41.8222291
21
37.118677
0
LINE
8
DEFAULT_255_2_778
10
41.8222291
20
28.618677
11
41.5743291
21
28.618677
0
LINE
8
DEFAULT_255_2_778
10
41.5743291
20
28.618677
11
41.5743291
21
29.222377
0
LINE
8
DEFAULT_255_2_778
10
39.5221291
20
24.978777
11
39.5221291
21
25.618777
0
LINE
8
DEFAULT_255_2_778
10
35.9722291
20
27.258677
11
35.9722291
21
24.978777
0
LINE
8
DEFAULT_255_2_778
10
35.9722291
20
38.728877
11
35.9722291
21
38.478877
0
LINE
8
DEFAULT_255_2_778
10
13.5319291
20
10.527777
11
13.0318291
21
10.527777
0
LINE
8
DEFAULT_255_2_778
10
13.5319291
20
11.287677
11
13.0318291
21
11.287677
0
LINE
8
DEFAULT_255_2_778
10
26.3718291
20
15.527577
11
26.3718291
21
19.527577
0
LINE
8
DEFAULT_255_2_778
10
25.5717291
20
15.527577
11
26.8716291
21
15.527577
0
LINE
8
DEFAULT_255_2_778
10
26.8716291
20
15.527577
11
26.8716291
21
19.527577
0
LINE
8
DEFAULT_255_2_778
10
26.8716291
20
19.527577
11
25.5717291
21
19.527577
0
LINE
8
DEFAULT_255_2_778
10
23.3717291
20
26.287677
11
23.3717291
21
25.527777
0
LINE
8
DEFAULT_255_2_778
10
25.3717291
20
25.527777
11
25.3717291
21
26.287677
0
LINE
8
DEFAULT_255_2_778
10
14.3216291
20
25.527777
11
14.3216291
21
26.287677
0
LINE
8
DEFAULT_255_2_778
10
15.3218291
20
25.527777
11
15.3218291
21
25.692877
0
LINE
8
DEFAULT_255_2_778
10
15.3218291
20
25.692877
11
20.5219291
21
25.692877
0
LINE
8
DEFAULT_255_2_778
10
20.5219291
20
25.692877
11
20.5219291
21
26.287977
0
LINE
8
DEFAULT_255_2_778
10
21.3720291
20
25.528077
11
21.3720291
21
26.287977
0
LINE
8
DEFAULT_255_2_778
10
27.3719291
20
25.528077
11
13.5319291
21
25.528077
0
LINE
8
DEFAULT_255_2_778
10
13.5319291
20
25.528077
11
13.5319291
21
9.528177
0
LINE
8
DEFAULT_255_2_778
10
13.5319291
20
9.528177
11
28.0318291
21
9.528177
0
LINE
8
DEFAULT_255_2_778
10
23.8718291
20
23.528077
11
15.3718291
21
23.528077
0
LINE
8
DEFAULT_255_2_778
10
15.3718291
20
23.528077
11
15.3718291
21
11.528177
0
LINE
8
DEFAULT_255_2_778
10
15.3718291
20
11.528177
11
23.8718291
21
11.528177
0
LINE
8
DEFAULT_255_2_778
10
23.8718291
20
11.528177
11
23.8718291
21
14.528277
0
LINE
8
DEFAULT_255_2_778
10
23.8718291
20
14.528277
11
25.5717291
21
14.528277
0
LINE
8
DEFAULT_255_2_778
10
25.5717291
20
14.528277
11
25.5717291
21
20.528177
0
LINE
8
DEFAULT_255_2_778
10
25.5717291
20
20.528177
11
23.8718291
21
20.528177
0
LINE
8
DEFAULT_255_2_778
10
23.8718291
20
20.528177
11
23.8718291
21
23.528077
0
LINE
8
DEFAULT_255_2_778
10
27.5318291
20
26.288177
11
13.5319291
21
26.288177
0
LINE
8
DEFAULT_255_2_778
10
13.0318291
20
25.788177
11
13.0318291
21
9.288177
0
LINE
8
DEFAULT_255_2_778
10
13.5319291
20
8.788077
11
27.5318291
21
8.788077
0
LINE
8
DEFAULT_255_2_778
10
28.0318291
20
9.288177
11
28.0318291
21
25.788177
0
LINE
8
DEFAULT_255_2_778
10
28.0281291
20
25.848177
11
27.3719291
21
25.848177
0
LINE
8
DEFAULT_255_2_778
10
25.3720291
20
25.693177
11
27.3719291
21
25.693177
0
LINE
8
DEFAULT_255_2_778
10
13.5319291
20
25.193077
11
13.0318291
21
25.193077
0
LINE
8
DEFAULT_255_2_778
10
28.0318291
20
24.848077
11
27.3719291
21
24.848077
0
LINE
8
DEFAULT_255_2_778
10
27.3719291
20
8.788077
11
27.3719291
21
26.288177
0
LINE
8
DEFAULT_255_2_778
10
26.5718291
20
25.693177
11
26.5718291
21
26.288177
0
LINE
8
DEFAULT_255_2_778
10
24.3718291
20
14.028177
11
25.8718291
21
14.028177
0
LINE
8
DEFAULT_255_2_778
10
25.8718291
20
14.028177
11
25.8718291
21
11.028077
0
LINE
8
DEFAULT_255_2_778
10
25.8718291
20
11.028077
11
24.3718291
21
11.028077
0
LINE
8
DEFAULT_255_2_778
10
24.3718291
20
11.028077
11
24.3718291
21
14.028177
0
LINE
8
DEFAULT_255_2_778
10
25.8718291
20
24.028077
11
24.3718291
21
24.028077
0
LINE
8
DEFAULT_255_2_778
10
24.3718291
20
24.028077
11
24.3718291
21
21.027977
0
LINE
8
DEFAULT_255_2_778
10
24.3718291
20
21.027977
11
25.8718291
21
21.027977
0
LINE
8
DEFAULT_255_2_778
10
25.8718291
20
21.027977
11
25.8718291
21
24.028077
0
LINE
8
DEFAULT_255_2_778
10
21.3717291
20
25.693177
11
20.5716291
21
25.693177
0
LINE
8
DEFAULT_255_2_778
10
20.5716291
20
25.693177
11
20.5716291
21
26.288177
0
LINE
8
DEFAULT_255_2_778
10
16.7717291
20
25.693177
11
16.7717291
21
25.528077
0
LINE
8
DEFAULT_255_2_778
10
14.0716291
20
8.788077
11
14.0716291
21
9.528177
0
LINE
8
DEFAULT_255_2_778
10
14.3719291
20
87.787677
11
12.1719291
21
87.787677
0
LINE
8
DEFAULT_255_2_778
10
11.8718573
20
85.6877177
11
14.6719573
21
85.6877177
0
LINE
8
DEFAULT_255_2_778
10
14.6719573
20
85.6877177
11
14.3718573
21
85.9877177
0
LINE
8
DEFAULT_255_2_778
10
14.3718573
20
85.9877177
11
14.3718573
21
87.7877177
0
LINE
8
DEFAULT_255_2_778
10
14.3718573
20
87.7877177
11
14.6719573
21
88.0877177
0
LINE
8
DEFAULT_255_2_778
10
14.6719573
20
88.0877177
11
14.6719573
21
85.6877177
0
LINE
8
DEFAULT_255_2_778
10
14.6719573
20
88.0877177
11
11.8718573
21
88.0877177
0
LINE
8
DEFAULT_255_2_778
10
11.8718573
20
88.0877177
11
12.1718573
21
87.7877177
0
LINE
8
DEFAULT_255_2_778
10
12.1718573
20
87.7877177
11
12.1718573
21
85.9877177
0
LINE
8
DEFAULT_255_2_778
10
12.1718573
20
85.9877177
11
11.8718573
21
85.6877177
0
LINE
8
DEFAULT_255_2_778
10
11.8718573
20
85.6877177
11
11.8718573
21
88.0877177
0
LINE
8
DEFAULT_255_2_778
10
12.1718573
20
85.9877177
11
14.3718573
21
85.9877177
0
LINE
8
DEFAULT_255_2_778
10
15.1719573
20
78.9877177
11
17.3719573
21
78.9877177
0
LINE
8
DEFAULT_255_2_778
10
17.6720573
20
81.0877177
11
14.8719573
21
81.0877177
0
LINE
8
DEFAULT_255_2_778
10
14.8719573
20
81.0877177
11
15.1719573
21
80.7877177
0
LINE
8
DEFAULT_255_2_778
10
15.1719573
20
80.7877177
11
15.1719573
21
78.9877177
0
LINE
8
DEFAULT_255_2_778
10
15.1719573
20
78.9877177
11
14.8719573
21
78.6877177
0
LINE
8
DEFAULT_255_2_778
10
14.8719573
20
78.6877177
11
14.8719573
21
81.0877177
0
LINE
8
DEFAULT_255_2_778
10
14.8719573
20
78.6877177
11
17.6720573
21
78.6877177
0
LINE
8
DEFAULT_255_2_778
10
17.6720573
20
78.6877177
11
17.3719573
21
78.9877177
0
LINE
8
DEFAULT_255_2_778
10
17.3719573
20
78.9877177
11
17.3719573
21
80.7877177
0
LINE
8
DEFAULT_255_2_778
10
17.3719573
20
80.7877177
11
17.6720573
21
81.0877177
0
LINE
8
DEFAULT_255_2_778
10
17.6720573
20
81.0877177
11
17.6720573
21
78.6877177
0
LINE
8
DEFAULT_255_2_778
10
17.3719573
20
80.7877177
11
15.1719573
21
80.7877177
0
LINE
8
DEFAULT_255_2_778
10
12.1719022
20
78.9876718
11
14.3719022
21
78.9876718
0
LINE
8
DEFAULT_255_2_778
10
14.6720022
20
81.0876718
11
11.8719022
21
81.0876718
0
LINE
8
DEFAULT_255_2_778
10
11.8719022
20
81.0876718
11
12.1719022
21
80.7876718
0
LINE
8
DEFAULT_255_2_778
10
12.1719022
20
80.7876718
11
12.1719022
21
78.9876718
0
LINE
8
DEFAULT_255_2_778
10
12.1719022
20
78.9876718
11
11.8719022
21
78.6876718
0
LINE
8
DEFAULT_255_2_778
10
11.8719022
20
78.6876718
11
11.8719022
21
81.0876718
0
LINE
8
DEFAULT_255_2_778
10
11.8719022
20
78.6876718
11
14.6720022
21
78.6876718
0
LINE
8
DEFAULT_255_2_778
10
14.6720022
20
78.6876718
11
14.3719022
21
78.9876718
0
LINE
8
DEFAULT_255_2_778
10
14.3719022
20
78.9876718
11
14.3719022
21
80.7876718
0
LINE
8
DEFAULT_255_2_778
10
14.3719022
20
80.7876718
11
14.6720022
21
81.0876718
0
LINE
8
DEFAULT_255_2_778
10
14.6720022
20
81.0876718
11
14.6720022
21
78.6876718
0
LINE
8
DEFAULT_255_2_778
10
14.3719022
20
80.7876718
11
12.1719022
21
80.7876718
0
LINE
8
DEFAULT_255_2_778
10
12.1719022
20
82.4875718
11
14.3719022
21
82.4875718
0
LINE
8
DEFAULT_255_2_778
10
14.6720022
20
84.5875718
11
11.8719022
21
84.5875718
0
LINE
8
DEFAULT_255_2_778
10
11.8719022
20
84.5875718
11
12.1719022
21
84.2875718
0
LINE
8
DEFAULT_255_2_778
10
12.1719022
20
84.2875718
11
12.1719022
21
82.4875718
0
LINE
8
DEFAULT_255_2_778
10
12.1719022
20
82.4875718
11
11.8719022
21
82.1875718
0
LINE
8
DEFAULT_255_2_778
10
11.8719022
20
82.1875718
11
11.8719022
21
84.5875718
0
LINE
8
DEFAULT_255_2_778
10
11.8719022
20
82.1875718
11
14.6720022
21
82.1875718
0
LINE
8
DEFAULT_255_2_778
10
14.6720022
20
82.1875718
11
14.3719022
21
82.4875718
0
LINE
8
DEFAULT_255_2_778
10
14.3719022
20
82.4875718
11
14.3719022
21
84.2875718
0
LINE
8
DEFAULT_255_2_778
10
14.3719022
20
84.2875718
11
14.6720022
21
84.5875718
0
LINE
8
DEFAULT_255_2_778
10
14.6720022
20
84.5875718
11
14.6720022
21
82.1875718
0
LINE
8
DEFAULT_255_2_778
10
14.3719022
20
84.2875718
11
12.1719022
21
84.2875718
0
LINE
8
DEFAULT_255_2_778
10
15.1720022
20
82.4875718
11
17.3721022
21
82.4875718
0
LINE
8
DEFAULT_255_2_778
10
17.6721022
20
84.5875718
11
14.8720022
21
84.5875718
0
LINE
8
DEFAULT_255_2_778
10
14.8720022
20
84.5875718
11
15.1720022
21
84.2875718
0
LINE
8
DEFAULT_255_2_778
10
15.1720022
20
84.2875718
11
15.1720022
21
82.4875718
0
LINE
8
DEFAULT_255_2_778
10
15.1720022
20
82.4875718
11
14.8720022
21
82.1875718
0
LINE
8
DEFAULT_255_2_778
10
14.8720022
20
82.1875718
11
14.8720022
21
84.5875718
0
LINE
8
DEFAULT_255_2_778
10
14.8720022
20
82.1875718
11
17.6721022
21
82.1875718
0
LINE
8
DEFAULT_255_2_778
10
17.6721022
20
82.1875718
11
17.3721022
21
82.4875718
0
LINE
8
DEFAULT_255_2_778
10
17.3721022
20
82.4875718
11
17.3721022
21
84.2875718
0
LINE
8
DEFAULT_255_2_778
10
17.3721022
20
84.2875718
11
17.6721022
21
84.5875718
0
LINE
8
DEFAULT_255_2_778
10
17.6721022
20
84.5875718
11
17.6721022
21
82.1875718
0
LINE
8
DEFAULT_255_2_778
10
17.3721022
20
84.2875718
11
15.1720022
21
84.2875718
0
LINE
8
DEFAULT_255_2_778
10
15.1719573
20
85.9877177
11
17.3719573
21
85.9877177
0
LINE
8
DEFAULT_255_2_778
10
17.6720573
20
88.0877177
11
14.8719573
21
88.0877177
0
LINE
8
DEFAULT_255_2_778
10
14.8719573
20
88.0877177
11
15.1719573
21
87.7877177
0
LINE
8
DEFAULT_255_2_778
10
15.1719573
20
87.7877177
11
15.1719573
21
85.9877177
0
LINE
8
DEFAULT_255_2_778
10
15.1719573
20
85.9877177
11
14.8719573
21
85.6877177
0
LINE
8
DEFAULT_255_2_778
10
14.8719573
20
85.6877177
11
14.8719573
21
88.0877177
0
LINE
8
DEFAULT_255_2_778
10
14.8719573
20
85.6877177
11
17.6720573
21
85.6877177
0
LINE
8
DEFAULT_255_2_778
10
17.6720573
20
85.6877177
11
17.3719573
21
85.9877177
0
LINE
8
DEFAULT_255_2_778
10
17.3719573
20
85.9877177
11
17.3719573
21
87.7877177
0
LINE
8
DEFAULT_255_2_778
10
17.3719573
20
87.7877177
11
17.6720573
21
88.0877177
0
LINE
8
DEFAULT_255_2_778
10
17.6720573
20
88.0877177
11
17.6720573
21
85.6877177
0
LINE
8
DEFAULT_255_2_778
10
17.3719573
20
87.7877177
11
15.1719573
21
87.7877177
0
ARC
8
DEFAULT_255_2_778
10
19.625849
20
83.3313567
40
1.4453047
50
178.038713
51
179.4871801
0
ARC
8
DEFAULT_255_2_778
10
19.5410817
20
83.3323974
40
1.3605314
50
179.4990542
51
179.9983115
0
ARC
8
DEFAULT_255_2_778
10
19.1886063
20
83.3238829
40
1.0080924
50
179.5137877
51
190.2757902
0
ARC
8
DEFAULT_255_2_778
10
18.7594945
20
83.2430644
40
0.5714542
50
189.9775536
51
207.7640742
0
ARC
8
DEFAULT_255_2_778
10
18.5927774
20
83.1565063
40
0.3836107
50
207.9237685
51
243.8633806
0
ARC
8
DEFAULT_255_2_778
10
18.6706419
20
83.3346743
40
0.5779245
50
244.7143209
51
264.2953626
0
ARC
8
DEFAULT_255_2_778
10
18.7365046
20
83.811279
40
1.0588712
50
263.3125689
51
267.4931593
0
ARC
8
DEFAULT_255_2_778
10
18.7552431
20
84.0065772
40
1.2548434
50
267.0284075
51
269.2072453
0
ARC
8
DEFAULT_255_2_778
10
18.7533539
20
83.9005279
40
1.1487781
50
269.2282794
51
269.9978152
0
ARC
8
DEFAULT_255_2_778
10
18.764602
20
83.5575519
40
0.8058813
50
269.1971503
51
284.5116102
0
ARC
8
DEFAULT_255_2_778
10
18.8665603
20
83.1922573
40
0.4267527
50
283.5487477
51
346.7164509
0
ARC
8
DEFAULT_255_2_778
10
18.4124895
20
83.3263169
40
0.8998574
50
345.0517758
51
0.0934142
0
ARC
8
DEFAULT_255_2_778
10
17.9841243
20
83.3452932
40
1.3283367
50
359.2447457
51
0.003288
0
ARC
8
DEFAULT_255_2_778
10
17.9017957
20
83.3452118
40
1.4106655
50
0.0064004
51
1.1214564
0
ARC
8
DEFAULT_255_2_778
10
19.4470335
20
83.3336164
40
0.9896592
50
178.8012212
51
179.9929099
0
ARC
8
DEFAULT_255_2_778
10
19.1101018
20
83.3232738
40
0.6528114
50
179.081467
51
194.3867948
0
ARC
8
DEFAULT_255_2_778
10
18.7635762
20
83.228352
40
0.293626
50
193.246172
51
227.9701312
0
ARC
8
DEFAULT_255_2_778
10
18.7342184
20
83.2171713
40
0.266051
50
231.0557831
51
270.1448495
0
ARC
8
DEFAULT_255_2_778
10
18.0096079
20
83.3367849
40
1.0239048
50
0.0231146
51
2.1513283
0
ARC
8
DEFAULT_255_2_778
10
18.3592998
20
83.3276242
40
0.6742808
50
346.3471247
51
0.8135392
0
ARC
8
DEFAULT_255_2_778
10
18.7020402
20
83.2395703
40
0.3204749
50
318.1396732
51
347.1813022
0
ARC
8
DEFAULT_255_2_778
10
18.7626565
20
83.1996264
40
0.2489044
50
267.7533471
51
315.6756038
0
ARC
8
DEFAULT_255_2_778
10
18.7529475
20
83.3128205
40
0.3619071
50
268.0592287
51
269.992339
0
LINE
8
DEFAULT_255_2_778
10
15.171991
20
89.4876211
11
17.372091
21
89.4876211
0
LINE
8
DEFAULT_255_2_778
10
17.672091
20
91.5876211
11
14.871991
21
91.5876211
0
LINE
8
DEFAULT_255_2_778
10
14.871991
20
91.5876211
11
15.171991
21
91.2876211
0
LINE
8
DEFAULT_255_2_778
10
15.171991
20
91.2876211
11
15.171991
21
89.4876211
0
LINE
8
DEFAULT_255_2_778
10
15.171991
20
89.4876211
11
14.871991
21
89.1876211
0
LINE
8
DEFAULT_255_2_778
10
14.871991
20
89.1876211
11
14.871991
21
91.5876211
0
LINE
8
DEFAULT_255_2_778
10
17.372091
20
91.2876211
11
15.171991
21
91.2876211
0
LINE
8
DEFAULT_255_2_778
10
14.871991
20
89.1876211
11
17.672091
21
89.1876211
0
LINE
8
DEFAULT_255_2_778
10
17.672091
20
89.1876211
11
17.372091
21
89.4876211
0
LINE
8
DEFAULT_255_2_778
10
17.372091
20
89.4876211
11
17.372091
21
91.2876211
0
LINE
8
DEFAULT_255_2_778
10
17.372091
20
91.2876211
11
17.672091
21
91.5876211
0
LINE
8
DEFAULT_255_2_778
10
17.672091
20
91.5876211
11
17.672091
21
89.1876211
0
LINE
8
DEFAULT_255_2_778
10
12.171891
20
89.4876211
11
14.371891
21
89.4876211
0
LINE
8
DEFAULT_255_2_778
10
14.671991
20
91.5876211
11
11.871891
21
91.5876211
0
LINE
8
DEFAULT_255_2_778
10
11.871891
20
91.5876211
11
12.171891
21
91.2876211
0
LINE
8
DEFAULT_255_2_778
10
12.171891
20
91.2876211
11
12.171891
21
89.4876211
0
LINE
8
DEFAULT_255_2_778
10
12.171891
20
89.4876211
11
11.871891
21
89.1876211
0
LINE
8
DEFAULT_255_2_778
10
11.871891
20
89.1876211
11
11.871891
21
91.5876211
0
LINE
8
DEFAULT_255_2_778
10
11.871891
20
89.1876211
11
14.671991
21
89.1876211
0
LINE
8
DEFAULT_255_2_778
10
14.671991
20
89.1876211
11
14.371891
21
89.4876211
0
LINE
8
DEFAULT_255_2_778
10
14.371891
20
89.4876211
11
14.371891
21
91.2876211
0
LINE
8
DEFAULT_255_2_778
10
14.371891
20
91.2876211
11
14.671991
21
91.5876211
0
LINE
8
DEFAULT_255_2_778
10
14.671991
20
91.5876211
11
14.671991
21
89.1876211
0
LINE
8
DEFAULT_255_2_778
10
14.371891
20
91.2876211
11
12.171891
21
91.2876211
0
LINE
8
DEFAULT_255_2_778
10
18.458191
20
83.3509211
11
18.458191
21
84.1626211
0
LINE
8
DEFAULT_255_2_778
10
18.458191
20
84.1626211
11
18.180391
21
84.1626211
0
LINE
8
DEFAULT_255_2_778
10
18.180391
20
84.1626211
11
18.180391
21
83.3509211
0
LINE
8
DEFAULT_255_2_778
10
19.311191
20
83.3509211
11
19.311191
21
84.1626211
0
LINE
8
DEFAULT_255_2_778
10
19.311191
20
84.1626211
11
19.033391
21
84.1626211
0
LINE
8
DEFAULT_255_2_778
10
19.033391
20
84.1626211
11
19.033391
21
83.3509211
0
ARC
8
DEFAULT_255_2_778
10
19.9905133
20
83.0351956
40
0.9556203
50
66.8617078
51
75.0443482
0
ARC
8
DEFAULT_255_2_778
10
20.0925677
20
83.4252999
40
0.5523972
50
74.8288849
51
87.7359128
0
ARC
8
DEFAULT_255_2_778
10
20.1027212
20
83.5696671
40
0.4077656
50
88.3601209
51
89.9916638
0
ARC
8
DEFAULT_255_2_778
10
20.0945253
20
83.694872
40
0.2826811
50
88.3265271
51
122.9053372
0
ARC
8
DEFAULT_255_2_778
10
20.0869829
20
83.7168403
40
0.2602003
50
124.1389721
51
139.4657853
0
ARC
8
DEFAULT_255_2_778
10
20.092832
20
83.7770789
40
0.2308836
50
151.867026
51
168.0737773
0
ARC
8
DEFAULT_255_2_778
10
20.0177019
20
83.7946247
40
0.1537582
50
168.6854213
51
179.7998881
0
ARC
8
DEFAULT_255_2_778
10
20.0106022
20
83.7999961
40
0.1467372
50
181.8880017
51
239.3921048
0
ARC
8
DEFAULT_255_2_778
10
20.1765753
20
84.0327365
40
0.4322433
50
236.163189
51
252.1813286
0
ARC
8
DEFAULT_255_2_778
10
20.3020549
20
84.3744514
40
0.7961028
50
251.109362
51
254.6508326
0
ARC
8
DEFAULT_255_2_778
10
19.8093481
20
82.7245601
40
0.9261543
50
60.4288002
51
72.2742599
0
ARC
8
DEFAULT_255_2_778
10
20.0346112
20
83.1124656
40
0.477629
50
38.5884881
51
60.9671573
0
ARC
8
DEFAULT_255_2_778
10
20.1492082
20
83.2104248
40
0.3269949
50
359.2563353
51
37.6961275
0
ARC
8
DEFAULT_255_2_778
10
20.0181555
20
83.2092793
40
0.4580305
50
346.4791917
51
359.6123824
0
ARC
8
DEFAULT_255_2_778
10
19.8356061
20
83.2509098
40
0.6452575
50
339.0546511
51
346.6748148
0
ARC
8
DEFAULT_255_2_778
10
19.9223018
20
83.3032925
40
0.5884672
50
311.4202679
51
331.249838
0
ARC
8
DEFAULT_255_2_778
10
20.0123713
20
83.2128335
40
0.4611104
50
268.5270353
51
310.4640274
0
ARC
8
DEFAULT_255_2_778
10
20.0055634
20
83.4860191
40
0.7341609
50
257.7688773
51
269.6062681
0
ARC
8
DEFAULT_255_2_778
10
20.0793493
20
83.8370211
40
1.0928299
50
249.8041025
51
257.8868798
0
ARC
8
DEFAULT_255_2_778
10
20.2170007
20
84.2237886
40
1.5033457
50
245.782506
51
249.9693525
0
ARC
8
DEFAULT_255_2_778
10
4.6792203
20
84.784048
40
15.0455749
50
352.6249631
51
353.5352773
0
ARC
8
DEFAULT_255_2_778
10
20.0713883
20
84.0292577
40
1.0381313
50
244.7849019
51
253.1299492
0
ARC
8
DEFAULT_255_2_778
10
19.9488566
20
83.6175458
40
0.6085822
50
252.9208464
51
266.0256791
0
ARC
8
DEFAULT_255_2_778
10
19.9328234
20
83.4524614
40
0.442807
50
266.6147785
51
269.9712023
0
ARC
8
DEFAULT_255_2_778
10
19.9427081
20
83.3153026
40
0.3058151
50
268.1060118
51
316.306398
0
ARC
8
DEFAULT_255_2_778
10
19.9971633
20
83.2004866
40
0.1925551
50
329.9435854
51
348.7502654
0
ARC
8
DEFAULT_255_2_778
10
20.0549005
20
83.1870844
40
0.1333258
50
349.5586564
51
359.8709885
0
ARC
8
DEFAULT_255_2_778
10
20.0449671
20
83.1805815
40
0.1433932
50
2.4791729
51
56.2607272
0
ARC
8
DEFAULT_255_2_778
10
19.8624245
20
82.9495803
40
0.4375058
50
53.1821893
51
69.1792152
0
ARC
8
DEFAULT_255_2_778
10
19.6901331
20
82.5404706
40
0.8812781
50
68.163386
51
73.0454002
0
ARC
8
DEFAULT_255_2_778
10
20.09634
20
84.0539813
40
0.686938
50
239.8257304
51
257.4544262
0
ARC
8
DEFAULT_255_2_778
10
19.9147572
20
83.7542847
40
0.3366404
50
183.719701
51
240.9050902
0
ARC
8
DEFAULT_255_2_778
10
20.3572435
20
83.7520405
40
0.7786641
50
180.0074316
51
181.4420351
0
ARC
8
DEFAULT_255_2_778
10
20.1129767
20
83.7619125
40
0.5344904
50
160.972549
51
181.0691313
0
ARC
8
DEFAULT_255_2_778
10
19.9384163
20
83.8153211
40
0.3521137
50
104.2168942
51
159.9278504
0
ARC
8
DEFAULT_255_2_778
10
20.0542738
20
83.462184
40
0.7233415
50
91.8310189
51
106.2435874
0
ARC
8
DEFAULT_255_2_778
10
20.0783194
20
83.1152397
40
1.0709551
50
89.9687818
51
92.5237424
0
ARC
8
DEFAULT_255_2_778
10
20.0759473
20
82.8383338
40
1.3478643
50
85.1619045
51
89.8743571
0
ARC
8
DEFAULT_255_2_778
10
20.0375901
20
82.3744268
40
1.8133536
50
81.504683
51
85.1905196
0
ARC
8
DEFAULT_255_2_778
10
19.9646676
20
81.8750167
40
2.3180575
50
79.1119745
51
81.5455827
0
LINE
8
DEFAULT_255_2_778
10
20.402526
20
84.151345
11
20.373626
21
83.920845
0
ARC
8
DEFAULT_255_2_778
10
22.2055187
20
83.1768572
40
0.1781052
50
24.45075
51
98.4011994
0
ARC
8
DEFAULT_255_2_778
10
21.9707496
20
83.0524587
40
0.4436007
50
17.9337986
51
26.526642
0
ARC
8
DEFAULT_255_2_778
10
22.1363208
20
80.2961538
40
3.8663191
50
90.0005657
51
90.1915225
0
ARC
8
DEFAULT_255_2_778
10
22.1508226
20
81.716913
40
2.4456031
50
85.259231
51
90.3406458
0
ARC
8
DEFAULT_255_2_778
10
22.2777567
20
83.1703003
40
0.9867178
50
75.0390991
51
85.6297479
0
ARC
8
DEFAULT_255_2_778
10
22.4448494
20
83.7659243
40
0.3682271
50
48.8534179
51
76.2314467
0
ARC
8
DEFAULT_255_2_778
10
22.4759521
20
83.8318635
40
0.2987757
50
2.1092966
51
45.0217196
0
ARC
8
DEFAULT_255_2_778
10
22.1527178
20
83.7839666
40
0.6245903
50
1.0811054
51
5.4105445
0
ARC
8
DEFAULT_255_2_778
10
22.3822059
20
83.7863443
40
0.395103
50
0.0042137
51
1.3642772
0
ARC
8
DEFAULT_255_2_778
10
22.4609964
20
83.779182
40
0.3163942
50
314.6968145
51
1.3023855
0
ARC
8
DEFAULT_255_2_778
10
22.4485241
20
83.7999557
40
0.3399819
50
277.8394523
51
313.7285001
0
ARC
8
DEFAULT_255_2_778
10
22.303247
20
83.178737
40
0.3636365
50
22.5437593
51
39.5843754
0
ARC
8
DEFAULT_255_2_778
10
22.4605062
20
83.306692
40
0.1609121
50
40.1521392
51
59.1598431
0
ARC
8
DEFAULT_255_2_778
10
22.4812052
20
83.3392111
40
0.1223849
50
59.6755087
51
80.9648946
0
ARC
8
DEFAULT_255_2_778
10
22.4833356
20
83.3509607
40
0.1104466
50
81.0991529
51
85.398118
0
ARC
8
DEFAULT_255_2_778
10
22.2399954
20
83.9941036
40
0.4207409
50
274.3075015
51
291.6296289
0
ARC
8
DEFAULT_255_2_778
10
22.3323199
20
83.7464509
40
0.1565904
50
293.6287241
51
8.4832693
0
ARC
8
DEFAULT_255_2_778
10
22.2946642
20
83.7788787
40
0.1927585
50
357.2264001
51
359.982962
0
ARC
8
DEFAULT_255_2_778
10
22.315532
20
83.7672084
40
0.1722826
50
3.8650669
51
92.5445235
0
ARC
8
DEFAULT_255_2_778
10
22.2631998
20
83.5627873
40
0.3791757
50
83.2323114
51
85.478155
0
ARC
8
DEFAULT_255_2_778
10
22.2620487
20
83.5485235
40
0.3934857
50
85.4748007
51
86.9482696
0
LINE
8
DEFAULT_255_2_778
10
21.5510969
20
82.9942512
11
21.5510969
21
82.7757512
0
LINE
8
DEFAULT_255_2_778
10
21.5510969
20
82.7757512
11
20.7287969
21
82.7757512
0
LINE
8
DEFAULT_255_2_778
10
20.7287969
20
82.7757512
11
20.7287969
21
84.1624512
0
LINE
8
DEFAULT_255_2_778
10
20.7287969
20
84.1624512
11
21.5471969
21
84.1624512
0
LINE
8
DEFAULT_255_2_778
10
21.5471969
20
84.1624512
11
21.5471969
21
83.9438512
0
LINE
8
DEFAULT_255_2_778
10
21.5471969
20
83.9438512
11
21.0068969
21
83.9438512
0
LINE
8
DEFAULT_255_2_778
10
21.0068969
20
83.9438512
11
21.0068969
21
83.6020512
0
LINE
8
DEFAULT_255_2_778
10
21.0068969
20
83.6020512
11
21.5015969
21
83.6020512
0
LINE
8
DEFAULT_255_2_778
10
21.5015969
20
83.6020512
11
21.5015969
21
83.3834512
0
LINE
8
DEFAULT_255_2_778
10
21.5015969
20
83.3834512
11
21.0068969
21
83.3834512
0
LINE
8
DEFAULT_255_2_778
10
21.0068969
20
83.3834512
11
21.0068969
21
82.9942512
0
LINE
8
DEFAULT_255_2_778
10
21.0068969
20
82.9942512
11
21.5510969
21
82.9942512
0
LINE
8
DEFAULT_255_2_778
10
22.1863969
20
83.3522512
11
22.1029969
21
83.3522512
0
LINE
8
DEFAULT_255_2_778
10
22.1029969
20
83.3522512
11
22.1029969
21
82.7757512
0
LINE
8
DEFAULT_255_2_778
10
22.1029969
20
82.7757512
11
21.8249969
21
82.7757512
0
LINE
8
DEFAULT_255_2_778
10
21.8249969
20
82.7757512
11
21.8249969
21
84.1624512
0
LINE
8
DEFAULT_255_2_778
10
21.8249969
20
84.1624512
11
22.1233969
21
84.1624512
0
LINE
8
DEFAULT_255_2_778
10
22.3932969
20
83.1869512
11
22.5517969
21
82.7757512
0
LINE
8
DEFAULT_255_2_778
10
22.5517969
20
82.7757512
11
22.8615969
21
82.7757512
0
LINE
8
DEFAULT_255_2_778
10
22.8615969
20
82.7757512
11
22.6390969
21
83.3181512
0
LINE
8
DEFAULT_255_2_778
10
22.4921969
20
83.4610512
11
22.4921969
21
83.4612512
0
LINE
8
DEFAULT_255_2_778
10
22.2829969
20
83.9414512
11
22.1027969
21
83.9436512
0
LINE
8
DEFAULT_255_2_778
10
22.1027969
20
83.9436512
11
22.1027969
21
83.5708512
0
LINE
8
DEFAULT_255_2_778
10
22.1027969
20
83.5708512
11
22.2654969
21
83.5742512
0
LINE
8
DEFAULT_255_2_778
10
22.069948
20
86.5221989
11
22.069948
21
86.2385989
0
LINE
8
DEFAULT_255_2_778
10
22.069948
20
86.2385989
11
21.786048
21
86.2385989
0
LINE
8
DEFAULT_255_2_778
10
21.786048
20
86.2385989
11
21.786048
21
86.5221989
0
LINE
8
DEFAULT_255_2_778
10
21.786048
20
86.5221989
11
22.069948
21
86.5221989
0
LINE
8
DEFAULT_255_2_778
10
19.018748
20
86.4613989
11
19.018748
21
86.2385989
0
LINE
8
DEFAULT_255_2_778
10
19.018748
20
86.2385989
11
18.180048
21
86.2385989
0
LINE
8
DEFAULT_255_2_778
10
18.180048
20
86.2385989
11
18.180048
21
87.6527989
0
LINE
8
DEFAULT_255_2_778
10
18.180048
20
87.6527989
11
19.014548
21
87.6527989
0
LINE
8
DEFAULT_255_2_778
10
19.014548
20
87.6527989
11
19.014548
21
87.4299989
0
LINE
8
DEFAULT_255_2_778
10
19.014548
20
87.4299989
11
18.463648
21
87.4299989
0
LINE
8
DEFAULT_255_2_778
10
18.463648
20
87.4299989
11
18.463648
21
87.0815989
0
LINE
8
DEFAULT_255_2_778
10
18.463648
20
87.0815989
11
18.968248
21
87.0815989
0
LINE
8
DEFAULT_255_2_778
10
18.968248
20
87.0815989
11
18.968248
21
86.8587989
0
LINE
8
DEFAULT_255_2_778
10
18.968248
20
86.8587989
11
18.463648
21
86.8587989
0
LINE
8
DEFAULT_255_2_778
10
18.463648
20
86.8587989
11
18.463648
21
86.4615989
0
LINE
8
DEFAULT_255_2_778
10
18.463648
20
86.4615989
11
19.018748
21
86.4615989
0
ARC
8
DEFAULT_255_2_778
10
19.6863355
20
86.6474957
40
0.1816577
50
24.6681733
51
98.3898364
0
ARC
8
DEFAULT_255_2_778
10
19.4497225
20
86.5219125
40
0.4493541
50
17.8979705
51
26.6282211
0
ARC
8
DEFAULT_255_2_778
10
19.6154878
20
83.7169531
40
3.9360772
50
89.9996471
51
90.187162
0
ARC
8
DEFAULT_255_2_778
10
19.6303332
20
85.1577484
40
2.4953261
50
85.2594303
51
90.3403138
0
ARC
8
DEFAULT_255_2_778
10
19.7597833
20
86.6400142
40
1.0074538
50
75.045634
51
85.6294776
0
ARC
8
DEFAULT_255_2_778
10
19.9290225
20
87.2451566
40
0.3792058
50
49.5190771
51
76.1563344
0
ARC
8
DEFAULT_255_2_778
10
19.965331
20
87.3173131
40
0.3013648
50
2.4435608
51
45.8612133
0
ARC
8
DEFAULT_255_2_778
10
19.6399041
20
87.2676253
40
0.629631
50
1.0450986
51
5.7001675
0
ARC
8
DEFAULT_255_2_778
10
19.8669525
20
87.2693049
40
0.4025972
50
0.0032731
51
1.3954549
0
ARC
8
DEFAULT_255_2_778
10
19.9470514
20
87.2621236
40
0.3225788
50
315.6017926
51
1.2797251
0
ARC
8
DEFAULT_255_2_778
10
19.9340981
20
87.2834858
40
0.3468353
50
277.8602273
51
314.5774337
0
ARC
8
DEFAULT_255_2_778
10
19.2918374
20
86.4129079
40
0.918786
50
24.3895175
51
24.5035769
0
ARC
8
DEFAULT_255_2_778
10
19.7828949
20
86.6489038
40
0.37424
50
22.8077664
51
39.4126703
0
ARC
8
DEFAULT_255_2_778
10
19.9452937
20
86.7784186
40
0.1665706
50
40.4601188
51
59.1418074
0
ARC
8
DEFAULT_255_2_778
10
19.9694746
20
86.8179373
40
0.1202445
50
59.3744
51
85.4897845
0
ARC
8
DEFAULT_255_2_778
10
19.72131
20
87.4829319
40
0.4307443
50
274.3164783
51
291.4873615
0
ARC
8
DEFAULT_255_2_778
10
19.8156373
20
87.2287395
40
0.1597561
50
293.4022675
51
8.5204648
0
ARC
8
DEFAULT_255_2_778
10
19.7765117
20
87.2617758
40
0.1973409
50
357.2795254
51
359.9824436
0
ARC
8
DEFAULT_255_2_778
10
19.7993905
20
87.2505981
40
0.1748159
50
3.6461216
51
92.0272227
0
ARC
8
DEFAULT_255_2_778
10
19.7444775
20
87.0392652
40
0.3891026
50
82.805718
51
85.5679951
0
ARC
8
DEFAULT_255_2_778
10
19.7431865
20
87.0236861
40
0.4047351
50
85.5562084
51
86.849509
0
LINE
8
DEFAULT_255_2_778
10
19.6667302
20
86.8267093
11
19.5817302
21
86.8267093
0
LINE
8
DEFAULT_255_2_778
10
19.5817302
20
86.8267093
11
19.5817302
21
86.2388093
0
LINE
8
DEFAULT_255_2_778
10
19.5817302
20
86.2388093
11
19.2981302
21
86.2388093
0
LINE
8
DEFAULT_255_2_778
10
19.2981302
20
86.2388093
11
19.2981302
21
87.6530093
0
LINE
8
DEFAULT_255_2_778
10
19.2981302
20
87.6530093
11
19.6026302
21
87.6530093
0
LINE
8
DEFAULT_255_2_778
10
19.8778302
20
86.6584093
11
20.0397302
21
86.2390093
0
LINE
8
DEFAULT_255_2_778
10
20.0397302
20
86.2390093
11
20.3556302
21
86.2390093
0
LINE
8
DEFAULT_255_2_778
10
20.3556302
20
86.2390093
11
20.1286302
21
86.7923093
0
LINE
8
DEFAULT_255_2_778
10
19.9789302
20
86.9378093
11
19.9789302
21
86.9381093
0
LINE
8
DEFAULT_255_2_778
10
19.7654302
20
87.4278093
11
19.5817302
21
87.4302093
0
LINE
8
DEFAULT_255_2_778
10
19.5817302
20
87.4302093
11
19.5817302
21
87.0500093
0
LINE
8
DEFAULT_255_2_778
10
19.5817302
20
87.0500093
11
19.7479302
21
87.0534093
0
ARC
8
DEFAULT_255_2_778
10
20.9243355
20
86.6474957
40
0.1816577
50
24.6681733
51
98.3898364
0
ARC
8
DEFAULT_255_2_778
10
20.6877225
20
86.5219125
40
0.4493541
50
17.8979705
51
26.6282211
0
ARC
8
DEFAULT_255_2_778
10
20.8534878
20
83.7169531
40
3.9360772
50
89.9996471
51
90.187162
0
ARC
8
DEFAULT_255_2_778
10
20.8683332
20
85.1577484
40
2.4953261
50
85.2594303
51
90.3403138
0
ARC
8
DEFAULT_255_2_778
10
20.9977833
20
86.6400142
40
1.0074538
50
75.045634
51
85.6294776
0
ARC
8
DEFAULT_255_2_778
10
21.1670225
20
87.2451566
40
0.3792058
50
49.5190771
51
76.1563344
0
ARC
8
DEFAULT_255_2_778
10
21.203331
20
87.3173131
40
0.3013648
50
2.4435608
51
45.8612133
0
ARC
8
DEFAULT_255_2_778
10
20.8779041
20
87.2676253
40
0.629631
50
1.0450986
51
5.7001675
0
ARC
8
DEFAULT_255_2_778
10
21.1049525
20
87.2693049
40
0.4025972
50
0.0032731
51
1.3954549
0
ARC
8
DEFAULT_255_2_778
10
21.1850514
20
87.2621236
40
0.3225788
50
315.6017926
51
1.2797251
0
ARC
8
DEFAULT_255_2_778
10
21.1720981
20
87.2834858
40
0.3468353
50
277.8602273
51
314.5774337
0
ARC
8
DEFAULT_255_2_778
10
20.5298374
20
86.4129079
40
0.918786
50
24.3895175
51
24.5035769
0
ARC
8
DEFAULT_255_2_778
10
21.0208949
20
86.6489038
40
0.37424
50
22.8077664
51
39.4126703
0
ARC
8
DEFAULT_255_2_778
10
21.1844579
20
86.7797966
40
0.1647909
50
40.3582489
51
59.2435439
0
ARC
8
DEFAULT_255_2_778
10
21.2074746
20
86.8179373
40
0.1202445
50
59.3744
51
85.4897845
0
ARC
8
DEFAULT_255_2_778
10
20.95931
20
87.4829319
40
0.4307443
50
274.3164783
51
291.4873615
0
ARC
8
DEFAULT_255_2_778
10
21.0536373
20
87.2287395
40
0.1597561
50
293.4022675
51
8.5204648
0
ARC
8
DEFAULT_255_2_778
10
21.0145117
20
87.2617758
40
0.1973409
50
357.2795254
51
359.9824436
0
ARC
8
DEFAULT_255_2_778
10
21.0373905
20
87.2505981
40
0.1748159
50
3.6461216
51
92.0272227
0
ARC
8
DEFAULT_255_2_778
10
20.9824775
20
87.0392652
40
0.3891026
50
82.805718
51
85.5679951
0
ARC
8
DEFAULT_255_2_778
10
20.9811865
20
87.0236861
40
0.4047351
50
85.5562084
51
86.849509
0
LINE
8
DEFAULT_255_2_778
10
20.9047302
20
86.8267093
11
20.8197302
21
86.8267093
0
LINE
8
DEFAULT_255_2_778
10
20.8197302
20
86.8267093
11
20.8197302
21
86.2388093
0
LINE
8
DEFAULT_255_2_778
10
20.8197302
20
86.2388093
11
20.5361302
21
86.2388093
0
LINE
8
DEFAULT_255_2_778
10
20.5361302
20
86.2388093
11
20.5361302
21
87.6530093
0
LINE
8
DEFAULT_255_2_778
10
20.5361302
20
87.6530093
11
20.8406302
21
87.6530093
0
LINE
8
DEFAULT_255_2_778
10
21.1158302
20
86.6584093
11
21.2777302
21
86.2390093
0
LINE
8
DEFAULT_255_2_778
10
21.2777302
20
86.2390093
11
21.5936302
21
86.2390093
0
LINE
8
DEFAULT_255_2_778
10
21.5936302
20
86.2390093
11
21.3666302
21
86.7923093
0
LINE
8
DEFAULT_255_2_778
10
21.2169302
20
86.9378093
11
21.2169302
21
86.9381093
0
LINE
8
DEFAULT_255_2_778
10
21.0034302
20
87.4278093
11
20.8197302
21
87.4302093
0
LINE
8
DEFAULT_255_2_778
10
20.8197302
20
87.4302093
11
20.8197302
21
87.0500093
0
LINE
8
DEFAULT_255_2_778
10
20.8197302
20
87.0500093
11
20.9859302
21
87.0534093
0
ARC
8
DEFAULT_255_2_778
10
21.0560459
20
90.4185329
40
1.0523789
50
178.8773733
51
179.9968548
0
ARC
8
DEFAULT_255_2_778
10
20.8510995
20
90.4102074
40
0.847474
50
179.4332214
51
197.179922
0
ARC
8
DEFAULT_255_2_778
10
20.6364344
20
90.3430703
40
0.6225568
50
197.1122593
51
227.3530022
0
ARC
8
DEFAULT_255_2_778
10
20.6527364
20
90.3806116
40
0.6613507
50
228.5176769
51
270.8077359
0
ARC
8
DEFAULT_255_2_778
10
20.6620586
20
90.4555773
40
0.7362508
50
270.0000809
51
271.0583477
0
ARC
8
DEFAULT_255_2_778
10
20.6619554
20
90.4598248
40
0.7404995
50
271.0602578
51
271.9435242
0
ARC
8
DEFAULT_255_2_778
10
20.6919231
20
90.6546867
40
0.934948
50
269.7025272
51
269.9975429
0
ARC
8
DEFAULT_255_2_778
10
20.7276317
20
90.353486
40
0.6347547
50
266.771453
51
330.073834
0
ARC
8
DEFAULT_255_2_778
10
20.5980597
20
90.4007383
40
0.7709881
50
331.8345692
51
351.3983849
0
ARC
8
DEFAULT_255_2_778
10
20.2567595
20
90.4619204
40
1.11764
50
350.9140295
51
359.5760851
0
ARC
8
DEFAULT_255_2_778
10
21.0559317
20
90.4713688
40
1.0522647
50
180.0031222
51
181.1226906
0
ARC
8
DEFAULT_255_2_778
10
20.8533551
20
90.4794942
40
0.8497274
50
163.0819365
51
180.5517552
0
ARC
8
DEFAULT_255_2_778
10
20.6344328
20
90.5472799
40
0.6205548
50
133.3544559
51
163.1876426
0
ARC
8
DEFAULT_255_2_778
10
20.6413712
20
90.5209072
40
0.6446265
50
89.1591153
51
132.1935716
0
ARC
8
DEFAULT_255_2_778
10
20.6507907
20
90.4396472
40
0.725817
50
86.8497676
51
89.9967718
0
LINE
8
DEFAULT_255_2_778
10
20.6906774
20
91.1643674
11
20.690969
21
91.1643514
0
ARC
8
DEFAULT_255_2_778
10
20.7003603
20
90.2607201
40
0.90368
50
90.0002983
51
90.5954472
0
ARC
8
DEFAULT_255_2_778
10
20.7359139
20
90.5368071
40
0.6285995
50
29.3830639
51
93.2428118
0
ARC
8
DEFAULT_255_2_778
10
20.6097446
20
90.4935452
40
0.76015
50
7.7417905
51
27.5581067
0
ARC
8
DEFAULT_255_2_778
10
20.2945396
20
90.4402389
40
1.0797127
50
0.7117619
51
8.2915328
0
ARC
8
DEFAULT_255_2_778
10
20.1430562
20
90.4621061
40
0.9409692
50
357.0097628
51
358.9553862
0
ARC
8
DEFAULT_255_2_778
10
20.4980783
20
90.4154565
40
0.584671
50
322.0670832
51
359.7612035
0
ARC
8
DEFAULT_255_2_778
10
20.7083458
20
90.2790174
40
0.335651
50
275.0171474
51
318.3695767
0
ARC
8
DEFAULT_255_2_778
10
20.6879606
20
90.4011752
40
0.4592244
50
270.0759066
51
276.2179751
0
ARC
8
DEFAULT_255_2_778
10
20.680473
20
90.310559
40
0.3686966
50
239.0479041
51
271.2582294
0
ARC
8
DEFAULT_255_2_778
10
20.7594401
20
90.3650239
40
0.4577457
50
184.9107522
51
234.0712197
0
ARC
8
DEFAULT_255_2_778
10
21.1536024
20
90.4574934
40
0.8603605
50
182.9610511
51
188.8021108
0
ARC
8
DEFAULT_255_2_778
10
21.2243365
20
90.4622779
40
0.9312481
50
182.6297106
51
183.0302236
0
ARC
8
DEFAULT_255_2_778
10
21.2656819
20
90.4197305
40
0.9716129
50
177.4064943
51
180.0105647
0
ARC
8
DEFAULT_255_2_778
10
20.9014115
20
90.463217
40
0.6063475
50
144.2133081
51
179.9547634
0
ARC
8
DEFAULT_255_2_778
10
20.669393
20
90.6071049
40
0.3345306
50
95.4303382
51
140.9650272
0
ARC
8
DEFAULT_255_2_778
10
20.6902026
20
90.4855704
40
0.4575817
50
89.9040426
51
96.5842349
0
ARC
8
DEFAULT_255_2_778
10
20.6939982
20
90.4652348
40
0.4779262
50
90.00043
51
90.3631517
0
ARC
8
DEFAULT_255_2_778
10
20.7028798
20
90.5850524
40
0.3582187
50
58.5527534
51
91.4213127
0
ARC
8
DEFAULT_255_2_778
10
20.6235939
20
90.5271079
40
0.4505726
50
6.0852848
51
53.7901284
0
ARC
8
DEFAULT_255_2_778
10
20.2340593
20
90.4309784
40
0.849839
50
2.8740977
51
9.7482384
0
ARC
8
DEFAULT_255_2_778
10
20.1446916
20
90.4249805
40
0.9393963
50
1.2364591
51
2.9661569
0
ARC
8
DEFAULT_255_2_778
10
21.984675
20
91.385987
40
1.4386737
50
267.3504273
51
269.2939958
0
ARC
8
DEFAULT_255_2_778
10
21.9828147
20
91.2695712
40
1.3222438
50
269.3124436
51
269.9975422
0
ARC
8
DEFAULT_255_2_778
10
21.9940215
20
90.8762107
40
0.9289517
50
269.3052727
51
282.5758141
0
ARC
8
DEFAULT_255_2_778
10
22.1009217
20
90.4244999
40
0.4648409
50
281.8382143
51
309.4024515
0
ARC
8
DEFAULT_255_2_778
10
22.1362761
20
90.356179
40
0.3899378
50
311.7612978
51
353.6679797
0
ARC
8
DEFAULT_255_2_778
10
21.8638776
20
90.4090136
40
0.6668803
50
351.7371191
51
0.2264153
0
ARC
8
DEFAULT_255_2_778
10
21.6798632
20
90.4109929
40
0.8508898
50
0.0441774
51
3.3801219
0
ARC
8
DEFAULT_255_2_778
10
21.5780207
20
90.405619
40
0.9528723
50
3.3416309
51
3.5458383
0
ARC
8
DEFAULT_255_2_778
10
21.9521367
20
90.473879
40
0.5770077
50
359.0737465
51
19.7137358
0
ARC
8
DEFAULT_255_2_778
10
22.1497196
20
90.5365438
40
0.3699463
50
20.8996786
51
78.6878729
0
ARC
8
DEFAULT_255_2_778
10
22.0350833
20
90.1273324
40
0.7943448
50
76.3689278
51
90.747691
0
ARC
8
DEFAULT_255_2_778
10
22.025761
20
89.7081326
40
1.2134774
50
90.0492601
51
93.1386414
0
ARC
8
DEFAULT_255_2_778
10
22.0356772
20
89.5131333
40
1.4087276
50
93.1071071
51
94.7848537
0
LINE
8
DEFAULT_255_2_778
10
21.918169
20
90.9169514
11
21.918169
21
89.9488514
0
LINE
8
DEFAULT_255_2_778
10
21.630569
20
89.7437514
11
21.630569
21
91.1431514
0
LINE
8
DEFAULT_255_2_778
10
21.630569
20
91.1431514
11
22.061769
21
91.1431514
0
ARC
8
DEFAULT_255_2_778
10
22.073465
20
89.8399116
40
1.3032922
50
79.0928372
51
90.5141907
0
ARC
8
DEFAULT_255_2_778
10
22.1878716
20
90.40632
40
0.7254866
50
58.9638696
51
79.5007611
0
ARC
8
DEFAULT_255_2_778
10
22.27745
20
90.5763919
40
0.5336889
50
9.7154932
51
57.7902618
0
ARC
8
DEFAULT_255_2_778
10
21.8861598
20
90.4819391
40
0.9356982
50
359.5721612
51
11.3730396
0
ARC
8
DEFAULT_255_2_778
10
21.5494425
20
90.4759293
40
1.2723897
50
356.681026
51
359.9559982
0
ARC
8
DEFAULT_255_2_778
10
21.376061
20
90.4852609
40
1.4460208
50
354.9053093
51
356.7096304
0
ARC
8
DEFAULT_255_2_778
10
22.0109898
20
90.3910987
40
0.806107
50
338.7916781
51
357.5650663
0
ARC
8
DEFAULT_255_2_778
10
22.2675021
20
90.2987431
40
0.5335993
50
282.8418077
51
338.072731
0
ARC
8
DEFAULT_255_2_778
10
22.118868
20
90.7970383
40
1.0530206
50
270.4921421
51
284.7010988
0
ARC
8
DEFAULT_255_2_778
10
22.0979179
20
91.2168419
40
1.4730906
50
269.9942083
51
271.166729
0
LINE
8
DEFAULT_255_2_778
10
22.097769
20
89.7437514
11
21.630569
21
89.7437514
0
ARC
8
DEFAULT_255_2_778
10
7.1872388
20
87.4308006
40
0.9112692
50
270.3791478
51
280.5552883
0
ARC
8
DEFAULT_255_2_778
10
7.2845314
20
86.9936707
40
0.463975
50
278.6320945
51
295.4304119
0
ARC
8
DEFAULT_255_2_778
10
7.1776171
20
87.4764606
40
1.1657144
50
270.7693252
51
282.0545875
0
ARC
8
DEFAULT_255_2_778
10
7.1811557
20
87.3158147
40
1.0050363
50
269.9991321
51
270.6905767
0
ARC
8
DEFAULT_255_2_778
10
7.1809296
20
87.3135841
40
1.0028057
50
253.6460329
51
270.0120493
0
ARC
8
DEFAULT_255_2_778
10
7.1023223
20
87.0236382
40
0.7024849
50
242.1793726
51
253.1392581
0
ARC
8
DEFAULT_255_2_778
10
7.0495011
20
86.9226269
40
0.5884975
50
229.661952
51
242.1378236
0
ARC
8
DEFAULT_255_2_778
10
7.022314
20
86.8863592
40
0.5432617
50
216.0112962
51
229.3716191
0
ARC
8
DEFAULT_255_2_778
10
7.0421819
20
86.8988583
40
0.5666839
50
202.6145653
51
215.8524828
0
ARC
8
DEFAULT_255_2_778
10
7.1223703
20
86.9307132
40
0.6529574
50
196.4278938
51
202.4891601
0
ARC
8
DEFAULT_255_2_778
10
7.1060905
20
86.9270487
40
0.6363068
50
190.0094939
51
196.5259643
0
ARC
8
DEFAULT_255_2_778
10
7.0996549
20
87.05834
40
0.6228619
50
147.0354786
51
159.5706401
0
ARC
8
DEFAULT_255_2_778
10
7.0617709
20
87.0815182
40
0.5784664
50
133.9401865
51
146.9199153
0
ARC
8
DEFAULT_255_2_778
10
7.0682781
20
87.0690207
40
0.5919942
50
120.8318577
51
133.5543536
0
ARC
8
DEFAULT_255_2_778
10
7.1056384
20
87.0056115
40
0.6655902
50
108.970364
51
120.7958634
0
ARC
8
DEFAULT_255_2_778
10
7.1720352
20
86.7914126
40
0.8897658
50
92.396518
51
108.5298396
0
ARC
8
DEFAULT_255_2_778
10
7.1923521
20
86.5411592
40
1.1406923
50
89.9790584
51
92.8905131
0
ARC
8
DEFAULT_255_2_778
10
7.1927216
20
86.9079397
40
0.7739116
50
88.4444609
51
89.9964948
0
ARC
8
DEFAULT_255_2_778
10
7.1885066
20
86.8221039
40
0.8598324
50
79.9151323
51
88.318958
0
ARC
8
DEFAULT_255_2_778
10
7.2106132
20
86.894859
40
0.7843822
50
68.940653
51
80.5743946
0
ARC
8
DEFAULT_255_2_778
10
7.2111299
20
86.9436802
40
0.528742
50
60.2539257
51
77.2336619
0
ARC
8
DEFAULT_255_2_778
10
7.1952481
20
86.8304451
40
0.6427581
50
78.0834631
51
90.0133305
0
ARC
8
DEFAULT_255_2_778
10
7.1951623
20
86.8277331
40
0.6454702
50
90.0056657
51
90.72731
0
ARC
8
DEFAULT_255_2_778
10
7.1869091
20
86.9600787
40
0.5130727
50
89.9933091
51
93.610256
0
ARC
8
DEFAULT_255_2_778
10
7.1803347
20
87.0189352
40
0.453928
50
93.2498684
51
113.1374619
0
ARC
8
DEFAULT_255_2_778
10
7.168338
20
87.0598462
40
0.4116245
50
113.839538
51
138.0983469
0
ARC
8
DEFAULT_255_2_778
10
7.1746621
20
87.0551476
40
0.4194702
50
138.1975663
51
150.1152763
0
ARC
8
DEFAULT_255_2_778
10
7.219813
20
87.0266815
40
0.4728059
50
149.8505908
51
160.7769271
0
ARC
8
DEFAULT_255_2_778
10
7.282628
20
87.0052314
40
0.5391811
50
160.8223545
51
170.8091426
0
ARC
8
DEFAULT_255_2_778
10
7.2619653
20
86.9768439
40
0.5183897
50
189.0781734
51
199.3535567
0
ARC
8
DEFAULT_255_2_778
10
7.1896841
20
86.9495722
40
0.4411588
50
199.122784
51
210.6532368
0
ARC
8
DEFAULT_255_2_778
10
7.1696423
20
86.9362269
40
0.4171154
50
210.4798322
51
222.3281883
0
ARC
8
DEFAULT_255_2_778
10
7.1610923
20
86.932125
40
0.4080412
50
222.710804
51
247.1693901
0
ARC
8
DEFAULT_255_2_778
10
7.1868256
20
87.0094235
40
0.4893089
50
247.9041998
51
269.9629644
0
ARC
8
DEFAULT_255_2_778
10
7.1865085
20
87.0028452
40
0.4827305
50
270.0001045
51
270.707478
0
LINE
8
DEFAULT_255_2_778
10
18.452569
20
90.8986514
11
18.829369
21
89.7443514
0
LINE
8
DEFAULT_255_2_778
10
18.829369
20
89.7443514
11
19.097669
21
89.7443514
0
LINE
8
DEFAULT_255_2_778
10
19.097669
20
89.7443514
11
19.474469
21
90.8986514
0
LINE
8
DEFAULT_255_2_778
10
19.474469
20
90.8986514
11
19.478669
21
90.8986514
0
LINE
8
DEFAULT_255_2_778
10
19.478669
20
90.8986514
11
19.478669
21
89.7443514
0
LINE
8
DEFAULT_255_2_778
10
19.478669
20
89.7443514
11
19.746969
21
89.7443514
0
LINE
8
DEFAULT_255_2_778
10
19.746969
20
89.7443514
11
19.746969
21
91.1431514
0
LINE
8
DEFAULT_255_2_778
10
19.746969
20
91.1431514
11
19.297969
21
91.1431514
0
LINE
8
DEFAULT_255_2_778
10
19.297969
20
91.1431514
11
18.965369
21
90.0829514
0
LINE
8
DEFAULT_255_2_778
10
18.965369
20
90.0829514
11
18.961169
21
90.0829514
0
LINE
8
DEFAULT_255_2_778
10
18.961169
20
90.0829514
11
18.628569
21
91.1431514
0
LINE
8
DEFAULT_255_2_778
10
18.628569
20
91.1431514
11
18.179569
21
91.1431514
0
LINE
8
DEFAULT_255_2_778
10
18.179569
20
91.1431514
11
18.179569
21
89.7443514
0
LINE
8
DEFAULT_255_2_778
10
18.179569
20
89.7443514
11
18.447869
21
89.7443514
0
LINE
8
DEFAULT_255_2_778
10
18.447869
20
89.7443514
11
18.447869
21
90.8947514
0
LINE
8
DEFAULT_255_2_778
10
18.447869
20
90.8947514
11
18.452569
21
90.8986514
0
LINE
8
DEFAULT_255_2_778
10
20.293069
20
90.4623514
11
20.294069
21
90.4192514
0
LINE
8
DEFAULT_255_2_778
10
21.083869
20
90.4240514
11
21.083669
21
90.4449514
0
LINE
8
DEFAULT_255_2_778
10
21.083869
20
90.4626514
11
21.083869
21
90.4449514
0
LINE
8
DEFAULT_255_2_778
10
20.688569
20
89.9422514
11
20.688569
21
89.9422514
0
LINE
8
DEFAULT_255_2_778
10
21.918169
20
89.9488514
11
21.918169
21
89.9488514
0
LINE
8
DEFAULT_255_2_778
10
21.630569
20
89.7437514
11
21.630569
21
89.7437514
0
LINE
8
DEFAULT_255_2_778
10
23.358269
20
89.9647514
11
23.358269
21
90.3576514
0
LINE
8
DEFAULT_255_2_778
10
23.358269
20
90.3576514
11
23.857269
21
90.3576514
0
LINE
8
DEFAULT_255_2_778
10
23.857269
20
90.3576514
11
23.857269
21
90.5780514
0
LINE
8
DEFAULT_255_2_778
10
23.857269
20
90.5780514
11
23.358269
21
90.5780514
0
LINE
8
DEFAULT_255_2_778
10
23.358269
20
90.5780514
11
23.358269
21
90.9227514
0
LINE
8
DEFAULT_255_2_778
10
23.358269
20
90.9227514
11
23.903269
21
90.9227514
0
LINE
8
DEFAULT_255_2_778
10
23.903269
20
90.9227514
11
23.903269
21
91.1431514
0
LINE
8
DEFAULT_255_2_778
10
23.903269
20
91.1431514
11
23.077769
21
91.1431514
0
LINE
8
DEFAULT_255_2_778
10
23.077769
20
91.1431514
11
23.077769
21
89.7443514
0
LINE
8
DEFAULT_255_2_778
10
23.077769
20
89.7443514
11
23.907569
21
89.7443514
0
LINE
8
DEFAULT_255_2_778
10
23.907569
20
89.7443514
11
23.907569
21
89.9647514
0
LINE
8
DEFAULT_255_2_778
10
23.907569
20
89.9647514
11
23.358269
21
89.9647514
0
LINE
8
DEFAULT_255_2_778
10
7.483769
20
86.5746514
11
7.494869
21
86.3526514
0
LINE
8
DEFAULT_255_2_778
10
7.494869
20
86.3526514
11
7.421069
21
86.3364514
0
LINE
8
DEFAULT_255_2_778
10
6.479469
20
86.8164514
11
6.469069
21
86.8923514
0
LINE
8
DEFAULT_255_2_778
10
6.469069
20
86.8923514
11
6.466469
21
86.9323514
0
LINE
8
DEFAULT_255_2_778
10
6.466469
20
86.9323514
11
6.465669
21
86.9736514
0
LINE
8
DEFAULT_255_2_778
10
6.465669
20
86.9736514
11
6.466469
21
87.0156514
0
LINE
8
DEFAULT_255_2_778
10
6.466469
20
87.0156514
11
6.468869
21
87.0564514
0
LINE
8
DEFAULT_255_2_778
10
6.468869
20
87.0564514
11
6.478369
21
87.1344514
0
LINE
8
DEFAULT_255_2_778
10
6.478369
20
87.1344514
11
6.494269
21
87.2074514
0
LINE
8
DEFAULT_255_2_778
10
6.494269
20
87.2074514
11
6.515969
21
87.2757514
0
LINE
8
DEFAULT_255_2_778
10
7.492469
20
87.6268514
11
7.473469
21
87.4027514
0
LINE
8
DEFAULT_255_2_778
10
6.750369
20
87.0913514
11
6.744569
21
87.0429514
0
LINE
8
DEFAULT_255_2_778
10
6.744569
20
87.0429514
11
6.742469
21
86.9926514
0
LINE
8
DEFAULT_255_2_778
10
6.742469
20
86.9926514
11
6.744269
21
86.9429514
0
LINE
8
DEFAULT_255_2_778
10
6.744269
20
86.9429514
11
6.750069
21
86.8950514
0
LINE
8
DEFAULT_255_2_778
10
10.3445027
20
86.3335489
11
10.7866027
21
86.3335489
0
ARC
8
DEFAULT_255_2_778
10
10.7991006
20
87.3914055
40
1.0579304
50
269.3231179
51
283.1671222
0
ARC
8
DEFAULT_255_2_778
10
10.9187268
20
86.9115673
40
0.5635029
50
282.4372785
51
312.4739442
0
ARC
8
DEFAULT_255_2_778
10
10.9243797
20
86.8755138
40
0.533475
50
314.6413534
51
349.2939938
0
ARC
8
DEFAULT_255_2_778
10
10.5891177
20
86.960568
40
0.8789597
50
347.9059118
51
356.9139732
0
ARC
8
DEFAULT_255_2_778
10
10.1433093
20
87.0317742
40
1.3287901
50
354.882537
51
357.9521609
0
ARC
8
DEFAULT_255_2_778
10
10.3025446
20
87.0255444
40
1.1694339
50
357.978409
51
359.9836082
0
ARC
8
DEFAULT_255_2_778
10
10.6543991
20
87.0371159
40
0.8176661
50
359.1656826
51
16.4070697
0
ARC
8
DEFAULT_255_2_778
10
10.9493737
20
87.1218121
40
0.5107841
50
16.6393982
51
76.0880017
0
ARC
8
DEFAULT_255_2_778
10
10.7880975
20
86.6312416
40
1.026466
50
73.9330772
51
87.6380457
0
ARC
8
DEFAULT_255_2_778
10
10.7526116
20
86.1551349
40
1.5037141
50
87.0346996
51
90.0041496
0
LINE
8
DEFAULT_255_2_778
10
10.7525027
20
87.6588489
11
10.3442027
21
87.6588489
0
LINE
8
DEFAULT_255_2_778
10
10.3442027
20
87.6588489
11
10.3442027
21
86.3335489
0
ARC
8
DEFAULT_255_2_778
10
10.6555181
20
87.0263309
40
0.5393662
50
359.003321
51
20.530837
0
ARC
8
DEFAULT_255_2_778
10
10.835072
20
87.0841304
40
0.3510575
50
21.9743014
51
78.9335474
0
ARC
8
DEFAULT_255_2_778
10
10.7270277
20
86.6943401
40
0.7549841
50
76.56389
51
90.7283751
0
ARC
8
DEFAULT_255_2_778
10
10.7186273
20
86.2894762
40
1.1597878
50
90.0591421
51
93.4377679
0
ARC
8
DEFAULT_255_2_778
10
10.7286771
20
86.1041653
40
1.3453682
50
93.3917592
51
94.7827762
0
LINE
8
DEFAULT_255_2_778
10
10.6165027
20
87.4448489
11
10.6165027
21
86.5266489
0
ARC
8
DEFAULT_255_2_778
10
10.6787258
20
87.8686598
40
1.3434526
50
267.3453463
51
269.626594
0
ARC
8
DEFAULT_255_2_778
10
10.6774108
20
87.760942
40
1.2357287
50
269.6550146
51
269.9993852
0
ARC
8
DEFAULT_255_2_778
10
10.6887241
20
87.3924037
40
0.8672643
50
269.2516953
51
283.1166747
0
ARC
8
DEFAULT_255_2_778
10
10.7949572
20
86.9636981
40
0.4256805
50
282.2857253
51
312.2121733
0
ARC
8
DEFAULT_255_2_778
10
10.8141045
20
86.9169173
40
0.3785604
50
314.8237953
51
354.4233528
0
ARC
8
DEFAULT_255_2_778
10
10.5520074
20
86.9643496
40
0.6443932
50
352.4901706
51
0.1894118
0
ARC
8
DEFAULT_255_2_778
10
10.382908
20
86.9658168
40
0.8134891
50
0.0467035
51
3.4758576
0
ARC
8
DEFAULT_255_2_778
10
10.3270766
20
86.9631874
40
0.8693776
50
3.4257428
51
3.5321734
0
LINE
8
DEFAULT_255_2_778
10
10.3442027
20
86.3335489
11
10.3445027
21
86.3335489
0
LINE
8
DEFAULT_255_2_778
10
11.1948027
20
87.0167489
11
11.1948027
21
87.0169489
0
ARC
8
DEFAULT_255_2_778
10
9.525323
20
86.7164866
40
0.1705095
50
23.2193827
51
98.4158822
0
ARC
8
DEFAULT_255_2_778
10
9.2903478
20
86.5936402
40
0.4353563
50
18.0120949
51
25.8862276
0
ARC
8
DEFAULT_255_2_778
10
9.4595567
20
83.9507277
40
3.7081547
50
90.0006146
51
90.1991519
0
ARC
8
DEFAULT_255_2_778
10
9.4733877
20
85.3281287
40
2.3307951
50
85.2487041
51
90.3409733
0
ARC
8
DEFAULT_255_2_778
10
9.5966861
20
86.7273413
40
0.9262041
50
74.5852669
51
85.6803093
0
ARC
8
DEFAULT_255_2_778
10
9.760943
20
87.2938545
40
0.3364994
50
46.2474053
51
75.9077892
0
ARC
8
DEFAULT_255_2_778
10
9.7752294
20
87.33968
40
0.2942955
50
1.4459996
51
42.0830874
0
ARC
8
DEFAULT_255_2_778
10
9.4629889
20
87.2973165
40
0.6084826
50
1.0587688
51
4.6935596
0
ARC
8
DEFAULT_255_2_778
10
9.6942449
20
87.2991733
40
0.3772397
50
0.0046325
51
1.4258222
0
ARC
8
DEFAULT_255_2_778
10
9.7704847
20
87.2921238
40
0.301083
50
312.6925715
51
1.3474457
0
ARC
8
DEFAULT_255_2_778
10
9.7560462
20
87.3149149
40
0.3276607
50
278.0211897
51
311.8459391
0
ARC
8
DEFAULT_255_2_778
10
9.6170563
20
86.7178446
40
0.3496396
50
22.5912181
51
39.5461363
0
ARC
8
DEFAULT_255_2_778
10
9.7692905
20
86.8414396
40
0.1535658
50
40.1512658
51
59.13704
0
ARC
8
DEFAULT_255_2_778
10
9.7894559
20
86.8726126
40
0.11647
50
59.7857078
51
85.118111
0
ARC
8
DEFAULT_255_2_778
10
9.5595872
20
87.491335
40
0.3952316
50
274.1904784
51
292.1629447
0
ARC
8
DEFAULT_255_2_778
10
9.6464136
20
87.2615024
40
0.1497579
50
294.5706365
51
8.392476
0
ARC
8
DEFAULT_255_2_778
10
9.6107196
20
87.2923651
40
0.1840685
50
357.1958479
51
359.9839056
0
ARC
8
DEFAULT_255_2_778
10
9.6284491
20
87.2799228
40
0.1667999
50
4.2600732
51
93.4621004
0
ARC
8
DEFAULT_255_2_778
10
9.5788979
20
87.0794046
40
0.3691309
50
83.8604924
51
85.3016669
0
ARC
8
DEFAULT_255_2_778
10
9.5780878
20
87.0696287
40
0.3789405
50
85.3006692
51
86.7504957
0
LINE
8
DEFAULT_255_2_778
10
9.5069677
20
86.88436
11
9.4273677
21
86.88436
0
LINE
8
DEFAULT_255_2_778
10
9.4273677
20
86.88436
11
9.4273677
21
86.33356
0
LINE
8
DEFAULT_255_2_778
10
9.4273677
20
86.33356
11
9.1614677
21
86.33356
0
LINE
8
DEFAULT_255_2_778
10
9.1614677
20
86.33356
11
9.1614677
21
87.65886
0
LINE
8
DEFAULT_255_2_778
10
9.1614677
20
87.65886
11
9.4466677
21
87.65886
0
LINE
8
DEFAULT_255_2_778
10
9.7046677
20
86.72666
11
9.8562677
21
86.33356
0
LINE
8
DEFAULT_255_2_778
10
9.8562677
20
86.33356
11
10.1523677
21
86.33356
0
LINE
8
DEFAULT_255_2_778
10
10.1523677
20
86.33356
11
9.9398677
21
86.85216
0
LINE
8
DEFAULT_255_2_778
10
9.7993677
20
86.98866
11
9.7993677
21
86.98886
0
LINE
8
DEFAULT_255_2_778
10
9.5995677
20
87.44796
11
9.4276677
21
87.45006
0
LINE
8
DEFAULT_255_2_778
10
9.4276677
20
87.45006
11
9.4276677
21
87.09366
0
LINE
8
DEFAULT_255_2_778
10
9.4276677
20
87.09366
11
9.5831677
21
87.09716
0
ARC
8
DEFAULT_255_2_778
10
3.929785
20
86.58906
40
0.905375
50
66.848445
51
75.3608682
0
ARC
8
DEFAULT_255_2_778
10
4.026794
20
86.9689845
40
0.5132715
50
75.1199012
51
88.77557
0
ARC
8
DEFAULT_255_2_778
10
4.0341855
20
87.10147
40
0.3806857
50
89.4617231
51
89.9992147
0
ARC
8
DEFAULT_255_2_778
10
4.0256719
20
87.2152133
40
0.2670782
50
88.1721626
51
125.1677706
0
ARC
8
DEFAULT_255_2_778
10
4.0207487
20
87.2313732
40
0.2510881
50
126.3733991
51
139.3853988
0
ARC
8
DEFAULT_255_2_778
10
4.0223983
20
87.2917733
40
0.2181286
50
151.8079822
51
168.7170787
0
ARC
8
DEFAULT_255_2_778
10
3.9517477
20
87.3076941
40
0.1457395
50
169.4208097
51
179.8272222
0
ARC
8
DEFAULT_255_2_778
10
3.9472033
20
87.3131148
40
0.1412822
50
182.0205124
51
240.0946152
0
ARC
8
DEFAULT_255_2_778
10
4.1115324
20
87.5483134
40
0.4278354
50
236.7197656
51
252.7377236
0
ARC
8
DEFAULT_255_2_778
10
4.2298284
20
87.8778687
40
0.7777983
50
251.6199263
51
254.6204055
0
ARC
8
DEFAULT_255_2_778
10
3.7552316
20
86.287974
40
0.881764
50
60.2334729
51
72.2843549
0
ARC
8
DEFAULT_255_2_778
10
3.9741787
20
86.6614508
40
0.4488894
50
37.494611
51
60.8256497
0
ARC
8
DEFAULT_255_2_778
10
4.0792574
20
86.7492406
40
0.3121343
50
359.2609688
51
36.4494698
0
ARC
8
DEFAULT_255_2_778
10
3.9522152
20
86.7483446
40
0.4391616
50
346.1474565
51
359.5916471
0
ARC
8
DEFAULT_255_2_778
10
3.7767379
20
86.7890525
40
0.6192865
50
339.0399687
51
346.3777855
0
ARC
8
DEFAULT_255_2_778
10
3.8651906
20
86.8357377
40
0.558478
50
310.7194333
51
331.2976508
0
ARC
8
DEFAULT_255_2_778
10
3.9478295
20
86.7521375
40
0.4412806
50
268.5490528
51
309.6681886
0
ARC
8
DEFAULT_255_2_778
10
3.9414774
20
87.0126322
40
0.7016504
50
257.7674992
51
269.6062664
0
ARC
8
DEFAULT_255_2_778
10
4.0133326
20
87.3531012
40
1.0496156
50
249.6079776
51
257.8720097
0
ARC
8
DEFAULT_255_2_778
10
4.146368
20
87.7243317
40
1.4439438
50
245.7862621
51
249.7926456
0
ARC
8
DEFAULT_255_2_778
10
-13.0229252
20
88.540659
40
16.7137667
50
352.6671407
51
353.4500261
0
ARC
8
DEFAULT_255_2_778
10
4.0027894
20
87.5281859
40
0.9882433
50
244.7827342
51
253.3012161
0
ARC
8
DEFAULT_255_2_778
10
3.8856293
20
87.129769
40
0.5729679
50
253.0750305
51
266.6227215
0
ARC
8
DEFAULT_255_2_778
10
3.8719458
20
86.9766144
40
0.4192987
50
267.2564072
51
269.9809591
0
ARC
8
DEFAULT_255_2_778
10
3.8814884
20
86.8492626
40
0.2921074
50
268.1005823
51
316.2925992
0
ARC
8
DEFAULT_255_2_778
10
3.9345812
20
86.7389389
40
0.1826464
50
329.9303153
51
349.3171948
0
ARC
8
DEFAULT_255_2_778
10
3.9890577
20
86.7266885
40
0.1268579
50
350.1933018
51
359.8868769
0
ARC
8
DEFAULT_255_2_778
10
3.9782366
20
86.7202494
40
0.1378178
50
2.5737111
51
56.7958357
0
ARC
8
DEFAULT_255_2_778
10
3.7999803
20
86.4913628
40
0.4276134
50
53.6042064
51
69.5392985
0
ARC
8
DEFAULT_255_2_778
10
3.6368358
20
86.098518
40
0.8528456
50
68.4960851
51
73.0517893
0
ARC
8
DEFAULT_255_2_778
10
4.0261577
20
87.5495801
40
0.6506541
50
239.3301793
51
257.5104656
0
ARC
8
DEFAULT_255_2_778
10
3.8539342
20
87.2688284
40
0.321362
50
183.7119361
51
240.2082034
0
ARC
8
DEFAULT_255_2_778
10
4.2779516
20
87.2665497
40
0.7449357
50
180.0078387
51
181.425072
0
ARC
8
DEFAULT_255_2_778
10
4.0407076
20
87.2763197
40
0.5077876
50
160.5219709
51
181.1139561
0
ARC
8
DEFAULT_255_2_778
10
3.8774044
20
87.326723
40
0.3370948
50
104.0593365
51
159.3433344
0
ARC
8
DEFAULT_255_2_778
10
3.9905219
20
86.9750138
40
0.7061655
50
91.092178
51
106.030487
0
ARC
8
DEFAULT_255_2_778
10
4.0109704
20
86.6387941
40
1.0428083
50
89.9826393
51
91.8633995
0
ARC
8
DEFAULT_255_2_778
10
4.0083999
20
86.3912151
40
1.2903905
50
85.117167
51
89.8718333
0
ARC
8
DEFAULT_255_2_778
10
3.969944
20
85.9329872
40
1.7502288
50
81.2999665
51
85.1396653
0
ARC
8
DEFAULT_255_2_778
10
3.8990775
20
85.4556686
40
2.2327756
50
79.1219184
51
81.3551071
0
LINE
8
DEFAULT_255_2_778
10
8.6908464
20
86.3336234
11
8.5767464
21
86.6373234
0
LINE
8
DEFAULT_255_2_778
10
8.5767464
20
86.6373234
11
8.0396464
21
86.6373234
0
LINE
8
DEFAULT_255_2_778
10
8.0396464
20
86.6373234
11
7.9237464
21
86.3336234
0
LINE
8
DEFAULT_255_2_778
10
7.9237464
20
86.3336234
11
7.6483464
21
86.3336234
0
LINE
8
DEFAULT_255_2_778
10
7.6483464
20
86.3336234
11
8.1645464
21
87.6589234
0
LINE
8
DEFAULT_255_2_778
10
8.1645464
20
87.6589234
11
8.4645464
21
87.6589234
0
LINE
8
DEFAULT_255_2_778
10
8.4645464
20
87.6589234
11
8.9847464
21
86.3336234
0
LINE
8
DEFAULT_255_2_778
10
8.9847464
20
86.3336234
11
8.6908464
21
86.3336234
0
LINE
8
DEFAULT_255_2_778
10
8.5026464
20
86.8463234
11
8.3111464
21
87.3932234
0
LINE
8
DEFAULT_255_2_778
10
8.3111464
20
87.3932234
11
8.3071464
21
87.3932234
0
LINE
8
DEFAULT_255_2_778
10
8.3071464
20
87.3932234
11
8.1156464
21
86.8463234
0
LINE
8
DEFAULT_255_2_778
10
8.1156464
20
86.8463234
11
8.5026464
21
86.8463234
0
LINE
8
DEFAULT_255_2_778
10
4.3204464
20
87.6483234
11
4.2929464
21
87.4282234
0
LINE
8
DEFAULT_255_2_778
10
4.6321027
20
86.3335489
11
5.0742027
21
86.3335489
0
ARC
8
DEFAULT_255_2_778
10
5.0867006
20
87.3914055
40
1.0579304
50
269.3231179
51
283.1671222
0
ARC
8
DEFAULT_255_2_778
10
5.2063268
20
86.9115673
40
0.5635029
50
282.4372785
51
312.4739442
0
ARC
8
DEFAULT_255_2_778
10
5.2119797
20
86.8755138
40
0.533475
50
314.6413534
51
349.2939938
0
ARC
8
DEFAULT_255_2_778
10
4.8767177
20
86.960568
40
0.8789597
50
347.9059118
51
356.9139732
0
ARC
8
DEFAULT_255_2_778
10
4.4309093
20
87.0317742
40
1.3287901
50
354.882537
51
357.9521609
0
ARC
8
DEFAULT_255_2_778
10
4.5901446
20
87.0255444
40
1.1694339
50
357.978409
51
359.9836082
0
ARC
8
DEFAULT_255_2_778
10
4.9419991
20
87.0371159
40
0.8176661
50
359.1656826
51
16.4070697
0
ARC
8
DEFAULT_255_2_778
10
5.2369737
20
87.1218121
40
0.5107841
50
16.6393982
51
76.0880017
0
ARC
8
DEFAULT_255_2_778
10
5.0756975
20
86.6312416
40
1.026466
50
73.9330772
51
87.6380457
0
ARC
8
DEFAULT_255_2_778
10
5.0402116
20
86.1551349
40
1.5037141
50
87.0346996
51
90.0041496
0
LINE
8
DEFAULT_255_2_778
10
5.0401027
20
87.6588489
11
4.6318027
21
87.6588489
0
LINE
8
DEFAULT_255_2_778
10
4.6318027
20
87.6588489
11
4.6318027
21
86.3335489
0
ARC
8
DEFAULT_255_2_778
10
4.9431181
20
87.0263309
40
0.5393662
50
359.003321
51
20.530837
0
ARC
8
DEFAULT_255_2_778
10
5.122672
20
87.0841304
40
0.3510575
50
21.9743014
51
78.9335474
0
ARC
8
DEFAULT_255_2_778
10
5.0146277
20
86.6943401
40
0.7549841
50
76.56389
51
90.7283751
0
ARC
8
DEFAULT_255_2_778
10
5.0062273
20
86.2894762
40
1.1597878
50
90.0591421
51
93.4377679
0
ARC
8
DEFAULT_255_2_778
10
5.0162771
20
86.1041653
40
1.3453682
50
93.3917592
51
94.7827762
0
LINE
8
DEFAULT_255_2_778
10
4.9041027
20
87.4448489
11
4.9041027
21
86.5266489
0
ARC
8
DEFAULT_255_2_778
10
4.9663258
20
87.8686598
40
1.3434526
50
267.3453463
51
269.626594
0
ARC
8
DEFAULT_255_2_778
10
4.9650108
20
87.760942
40
1.2357287
50
269.6550146
51
269.9993852
0
ARC
8
DEFAULT_255_2_778
10
4.9763241
20
87.3924037
40
0.8672643
50
269.2516953
51
283.1166747
0
ARC
8
DEFAULT_255_2_778
10
5.0825572
20
86.9636981
40
0.4256805
50
282.2857253
51
312.2121733
0
ARC
8
DEFAULT_255_2_778
10
5.1017045
20
86.9169173
40
0.3785604
50
314.8237953
51
354.4233528
0
ARC
8
DEFAULT_255_2_778
10
4.8396074
20
86.9643496
40
0.6443932
50
352.4901706
51
0.1894118
0
ARC
8
DEFAULT_255_2_778
10
4.670508
20
86.9658168
40
0.8134891
50
0.0467035
51
3.4758576
0
ARC
8
DEFAULT_255_2_778
10
4.6146766
20
86.9631874
40
0.8693776
50
3.4257428
51
3.5321734
0
LINE
8
DEFAULT_255_2_778
10
4.6318027
20
86.3335489
11
4.6321027
21
86.3335489
0
LINE
8
DEFAULT_255_2_778
10
5.4824027
20
87.0167489
11
5.4824027
21
87.0169489
0
ARC
8
DEFAULT_255_2_778
10
20.9574548
20
80.1977015
40
0.1545554
50
358.2942895
51
84.5956332
0
ARC
8
DEFAULT_255_2_778
10
20.8651729
20
79.8537209
40
0.5091839
50
77.8880117
51
90.8170485
0
ARC
8
DEFAULT_255_2_778
10
20.8597676
20
79.4594429
40
0.903412
50
90.1176831
51
94.1223626
0
ARC
8
DEFAULT_255_2_778
10
20.8739281
20
79.2358854
40
1.1274107
50
94.023416
51
95.174804
0
LINE
8
DEFAULT_255_2_778
10
20.7722417
20
80.358701
11
20.7722417
21
80.027201
0
ARC
8
DEFAULT_255_2_778
10
20.8793151
20
80.997735
40
0.9764225
50
263.7043473
51
267.7100735
0
ARC
8
DEFAULT_255_2_778
10
20.8691297
20
80.7733734
40
0.7518339
50
267.8024898
51
269.9691273
0
ARC
8
DEFAULT_255_2_778
10
20.8789603
20
80.4413541
40
0.4199394
50
268.6033152
51
286.6924728
0
ARC
8
DEFAULT_255_2_778
10
20.9631534
20
80.1836603
40
0.1490688
50
284.1446627
51
3.5155213
0
ARC
8
DEFAULT_255_2_778
10
20.8026614
20
79.0628401
40
0.6795962
50
90.0289496
51
92.0507921
0
ARC
8
DEFAULT_255_2_778
10
20.8133118
20
79.3920305
40
0.3505782
50
71.5422759
51
91.7970396
0
ARC
8
DEFAULT_255_2_778
10
20.8868984
20
79.6087181
40
0.1217455
50
29.5176703
51
72.1055298
0
ARC
8
DEFAULT_255_2_778
10
21.1318005
20
79.7088517
40
0.1931361
50
25.1396727
51
68.7049976
0
ARC
8
DEFAULT_255_2_778
10
21.1269433
20
80.197051
40
0.3172425
50
283.6745957
51
356.0686314
0
ARC
8
DEFAULT_255_2_778
10
20.8619408
20
80.2486106
40
0.5861014
50
352.8145499
51
0.1816464
0
ARC
8
DEFAULT_255_2_778
10
20.7495851
20
80.250425
40
0.6984543
50
0.0035898
51
0.9578535
0
ARC
8
DEFAULT_255_2_778
10
21.0657623
20
80.2585782
40
0.3821957
50
0.5281199
51
34.8198738
0
ARC
8
DEFAULT_255_2_778
10
21.0919674
20
80.2528193
40
0.3645031
50
37.9165685
51
75.3206001
0
ARC
8
DEFAULT_255_2_778
10
20.9689547
20
79.8482334
40
0.7872278
50
74.1217061
51
89.248916
0
ARC
8
DEFAULT_255_2_778
10
20.9454897
20
79.4362783
40
1.1995911
50
88.3861496
51
90.0136284
0
ARC
8
DEFAULT_255_2_778
10
20.945431
20
79.314775
40
1.3210943
50
90.0098292
51
91.3528032
0
LINE
8
DEFAULT_255_2_778
10
20.9142417
20
80.635501
11
20.4380417
21
80.635501
0
LINE
8
DEFAULT_255_2_778
10
24.3769417
20
80.636001
11
23.8657417
21
79.740401
0
LINE
8
DEFAULT_255_2_778
10
23.8657417
20
79.740401
11
23.8657417
21
79.154901
0
LINE
8
DEFAULT_255_2_778
10
23.8657417
20
79.154901
11
23.5794417
21
79.154901
0
LINE
8
DEFAULT_255_2_778
10
23.5794417
20
79.154901
11
23.5794417
21
79.740401
0
LINE
8
DEFAULT_255_2_778
10
23.5794417
20
79.740401
11
23.0582417
21
80.636001
0
LINE
8
DEFAULT_255_2_778
10
23.0582417
20
80.636001
11
23.3934417
21
80.636001
0
LINE
8
DEFAULT_255_2_778
10
23.3934417
20
80.636001
11
23.7313417
21
80.014201
0
LINE
8
DEFAULT_255_2_778
10
23.7313417
20
80.014201
11
24.0747417
21
80.636001
0
LINE
8
DEFAULT_255_2_778
10
24.0747417
20
80.636001
11
24.3771417
21
80.636001
0
LINE
8
DEFAULT_255_2_778
10
21.1119417
20
80.192801
11
21.1119417
21
80.193101
0
LINE
8
DEFAULT_255_2_778
10
20.4380417
20
80.635501
11
20.4380417
21
79.154601
0
LINE
8
DEFAULT_255_2_778
10
20.4380417
20
79.154601
11
20.7783417
21
79.154601
0
LINE
8
DEFAULT_255_2_778
10
20.7783417
20
79.154601
11
20.7783417
21
79.742001
0
LINE
8
DEFAULT_255_2_778
10
20.9928417
20
79.668701
11
21.1550417
21
79.160701
0
LINE
8
DEFAULT_255_2_778
10
21.1550417
20
79.160701
11
21.5056417
21
79.154601
0
LINE
8
DEFAULT_255_2_778
10
21.5056417
20
79.154601
11
21.3066417
21
79.790901
0
LINE
8
DEFAULT_255_2_778
10
20.4380417
20
80.635501
11
20.4380417
21
80.635501
0
LINE
8
DEFAULT_255_2_778
10
21.754024
20
79.1671301
11
22.233224
21
79.1671301
0
ARC
8
DEFAULT_255_2_778
10
22.2458375
20
80.3000054
40
1.1329455
50
269.362092
51
282.9154457
0
ARC
8
DEFAULT_255_2_778
10
22.3668773
20
79.8028487
40
0.6213503
50
282.2831711
51
310.6177514
0
ARC
8
DEFAULT_255_2_778
10
22.3830187
20
79.7542627
40
0.5742889
50
312.5513782
51
347.1357669
0
ARC
8
DEFAULT_255_2_778
10
22.0127298
20
79.8582511
40
0.9586229
50
346.0038696
51
357.0987147
0
ARC
8
DEFAULT_255_2_778
10
21.6376462
20
79.8223367
40
1.3325375
50
359.4579402
51
11.6115193
0
ARC
8
DEFAULT_255_2_778
10
22.2053181
20
79.9449434
40
0.7518282
50
11.1665014
51
33.8149252
0
ARC
8
DEFAULT_255_2_778
10
22.3354406
20
80.0136329
40
0.6056851
50
35.2666429
51
77.0060352
0
ARC
8
DEFAULT_255_2_778
10
22.2088239
20
79.5506884
40
1.085416
50
75.9881323
51
90.670402
0
LINE
8
DEFAULT_255_2_778
10
22.196124
20
80.6360301
11
21.754024
21
80.6360301
0
LINE
8
DEFAULT_255_2_778
10
21.754024
20
80.6360301
11
21.754024
21
79.1671301
0
ARC
8
DEFAULT_255_2_778
10
21.962586
20
79.8876031
40
0.7136991
50
2.973864
51
20.0879335
0
ARC
8
DEFAULT_255_2_778
10
22.2517727
20
79.9947393
40
0.4053094
50
19.9049894
51
84.1204755
0
ARC
8
DEFAULT_255_2_778
10
22.177998
20
79.6518832
40
0.7548897
50
81.2149001
51
90.2713652
0
ARC
8
DEFAULT_255_2_778
10
22.1758741
20
79.3906894
40
1.0160761
50
90.0818428
51
94.4203876
0
ARC
8
DEFAULT_255_2_778
10
22.189954
20
79.1939562
40
1.21331
50
94.3672634
51
96.6796591
0
LINE
8
DEFAULT_255_2_778
10
22.048824
20
80.3990301
11
22.048824
21
79.3814301
0
ARC
8
DEFAULT_255_2_778
10
22.0614495
20
80.4232448
40
1.0418912
50
269.3056832
51
282.7292666
0
ARC
8
DEFAULT_255_2_778
10
22.181134
20
79.9237813
40
0.528374
50
282.0039176
51
309.9593651
0
ARC
8
DEFAULT_255_2_778
10
22.2146484
20
79.8550774
40
0.4545622
50
312.283771
51
352.6686361
0
ARC
8
DEFAULT_255_2_778
10
21.8919978
20
79.9208352
40
0.7833354
50
350.9094432
51
0.2775768
0
ARC
8
DEFAULT_255_2_778
10
19.6903181
20
79.7652958
40
1.5098118
50
178.0021795
51
179.4776768
0
ARC
8
DEFAULT_255_2_778
10
19.5896997
20
79.7664518
40
1.409187
50
179.4873823
51
180.0000678
0
ARC
8
DEFAULT_255_2_778
10
19.2431058
20
79.7580896
40
1.062626
50
179.5491995
51
189.8796128
0
ARC
8
DEFAULT_255_2_778
10
18.7993329
20
79.6776982
40
0.6116483
50
189.5932219
51
206.5918151
0
ARC
8
DEFAULT_255_2_778
10
18.6126017
20
79.5843314
40
0.402876
50
206.6055334
51
239.2895354
0
ARC
8
DEFAULT_255_2_778
10
18.6870287
20
79.7400108
40
0.574942
50
240.8359876
51
264.659023
0
ARC
8
DEFAULT_255_2_778
10
18.7639057
20
80.2748504
40
1.1149366
50
263.2837661
51
267.4357598
0
ARC
8
DEFAULT_255_2_778
10
18.7821955
20
80.4744811
40
1.3152189
50
267.0288662
51
269.2070554
0
ARC
8
DEFAULT_255_2_778
10
18.7801916
20
80.3606051
40
1.2013262
50
269.2274576
51
269.9984808
0
ARC
8
DEFAULT_255_2_778
10
18.7912061
20
80.0135722
40
0.8543647
50
269.2591836
51
283.8736794
0
ARC
8
DEFAULT_255_2_778
10
18.8933769
20
79.6279747
40
0.4555674
50
283.0271388
51
318.910193
0
ARC
8
DEFAULT_255_2_778
10
18.8230424
20
79.6618998
40
0.531276
50
321.1386379
51
349.8752006
0
ARC
8
DEFAULT_255_2_778
10
18.3155135
20
79.7709759
40
1.050233
50
348.8845568
51
0.565794
0
ARC
8
DEFAULT_255_2_778
10
17.8835025
20
79.7811666
40
1.4821928
50
0.0069655
51
1.0964897
0
ARC
8
DEFAULT_255_2_778
10
19.505017
20
79.7685259
40
1.0347144
50
178.8146907
51
179.99306
0
ARC
8
DEFAULT_255_2_778
10
19.1580198
20
79.758049
40
0.6877989
50
179.1167626
51
194.0999724
0
ARC
8
DEFAULT_255_2_778
10
18.7975085
20
79.6617079
40
0.3147291
50
193.0781304
51
225.7924425
0
ARC
8
DEFAULT_255_2_778
10
18.759441
20
79.6432893
40
0.2753626
50
228.7994436
51
270.2877711
0
ARC
8
DEFAULT_255_2_778
10
17.9999887
20
79.7718017
40
1.0734856
50
0.023448
51
2.1422972
0
ARC
8
DEFAULT_255_2_778
10
18.3585467
20
79.7628074
40
0.7149897
50
346.8818718
51
0.7559866
0
ARC
8
DEFAULT_255_2_778
10
18.7158867
20
79.6748391
40
0.3470397
50
320.4951096
51
347.6365501
0
ARC
8
DEFAULT_255_2_778
10
18.7904795
20
79.6262704
40
0.2587818
50
267.626461
51
318.2854627
0
ARC
8
DEFAULT_255_2_778
10
18.7798186
20
79.746734
40
0.3790234
50
268.0503881
51
269.9914758
0
LINE
8
DEFAULT_255_2_778
10
21.754024
20
79.1671301
11
21.754024
21
79.1671301
0
LINE
8
DEFAULT_255_2_778
10
22.675324
20
79.9246301
11
22.675324
21
79.9246301
0
LINE
8
DEFAULT_255_2_778
10
18.471124
20
79.7865301
11
18.471124
21
80.6363301
0
LINE
8
DEFAULT_255_2_778
10
18.471124
20
80.6363301
11
18.180324
21
80.6363301
0
LINE
8
DEFAULT_255_2_778
10
18.180324
20
80.6363301
11
18.180324
21
79.7865301
0
LINE
8
DEFAULT_255_2_778
10
19.364324
20
79.7865301
11
19.364324
21
80.6363301
0
LINE
8
DEFAULT_255_2_778
10
19.364324
20
80.6363301
11
19.073524
21
80.6363301
0
LINE
8
DEFAULT_255_2_778
10
19.073524
20
80.6363301
11
19.073524
21
79.7865301
0
LINE
8
DEFAULT_255_2_778
10
8.9030241
20
91.1309821
11
9.2557241
21
91.1309821
0
LINE
8
DEFAULT_255_2_778
10
9.2557241
20
91.1309821
11
9.2557241
21
90.2538821
0
ARC
8
DEFAULT_255_2_778
10
9.6999787
20
90.2416198
40
0.4444238
50
178.4189241
51
198.8470966
0
ARC
8
DEFAULT_255_2_778
10
9.4597821
20
90.1592894
40
0.1905095
50
198.7502094
51
274.9209147
0
ARC
8
DEFAULT_255_2_778
10
9.4913886
20
90.1637073
40
0.1948241
50
265.5062682
51
351.3765681
0
ARC
8
DEFAULT_255_2_778
10
9.1867869
20
90.2469623
40
0.5097841
50
347.2547439
51
0.7777611
0
LINE
8
DEFAULT_255_2_778
10
9.6965241
20
90.2538821
11
9.6965241
21
91.1309821
0
LINE
8
DEFAULT_255_2_778
10
9.6965241
20
91.1309821
11
10.0714241
21
91.1309821
0
LINE
8
DEFAULT_255_2_778
10
10.0714241
20
91.1309821
11
10.0714241
21
90.1826821
0
ARC
8
DEFAULT_255_2_778
10
9.449425
20
90.1697384
40
0.6221337
50
340.240069
51
1.1921479
0
ARC
8
DEFAULT_255_2_778
10
9.6601247
20
90.103499
40
0.4015449
50
281.685827
51
338.9708503
0
ARC
8
DEFAULT_255_2_778
10
9.5321622
20
90.5538138
40
0.8691136
50
269.2129643
51
283.9345067
0
ARC
8
DEFAULT_255_2_778
10
9.5076201
20
90.7088498
40
1.0241453
50
257.153499
51
270.7051504
0
ARC
8
DEFAULT_255_2_778
10
9.3881831
20
90.2158019
40
0.5169283
50
229.3001183
51
257.9097943
0
ARC
8
DEFAULT_255_2_778
10
9.3593722
20
90.1534907
40
0.4512918
50
187.2056957
51
226.9138114
0
ARC
8
DEFAULT_255_2_778
10
9.6388566
20
90.2132835
40
0.7364687
50
182.3814144
51
189.0937545
0
LINE
8
DEFAULT_255_2_778
10
8.9030241
20
90.1826821
11
8.9030241
21
91.1309821
0
ARC
8
DEFAULT_255_2_778
10
8.2839477
20
90.705531
40
0.1508511
50
358.1960157
51
85.3412334
0
ARC
8
DEFAULT_255_2_778
10
8.1973901
20
90.3747024
40
0.4912218
50
78.3956992
51
90.7448335
0
ARC
8
DEFAULT_255_2_778
10
8.1927743
20
90.0113656
40
0.8545188
50
90.1186721
51
94.160637
0
ARC
8
DEFAULT_255_2_778
10
8.2062659
20
89.8004616
40
1.0658474
50
94.0614159
51
95.2238193
0
LINE
8
DEFAULT_255_2_778
10
8.1092241
20
90.8618821
11
8.1092241
21
90.5398821
0
ARC
8
DEFAULT_255_2_778
10
8.2115738
20
91.4562231
40
0.9220392
50
263.6268279
51
267.6827216
0
ARC
8
DEFAULT_255_2_778
10
8.2018598
20
91.2444834
40
0.7100808
50
267.7750882
51
269.9688201
0
ARC
8
DEFAULT_255_2_778
10
8.2116959
20
90.926675
40
0.3924054
50
268.5072302
51
287.4596777
0
ARC
8
DEFAULT_255_2_778
10
8.2905617
20
90.6915021
40
0.1444803
50
285.6064658
51
3.8018746
0
ARC
8
DEFAULT_255_2_778
10
8.138833
20
89.6260053
40
0.6370219
50
90.0304184
51
92.1419503
0
ARC
8
DEFAULT_255_2_778
10
8.1495303
20
89.940256
40
0.3229598
50
70.3986852
51
91.9581714
0
ARC
8
DEFAULT_255_2_778
10
8.2190561
20
90.1352318
40
0.115959
50
28.8488674
51
70.4419643
0
ARC
8
DEFAULT_255_2_778
10
8.4518112
20
90.2318119
40
0.1864524
50
24.6857423
51
68.242852
0
ARC
8
DEFAULT_255_2_778
10
8.4451527
20
90.7035556
40
0.308038
50
284.2397992
51
357.2842137
0
ARC
8
DEFAULT_255_2_778
10
8.1735351
20
90.754391
40
0.582993
50
353.5559675
51
0.1490613
0
ARC
8
DEFAULT_255_2_778
10
8.0715637
20
90.7558733
40
0.6849622
50
0.0028839
51
0.9878361
0
ARC
8
DEFAULT_255_2_778
10
8.3818427
20
90.7646049
40
0.3745941
50
0.470685
51
34.5833452
0
ARC
8
DEFAULT_255_2_778
10
8.4113632
20
90.7611933
40
0.3527692
50
37.7626282
51
76.0156089
0
ARC
8
DEFAULT_255_2_778
10
8.2932621
20
90.3571488
40
0.7735644
50
74.7592996
51
90.020157
0
ARC
8
DEFAULT_255_2_778
10
8.2752966
20
89.9730586
40
1.1577899
50
89.1243707
51
90.0040884
0
ARC
8
DEFAULT_255_2_778
10
8.2754447
20
89.8844387
40
1.2464098
50
90.0106047
51
91.3893361
0
LINE
8
DEFAULT_255_2_778
10
8.2452241
20
91.1304821
11
7.7891241
21
91.1304821
0
LINE
8
DEFAULT_255_2_778
10
6.5852241
20
80.6463821
11
6.9466241
21
80.6463821
0
LINE
8
DEFAULT_255_2_778
10
6.9466241
20
80.6463821
11
6.9466241
21
79.7416821
0
ARC
8
DEFAULT_255_2_778
10
7.4126892
20
79.7295119
40
0.4662239
50
178.5041855
51
198.2088184
0
ARC
8
DEFAULT_255_2_778
10
7.1561519
20
79.6431399
40
0.1955527
50
197.6568872
51
274.8319752
0
ARC
8
DEFAULT_255_2_778
10
7.1880557
20
79.6470588
40
0.1993748
50
265.5608557
51
350.7594404
0
ARC
8
DEFAULT_255_2_778
10
6.8757214
20
79.7341029
40
0.5228577
50
346.8377399
51
0.830573
0
LINE
8
DEFAULT_255_2_778
10
7.3985241
20
79.7416821
11
7.3985241
21
80.6463821
0
LINE
8
DEFAULT_255_2_778
10
7.3985241
20
80.6463821
11
7.7825241
21
80.6463821
0
LINE
8
DEFAULT_255_2_778
10
7.7825241
20
80.6463821
11
7.7825241
21
79.6681821
0
ARC
8
DEFAULT_255_2_778
10
7.1306205
20
79.6554553
40
0.6520278
50
341.0284668
51
1.1184171
0
ARC
8
DEFAULT_255_2_778
10
7.359319
20
79.5846074
40
0.4127851
50
281.4548878
51
340.0082109
0
ARC
8
DEFAULT_255_2_778
10
7.2296856
20
80.0438779
40
0.8893749
50
269.2358292
51
283.7645339
0
ARC
8
DEFAULT_255_2_778
10
7.2053391
20
80.2027359
40
1.0482281
50
257.3270849
51
270.6824421
0
ARC
8
DEFAULT_255_2_778
10
7.0862897
20
79.7041157
40
0.5356802
50
230.164495
51
258.0500767
0
ARC
8
DEFAULT_255_2_778
10
7.0530294
20
79.6354623
40
0.4620242
50
187.8109953
51
227.8773505
0
ARC
8
DEFAULT_255_2_778
10
7.3417405
20
79.6996411
40
0.7571702
50
182.3812153
51
189.6535872
0
LINE
8
DEFAULT_255_2_778
10
6.5852241
20
79.6681821
11
6.5852241
21
80.6463821
0
ARC
8
DEFAULT_255_2_778
10
8.4971904
20
79.4456809
40
1.0197283
50
66.8904445
51
74.7427254
0
ARC
8
DEFAULT_255_2_778
10
8.60581
20
79.8521304
40
0.5990246
50
74.5354066
51
86.9137417
0
ARC
8
DEFAULT_255_2_778
10
8.6188927
20
80.0131037
40
0.4376024
50
87.4894607
51
89.9825796
0
ARC
8
DEFAULT_255_2_778
10
8.6108846
20
80.1484645
40
0.3023513
50
88.4570591
51
121.0296194
0
ARC
8
DEFAULT_255_2_778
10
8.6009334
20
80.1763846
40
0.2733598
50
122.2590271
51
139.4822108
0
ARC
8
DEFAULT_255_2_778
10
8.609558
20
80.2383823
40
0.245371
50
151.8928122
51
167.6478766
0
ARC
8
DEFAULT_255_2_778
10
8.5296523
20
80.2574879
40
0.1632356
50
168.1989507
51
179.7806003
0
ARC
8
DEFAULT_255_2_778
10
8.5205841
20
80.2629294
40
0.1542415
50
181.7894285
51
238.724351
0
ARC
8
DEFAULT_255_2_778
10
8.6928908
20
80.5005533
40
0.447427
50
235.6619485
51
251.8648962
0
ARC
8
DEFAULT_255_2_778
10
8.8281405
20
80.8634939
40
0.8345814
50
250.7964196
51
254.6506783
0
ARC
8
DEFAULT_255_2_778
10
8.3031845
20
79.1123343
40
0.993989
50
60.9902685
51
72.1889899
0
ARC
8
DEFAULT_255_2_778
10
8.5346634
20
79.520416
40
0.5248684
50
40.6513318
51
61.4852689
0
ARC
8
DEFAULT_255_2_778
10
8.667778
20
79.6394663
40
0.346339
50
359.2736894
51
40.0551093
0
ARC
8
DEFAULT_255_2_778
10
8.5326683
20
79.6381569
40
0.4814307
50
346.8007613
51
359.6333393
0
ARC
8
DEFAULT_255_2_778
10
8.3410958
20
79.6811609
40
0.6777645
50
339.0190408
51
346.9592964
0
ARC
8
DEFAULT_255_2_778
10
8.423195
20
79.7417456
40
0.628706
50
312.3241964
51
331.1602633
0
ARC
8
DEFAULT_255_2_778
10
8.5235019
20
79.6420091
40
0.4874775
50
268.501392
51
311.5006527
0
ARC
8
DEFAULT_255_2_778
10
8.5156476
20
79.925819
40
0.7711363
50
258.2062492
51
269.6363261
0
ARC
8
DEFAULT_255_2_778
10
8.5859048
20
80.2732489
40
1.1255939
50
250.5290864
51
258.3201139
0
ARC
8
DEFAULT_255_2_778
10
8.728186
20
80.6849102
40
1.5611419
50
245.7712754
51
250.6419111
0
ARC
8
DEFAULT_255_2_778
10
-8.3235237
20
81.3951571
40
16.5491967
50
352.5915813
51
353.4674088
0
ARC
8
DEFAULT_255_2_778
10
8.5921536
20
80.5199636
40
1.1134764
50
244.8094188
51
252.6267361
0
ARC
8
DEFAULT_255_2_778
10
8.4613402
20
80.0940339
40
0.6679214
50
252.426437
51
264.7336625
0
ARC
8
DEFAULT_255_2_778
10
8.4396956
20
79.9052831
40
0.4779995
50
265.2405329
51
269.9427396
0
ARC
8
DEFAULT_255_2_778
10
8.4499124
20
79.7500447
40
0.3229379
50
268.1022332
51
316.3612044
0
ARC
8
DEFAULT_255_2_778
10
8.5054013
20
79.6300731
40
0.205791
50
330.0014485
51
347.9366943
0
ARC
8
DEFAULT_255_2_778
10
8.5675209
20
79.6150071
40
0.1419053
50
348.6435932
51
359.8434368
0
ARC
8
DEFAULT_255_2_778
10
8.5592638
20
79.6084481
40
0.1502888
50
2.3533962
51
55.5879539
0
ARC
8
DEFAULT_255_2_778
10
8.3740551
20
79.378922
40
0.4449147
50
52.6141759
51
68.5137596
0
ARC
8
DEFAULT_255_2_778
10
8.1902503
20
78.9522678
40
0.9093622
50
67.5838978
51
73.1052513
0
ARC
8
DEFAULT_255_2_778
10
8.6152515
20
80.5403038
40
0.7356935
50
240.490371
51
257.3807781
0
ARC
8
DEFAULT_255_2_778
10
8.4217177
20
80.215383
40
0.3576931
50
183.8313342
51
241.8329848
0
ARC
8
DEFAULT_255_2_778
10
8.8892184
20
80.2123079
40
0.8246573
50
180.008647
51
181.447095
0
ARC
8
DEFAULT_255_2_778
10
8.6353208
20
80.2221419
40
0.5708466
50
161.6879826
51
180.9995721
0
ARC
8
DEFAULT_255_2_778
10
8.4443993
20
80.2796778
40
0.3715547
50
104.4740606
51
160.8608518
0
ARC
8
DEFAULT_255_2_778
10
8.5668756
20
79.9103179
40
0.7602574
50
91.9046129
51
106.4543052
0
ARC
8
DEFAULT_255_2_778
10
8.5929834
20
79.5410252
40
1.1302983
50
89.9670162
51
92.605158
0
ARC
8
DEFAULT_255_2_778
10
8.5907065
20
79.2527321
40
1.4185944
50
85.3044232
51
89.8817609
0
ARC
8
DEFAULT_255_2_778
10
8.5545825
20
78.7981796
40
1.874579
50
81.9536873
51
85.3413321
0
ARC
8
DEFAULT_255_2_778
10
8.4801526
20
78.2685017
40
2.4094604
50
79.0987035
51
81.9642378
0
ARC
8
DEFAULT_255_2_778
10
9.6758402
20
79.601976
40
0.6273809
50
350.3938591
51
357.1546714
0
ARC
8
DEFAULT_255_2_778
10
9.787232
20
79.5951011
40
0.5157869
50
357.3031854
51
359.9779965
0
ARC
8
DEFAULT_255_2_778
10
9.9776412
20
79.6082676
40
0.3256521
50
357.6479361
51
38.6757067
0
ARC
8
DEFAULT_255_2_778
10
9.9556253
20
79.5667943
40
0.3692268
50
41.5663573
51
72.2481214
0
ARC
8
DEFAULT_255_2_778
10
9.8448581
20
79.2775558
40
0.6786864
50
70.7869912
51
80.0245728
0
ARC
8
DEFAULT_255_2_778
10
9.9368776
20
80.2638947
40
0.3189373
50
274.59425
51
347.2638713
0
ARC
8
DEFAULT_255_2_778
10
9.7440696
20
80.3304162
40
0.5221465
50
344.8075456
51
350.2824192
0
ARC
8
DEFAULT_255_2_778
10
9.6092075
20
80.2564912
40
0.6496719
50
358.7467739
51
359.9951652
0
ARC
8
DEFAULT_255_2_778
10
9.8399783
20
80.2692952
40
0.4190987
50
358.2417755
51
26.7136395
0
ARC
8
DEFAULT_255_2_778
10
9.9230909
20
80.292612
40
0.3347839
50
29.5444008
51
75.40218
0
ARC
8
DEFAULT_255_2_778
10
9.8005058
20
79.9074295
40
0.7387421
50
73.7306037
51
89.2336512
0
ARC
8
DEFAULT_255_2_778
10
9.7778843
20
79.5192449
40
1.1273293
50
88.3478721
51
90.0140281
0
ARC
8
DEFAULT_255_2_778
10
9.7777282
20
79.4197835
40
1.2267906
50
90.0055984
51
91.0137158
0
ARC
8
DEFAULT_255_2_778
10
9.7584525
20
80.1553303
40
0.9721704
50
270.387304
51
283.732586
0
ARC
8
DEFAULT_255_2_778
10
9.8860063
20
79.6615702
40
0.4622931
50
282.9029727
51
311.1051533
0
ARC
8
DEFAULT_255_2_778
10
9.9490538
20
79.572228
40
0.3537015
50
312.9247399
51
347.7668648
0
ARC
8
DEFAULT_255_2_778
10
9.7571458
20
79.8038418
40
0.3936803
50
269.4146772
51
291.3247178
0
ARC
8
DEFAULT_255_2_778
10
9.8369455
20
79.595797
40
0.1708652
50
291.7673367
51
4.3248346
0
ARC
8
DEFAULT_255_2_778
10
9.766357
20
79.6219181
40
0.2413304
50
356.8559865
51
35.1048941
0
ARC
8
DEFAULT_255_2_778
10
9.8011139
20
79.6218655
40
0.2138659
50
40.4791451
51
86.6625735
0
ARC
8
DEFAULT_255_2_778
10
9.7597212
20
79.3862785
40
0.4523065
50
83.1632241
51
90.2023156
0
LINE
8
DEFAULT_255_2_778
10
9.7581241
20
79.8385821
11
9.5676241
21
79.8385821
0
LINE
8
DEFAULT_255_2_778
10
9.5676241
20
79.8385821
11
9.5676241
21
79.4101821
0
ARC
8
DEFAULT_255_2_778
10
9.653289
20
80.7923645
40
1.3848345
50
266.4534586
51
270.0955776
0
ARC
8
DEFAULT_255_2_778
10
9.6530332
20
81.3052548
40
1.8977244
50
270.0774678
51
273.0293756
0
ARC
8
DEFAULT_255_2_778
10
9.7383569
20
80.4305154
40
0.3765643
50
269.2646503
51
290.8364183
0
ARC
8
DEFAULT_255_2_778
10
9.8212803
20
80.2153082
40
0.1459388
50
290.4631309
51
3.6434066
0
ARC
8
DEFAULT_255_2_778
10
9.7947974
20
80.2431928
40
0.1731299
50
353.8290306
51
83.0274387
0
ARC
8
DEFAULT_255_2_778
10
9.7415535
20
80.0220863
40
0.3999114
50
79.2984426
51
90.5056629
0
LINE
8
DEFAULT_255_2_778
10
9.7380241
20
80.4219821
11
9.5628241
21
80.4219821
0
LINE
8
DEFAULT_255_2_778
10
9.5628241
20
80.4219821
11
9.5628241
21
80.0539821
0
ARC
8
DEFAULT_255_2_778
10
9.6414291
20
81.424744
40
1.3730138
50
266.7180241
51
270.0905544
0
ARC
8
DEFAULT_255_2_778
10
9.641193
20
81.9458513
40
1.8941207
50
270.0727816
51
272.7940547
0
ARC
8
DEFAULT_255_2_778
10
6.5146378
20
83.1879644
40
0.9975963
50
71.8421885
51
86.1267994
0
ARC
8
DEFAULT_255_2_778
10
6.5130278
20
83.2536408
40
0.7105589
50
66.2217088
51
89.597118
0
ARC
8
DEFAULT_255_2_778
10
6.5180797
20
83.6549968
40
0.3091853
50
90.0103103
51
95.6306638
0
ARC
8
DEFAULT_255_2_778
10
6.50652
20
83.7187246
40
0.2446873
50
94.4009444
51
122.9803858
0
ARC
8
DEFAULT_255_2_778
10
6.4683554
20
83.7873687
40
0.1664157
50
124.8233166
51
152.5887491
0
ARC
8
DEFAULT_255_2_778
10
6.5067868
20
83.7738724
40
0.2068244
50
154.1712917
51
180.0343695
0
ARC
8
DEFAULT_255_2_778
10
6.5084319
20
83.7737497
40
0.2084694
50
180.0003573
51
181.3929048
0
ARC
8
DEFAULT_255_2_778
10
6.4291763
20
83.76967
40
0.129156
50
180.4382533
51
217.1444909
0
ARC
8
DEFAULT_255_2_778
10
6.4914279
20
83.8267678
40
0.213402
50
219.2725579
51
243.1441422
0
ARC
8
DEFAULT_255_2_778
10
6.2854065
20
82.7624266
40
0.8471353
50
59.5185337
51
67.9288543
0
ARC
8
DEFAULT_255_2_778
10
6.4774318
20
83.0909102
40
0.4666451
50
44.1560438
51
59.3785124
0
ARC
8
DEFAULT_255_2_778
10
6.5449284
20
83.1666968
40
0.3654999
50
33.0972314
51
43.0032233
0
ARC
8
DEFAULT_255_2_778
10
6.5816392
20
83.1926367
40
0.3205851
50
20.9536621
51
32.7961257
0
ARC
8
DEFAULT_255_2_778
10
6.5210247
20
83.1702687
40
0.3851912
50
10.0340881
51
20.836499
0
ARC
8
DEFAULT_255_2_778
10
6.4356188
20
83.1457044
40
0.4709496
50
348.0862608
51
354.4041942
0
ARC
8
DEFAULT_255_2_778
10
6.4989413
20
83.1352933
40
0.4068522
50
340.7834247
51
347.6799158
0
ARC
8
DEFAULT_255_2_778
10
6.5323806
20
83.1213726
40
0.3707003
50
333.950779
51
341.1140163
0
ARC
8
DEFAULT_255_2_778
10
6.5444109
20
83.1180796
40
0.3584535
50
319.436787
51
333.5792131
0
ARC
8
DEFAULT_255_2_778
10
6.5508718
20
83.114079
40
0.3509456
50
305.0514699
51
319.2470484
0
ARC
8
DEFAULT_255_2_778
10
6.4960969
20
83.1877151
40
0.442692
50
293.8680385
51
305.3815866
0
ARC
8
DEFAULT_255_2_778
10
6.4601199
20
83.2667846
40
0.5295578
50
283.8765454
51
293.966089
0
ARC
8
DEFAULT_255_2_778
10
6.3952459
20
83.5404077
40
0.8107582
50
269.9897699
51
283.6897981
0
ARC
8
DEFAULT_255_2_778
10
6.3951239
20
83.5469289
40
0.8172793
50
269.48824
51
269.9984064
0
ARC
8
DEFAULT_255_2_778
10
6.3874603
20
84.05241
40
1.3227279
50
268.2873942
51
270.0157596
0
ARC
8
DEFAULT_255_2_778
10
6.3743683
20
83.753835
40
1.0239036
50
260.4970841
51
268.5203384
0
ARC
8
DEFAULT_255_2_778
10
6.4958015
20
84.3365221
40
1.6188146
50
254.9016848
51
259.6629533
0
ARC
8
DEFAULT_255_2_778
10
11.2663843
20
102.9125131
40
20.7974925
50
255.4996683
51
255.5427674
0
ARC
8
DEFAULT_255_2_778
10
3.8280446
20
74.1619711
40
8.8996887
50
75.4824256
51
75.655049
0
ARC
8
DEFAULT_255_2_778
10
6.3813638
20
83.5834337
40
0.6318177
50
246.8058983
51
269.1711468
0
ARC
8
DEFAULT_255_2_778
10
6.3721687
20
83.270932
40
0.3192499
50
270.0099356
51
273.009184
0
ARC
8
DEFAULT_255_2_778
10
6.3708422
20
83.2898545
40
0.3382162
50
273.0653213
51
284.4124117
0
ARC
8
DEFAULT_255_2_778
10
6.3890388
20
83.2380745
40
0.2835763
50
283.4554877
51
300.9134937
0
ARC
8
DEFAULT_255_2_778
10
6.4592072
20
83.1387004
40
0.1613204
50
312.5628557
51
327.1451972
0
ARC
8
DEFAULT_255_2_778
10
6.4653255
20
83.1340759
40
0.153673
50
327.3560436
51
341.2087897
0
ARC
8
DEFAULT_255_2_778
10
6.4781246
20
83.1296523
40
0.1401311
50
341.2353717
51
343.1283212
0
ARC
8
DEFAULT_255_2_778
10
6.4613611
20
83.1340589
40
0.1574533
50
343.3642435
51
351.3514519
0
ARC
8
DEFAULT_255_2_778
10
6.4521208
20
83.1316405
40
0.1666195
50
8.9222431
51
16.686289
0
ARC
8
DEFAULT_255_2_778
10
6.4734576
20
83.1344739
40
0.1454076
50
18.0310067
51
35.0990957
0
ARC
8
DEFAULT_255_2_778
10
6.4473504
20
83.115036
40
0.1779463
50
35.3862494
51
49.6662548
0
ARC
8
DEFAULT_255_2_778
10
6.1700261
20
82.673054
40
0.7010376
50
59.7089765
51
68.5380431
0
ARC
8
DEFAULT_255_2_778
10
6.6587261
20
84.2142215
40
0.9107427
50
240.0268248
51
247.8349035
0
ARC
8
DEFAULT_255_2_778
10
6.4349482
20
83.8254295
40
0.4621499
50
224.7302789
51
239.978643
0
ARC
8
DEFAULT_255_2_778
10
6.3398306
20
83.7267122
40
0.3251171
50
213.1806225
51
224.1679974
0
ARC
8
DEFAULT_255_2_778
10
6.3398811
20
83.7257898
40
0.3246555
50
201.5039747
51
213.0394871
0
ARC
8
DEFAULT_255_2_778
10
6.3845548
20
83.7411553
40
0.3718579
50
190.1566118
51
201.1835132
0
ARC
8
DEFAULT_255_2_778
10
6.4938821
20
83.7671433
40
0.4815638
50
168.2412172
51
174.5139891
0
ARC
8
DEFAULT_255_2_778
10
6.4476831
20
83.7747154
40
0.434796
50
161.4716622
51
167.9774298
0
ARC
8
DEFAULT_255_2_778
10
6.4120693
20
83.7862355
40
0.3973676
50
154.6635746
51
161.414831
0
ARC
8
DEFAULT_255_2_778
10
6.3732351
20
83.804575
40
0.3544209
50
140.3809639
51
154.6566151
0
ARC
8
DEFAULT_255_2_778
10
6.3814863
20
83.7972197
40
0.3654674
50
126.9251262
51
140.3176009
0
ARC
8
DEFAULT_255_2_778
10
6.4116366
20
83.7567873
40
0.4159034
50
115.143602
51
126.8992639
0
ARC
8
DEFAULT_255_2_778
10
6.4499149
20
83.6768397
40
0.5045401
50
105.3066237
51
115.2210932
0
ARC
8
DEFAULT_255_2_778
10
6.4917043
20
83.5096258
40
0.676865
50
89.9807242
51
104.9820081
0
ARC
8
DEFAULT_255_2_778
10
6.4918916
20
83.5016119
40
0.6848787
50
89.7128444
51
89.9966187
0
LINE
8
DEFAULT_255_2_778
10
10.3584241
20
82.7590821
11
10.7953241
21
82.7590821
0
ARC
8
DEFAULT_255_2_778
10
10.8081158
20
83.7290117
40
0.9700139
50
269.2444118
51
284.5360331
0
ARC
8
DEFAULT_255_2_778
10
10.9330894
20
83.2923472
40
0.5160855
50
283.2730447
51
344.9086049
0
ARC
8
DEFAULT_255_2_778
10
10.5609215
20
83.4127781
40
0.9069805
50
343.6842381
51
357.4788752
0
ARC
8
DEFAULT_255_2_778
10
9.9645096
20
83.4984081
40
1.5077488
50
355.224374
51
358.0894761
0
ARC
8
DEFAULT_255_2_778
10
10.145333
20
83.4918293
40
1.3268068
50
358.1130854
51
359.9852414
0
ARC
8
DEFAULT_255_2_778
10
10.5328345
20
83.5030791
40
0.9393768
50
359.2929737
51
14.3682503
0
ARC
8
DEFAULT_255_2_778
10
10.9349565
20
83.6162219
40
0.5218482
50
13.2904508
51
73.2350961
0
ARC
8
DEFAULT_255_2_778
10
10.798608
20
83.2222933
40
0.9385151
50
72.2016984
51
87.4174655
0
ARC
8
DEFAULT_255_2_778
10
10.762486
20
82.7806142
40
1.381468
50
86.7462286
51
90.0315986
0
LINE
8
DEFAULT_255_2_778
10
10.7617241
20
84.1620821
11
10.3584241
21
84.1620821
0
LINE
8
DEFAULT_255_2_778
10
10.3584241
20
84.1620821
11
10.3584241
21
82.7590821
0
ARC
8
DEFAULT_255_2_778
10
10.5779579
20
83.491602
40
0.6203304
50
359.1761063
51
17.9706319
0
ARC
8
DEFAULT_255_2_778
10
10.8237505
20
83.5677041
40
0.3630653
50
18.5142675
51
82.6248751
0
ARC
8
DEFAULT_255_2_778
10
10.732216
20
83.1881437
40
0.7524117
50
79.4207356
51
90.4361062
0
ARC
8
DEFAULT_255_2_778
10
10.7276662
20
82.8714638
40
1.0690704
50
90.063091
51
93.6757498
0
ARC
8
DEFAULT_255_2_778
10
10.7376998
20
82.6987001
40
1.2421225
50
93.6267165
51
95.111951
0
LINE
8
DEFAULT_255_2_778
10
10.6270241
20
83.9358821
11
10.6270241
21
82.9637821
0
ARC
8
DEFAULT_255_2_778
10
10.6883893
20
84.2001794
40
1.2379191
50
267.1586102
51
269.6003824
0
ARC
8
DEFAULT_255_2_778
10
10.6871247
20
84.1031394
40
1.140873
50
269.6299001
51
269.9977818
0
ARC
8
DEFAULT_255_2_778
10
10.6981924
20
83.7633359
40
0.8011464
50
269.2052839
51
284.0793603
0
ARC
8
DEFAULT_255_2_778
10
10.8040022
20
83.3729943
40
0.3968651
50
282.9713152
51
320.3039342
0
ARC
8
DEFAULT_255_2_778
10
10.7691332
20
83.3771183
40
0.4267565
50
322.868884
51
353.8190909
0
ARC
8
DEFAULT_255_2_778
10
10.4776765
20
83.4269831
40
0.722117
50
352.3753183
51
0.2093401
0
ARC
8
DEFAULT_255_2_778
10
10.2788307
20
83.4289679
40
0.9209582
50
0.040663
51
3.1317777
0
ARC
8
DEFAULT_255_2_778
10
10.179044
20
83.4242026
40
1.0208566
50
3.0928597
51
3.2839733
0
LINE
8
DEFAULT_255_2_778
10
8.9030241
20
91.1309821
11
8.9030241
21
91.1309821
0
LINE
8
DEFAULT_255_2_778
10
8.4347241
20
90.7010821
11
8.4347241
21
90.7007821
0
LINE
8
DEFAULT_255_2_778
10
7.7891241
20
91.1306821
11
7.7891241
21
89.6916821
0
LINE
8
DEFAULT_255_2_778
10
7.7891241
20
89.6916821
11
8.1150241
21
89.6916821
0
LINE
8
DEFAULT_255_2_778
10
8.1150241
20
89.6916821
11
8.1150241
21
90.2625821
0
LINE
8
DEFAULT_255_2_778
10
8.3206241
20
90.1911821
11
8.4759241
21
89.6974821
0
LINE
8
DEFAULT_255_2_778
10
8.4759241
20
89.6974821
11
8.8117241
21
89.6913821
0
LINE
8
DEFAULT_255_2_778
10
8.8117241
20
89.6913821
11
8.6212241
21
90.3096821
0
LINE
8
DEFAULT_255_2_778
10
7.7891241
20
91.1304821
11
7.7891241
21
91.1306821
0
LINE
8
DEFAULT_255_2_778
10
11.1752241
20
90.0474821
11
11.1752241
21
91.1309821
0
LINE
8
DEFAULT_255_2_778
10
11.1752241
20
91.1309821
11
11.4721241
21
91.1309821
0
LINE
8
DEFAULT_255_2_778
10
11.4721241
20
91.1309821
11
11.4721241
21
89.6818821
0
LINE
8
DEFAULT_255_2_778
10
11.4721241
20
89.6818821
11
11.0932241
21
89.6818821
0
LINE
8
DEFAULT_255_2_778
10
11.0932241
20
89.6818821
11
10.5010241
21
90.7658821
0
LINE
8
DEFAULT_255_2_778
10
10.5010241
20
90.7658821
11
10.4966241
21
90.7658821
0
LINE
8
DEFAULT_255_2_778
10
10.4966241
20
90.7658821
11
10.4966241
21
89.6818821
0
LINE
8
DEFAULT_255_2_778
10
10.4966241
20
89.6818821
11
10.1994241
21
89.6818821
0
LINE
8
DEFAULT_255_2_778
10
10.1994241
20
89.6818821
11
10.1994241
21
91.1309821
0
LINE
8
DEFAULT_255_2_778
10
10.1994241
20
91.1309821
11
10.5807241
21
91.1309821
0
LINE
8
DEFAULT_255_2_778
10
10.5807241
20
91.1309821
11
11.1707241
21
90.0474821
0
LINE
8
DEFAULT_255_2_778
10
11.1707241
20
90.0474821
11
11.1752241
21
90.0474821
0
LINE
8
DEFAULT_255_2_778
10
6.5852241
20
80.6463821
11
6.5852241
21
80.6463821
0
LINE
8
DEFAULT_255_2_778
10
8.9358241
20
80.6344821
11
8.9051241
21
80.3907821
0
LINE
8
DEFAULT_255_2_778
10
9.7560241
20
80.6463821
11
9.2803241
21
80.6463821
0
LINE
8
DEFAULT_255_2_778
10
9.2803241
20
80.6463821
11
9.2803241
21
79.1831821
0
LINE
8
DEFAULT_255_2_778
10
9.2803241
20
79.1831821
11
9.7650241
21
79.1831821
0
LINE
8
DEFAULT_255_2_778
10
10.2947241
20
79.4972821
11
10.2944241
21
79.4972821
0
LINE
8
DEFAULT_255_2_778
10
9.7533241
20
79.4101821
11
9.7531241
21
79.4101821
0
LINE
8
DEFAULT_255_2_778
10
9.7335241
20
80.0539821
11
9.7335241
21
80.0539821
0
LINE
8
DEFAULT_255_2_778
10
10.8090241
20
80.0462821
11
10.6360241
21
80.3147821
0
LINE
8
DEFAULT_255_2_778
10
10.6360241
20
80.3147821
11
11.1300241
21
80.6431821
0
LINE
8
DEFAULT_255_2_778
10
11.1300241
20
80.6431821
11
11.4721241
21
80.6431821
0
LINE
8
DEFAULT_255_2_778
10
11.4721241
20
80.6431821
11
11.4721241
21
79.1548821
0
LINE
8
DEFAULT_255_2_778
10
11.4721241
20
79.1548821
11
11.0842241
21
79.1548821
0
LINE
8
DEFAULT_255_2_778
10
11.0842241
20
79.1548821
11
11.0842241
21
80.2465821
0
LINE
8
DEFAULT_255_2_778
10
11.0842241
20
80.2465821
11
10.8088241
21
80.0462821
0
LINE
8
DEFAULT_255_2_778
10
6.4942241
20
84.1864821
11
6.5820241
21
84.1832821
0
LINE
8
DEFAULT_255_2_778
10
6.8255241
20
84.1358821
11
6.7995241
21
83.9038821
0
LINE
8
DEFAULT_255_2_778
10
6.3950241
20
83.6363821
11
6.4410241
21
83.6133821
0
LINE
8
DEFAULT_255_2_778
10
6.4410241
20
83.6133821
11
6.4923241
21
83.5919821
0
LINE
8
DEFAULT_255_2_778
10
6.4923241
20
83.5919821
11
6.6037241
21
83.5474821
0
LINE
8
DEFAULT_255_2_778
10
6.9003241
20
83.2373821
11
6.9054241
21
83.1979821
0
LINE
8
DEFAULT_255_2_778
10
6.9054241
20
83.1979821
11
6.9072241
21
83.1553821
0
LINE
8
DEFAULT_255_2_778
10
6.9072241
20
83.1553821
11
6.9064241
21
83.1270821
0
LINE
8
DEFAULT_255_2_778
10
6.9064241
20
83.1270821
11
6.9043241
21
83.0997821
0
LINE
8
DEFAULT_255_2_778
10
6.0330241
20
82.7841821
11
6.0587241
21
83.0384821
0
LINE
8
DEFAULT_255_2_778
10
6.0587241
20
83.0384821
11
6.1325241
21
83.0026821
0
LINE
8
DEFAULT_255_2_778
10
6.5347241
20
82.9947821
11
6.5683241
21
83.0198821
0
LINE
8
DEFAULT_255_2_778
10
6.6170241
20
83.1103821
11
6.6186241
21
83.1333821
0
LINE
8
DEFAULT_255_2_778
10
6.6186241
20
83.1333821
11
6.6167241
21
83.1574821
0
LINE
8
DEFAULT_255_2_778
10
6.5625241
20
83.2506821
11
6.5236241
21
83.2783821
0
LINE
8
DEFAULT_255_2_778
10
6.4265241
20
83.3254821
11
6.3151241
21
83.3707821
0
LINE
8
DEFAULT_255_2_778
10
6.0185241
20
83.6755821
11
6.0135241
21
83.7144821
0
LINE
8
DEFAULT_255_2_778
10
6.0135241
20
83.7144821
11
6.0116241
21
83.7564821
0
LINE
8
DEFAULT_255_2_778
10
6.0116241
20
83.7564821
11
6.0124241
21
83.7853821
0
LINE
8
DEFAULT_255_2_778
10
6.0124241
20
83.7853821
11
6.0145241
21
83.8131821
0
LINE
8
DEFAULT_255_2_778
10
8.9948241
20
84.1864821
11
8.5109241
21
82.7296821
0
LINE
8
DEFAULT_255_2_778
10
8.5109241
20
82.7296821
11
8.3047241
21
82.7296821
0
LINE
8
DEFAULT_255_2_778
10
8.3047241
20
82.7296821
11
8.7884241
21
84.1864821
0
LINE
8
DEFAULT_255_2_778
10
8.7884241
20
84.1864821
11
8.9948241
21
84.1864821
0
LINE
8
DEFAULT_255_2_778
10
10.3584241
20
82.7590821
11
10.3584241
21
82.7590821
0
LINE
8
DEFAULT_255_2_778
10
11.1982241
20
83.4826821
11
11.1982241
21
83.4826821
0
ARC
8
DEFAULT_255_2_778
10
9.6482426
20
83.7448111
40
0.1472377
50
358.5694686
51
84.4320148
0
ARC
8
DEFAULT_255_2_778
10
9.5564523
20
83.406125
40
0.4966885
50
77.6685311
51
90.8601529
0
ARC
8
DEFAULT_255_2_778
10
9.5507866
20
83.0102677
40
0.8924917
50
90.1149452
51
94.0311031
0
ARC
8
DEFAULT_255_2_778
10
9.564561
20
82.7885023
40
1.1146783
50
93.9360485
51
95.0606811
0
LINE
8
DEFAULT_255_2_778
10
9.4662344
20
83.8988353
11
9.4662344
21
83.5837353
0
ARC
8
DEFAULT_255_2_778
10
9.5696679
20
84.5418396
40
0.9636713
50
263.8384183
51
267.7605794
0
ARC
8
DEFAULT_255_2_778
10
9.5598859
20
84.3212741
40
0.7428929
50
267.8497265
51
269.9694734
0
ARC
8
DEFAULT_255_2_778
10
9.5697721
20
83.9889803
40
0.4107276
50
268.5655311
51
286.7737482
0
ARC
8
DEFAULT_255_2_778
10
9.653768
20
83.7333576
40
0.1418965
50
284.087155
51
3.2634431
0
ARC
8
DEFAULT_255_2_778
10
9.495063
20
82.6421408
40
0.6706074
50
90.0283069
51
92.0106633
0
ARC
8
DEFAULT_255_2_778
10
9.5057283
20
82.9707119
40
0.3422129
50
71.4627747
51
91.8414443
0
ARC
8
DEFAULT_255_2_778
10
9.5783165
20
83.1840952
40
0.1168274
50
29.9583484
51
71.9449537
0
ARC
8
DEFAULT_255_2_778
10
9.8166769
20
83.2789109
40
0.1851921
50
25.5676088
51
69.2018287
0
ARC
8
DEFAULT_255_2_778
10
9.8136611
20
83.7482572
40
0.3041006
50
283.0706922
51
356.5435247
0
ARC
8
DEFAULT_255_2_778
10
9.5690658
20
83.7939659
40
0.5518713
50
353.3359853
51
0.1539898
0
ARC
8
DEFAULT_255_2_778
10
9.4702055
20
83.7953934
40
0.6507296
50
0.0049047
51
1.0074969
0
ARC
8
DEFAULT_255_2_778
10
9.7691569
20
83.8049849
40
0.3516824
50
0.3014671
51
38.2096653
0
ARC
8
DEFAULT_255_2_778
10
9.7721835
20
83.7808471
40
0.3648302
50
41.4840774
51
76.4089008
0
ARC
8
DEFAULT_255_2_778
10
9.653552
20
83.3610679
40
0.8009052
50
75.2166119
51
89.6994059
0
ARC
8
DEFAULT_255_2_778
10
9.6339788
20
82.9594598
40
1.2027373
50
88.8673384
51
90.006576
0
ARC
8
DEFAULT_255_2_778
10
9.6340678
20
82.8567591
40
1.305438
50
90.0099639
51
91.3490151
0
LINE
8
DEFAULT_255_2_778
10
9.6033344
20
84.1618353
11
9.1416344
21
84.1618353
0
LINE
8
DEFAULT_255_2_778
10
7.1199344
20
82.7590353
11
7.5567344
21
82.7590353
0
ARC
8
DEFAULT_255_2_778
10
7.5695147
20
83.728551
40
0.9695999
50
269.2447609
51
284.5391257
0
ARC
8
DEFAULT_255_2_778
10
7.6942907
20
83.2925404
40
0.5163522
50
283.2825236
51
344.8890025
0
ARC
8
DEFAULT_255_2_778
10
7.3219828
20
83.4132013
40
0.9074499
50
343.6619928
51
357.4504766
0
ARC
8
DEFAULT_255_2_778
10
6.7263925
20
83.4983371
40
1.5073755
50
355.2241114
51
358.0896001
0
ARC
8
DEFAULT_255_2_778
10
6.9063738
20
83.4917756
40
1.3272756
50
358.1136831
51
359.9849863
0
ARC
8
DEFAULT_255_2_778
10
7.2943662
20
83.5030164
40
0.9393547
50
359.293138
51
14.3694927
0
ARC
8
DEFAULT_255_2_778
10
7.6963405
20
83.6161158
40
0.5219798
50
13.2935531
51
73.2312379
0
ARC
8
DEFAULT_255_2_778
10
7.5598995
20
83.2220614
40
0.9387953
50
72.1966723
51
87.410303
0
ARC
8
DEFAULT_255_2_778
10
7.5237199
20
82.7804448
40
1.3816906
50
86.7389678
51
90.0242798
0
LINE
8
DEFAULT_255_2_778
10
7.5231344
20
84.1621353
11
7.1199344
21
84.1621353
0
LINE
8
DEFAULT_255_2_778
10
7.1199344
20
84.1621353
11
7.1199344
21
82.7590353
0
ARC
8
DEFAULT_255_2_778
10
7.3390383
20
83.491559
40
0.6207603
50
359.1763256
51
17.961602
0
ARC
8
DEFAULT_255_2_778
10
7.5852952
20
83.5678269
40
0.3630014
50
18.4966341
51
82.6126932
0
ARC
8
DEFAULT_255_2_778
10
7.4938739
20
83.1888438
40
0.751764
50
79.4149978
51
90.4364513
0
ARC
8
DEFAULT_255_2_778
10
7.4893301
20
82.8722442
40
1.0683424
50
90.0634332
51
93.6766753
0
ARC
8
DEFAULT_255_2_778
10
7.4993326
20
82.7001104
40
1.2407639
50
93.6278913
51
95.1139686
0
LINE
8
DEFAULT_255_2_778
10
7.3887344
20
83.9359353
11
7.3887344
21
82.9638353
0
ARC
8
DEFAULT_255_2_778
10
7.4501201
20
84.2006836
40
1.2383707
50
267.158699
51
269.6000043
0
ARC
8
DEFAULT_255_2_778
10
7.4488456
20
84.1036699
40
1.1413506
50
269.6299833
51
269.9977747
0
ARC
8
DEFAULT_255_2_778
10
7.4599157
20
83.7635179
40
0.8012755
50
269.2052311
51
284.0792257
0
ARC
8
DEFAULT_255_2_778
10
7.5657423
20
83.3731129
40
0.3969287
50
282.9710946
51
320.3033815
0
ARC
8
DEFAULT_255_2_778
10
7.5308786
20
83.3772296
40
0.4268112
50
322.8683405
51
353.8190097
0
ARC
8
DEFAULT_255_2_778
10
7.2394101
20
83.4271001
40
0.7221841
50
352.375062
51
0.2094593
0
ARC
8
DEFAULT_255_2_778
10
7.0408242
20
83.4290947
40
0.9207653
50
0.0401712
51
3.1222967
0
ARC
8
DEFAULT_255_2_778
10
6.9515271
20
83.4249305
40
1.0101569
50
3.0822621
51
3.2747812
0
LINE
8
DEFAULT_255_2_778
10
9.7954344
20
83.7414353
11
9.7954344
21
83.7411353
0
LINE
8
DEFAULT_255_2_778
10
9.1418344
20
84.1618353
11
9.1418344
21
82.7537353
0
LINE
8
DEFAULT_255_2_778
10
9.1418344
20
82.7537353
11
9.4715344
21
82.7537353
0
LINE
8
DEFAULT_255_2_778
10
9.4715344
20
82.7537353
11
9.4715344
21
83.3123353
0
LINE
8
DEFAULT_255_2_778
10
9.6795344
20
83.2424353
11
9.8366344
21
82.7595353
0
LINE
8
DEFAULT_255_2_778
10
9.8366344
20
82.7595353
11
10.1766344
21
82.7537353
0
LINE
8
DEFAULT_255_2_778
10
10.1766344
20
82.7537353
11
9.9837344
21
83.3588353
0
LINE
8
DEFAULT_255_2_778
10
9.1416344
20
84.1618353
11
9.1418344
21
84.1618353
0
LINE
8
DEFAULT_255_2_778
10
7.1199344
20
82.7590353
11
7.1199344
21
82.7590353
0
LINE
8
DEFAULT_255_2_778
10
7.9600344
20
83.4826353
11
7.9597344
21
83.4826353
0
ARC
8
DEFAULT_255_2_778
10
2.430871
20
83.5000876
40
0.6117913
50
171.3105606
51
179.7661637
0
ARC
8
DEFAULT_255_2_778
10
2.5638162
20
83.4809094
40
0.7461088
50
162.4093102
51
171.3971154
0
ARC
8
DEFAULT_255_2_778
10
2.5886569
20
83.4739194
40
0.7719007
50
158.255762
51
162.4719648
0
ARC
8
DEFAULT_255_2_778
10
2.5243536
20
83.5046394
40
0.7008079
50
134.6878047
51
158.6410134
0
ARC
8
DEFAULT_255_2_778
10
2.4571373
20
83.5666478
40
0.6094681
50
111.2893879
51
134.2948073
0
ARC
8
DEFAULT_255_2_778
10
2.4854592
20
83.4873491
40
0.6936425
50
94.7917569
51
111.0909323
0
ARC
8
DEFAULT_255_2_778
10
2.5017611
20
83.3433741
40
0.8384866
50
89.9490201
51
95.0799878
0
ARC
8
DEFAULT_255_2_778
10
2.5010463
20
83.2128647
40
0.9689966
50
83.8616201
51
89.9136198
0
ARC
8
DEFAULT_255_2_778
10
2.4809743
20
83.0250454
40
1.1578854
50
78.5654504
51
83.8678884
0
ARC
8
DEFAULT_255_2_778
10
2.4350954
20
82.7967987
40
1.3906972
50
74.0590203
51
78.577037
0
ARC
8
DEFAULT_255_2_778
10
2.3674633
20
82.5570531
40
1.6397986
50
70.8685655
51
74.0874645
0
ARC
8
DEFAULT_255_2_778
10
2.5476727
20
83.3126403
40
0.5904739
50
56.0206863
51
82.3716798
0
ARC
8
DEFAULT_255_2_778
10
2.561253
20
83.3934062
40
0.5086274
50
82.6801847
51
89.9395752
0
ARC
8
DEFAULT_255_2_778
10
2.5475084
20
83.5333061
40
0.3690039
50
87.7820235
51
148.6653537
0
ARC
8
DEFAULT_255_2_778
10
2.6464472
20
83.4817637
40
0.4803732
50
149.5512396
51
168.8796478
0
ARC
8
DEFAULT_255_2_778
10
2.8709499
20
83.4320373
40
0.7102726
50
168.436559
51
177.8338005
0
ARC
8
DEFAULT_255_2_778
10
2.4513062
20
83.4215501
40
0.6364835
50
173.3656757
51
179.6561885
0
ARC
8
DEFAULT_255_2_778
10
2.4903142
20
83.4206053
40
0.675497
50
179.5959032
51
180.0002701
0
ARC
8
DEFAULT_255_2_778
10
2.5358379
20
83.4217636
40
0.7210216
50
180.0922999
51
189.7249788
0
ARC
8
DEFAULT_255_2_778
10
2.5684011
20
83.4264681
40
0.7539121
50
189.6593441
51
192.8311702
0
ARC
8
DEFAULT_255_2_778
10
2.5210539
20
83.4091063
40
0.7039209
50
192.3091365
51
226.602577
0
ARC
8
DEFAULT_255_2_778
10
2.4610738
20
83.3576038
40
0.625343
50
227.3536171
51
251.9542188
0
ARC
8
DEFAULT_255_2_778
10
2.4974925
20
83.4745645
40
0.7478337
50
252.0771501
51
268.5134949
0
ARC
8
DEFAULT_255_2_778
10
2.5068696
20
83.6118603
40
0.8853456
50
268.1373447
51
270.0069789
0
ARC
8
DEFAULT_255_2_778
10
2.5054535
20
83.7095206
40
0.9830072
50
270.0888249
51
276.4113871
0
ARC
8
DEFAULT_255_2_778
10
2.4856296
20
83.8892824
40
1.1638585
50
276.3930035
51
281.5455958
0
ARC
8
DEFAULT_255_2_778
10
2.4421817
20
84.102342
40
1.3813031
50
281.5425
51
286.203307
0
ARC
8
DEFAULT_255_2_778
10
2.3809078
20
84.3169254
40
1.6044613
50
286.166211
51
289.1101473
0
ARC
8
DEFAULT_255_2_778
10
2.5490561
20
83.5944134
40
0.5903317
50
277.6220104
51
303.9788616
0
ARC
8
DEFAULT_255_2_778
10
2.5626034
20
83.5138019
40
0.5086429
50
270.060576
51
277.3138637
0
ARC
8
DEFAULT_255_2_778
10
2.5488616
20
83.3739634
40
0.3690804
50
211.3413947
51
272.2172957
0
ARC
8
DEFAULT_255_2_778
10
2.6476705
20
83.4254283
40
0.4802978
50
191.123405
51
210.453973
0
ARC
8
DEFAULT_255_2_778
10
2.8719895
20
83.4751277
40
0.7100123
50
182.1666792
51
191.566393
0
LINE
8
DEFAULT_255_2_778
10
2.9048848
20
84.1062845
11
2.8776848
21
83.8022845
0
LINE
8
DEFAULT_255_2_778
10
2.9061848
20
82.8008845
11
2.8789848
21
83.1048845
0
LINE
8
DEFAULT_255_2_778
10
3.8652333
20
84.1820041
11
4.1298333
21
84.1820041
0
LINE
8
DEFAULT_255_2_778
10
4.1298333
20
84.1820041
11
4.1298333
21
82.7268041
0
LINE
8
DEFAULT_255_2_778
10
4.1298333
20
82.7268041
11
3.8652333
21
82.7268041
0
LINE
8
DEFAULT_255_2_778
10
3.8652333
20
82.7268041
11
3.8652333
21
83.3647041
0
LINE
8
DEFAULT_255_2_778
10
3.8652333
20
83.3647041
11
3.3361333
21
83.3647041
0
LINE
8
DEFAULT_255_2_778
10
3.3361333
20
83.3647041
11
3.3361333
21
82.7268041
0
LINE
8
DEFAULT_255_2_778
10
3.3361333
20
82.7268041
11
3.0715333
21
82.7268041
0
LINE
8
DEFAULT_255_2_778
10
3.0715333
20
82.7268041
11
3.0715333
21
84.1820041
0
LINE
8
DEFAULT_255_2_778
10
3.0715333
20
84.1820041
11
3.3361333
21
84.1820041
0
LINE
8
DEFAULT_255_2_778
10
3.3361333
20
84.1820041
11
3.3361333
21
83.5941041
0
LINE
8
DEFAULT_255_2_778
10
3.3361333
20
83.5941041
11
3.8652333
21
83.5941041
0
LINE
8
DEFAULT_255_2_778
10
3.8652333
20
83.5941041
11
3.8652333
21
84.1820041
0
ARC
8
DEFAULT_255_2_778
10
4.6616535
20
83.1338334
40
0.7775493
50
89.1032729
51
103.6984708
0
ARC
8
DEFAULT_255_2_778
10
4.5731884
20
83.5040805
40
0.3968878
50
103.9482589
51
121.7191363
0
ARC
8
DEFAULT_255_2_778
10
5.9707056
20
84.079388
40
1.6236768
50
181.3203389
51
188.4181564
0
ARC
8
DEFAULT_255_2_778
10
6.9460857
20
84.1188881
40
2.5997638
50
179.969161
51
181.695325
0
ARC
8
DEFAULT_255_2_778
10
4.6884546
20
83.209262
40
0.9731505
50
91.836426
51
110.5834831
0
ARC
8
DEFAULT_255_2_778
10
4.677503
20
83.3347105
40
0.8474436
50
90.001167
51
91.3681699
0
ARC
8
DEFAULT_255_2_778
10
4.6779482
20
83.3575004
40
0.8246539
50
78.849715
51
90.0321285
0
ARC
8
DEFAULT_255_2_778
10
4.732033
20
83.775922
40
0.4046311
50
47.5595502
51
74.9027729
0
ARC
8
DEFAULT_255_2_778
10
4.776653
20
83.8459626
40
0.3231503
50
359.7009102
51
45.0168157
0
ARC
8
DEFAULT_255_2_778
10
4.5941451
20
83.8248913
40
0.5060251
50
359.9851378
51
2.1953735
0
ARC
8
DEFAULT_255_2_778
10
4.4891879
20
83.8267206
40
0.6109854
50
352.6375653
51
359.816149
0
ARC
8
DEFAULT_255_2_778
10
4.358411
20
83.8414666
40
0.7425769
50
351.037923
51
352.8022273
0
ARC
8
DEFAULT_255_2_778
10
4.7085595
20
83.7800245
40
0.3871805
50
328.6627178
51
351.9474015
0
ARC
8
DEFAULT_255_2_778
10
4.8829297
20
83.6758379
40
0.1840702
50
278.4953676
51
328.1342648
0
ARC
8
DEFAULT_255_2_778
10
4.7425833
20
83.1234071
40
0.4065106
50
40.0040408
51
65.6607017
0
ARC
8
DEFAULT_255_2_778
10
4.8054626
20
83.1886208
40
0.3165667
50
358.4758724
51
38.2785391
0
ARC
8
DEFAULT_255_2_778
10
4.6075718
20
83.1838483
40
0.5143585
50
347.801898
51
359.5936882
0
ARC
8
DEFAULT_255_2_778
10
4.4008891
20
83.2250396
40
0.7250865
50
342.4490836
51
348.0712911
0
ARC
8
DEFAULT_255_2_778
10
4.717527
20
83.1289032
40
0.3942166
50
281.7038529
51
341.8935785
0
ARC
8
DEFAULT_255_2_778
10
4.6545177
20
83.3783109
40
0.6513153
50
269.4956886
51
282.680893
0
ARC
8
DEFAULT_255_2_778
10
4.652753
20
83.7227371
40
0.9957243
50
262.5355511
51
269.7716754
0
ARC
8
DEFAULT_255_2_778
10
4.7064894
20
84.143813
40
1.4202135
50
257.2135519
51
262.592894
0
ARC
8
DEFAULT_255_2_778
10
4.7896627
20
84.5276421
40
1.812936
50
255.2577337
51
257.3348301
0
LINE
8
DEFAULT_255_2_778
10
4.3283223
20
82.7743874
11
4.3283223
21
83.0759874
0
ARC
8
DEFAULT_255_2_778
10
4.7921942
20
84.3090055
40
1.3173879
50
249.3832733
51
254.806448
0
ARC
8
DEFAULT_255_2_778
10
4.6505863
20
83.7812021
40
0.7709225
50
254.6824191
51
262.7260238
0
ARC
8
DEFAULT_255_2_778
10
4.611891
20
83.4913719
40
0.4785284
50
262.9280396
51
269.7807309
0
ARC
8
DEFAULT_255_2_778
10
4.6179786
20
83.268017
40
0.2552928
50
268.222478
51
294.7545391
0
ARC
8
DEFAULT_255_2_778
10
4.6418109
20
83.1952684
40
0.1794666
50
297.5714375
51
351.0653117
0
ARC
8
DEFAULT_255_2_778
10
4.526496
20
83.2314124
40
0.2995248
50
347.6591172
51
347.9510506
0
ARC
8
DEFAULT_255_2_778
10
4.6048166
20
83.1619974
40
0.2147163
50
1.8388771
51
35.5815325
0
ARC
8
DEFAULT_255_2_778
10
4.6500035
20
83.177173
40
0.1697105
50
40.296617
51
90.5183351
0
ARC
8
DEFAULT_255_2_778
10
4.6300248
20
83.0271319
40
0.3202762
50
86.698736
51
90.0418045
0
ARC
8
DEFAULT_255_2_778
10
4.6330073
20
82.9004269
40
0.4469928
50
90.4122525
51
99.5776163
0
ARC
8
DEFAULT_255_2_778
10
4.6672698
20
82.6785597
40
0.6714754
50
99.3105318
51
103.5346377
0
LINE
8
DEFAULT_255_2_778
10
4.5101223
20
83.3313874
11
4.5101223
21
83.5866874
0
ARC
8
DEFAULT_255_2_778
10
4.6031781
20
84.08533
40
0.5072512
50
259.4291558
51
267.3344095
0
ARC
8
DEFAULT_255_2_778
10
4.5961024
20
83.9714136
40
0.393133
50
267.592404
51
269.9788367
0
ARC
8
DEFAULT_255_2_778
10
4.6076527
20
83.8048548
40
0.2268757
50
267.0450768
51
308.7488662
0
ARC
8
DEFAULT_255_2_778
10
4.5917063
20
83.7995272
40
0.2332355
50
312.6261049
51
347.5104619
0
ARC
8
DEFAULT_255_2_778
10
4.6370556
20
83.7615953
40
0.1827952
50
356.0764398
51
35.2384793
0
ARC
8
DEFAULT_255_2_778
10
4.6849762
20
83.7753039
40
0.1367393
50
42.1491593
51
94.6788659
0
LINE
8
DEFAULT_255_2_778
10
4.6738223
20
83.9115874
11
4.6738223
21
83.9112874
0
LINE
8
DEFAULT_255_2_778
10
40.0862448
20
61.1375927
11
40.6238448
21
61.1375927
0
LINE
8
DEFAULT_255_2_778
10
40.6238448
20
61.1375927
11
40.6238448
21
59.6471927
0
ARC
8
DEFAULT_255_2_778
10
41.579781
20
59.634925
40
0.9560149
50
179.2647554
51
191.6790585
0
ARC
8
DEFAULT_255_2_778
10
41.0536057
20
59.5192636
40
0.4173744
50
190.7519144
51
217.1500506
0
ARC
8
DEFAULT_255_2_778
10
40.9431284
20
59.452829
40
0.289525
50
219.8752272
51
273.3297655
0
ARC
8
DEFAULT_255_2_778
10
40.9780886
20
59.4519066
40
0.2886846
50
266.3965861
51
341.6394928
0
ARC
8
DEFAULT_255_2_778
10
40.6228581
20
59.5932478
40
0.6707225
50
339.738444
51
356.4303453
0
ARC
8
DEFAULT_255_2_778
10
40.1094377
20
59.6447116
40
1.1865097
50
355.4936179
51
0.1198118
0
LINE
8
DEFAULT_255_2_778
10
41.2959448
20
59.6471927
11
41.2959448
21
61.1375927
0
LINE
8
DEFAULT_255_2_778
10
41.2959448
20
61.1375927
11
41.8671448
21
61.1375927
0
LINE
8
DEFAULT_255_2_778
10
41.8671448
20
61.1375927
11
41.8671448
21
59.5262927
0
ARC
8
DEFAULT_255_2_778
10
40.5774085
20
59.5134985
40
1.2897998
50
347.7039518
51
0.5683566
0
ARC
8
DEFAULT_255_2_778
10
41.113048
20
59.3906775
40
0.7403151
50
323.5046085
51
348.1630609
0
ARC
8
DEFAULT_255_2_778
10
41.1986237
20
59.3495265
40
0.6472907
50
285.2232879
51
321.9274656
0
ARC
8
DEFAULT_255_2_778
10
41.0569759
20
59.8101236
40
1.1290291
50
271.4982607
51
286.0217332
0
ARC
8
DEFAULT_255_2_778
10
41.0278648
20
60.2609048
40
1.5805122
50
269.9811502
51
272.1259589
0
ARC
8
DEFAULT_255_2_778
10
41.0145173
20
60.1744143
40
1.4940766
50
258.7776711
51
270.4919221
0
ARC
8
DEFAULT_255_2_778
10
40.8889659
20
59.5700147
40
0.8768167
50
238.2011953
51
259.1386832
0
ARC
8
DEFAULT_255_2_778
10
40.8067408
20
59.4101688
40
0.6977831
50
194.9349036
51
237.0231891
0
ARC
8
DEFAULT_255_2_778
10
41.2929236
20
59.5613675
40
1.2066886
50
181.6656521
51
195.9221627
0
LINE
8
DEFAULT_255_2_778
10
40.0867448
20
59.5262927
11
40.0867448
21
61.1375927
0
LINE
8
DEFAULT_255_2_778
10
40.0867448
20
61.1375927
11
40.0862448
21
61.1375927
0
LINE
8
DEFAULT_255_2_778
10
43.9514448
20
59.0865156
11
43.9514448
21
58.7031156
0
LINE
8
DEFAULT_255_2_778
10
43.9514448
20
58.7031156
11
42.5182448
21
58.7031156
0
LINE
8
DEFAULT_255_2_778
10
42.5182448
20
58.7031156
11
42.5182448
21
61.1375156
0
LINE
8
DEFAULT_255_2_778
10
42.5182448
20
61.1375156
11
43.0058448
21
61.1375156
0
LINE
8
DEFAULT_255_2_778
10
43.0058448
20
61.1375156
11
43.0058448
21
59.0865156
0
LINE
8
DEFAULT_255_2_778
10
43.0058448
20
59.0865156
11
43.9517448
21
59.0865156
0
LINE
8
DEFAULT_255_2_778
10
45.6958448
20
59.0865156
11
45.6958448
21
58.7031156
0
LINE
8
DEFAULT_255_2_778
10
45.6958448
20
58.7031156
11
44.2618448
21
58.7031156
0
LINE
8
DEFAULT_255_2_778
10
44.2618448
20
58.7031156
11
44.2618448
21
61.1375156
0
LINE
8
DEFAULT_255_2_778
10
44.2618448
20
61.1375156
11
44.7502448
21
61.1375156
0
LINE
8
DEFAULT_255_2_778
10
44.7502448
20
61.1375156
11
44.7502448
21
59.0865156
0
LINE
8
DEFAULT_255_2_778
10
44.7502448
20
59.0865156
11
45.6961448
21
59.0865156
0
ARC
8
DEFAULT_255_2_778
10
38.7524286
20
58.1807924
40
2.9567851
50
86.0482839
51
90.2564211
0
ARC
8
DEFAULT_255_2_778
10
38.8023049
20
59.0438692
40
2.0923456
50
85.3790801
51
85.7820632
0
ARC
8
DEFAULT_255_2_778
10
38.9315455
20
60.069597
40
1.0605461
50
59.596821
51
87.875
0
ARC
8
DEFAULT_255_2_778
10
39.1478019
20
60.4906835
40
0.5885224
50
24.5868953
51
57.0076401
0
ARC
8
DEFAULT_255_2_778
10
38.9719178
20
60.412752
40
0.7808881
50
8.2494405
51
24.4170405
0
ARC
8
DEFAULT_255_2_778
10
38.712532
20
60.3656814
40
1.0443858
50
4.9032075
51
8.7632756
0
ARC
8
DEFAULT_255_2_778
10
38.9326894
20
60.3544984
40
0.8204246
50
332.9578188
51
359.6193518
0
ARC
8
DEFAULT_255_2_778
10
39.1374736
20
60.2681055
40
0.5989687
50
295.9760426
51
331.4121251
0
ARC
8
DEFAULT_255_2_778
10
39.0000151
20
60.5413608
40
0.9048335
50
280.3623034
51
296.2222128
0
ARC
8
DEFAULT_255_2_778
10
38.8909259
20
61.1068628
40
1.4807448
50
270.4926485
51
280.5786804
0
ARC
8
DEFAULT_255_2_778
10
38.8738027
20
61.5619828
40
1.9360404
50
269.9958923
51
270.8835714
0
ARC
8
DEFAULT_255_2_778
10
38.8739122
20
61.6836943
40
2.0577521
50
268.7985147
51
269.9930873
0
ARC
8
DEFAULT_255_2_778
10
38.8758145
20
61.7864497
40
2.1605247
50
268.4187509
51
268.8052173
0
ARC
8
DEFAULT_255_2_778
10
38.7849076
20
61.2651599
40
1.2547172
50
269.8350718
51
273.2055591
0
ARC
8
DEFAULT_255_2_778
10
38.8715979
20
60.3985832
40
0.386531
50
267.5492149
51
324.5948529
0
ARC
8
DEFAULT_255_2_778
10
38.8098506
20
60.4021057
40
0.440132
50
328.8820529
51
349.5595636
0
ARC
8
DEFAULT_255_2_778
10
38.9081538
20
60.4063523
40
0.3352936
50
2.973931
51
73.5981495
0
ARC
8
DEFAULT_255_2_778
10
38.8255897
20
60.1536584
40
0.6010691
50
72.84981
51
90.9152323
0
ARC
8
DEFAULT_255_2_778
10
38.8162965
20
59.8830681
40
0.8715827
50
90.020233
51
92.3014807
0
LINE
8
DEFAULT_255_2_778
10
39.7530959
20
60.4549479
11
39.7543959
21
60.4014479
0
LINE
8
DEFAULT_255_2_778
10
39.7543959
20
60.4014479
11
39.7530959
21
60.3490479
0
LINE
8
DEFAULT_255_2_778
10
38.8161959
20
59.6267479
11
38.6097959
21
59.6267479
0
LINE
8
DEFAULT_255_2_778
10
38.6097959
20
59.6267479
11
38.6097959
21
58.7028479
0
LINE
8
DEFAULT_255_2_778
10
38.6097959
20
58.7028479
11
38.1213959
21
58.7028479
0
LINE
8
DEFAULT_255_2_778
10
38.1213959
20
58.7028479
11
38.1213959
21
61.1372479
0
LINE
8
DEFAULT_255_2_778
10
38.1213959
20
61.1372479
11
38.7391959
21
61.1375479
0
LINE
8
DEFAULT_255_2_778
10
39.2426959
20
60.3223479
11
39.2452959
21
60.3729479
0
LINE
8
DEFAULT_255_2_778
10
39.2452959
20
60.3729479
11
39.2429959
21
60.4237479
0
LINE
8
DEFAULT_255_2_778
10
38.7812959
20
60.7539479
11
38.6100959
21
60.7539479
0
LINE
8
DEFAULT_255_2_778
10
38.6100959
20
60.7539479
11
38.6100959
21
60.0104479
0
LINE
8
DEFAULT_255_2_778
10
38.6100959
20
60.0104479
11
38.7812959
21
60.0104479
0
ARC
8
DEFAULT_255_2_778
10
2.171913
20
47.8875901
40
0.4999264
50
90.001087
51
156.4273434
0
ARC
8
DEFAULT_255_2_778
10
5.6716066
20
48.5875196
40
0.5000969
50
359.9996485
51
90.0003515
0
ARC
8
DEFAULT_255_2_778
10
5.6716279
20
48.5875921
40
0.5000757
50
269.9972098
51
359.9913379
0
ARC
8
DEFAULT_255_2_778
10
3.3934458
20
47.8842582
40
0.8672191
50
25.4203048
51
35.4725463
0
ARC
8
DEFAULT_255_2_778
10
3.2600671
20
47.7693861
40
1.2435209
50
23.0624858
51
29.8229873
0
LINE
8
DEFAULT_255_2_778
10
1.6716035
20
48.0875165
11
1.6716035
21
48.3875165
0
LINE
8
DEFAULT_255_2_778
10
1.6716035
20
48.3875165
11
6.1240035
21
48.3875165
0
LINE
8
DEFAULT_255_2_778
10
5.2718035
20
48.0875165
11
5.2718035
21
48.3875165
0
LINE
8
DEFAULT_255_2_778
10
5.6517035
20
48.0875165
11
5.6517035
21
48.3875165
0
LINE
8
DEFAULT_255_2_778
10
2.8718035
20
48.3875165
11
3.1718035
21
48.0875165
0
LINE
8
DEFAULT_255_2_778
10
5.5218035
20
48.3875165
11
5.5218035
21
48.0875165
0
LINE
8
DEFAULT_255_2_778
10
0.1717035
20
49.0876165
11
5.6716035
21
49.0876165
0
LINE
8
DEFAULT_255_2_778
10
5.6716035
20
48.0875165
11
0.1717035
21
48.0875165
0
LINE
8
DEFAULT_255_2_778
10
4.1767035
20
48.2565165
11
4.4042035
21
48.2565165
0
LINE
8
DEFAULT_255_2_778
10
3.6716035
20
48.3872165
11
3.6716035
21
49.0873165
0
LINE
8
DEFAULT_255_2_778
10
29.7632035
20
37.3994165
11
28.5133035
21
39.5645165
0
LINE
8
DEFAULT_255_2_778
10
28.5133035
20
39.5645165
11
27.2634035
21
37.3994165
0
LINE
8
DEFAULT_255_2_778
10
27.2634035
20
37.3994165
11
29.7635035
21
37.3994165
0
ARC
8
DEFAULT_255_2_778
10
9.253997
20
17.6057911
40
0.611926
50
171.3123782
51
179.7660989
0
ARC
8
DEFAULT_255_2_778
10
9.386877
20
17.5866198
40
0.7461779
50
162.4122365
51
171.3983625
0
ARC
8
DEFAULT_255_2_778
10
9.4116588
20
17.5796517
40
0.7719073
50
158.2594119
51
162.4750226
0
ARC
8
DEFAULT_255_2_778
10
9.3474693
20
17.6103247
40
0.700938
50
134.6903933
51
158.6448372
0
ARC
8
DEFAULT_255_2_778
10
9.2802318
20
17.6723503
40
0.6095706
50
111.2911644
51
134.2975688
0
ARC
8
DEFAULT_255_2_778
10
9.308547
20
17.5930732
40
0.6937224
50
94.7923306
51
111.0926538
0
ARC
8
DEFAULT_255_2_778
10
9.3248482
20
17.4490918
40
0.838573
50
89.9490118
51
95.0803473
0
ARC
8
DEFAULT_255_2_778
10
9.324134
20
17.3186181
40
0.9690473
50
83.8617829
51
89.9136497
0
ARC
8
DEFAULT_255_2_778
10
9.3040676
20
17.1308457
40
1.1578889
50
78.5655491
51
83.8680501
0
ARC
8
DEFAULT_255_2_778
10
9.2582009
20
16.9026343
40
1.3906637
50
74.0591926
51
78.5773233
0
ARC
8
DEFAULT_255_2_778
10
9.1905914
20
16.6629607
40
1.6396895
50
70.8685995
51
74.0876808
0
ARC
8
DEFAULT_255_2_778
10
9.370751
20
17.4185853
40
0.590309
50
56.0200714
51
82.3738343
0
ARC
8
DEFAULT_255_2_778
10
9.3843185
20
17.4992606
40
0.508554
50
82.6826608
51
89.9393951
0
ARC
8
DEFAULT_255_2_778
10
9.3705931
20
17.6390103
40
0.3690798
50
87.7852213
51
148.6585485
0
ARC
8
DEFAULT_255_2_778
10
9.4695231
20
17.5874391
40
0.4804555
50
149.5423722
51
168.8673665
0
ARC
8
DEFAULT_255_2_778
10
9.6939139
20
17.537689
40
0.710251
50
168.4246236
51
177.8213783
0
ARC
8
DEFAULT_255_2_778
10
9.2734841
20
17.527125
40
0.635702
50
173.3366308
51
179.6547546
0
ARC
8
DEFAULT_255_2_778
10
9.3175921
20
17.5261762
40
0.6798152
50
179.5971887
51
180.0002687
0
ARC
8
DEFAULT_255_2_778
10
9.3580082
20
17.527333
40
0.7202325
50
180.0922788
51
189.7216543
0
ARC
8
DEFAULT_255_2_778
10
9.3906205
20
17.5320442
40
0.7531725
50
189.6559712
51
192.8261464
0
ARC
8
DEFAULT_255_2_778
10
9.3438434
20
17.5148776
40
0.7037805
50
192.3088428
51
226.5756628
0
ARC
8
DEFAULT_255_2_778
10
9.2841134
20
17.4636204
40
0.6255483
50
227.3218826
51
251.9392394
0
ARC
8
DEFAULT_255_2_778
10
9.3201425
20
17.5787525
40
0.7461789
50
252.0498125
51
268.2266273
0
ARC
8
DEFAULT_255_2_778
10
9.329906
20
17.7150906
40
0.8827713
50
267.867075
51
270.0089389
0
ARC
8
DEFAULT_255_2_778
10
9.3285207
20
17.8155231
40
0.9832049
50
270.088753
51
276.4107408
0
ARC
8
DEFAULT_255_2_778
10
9.3087122
20
17.9951703
40
1.1639407
50
276.392334
51
281.5449396
0
ARC
8
DEFAULT_255_2_778
10
9.2652881
20
18.2081274
40
1.38128
50
281.5418327
51
286.2028968
0
ARC
8
DEFAULT_255_2_778
10
9.2040234
20
18.4226723
40
1.6043988
50
286.1659251
51
289.1100076
0
ARC
8
DEFAULT_255_2_778
10
9.372051
20
17.7001931
40
0.590309
50
277.6261657
51
303.9799286
0
ARC
8
DEFAULT_255_2_778
10
9.3856185
20
17.6195178
40
0.508554
50
270.0606049
51
277.3173392
0
ARC
8
DEFAULT_255_2_778
10
9.3718931
20
17.4797681
40
0.3690798
50
211.3414515
51
272.2147787
0
ARC
8
DEFAULT_255_2_778
10
9.4708231
20
17.5313394
40
0.4804555
50
191.1326335
51
210.4576278
0
ARC
8
DEFAULT_255_2_778
10
9.6952139
20
17.5810894
40
0.710251
50
182.1786217
51
191.5753764
0
LINE
8
DEFAULT_255_2_778
10
9.7279762
20
18.2120892
11
9.7006762
21
17.9080892
0
LINE
8
DEFAULT_255_2_778
10
9.7292762
20
16.9066892
11
9.7019762
21
17.2106892
0
LINE
8
DEFAULT_255_2_778
10
10.6883333
20
18.2878041
11
10.9529333
21
18.2878041
0
LINE
8
DEFAULT_255_2_778
10
10.9529333
20
18.2878041
11
10.9529333
21
16.8326041
0
LINE
8
DEFAULT_255_2_778
10
10.9529333
20
16.8326041
11
10.6883333
21
16.8326041
0
LINE
8
DEFAULT_255_2_778
10
10.6883333
20
16.8326041
11
10.6883333
21
17.4705041
0
LINE
8
DEFAULT_255_2_778
10
10.6883333
20
17.4705041
11
10.1592333
21
17.4705041
0
LINE
8
DEFAULT_255_2_778
10
10.1592333
20
17.4705041
11
10.1592333
21
16.8326041
0
LINE
8
DEFAULT_255_2_778
10
10.1592333
20
16.8326041
11
9.8946333
21
16.8326041
0
LINE
8
DEFAULT_255_2_778
10
9.8946333
20
16.8326041
11
9.8946333
21
18.2878041
0
LINE
8
DEFAULT_255_2_778
10
9.8946333
20
18.2878041
11
10.1592333
21
18.2878041
0
LINE
8
DEFAULT_255_2_778
10
10.1592333
20
18.2878041
11
10.1592333
21
17.6999041
0
LINE
8
DEFAULT_255_2_778
10
10.1592333
20
17.6999041
11
10.6883333
21
17.6999041
0
LINE
8
DEFAULT_255_2_778
10
10.6883333
20
17.6999041
11
10.6883333
21
18.2878041
0
LINE
8
DEFAULT_255_2_778
10
11.2609167
20
17.7041041
11
11.1514167
21
17.9669041
0
LINE
8
DEFAULT_255_2_778
10
11.1514167
20
17.9669041
11
11.4641167
21
18.2878041
0
LINE
8
DEFAULT_255_2_778
10
11.4641167
20
18.2878041
11
11.6806167
21
18.2878041
0
LINE
8
DEFAULT_255_2_778
10
11.6806167
20
18.2878041
11
11.6806167
21
16.8326041
0
LINE
8
DEFAULT_255_2_778
10
11.6806167
20
16.8326041
11
11.4353167
21
16.8326041
0
LINE
8
DEFAULT_255_2_778
10
11.4353167
20
16.8326041
11
11.4353167
21
17.8999041
0
LINE
8
DEFAULT_255_2_778
10
11.4353167
20
17.8999041
11
11.2609167
21
17.7041041
0
ARC
8
DEFAULT_255_2_778
10
71.7877838
20
31.8556911
40
0.611926
50
171.3123782
51
179.7660989
0
ARC
8
DEFAULT_255_2_778
10
71.9206638
20
31.8365198
40
0.7461779
50
162.4122365
51
171.3983625
0
ARC
8
DEFAULT_255_2_778
10
71.9454456
20
31.8295517
40
0.7719073
50
158.2594119
51
162.4750226
0
ARC
8
DEFAULT_255_2_778
10
71.8812561
20
31.8602247
40
0.700938
50
134.6903933
51
158.6448372
0
ARC
8
DEFAULT_255_2_778
10
71.8140186
20
31.9222503
40
0.6095706
50
111.2911644
51
134.2975688
0
ARC
8
DEFAULT_255_2_778
10
71.8423338
20
31.8429732
40
0.6937224
50
94.7923306
51
111.0926538
0
ARC
8
DEFAULT_255_2_778
10
71.858635
20
31.6989918
40
0.838573
50
89.9490118
51
95.0803473
0
ARC
8
DEFAULT_255_2_778
10
71.8579208
20
31.5685181
40
0.9690473
50
83.8617829
51
89.9136497
0
ARC
8
DEFAULT_255_2_778
10
71.8378544
20
31.3807457
40
1.1578889
50
78.5655491
51
83.8680501
0
ARC
8
DEFAULT_255_2_778
10
71.7919877
20
31.1525343
40
1.3906637
50
74.0591926
51
78.5773233
0
ARC
8
DEFAULT_255_2_778
10
71.7243781
20
30.9128607
40
1.6396895
50
70.8685995
51
74.0876808
0
ARC
8
DEFAULT_255_2_778
10
71.9045378
20
31.6684853
40
0.590309
50
56.0200714
51
82.3738343
0
ARC
8
DEFAULT_255_2_778
10
71.9181053
20
31.7491606
40
0.508554
50
82.6826608
51
89.9393951
0
ARC
8
DEFAULT_255_2_778
10
71.9043799
20
31.8889103
40
0.3690798
50
87.7852213
51
148.6585485
0
ARC
8
DEFAULT_255_2_778
10
72.0033098
20
31.8373391
40
0.4804555
50
149.5423722
51
168.8673665
0
ARC
8
DEFAULT_255_2_778
10
72.2277007
20
31.787589
40
0.710251
50
168.4246236
51
177.8213783
0
ARC
8
DEFAULT_255_2_778
10
71.8072708
20
31.777025
40
0.635702
50
173.3366308
51
179.6547546
0
ARC
8
DEFAULT_255_2_778
10
71.8513788
20
31.7760762
40
0.6798152
50
179.5971887
51
180.0002687
0
ARC
8
DEFAULT_255_2_778
10
71.891795
20
31.777233
40
0.7202325
50
180.0922788
51
189.7216543
0
ARC
8
DEFAULT_255_2_778
10
71.9244072
20
31.7819442
40
0.7531725
50
189.6559712
51
192.8261464
0
ARC
8
DEFAULT_255_2_778
10
71.8776302
20
31.7647776
40
0.7037805
50
192.3088428
51
226.5756628
0
ARC
8
DEFAULT_255_2_778
10
71.8179002
20
31.7135204
40
0.6255483
50
227.3218826
51
251.9392394
0
ARC
8
DEFAULT_255_2_778
10
71.8539293
20
31.8286525
40
0.7461789
50
252.0498125
51
268.2266273
0
ARC
8
DEFAULT_255_2_778
10
71.8636928
20
31.9649906
40
0.8827713
50
267.867075
51
270.0089389
0
ARC
8
DEFAULT_255_2_778
10
71.8623075
20
32.0654231
40
0.9832049
50
270.088753
51
276.4107408
0
ARC
8
DEFAULT_255_2_778
10
71.842499
20
32.2450703
40
1.1639407
50
276.392334
51
281.5449396
0
ARC
8
DEFAULT_255_2_778
10
71.7990749
20
32.4580274
40
1.38128
50
281.5418327
51
286.2028968
0
ARC
8
DEFAULT_255_2_778
10
71.7378102
20
32.6725723
40
1.6043988
50
286.1659251
51
289.1100076
0
ARC
8
DEFAULT_255_2_778
10
71.9058378
20
31.9500931
40
0.590309
50
277.6261657
51
303.9799286
0
ARC
8
DEFAULT_255_2_778
10
71.9194053
20
31.8694178
40
0.508554
50
270.0606049
51
277.3173392
0
ARC
8
DEFAULT_255_2_778
10
71.9056799
20
31.7296681
40
0.3690798
50
211.3414515
51
272.2147787
0
ARC
8
DEFAULT_255_2_778
10
72.0046098
20
31.7812394
40
0.4804555
50
191.1326335
51
210.4576278
0
ARC
8
DEFAULT_255_2_778
10
72.2290007
20
31.8309894
40
0.710251
50
182.1786217
51
191.5753764
0
LINE
8
DEFAULT_255_2_778
10
72.2617629
20
32.4619892
11
72.2344629
21
32.1579892
0
LINE
8
DEFAULT_255_2_778
10
72.2630629
20
31.1565892
11
72.2357629
21
31.4605892
0
LINE
8
DEFAULT_255_2_778
10
73.2220333
20
32.5377041
11
73.4866333
21
32.5377041
0
LINE
8
DEFAULT_255_2_778
10
73.4866333
20
32.5377041
11
73.4866333
21
31.0825041
0
LINE
8
DEFAULT_255_2_778
10
73.4866333
20
31.0825041
11
73.2220333
21
31.0825041
0
LINE
8
DEFAULT_255_2_778
10
73.2220333
20
31.0825041
11
73.2220333
21
31.7204041
0
LINE
8
DEFAULT_255_2_778
10
73.2220333
20
31.7204041
11
72.6929333
21
31.7204041
0
LINE
8
DEFAULT_255_2_778
10
72.6929333
20
31.7204041
11
72.6929333
21
31.0825041
0
LINE
8
DEFAULT_255_2_778
10
72.6929333
20
31.0825041
11
72.4283333
21
31.0825041
0
LINE
8
DEFAULT_255_2_778
10
72.4283333
20
31.0825041
11
72.4283333
21
32.5377041
0
LINE
8
DEFAULT_255_2_778
10
72.4283333
20
32.5377041
11
72.6929333
21
32.5377041
0
LINE
8
DEFAULT_255_2_778
10
72.6929333
20
32.5377041
11
72.6929333
21
31.9498041
0
LINE
8
DEFAULT_255_2_778
10
72.6929333
20
31.9498041
11
73.2220333
21
31.9498041
0
LINE
8
DEFAULT_255_2_778
10
73.2220333
20
31.9498041
11
73.2220333
21
32.5377041
0
LINE
8
DEFAULT_255_2_778
10
73.7946167
20
31.9540041
11
73.6851167
21
32.2168041
0
LINE
8
DEFAULT_255_2_778
10
73.6851167
20
32.2168041
11
73.9978167
21
32.5377041
0
LINE
8
DEFAULT_255_2_778
10
73.9978167
20
32.5377041
11
74.2143167
21
32.5377041
0
LINE
8
DEFAULT_255_2_778
10
74.2143167
20
32.5377041
11
74.2143167
21
31.0825041
0
LINE
8
DEFAULT_255_2_778
10
74.2143167
20
31.0825041
11
73.9690167
21
31.0825041
0
LINE
8
DEFAULT_255_2_778
10
73.9690167
20
31.0825041
11
73.9690167
21
32.1498041
0
LINE
8
DEFAULT_255_2_778
10
73.9690167
20
32.1498041
11
73.7946167
21
31.9540041
0
ARC
8
DEFAULT_255_2_778
10
71.7877838
20
17.5557911
40
0.611926
50
171.3123782
51
179.7660989
0
ARC
8
DEFAULT_255_2_778
10
71.9206638
20
17.5366198
40
0.7461779
50
162.4122365
51
171.3983625
0
ARC
8
DEFAULT_255_2_778
10
71.9454456
20
17.5296517
40
0.7719073
50
158.2594119
51
162.4750226
0
ARC
8
DEFAULT_255_2_778
10
71.8812561
20
17.5603247
40
0.700938
50
134.6903933
51
158.6448372
0
ARC
8
DEFAULT_255_2_778
10
71.8140186
20
17.6223503
40
0.6095706
50
111.2911644
51
134.2975688
0
ARC
8
DEFAULT_255_2_778
10
71.8423338
20
17.5430732
40
0.6937224
50
94.7923306
51
111.0926538
0
ARC
8
DEFAULT_255_2_778
10
71.858635
20
17.3990918
40
0.838573
50
89.9490118
51
95.0803473
0
ARC
8
DEFAULT_255_2_778
10
71.8579208
20
17.2686181
40
0.9690473
50
83.8617829
51
89.9136497
0
ARC
8
DEFAULT_255_2_778
10
71.8378544
20
17.0808457
40
1.1578889
50
78.5655491
51
83.8680501
0
ARC
8
DEFAULT_255_2_778
10
71.7919877
20
16.8526343
40
1.3906637
50
74.0591926
51
78.5773233
0
ARC
8
DEFAULT_255_2_778
10
71.7243781
20
16.6129607
40
1.6396895
50
70.8685995
51
74.0876808
0
ARC
8
DEFAULT_255_2_778
10
71.9045378
20
17.3685853
40
0.590309
50
56.0200714
51
82.3738343
0
ARC
8
DEFAULT_255_2_778
10
71.9181053
20
17.4492606
40
0.508554
50
82.6826608
51
89.9393951
0
ARC
8
DEFAULT_255_2_778
10
71.9043799
20
17.5890103
40
0.3690798
50
87.7852213
51
148.6585485
0
ARC
8
DEFAULT_255_2_778
10
72.0033098
20
17.5374391
40
0.4804555
50
149.5423722
51
168.8673665
0
ARC
8
DEFAULT_255_2_778
10
72.2277007
20
17.487689
40
0.710251
50
168.4246236
51
177.8213783
0
ARC
8
DEFAULT_255_2_778
10
71.8072708
20
17.477125
40
0.635702
50
173.3366308
51
179.6547546
0
ARC
8
DEFAULT_255_2_778
10
71.8513788
20
17.4761762
40
0.6798152
50
179.5971887
51
180.0002687
0
ARC
8
DEFAULT_255_2_778
10
71.891795
20
17.477333
40
0.7202325
50
180.0922788
51
189.7216543
0
ARC
8
DEFAULT_255_2_778
10
71.9244072
20
17.4820442
40
0.7531725
50
189.6559712
51
192.8261464
0
ARC
8
DEFAULT_255_2_778
10
71.8776302
20
17.4648776
40
0.7037805
50
192.3088428
51
226.5756628
0
ARC
8
DEFAULT_255_2_778
10
71.8179002
20
17.4136204
40
0.6255483
50
227.3218826
51
251.9392394
0
ARC
8
DEFAULT_255_2_778
10
71.8539293
20
17.5287525
40
0.7461789
50
252.0498125
51
268.2266273
0
ARC
8
DEFAULT_255_2_778
10
71.8636928
20
17.6650906
40
0.8827713
50
267.867075
51
270.0089389
0
ARC
8
DEFAULT_255_2_778
10
71.8623075
20
17.7655231
40
0.9832049
50
270.088753
51
276.4107408
0
ARC
8
DEFAULT_255_2_778
10
71.842499
20
17.9451703
40
1.1639407
50
276.392334
51
281.5449396
0
ARC
8
DEFAULT_255_2_778
10
71.7990749
20
18.1581274
40
1.38128
50
281.5418327
51
286.2028968
0
ARC
8
DEFAULT_255_2_778
10
71.7378102
20
18.3726723
40
1.6043988
50
286.1659251
51
289.1100076
0
ARC
8
DEFAULT_255_2_778
10
71.9058378
20
17.6501931
40
0.590309
50
277.6261657
51
303.9799286
0
ARC
8
DEFAULT_255_2_778
10
71.9194053
20
17.5695178
40
0.508554
50
270.0606049
51
277.3173392
0
ARC
8
DEFAULT_255_2_778
10
71.9056799
20
17.4297681
40
0.3690798
50
211.3414515
51
272.2147787
0
ARC
8
DEFAULT_255_2_778
10
72.0046098
20
17.4813394
40
0.4804555
50
191.1326335
51
210.4576278
0
ARC
8
DEFAULT_255_2_778
10
72.2290007
20
17.5310894
40
0.710251
50
182.1786217
51
191.5753764
0
LINE
8
DEFAULT_255_2_778
10
72.2617629
20
18.1620892
11
72.2344629
21
17.8580892
0
LINE
8
DEFAULT_255_2_778
10
72.2630629
20
16.8566892
11
72.2357629
21
17.1606892
0
LINE
8
DEFAULT_255_2_778
10
73.2220333
20
18.2377041
11
73.4866333
21
18.2377041
0
LINE
8
DEFAULT_255_2_778
10
73.4866333
20
18.2377041
11
73.4866333
21
16.7825041
0
LINE
8
DEFAULT_255_2_778
10
73.4866333
20
16.7825041
11
73.2220333
21
16.7825041
0
LINE
8
DEFAULT_255_2_778
10
73.2220333
20
16.7825041
11
73.2220333
21
17.4204041
0
LINE
8
DEFAULT_255_2_778
10
73.2220333
20
17.4204041
11
72.6929333
21
17.4204041
0
LINE
8
DEFAULT_255_2_778
10
72.6929333
20
17.4204041
11
72.6929333
21
16.7825041
0
LINE
8
DEFAULT_255_2_778
10
72.6929333
20
16.7825041
11
72.4283333
21
16.7825041
0
LINE
8
DEFAULT_255_2_778
10
72.4283333
20
16.7825041
11
72.4283333
21
18.2377041
0
LINE
8
DEFAULT_255_2_778
10
72.4283333
20
18.2377041
11
72.6929333
21
18.2377041
0
LINE
8
DEFAULT_255_2_778
10
72.6929333
20
18.2377041
11
72.6929333
21
17.6498041
0
LINE
8
DEFAULT_255_2_778
10
72.6929333
20
17.6498041
11
73.2220333
21
17.6498041
0
LINE
8
DEFAULT_255_2_778
10
73.2220333
20
17.6498041
11
73.2220333
21
18.2377041
0
ARC
8
DEFAULT_255_2_778
10
72.4474887
20
18.6919448
40
2.2841355
50
314.163393
51
320.9799225
0
ARC
8
DEFAULT_255_2_778
10
73.1172526
20
18.152911
40
1.4244102
50
320.8636978
51
330.7020498
0
ARC
8
DEFAULT_255_2_778
10
73.6109295
20
17.880099
40
0.8603879
50
330.4579446
51
346.4921898
0
ARC
8
DEFAULT_255_2_778
10
73.8507542
20
17.8176225
40
0.6126224
50
346.9346114
51
359.8109283
0
ARC
8
DEFAULT_255_2_778
10
73.9146451
20
17.8160035
40
0.5487281
50
359.9579649
51
21.7351522
0
ARC
8
DEFAULT_255_2_778
10
74.0476346
20
17.8261463
40
0.4233151
50
27.1336672
51
54.7576863
0
ARC
8
DEFAULT_255_2_778
10
74.0735159
20
17.8415499
40
0.3959895
50
56.5303199
51
90.0887642
0
ARC
8
DEFAULT_255_2_778
10
74.0603526
20
17.693016
40
0.5446675
50
88.6797144
51
90.0034859
0
ARC
8
DEFAULT_255_2_778
10
74.0651173
20
17.5550926
40
0.6826077
50
90.4027222
51
101.5102342
0
ARC
8
DEFAULT_255_2_778
10
74.1346562
20
17.2029911
40
1.0415064
50
101.3936618
51
109.0458321
0
ARC
8
DEFAULT_255_2_778
10
74.2608358
20
16.823899
40
1.4410285
50
108.8695058
51
112.5652722
0
ARC
8
DEFAULT_255_2_778
10
74.3879972
20
16.4567384
40
1.5431857
50
111.5103249
51
115.5936998
0
ARC
8
DEFAULT_255_2_778
10
74.1541218
20
17.0544523
40
0.9013483
50
105.5413168
51
111.6105551
0
ARC
8
DEFAULT_255_2_778
10
74.040535
20
17.4702795
40
0.4702951
50
95.7232636
51
105.7825522
0
ARC
8
DEFAULT_255_2_778
10
74.019423
20
17.654285
40
0.2851139
50
90.1174074
51
95.1892978
0
ARC
8
DEFAULT_255_2_778
10
74.0249607
20
17.7886986
40
0.150824
50
61.2327007
51
92.3262882
0
ARC
8
DEFAULT_255_2_778
10
74.0356435
20
17.8249494
40
0.1141925
50
5.7046104
51
57.1744287
0
ARC
8
DEFAULT_255_2_778
10
73.9076374
20
17.797697
40
0.2446973
50
359.6568464
51
9.0768361
0
ARC
8
DEFAULT_255_2_778
10
73.76258
20
17.7982867
40
0.3897558
50
352.3735541
51
359.6978631
0
ARC
8
DEFAULT_255_2_778
10
73.5430599
20
17.8268223
40
0.6111218
50
347.1973311
51
352.4532651
0
ARC
8
DEFAULT_255_2_778
10
73.349354
20
17.8682884
40
0.8092045
50
347.2360344
51
347.3735517
0
ARC
8
DEFAULT_255_2_778
10
72.7390237
20
18.2419892
40
1.5046407
50
322.0211981
51
338.4578464
0
ARC
8
DEFAULT_255_2_778
10
72.1984178
20
18.6525675
40
2.1834433
50
312.9117649
51
322.2583905
0
LINE
8
DEFAULT_255_2_778
10
73.6850617
20
17.0534067
11
73.6850617
21
16.7825067
0
LINE
8
DEFAULT_255_2_778
10
73.6850617
20
16.7825067
11
74.4788617
21
16.7825067
0
ARC
8
DEFAULT_255_2_778
10
74.5265163
20
16.7966276
40
0.0497027
50
176.7585908
51
196.5055049
0
ARC
8
DEFAULT_255_2_778
10
76.3584718
20
16.8779759
40
1.8832173
50
180.5784983
51
182.3901622
0
ARC
8
DEFAULT_255_2_778
10
83.2955727
20
16.9795745
40
8.8210468
50
180.2485852
51
180.7834452
0
ARC
8
DEFAULT_255_2_778
10
96.8159152
20
17.0466203
40
22.3415545
50
179.982596
51
180.2700904
0
LINE
8
DEFAULT_255_2_778
10
74.4743617
20
17.0534067
11
74.0388617
21
17.0534067
0
ARC
8
DEFAULT_255_2_778
10
69.671886
20
9.5625825
40
0.5000757
50
269.9972237
51
359.991324
0
ARC
8
DEFAULT_255_2_778
10
69.6719501
20
39.8975952
40
0.5000116
50
0.0013268
51
90.0101312
0
ARC
8
DEFAULT_255_2_778
10
56.032052
20
39.8976165
40
0.4999902
50
89.9988811
51
180.0011246
0
ARC
8
DEFAULT_255_2_778
10
56.0321162
20
9.5625612
40
0.5000545
50
180.0062408
51
269.9937535
0
ARC
8
DEFAULT_255_2_778
10
71.680562
20
41.6857696
40
0.9944729
50
66.4777228
51
74.4477713
0
ARC
8
DEFAULT_255_2_778
10
71.7893738
20
42.0848229
40
0.5808601
50
74.2342155
51
86.8465978
0
ARC
8
DEFAULT_255_2_778
10
71.802403
20
42.2419431
40
0.4232836
50
87.4376416
51
89.9821447
0
ARC
8
DEFAULT_255_2_778
10
71.7941095
20
42.3745113
40
0.2908373
50
88.3399222
51
123.3595645
0
ARC
8
DEFAULT_255_2_778
10
71.7889633
20
42.3927502
40
0.272834
50
124.5632191
51
140.0322694
0
ARC
8
DEFAULT_255_2_778
10
71.8020107
20
42.4517694
40
0.2507215
50
152.3796155
51
167.8929003
0
ARC
8
DEFAULT_255_2_778
10
71.7212117
20
42.4706957
40
0.1677574
50
168.4252295
51
179.7857267
0
ARC
8
DEFAULT_255_2_778
10
71.7108033
20
42.4760899
40
0.1574201
50
181.7352224
51
238.968261
0
ARC
8
DEFAULT_255_2_778
10
71.8828923
20
42.714551
40
0.4511345
50
235.8513037
51
251.8367082
0
ARC
8
DEFAULT_255_2_778
10
72.0124058
20
43.061185
40
0.8210062
50
250.7894796
51
254.3522331
0
ARC
8
DEFAULT_255_2_778
10
71.4916779
20
41.3562466
40
0.9620942
50
60.0957211
51
71.8759517
0
ARC
8
DEFAULT_255_2_778
10
71.7221763
20
41.7481458
40
0.5074764
50
38.6317221
51
60.5955915
0
ARC
8
DEFAULT_255_2_778
10
71.8396928
20
41.8487968
40
0.3528771
50
359.217751
51
37.7778025
0
ARC
8
DEFAULT_255_2_778
10
71.6982746
20
41.8470598
40
0.4942721
50
347.0542084
51
359.6428856
0
ARC
8
DEFAULT_255_2_778
10
71.5041523
20
41.889764
40
0.6930298
50
339.3981871
51
347.2088347
0
ARC
8
DEFAULT_255_2_778
10
71.5961498
20
41.945939
40
0.6324141
50
313.0575275
51
331.6781612
0
ARC
8
DEFAULT_255_2_778
10
71.7077335
20
41.835149
40
0.475318
50
268.552134
51
312.3474215
0
ARC
8
DEFAULT_255_2_778
10
71.7007935
20
42.1089355
40
0.7489701
50
257.7493722
51
269.612146
0
ARC
8
DEFAULT_255_2_778
10
71.7726202
20
42.4522003
40
1.0996622
50
250.0927059
51
257.8872163
0
ARC
8
DEFAULT_255_2_778
10
71.9145886
20
42.8530209
40
1.5248747
50
245.3317617
51
250.2052068
0
ARC
8
DEFAULT_255_2_778
10
52.9346068
20
43.7852351
40
18.489424
50
352.79816
51
353.5877387
0
ARC
8
DEFAULT_255_2_778
10
71.7782468
20
42.6986044
40
1.0852918
50
244.344612
51
252.2826122
0
ARC
8
DEFAULT_255_2_778
10
71.6472022
20
42.2807409
40
0.6473725
50
252.0758591
51
264.620286
0
ARC
8
DEFAULT_255_2_778
10
71.6256589
20
42.0968595
40
0.4623003
50
265.1418642
51
269.9411547
0
ARC
8
DEFAULT_255_2_778
10
71.6352063
20
41.9500437
40
0.3156434
50
268.1804658
51
317.0821624
0
ARC
8
DEFAULT_255_2_778
10
71.6839044
20
41.8381949
40
0.2095658
50
330.533588
51
348.4241808
0
ARC
8
DEFAULT_255_2_778
10
71.7461548
20
41.8236064
40
0.1456654
50
349.1323577
51
359.8555045
0
ARC
8
DEFAULT_255_2_778
10
71.7385471
20
41.8171657
40
0.1533929
50
2.2691242
51
55.5055569
0
ARC
8
DEFAULT_255_2_778
10
71.5528267
20
41.5873466
40
0.4485696
50
52.5773998
51
68.4941721
0
ARC
8
DEFAULT_255_2_778
10
71.374385
20
41.1750772
40
0.8976764
50
67.5442314
51
72.7781731
0
ARC
8
DEFAULT_255_2_778
10
71.7983976
20
42.7278193
40
0.7130906
50
239.7471325
51
257.1792556
0
ARC
8
DEFAULT_255_2_778
10
71.6154943
20
42.4264908
40
0.3607031
50
183.4942261
51
240.728734
0
ARC
8
DEFAULT_255_2_778
10
72.1022118
20
42.4253383
40
0.8470063
50
180.0072587
51
181.4092948
0
ARC
8
DEFAULT_255_2_778
10
71.84366
20
42.4351035
40
0.5885373
50
162.3123237
51
180.9611576
0
ARC
8
DEFAULT_255_2_778
10
71.6370537
20
42.4966646
40
0.3730166
50
103.2241197
51
161.6791915
0
ARC
8
DEFAULT_255_2_778
10
71.7567881
20
42.1145385
40
0.7729499
50
91.1058725
51
105.3849534
0
ARC
8
DEFAULT_255_2_778
10
71.777141
20
41.7689714
40
1.1189292
50
89.9843126
51
91.8063733
0
ARC
8
DEFAULT_255_2_778
10
71.774562
20
41.5162259
40
1.3716776
50
85.208508
51
89.8794766
0
ARC
8
DEFAULT_255_2_778
10
71.7388325
20
41.0757369
40
1.813612
50
81.7904887
51
85.2460816
0
ARC
8
DEFAULT_255_2_778
10
71.6651008
20
40.561555
40
2.3330534
50
78.8800565
51
81.8014316
0
LINE
8
DEFAULT_255_2_778
10
73.7078617
20
18.1546067
11
73.7213617
21
17.8485067
0
LINE
8
DEFAULT_255_2_778
10
74.0388617
20
17.0534067
11
74.0388617
21
17.0534067
0
LINE
8
DEFAULT_255_2_778
10
70.1719617
20
9.5625067
11
70.1719617
21
39.8976067
0
LINE
8
DEFAULT_255_2_778
10
69.6718617
20
19.6276067
11
70.1719617
21
19.6276067
0
LINE
8
DEFAULT_255_2_778
10
69.6718617
20
20.6277067
11
70.1719617
21
20.6277067
0
LINE
8
DEFAULT_255_2_778
10
69.6718617
20
29.8778067
11
70.1719617
21
29.8778067
0
LINE
8
DEFAULT_255_2_778
10
56.0318617
20
23.4278067
11
55.5317617
21
23.4278067
0
LINE
8
DEFAULT_255_2_778
10
56.0318617
20
26.0278067
11
55.5317617
21
26.0278067
0
LINE
8
DEFAULT_255_2_778
10
55.5317617
20
10.8677067
11
56.0318617
21
10.8677067
0
LINE
8
DEFAULT_255_2_778
10
56.0318617
20
11.2876067
11
55.5317617
21
11.2876067
0
LINE
8
DEFAULT_255_2_778
10
56.0318617
20
11.3278067
11
55.5317617
21
11.3278067
0
LINE
8
DEFAULT_255_2_778
10
56.0318617
20
12.3280067
11
55.5317617
21
12.3280067
0
LINE
8
DEFAULT_255_2_778
10
56.0318617
20
12.3393067
11
55.5317617
21
12.3393067
0
LINE
8
DEFAULT_255_2_778
10
56.0318617
20
13.3395067
11
55.5317617
21
13.3395067
0
LINE
8
DEFAULT_255_2_778
10
56.0318617
20
13.8935067
11
55.5317617
21
13.8935067
0
LINE
8
DEFAULT_255_2_778
10
56.7538617
20
39.8928067
11
56.7538617
21
40.3979067
0
LINE
8
DEFAULT_255_2_778
10
57.1719617
20
39.8928067
11
57.1719617
21
40.3979067
0
LINE
8
DEFAULT_255_2_778
10
59.1718617
20
40.3979067
11
59.1718617
21
39.8928067
0
LINE
8
DEFAULT_255_2_778
10
59.7320617
20
39.8928067
11
59.7320617
21
40.3979067
0
LINE
8
DEFAULT_255_2_778
10
62.3320617
20
39.8928067
11
62.3320617
21
40.3979067
0
LINE
8
DEFAULT_255_2_778
10
57.1721617
20
9.0630067
11
57.1721617
21
9.5631067
0
LINE
8
DEFAULT_255_2_778
10
59.1721617
20
9.5631067
11
59.1721617
21
9.0630067
0
LINE
8
DEFAULT_255_2_778
10
59.6722617
20
9.5631067
11
59.6722617
21
9.0630067
0
LINE
8
DEFAULT_255_2_778
10
59.7322617
20
9.5631067
11
59.7322617
21
9.0630067
0
LINE
8
DEFAULT_255_2_778
10
62.3323617
20
9.5631067
11
62.3323617
21
9.0630067
0
LINE
8
DEFAULT_255_2_778
10
70.1724617
20
39.8780067
11
69.6724617
21
39.8780067
0
LINE
8
DEFAULT_255_2_778
10
69.6724617
20
30.8779067
11
70.1724617
21
30.8779067
0
LINE
8
DEFAULT_255_2_778
10
56.0323617
20
17.9430067
11
55.5322617
21
17.9430067
0
LINE
8
DEFAULT_255_2_778
10
70.1722617
20
10.6280067
11
69.6721617
21
10.6280067
0
LINE
8
DEFAULT_255_2_778
10
67.6721617
20
23.5630067
11
59.0321617
21
23.5630067
0
LINE
8
DEFAULT_255_2_778
10
59.0321617
20
23.5630067
11
59.0321617
21
19.5630067
0
LINE
8
DEFAULT_255_2_778
10
59.0321617
20
19.5630067
11
56.5321617
21
19.5630067
0
LINE
8
DEFAULT_255_2_778
10
56.5321617
20
19.5630067
11
56.5321617
21
15.5630067
0
LINE
8
DEFAULT_255_2_778
10
56.5321617
20
15.5630067
11
59.0321617
21
15.5630067
0
LINE
8
DEFAULT_255_2_778
10
59.0321617
20
15.5630067
11
59.0321617
21
11.5631067
0
LINE
8
DEFAULT_255_2_778
10
59.0321617
20
11.5631067
11
67.6721617
21
11.5631067
0
LINE
8
DEFAULT_255_2_778
10
67.6721617
20
11.5631067
11
67.6721617
21
23.5630067
0
LINE
8
DEFAULT_255_2_778
10
67.6721617
20
37.8931067
11
59.0321617
21
37.8931067
0
LINE
8
DEFAULT_255_2_778
10
59.0321617
20
37.8931067
11
59.0321617
21
33.8931067
0
LINE
8
DEFAULT_255_2_778
10
59.0321617
20
33.8931067
11
56.5321617
21
33.8931067
0
LINE
8
DEFAULT_255_2_778
10
56.5321617
20
33.8931067
11
56.5321617
21
29.8931067
0
LINE
8
DEFAULT_255_2_778
10
56.5321617
20
29.8931067
11
59.0321617
21
29.8931067
0
LINE
8
DEFAULT_255_2_778
10
59.0321617
20
29.8931067
11
59.0321617
21
25.8932067
0
LINE
8
DEFAULT_255_2_778
10
59.0321617
20
25.8932067
11
67.6721617
21
25.8932067
0
LINE
8
DEFAULT_255_2_778
10
67.6721617
20
25.8932067
11
67.6721617
21
37.8931067
0
LINE
8
DEFAULT_255_2_778
10
58.6321617
20
14.5632067
11
57.0322617
21
14.5632067
0
LINE
8
DEFAULT_255_2_778
10
57.0322617
20
14.5632067
11
57.0322617
21
11.5631067
0
LINE
8
DEFAULT_255_2_778
10
57.0322617
20
11.5631067
11
58.6321617
21
11.5631067
0
LINE
8
DEFAULT_255_2_778
10
58.6321617
20
11.5631067
11
58.6321617
21
14.5632067
0
LINE
8
DEFAULT_255_2_778
10
58.6321617
20
23.5632067
11
57.0322617
21
23.5632067
0
LINE
8
DEFAULT_255_2_778
10
57.0322617
20
23.5632067
11
57.0322617
21
20.5631067
0
LINE
8
DEFAULT_255_2_778
10
57.0322617
20
20.5631067
11
58.6321617
21
20.5631067
0
LINE
8
DEFAULT_255_2_778
10
58.6321617
20
20.5631067
11
58.6321617
21
23.5632067
0
LINE
8
DEFAULT_255_2_778
10
58.6321617
20
28.8933067
11
57.0322617
21
28.8933067
0
LINE
8
DEFAULT_255_2_778
10
57.0322617
20
28.8933067
11
57.0322617
21
25.8932067
0
LINE
8
DEFAULT_255_2_778
10
57.0322617
20
25.8932067
11
58.6321617
21
25.8932067
0
LINE
8
DEFAULT_255_2_778
10
58.6321617
20
25.8932067
11
58.6321617
21
28.8933067
0
LINE
8
DEFAULT_255_2_778
10
58.6321617
20
37.8933067
11
57.0322617
21
37.8933067
0
LINE
8
DEFAULT_255_2_778
10
57.0322617
20
37.8933067
11
57.0322617
21
34.8932067
0
LINE
8
DEFAULT_255_2_778
10
57.0322617
20
34.8932067
11
58.6321617
21
34.8932067
0
LINE
8
DEFAULT_255_2_778
10
58.6321617
20
34.8932067
11
58.6321617
21
37.8933067
0
LINE
8
DEFAULT_255_2_778
10
69.6721617
20
9.5633067
11
56.0320617
21
9.5633067
0
LINE
8
DEFAULT_255_2_778
10
56.0320617
20
9.5633067
11
56.0320617
21
39.8925067
0
LINE
8
DEFAULT_255_2_778
10
56.0320617
20
39.8925067
11
69.6721617
21
39.8925067
0
LINE
8
DEFAULT_255_2_778
10
55.5320617
20
39.8976067
11
55.5320617
21
9.5625067
0
LINE
8
DEFAULT_255_2_778
10
56.0320617
20
9.0625067
11
69.6721617
21
9.0625067
0
LINE
8
DEFAULT_255_2_778
10
69.6721617
20
9.0625067
11
69.6721617
21
40.3976067
0
LINE
8
DEFAULT_255_2_778
10
69.6721617
20
40.3976067
11
56.0320617
21
40.3976067
0
LINE
8
DEFAULT_255_2_778
10
72.1150617
20
42.8508067
11
72.0848617
21
42.6053067
0
LINE
8
DEFAULT_255_2_778
10
62.6310667
20
41.3704896
11
63.1536667
21
42.8632896
0
LINE
8
DEFAULT_255_2_778
10
63.1536667
20
42.8632896
11
63.3761667
21
42.8632896
0
LINE
8
DEFAULT_255_2_778
10
63.3761667
20
42.8632896
11
62.8538667
21
41.3704896
0
LINE
8
DEFAULT_255_2_778
10
62.8538667
20
41.3704896
11
62.6310667
21
41.3704896
0
LINE
8
DEFAULT_255_2_778
10
75.4748177
20
42.8876927
11
75.4748177
21
42.6524927
0
LINE
8
DEFAULT_255_2_778
10
75.4748177
20
42.6524927
11
75.0467177
21
42.6524927
0
LINE
8
DEFAULT_255_2_778
10
75.0467177
20
42.6524927
11
75.0467177
21
41.3956927
0
LINE
8
DEFAULT_255_2_778
10
75.0467177
20
41.3956927
11
74.7469177
21
41.3956927
0
LINE
8
DEFAULT_255_2_778
10
74.7469177
20
41.3956927
11
74.7469177
21
42.6524927
0
LINE
8
DEFAULT_255_2_778
10
74.7469177
20
42.6524927
11
74.3188177
21
42.6524927
0
LINE
8
DEFAULT_255_2_778
10
74.3188177
20
42.6524927
11
74.3188177
21
42.8876927
0
LINE
8
DEFAULT_255_2_778
10
74.3188177
20
42.8876927
11
75.4745177
21
42.8876927
0
LINE
8
DEFAULT_255_2_778
10
74.2587701
20
42.2304385
11
74.2587701
21
42.0031385
0
LINE
8
DEFAULT_255_2_778
10
74.2587701
20
42.0031385
11
73.6956701
21
42.0031385
0
LINE
8
DEFAULT_255_2_778
10
73.6956701
20
42.0031385
11
73.6956701
21
42.2304385
0
LINE
8
DEFAULT_255_2_778
10
73.6956701
20
42.2304385
11
74.2587701
21
42.2304385
0
LINE
8
DEFAULT_255_2_778
10
73.4247552
20
41.630625
11
73.4247552
21
41.395725
0
LINE
8
DEFAULT_255_2_778
10
73.4247552
20
41.395725
11
72.5386552
21
41.395725
0
LINE
8
DEFAULT_255_2_778
10
72.5386552
20
41.395725
11
72.5386552
21
42.887925
0
LINE
8
DEFAULT_255_2_778
10
72.5386552
20
42.887925
11
73.4205552
21
42.887925
0
LINE
8
DEFAULT_255_2_778
10
73.4205552
20
42.887925
11
73.4205552
21
42.652725
0
LINE
8
DEFAULT_255_2_778
10
73.4205552
20
42.652725
11
72.8384552
21
42.652725
0
LINE
8
DEFAULT_255_2_778
10
72.8384552
20
42.652725
11
72.8384552
21
42.285225
0
LINE
8
DEFAULT_255_2_778
10
72.8384552
20
42.285225
11
73.3712552
21
42.285225
0
LINE
8
DEFAULT_255_2_778
10
73.3712552
20
42.285225
11
73.3712552
21
42.050025
0
LINE
8
DEFAULT_255_2_778
10
73.3712552
20
42.050025
11
72.8384552
21
42.050025
0
LINE
8
DEFAULT_255_2_778
10
72.8384552
20
42.050025
11
72.8384552
21
41.630925
0
LINE
8
DEFAULT_255_2_778
10
72.8384552
20
41.630925
11
73.4247552
21
41.630925
0
LINE
8
DEFAULT_255_2_778
10
49.9517302
20
42.4992187
11
50.3885302
21
42.8384187
0
LINE
8
DEFAULT_255_2_778
10
50.3885302
20
42.8384187
11
50.6536302
21
42.8384187
0
LINE
8
DEFAULT_255_2_778
10
50.6536302
20
42.8384187
11
50.6536302
21
41.3954187
0
LINE
8
DEFAULT_255_2_778
10
50.6536302
20
41.3954187
11
50.3541302
21
41.3954187
0
LINE
8
DEFAULT_255_2_778
10
50.3541302
20
41.3954187
11
50.3541302
21
42.5095187
0
LINE
8
DEFAULT_255_2_778
10
50.3541302
20
42.5095187
11
50.1015302
21
42.3111187
0
LINE
8
DEFAULT_255_2_778
10
50.1015302
20
42.3111187
11
49.9517302
21
42.4992187
0
ARC
8
DEFAULT_255_2_778
10
57.052555
20
41.6554011
40
1.0035813
50
66.7997707
51
74.6786071
0
ARC
8
DEFAULT_255_2_778
10
57.1603518
20
42.0573656
40
0.5874237
50
74.4594678
51
87.0230589
0
ARC
8
DEFAULT_255_2_778
10
57.1730163
20
42.2155975
40
0.4287704
50
87.6150092
51
89.9850156
0
ARC
8
DEFAULT_255_2_778
10
57.1649328
20
42.3481372
40
0.2963441
50
88.4152259
51
121.7655605
0
ARC
8
DEFAULT_255_2_778
10
57.1563489
20
42.3730236
40
0.2707285
50
122.9938303
51
139.5893338
0
ARC
8
DEFAULT_255_2_778
10
57.1662363
20
42.433842
40
0.2445799
50
152.0368087
51
167.7185866
0
ARC
8
DEFAULT_255_2_778
10
57.0867702
20
42.4527281
40
0.1629225
50
168.2638207
51
179.7815005
0
ARC
8
DEFAULT_255_2_778
10
57.0776324
20
42.4582051
40
0.1538602
50
181.808482
51
239.0457986
0
ARC
8
DEFAULT_255_2_778
10
57.2499828
20
42.6980529
40
0.4488631
50
235.9248814
51
252.0834634
0
ARC
8
DEFAULT_255_2_778
10
57.3814666
20
43.0539532
40
0.8281
50
251.0025529
51
254.5893652
0
ARC
8
DEFAULT_255_2_778
10
56.8609929
20
41.3242869
40
0.9785933
50
60.8877227
51
72.1220633
0
ARC
8
DEFAULT_255_2_778
10
57.0892245
20
41.7248439
40
0.5176194
50
40.4099717
51
61.3879009
0
ARC
8
DEFAULT_255_2_778
10
57.2188082
20
41.8401769
40
0.3442073
50
359.2593429
51
39.7750019
0
ARC
8
DEFAULT_255_2_778
10
57.0835953
20
41.8387798
40
0.4794012
50
346.8540221
51
359.6351955
0
ARC
8
DEFAULT_255_2_778
10
56.8932524
20
41.8813261
40
0.674435
50
339.0997314
51
347.011944
0
ARC
8
DEFAULT_255_2_778
10
56.9769982
20
41.9400843
40
0.6229552
50
312.4644696
51
331.2790244
0
ARC
8
DEFAULT_255_2_778
10
57.0786764
20
41.8389305
40
0.4797351
50
268.5135813
51
311.6624095
0
ARC
8
DEFAULT_255_2_778
10
57.0712816
20
42.1197659
40
0.7604257
50
257.9368016
51
269.6195301
0
ARC
8
DEFAULT_255_2_778
10
57.1452893
20
42.4763226
40
1.1245777
50
249.9815088
51
258.0460113
0
ARC
8
DEFAULT_255_2_778
10
57.2886513
20
42.8817684
40
1.5546089
50
245.6880271
51
250.1323659
0
ARC
8
DEFAULT_255_2_778
10
38.6062096
20
43.7821251
40
18.1905802
50
352.6818372
51
353.4709406
0
ARC
8
DEFAULT_255_2_778
10
57.1468978
20
42.7045061
40
1.0957869
50
244.7119597
51
252.5556513
0
ARC
8
DEFAULT_255_2_778
10
57.0174657
20
42.2849027
40
0.6566846
50
252.3541783
51
264.7107425
0
ARC
8
DEFAULT_255_2_778
10
56.9960778
20
42.099258
40
0.4698773
50
265.2208576
51
269.9422093
0
ARC
8
DEFAULT_255_2_778
10
57.0060394
20
41.9474197
40
0.3182099
50
268.1206784
51
316.4871101
0
ARC
8
DEFAULT_255_2_778
10
57.0600982
20
41.8300179
40
0.203884
50
330.0813026
51
348.2156282
0
ARC
8
DEFAULT_255_2_778
10
57.1213178
20
41.8154101
40
0.140983
50
348.9460047
51
359.852231
0
ARC
8
DEFAULT_255_2_778
10
57.1128331
20
41.8089183
40
0.1495927
50
2.347839
51
55.5895305
0
ARC
8
DEFAULT_255_2_778
10
56.9271175
20
41.5781919
40
0.4454807
50
52.6519786
51
68.7045575
0
ARC
8
DEFAULT_255_2_778
10
56.7457794
20
41.1554237
40
0.9053716
50
67.7288826
51
72.9982144
0
ARC
8
DEFAULT_255_2_778
10
57.1680588
20
42.7242252
40
0.7204362
50
240.1554508
51
257.3682854
0
ARC
8
DEFAULT_255_2_778
10
56.9794339
20
42.4102126
40
0.3542755
50
183.7362786
51
241.3428355
0
ARC
8
DEFAULT_255_2_778
10
57.4459888
20
42.4076275
40
0.8203336
50
180.0073785
51
181.4320235
0
ARC
8
DEFAULT_255_2_778
10
57.1933582
20
42.4174824
40
0.5677904
50
161.6813608
51
181.0051761
0
ARC
8
DEFAULT_255_2_778
10
57.0025831
20
42.4748877
40
0.368681
50
103.9360827
51
160.832077
0
ARC
8
DEFAULT_255_2_778
10
57.1228236
20
42.1054769
40
0.7566853
50
91.8252219
51
106.0364445
0
ARC
8
DEFAULT_255_2_778
10
57.1472931
20
41.7486358
40
1.1142015
50
89.9699891
51
92.4984442
0
ARC
8
DEFAULT_255_2_778
10
57.1449935
20
41.4692686
40
1.3935715
50
85.2837999
51
89.8814586
0
ARC
8
DEFAULT_255_2_778
10
57.1093254
20
41.0224647
40
1.8417957
50
81.9185619
51
85.3207875
0
ARC
8
DEFAULT_255_2_778
10
57.0358453
20
40.5017923
40
2.3676275
50
79.0517277
51
81.9293541
0
LINE
8
DEFAULT_255_2_778
10
57.4855114
20
42.8263266
11
57.4553114
21
42.5847266
0
LINE
8
DEFAULT_255_2_778
10
60.9923209
20
41.395425
11
61.4826209
21
42.171425
0
LINE
8
DEFAULT_255_2_778
10
61.4826209
20
42.171425
11
61.0375209
21
42.887625
0
LINE
8
DEFAULT_255_2_778
10
61.0375209
20
42.887625
11
61.3844209
21
42.887625
0
LINE
8
DEFAULT_255_2_778
10
61.3844209
20
42.887625
11
61.6969209
21
42.355325
0
LINE
8
DEFAULT_255_2_778
10
61.6969209
20
42.355325
11
62.0160209
21
42.887625
0
LINE
8
DEFAULT_255_2_778
10
62.0160209
20
42.887625
11
62.3372209
21
42.887625
0
LINE
8
DEFAULT_255_2_778
10
62.3372209
20
42.887625
11
61.8874209
21
42.171425
0
LINE
8
DEFAULT_255_2_778
10
61.8874209
20
42.171425
11
62.3777209
21
41.395425
0
LINE
8
DEFAULT_255_2_778
10
62.3777209
20
41.395425
11
62.0244209
21
41.395425
0
LINE
8
DEFAULT_255_2_778
10
62.0244209
20
41.395425
11
61.6800209
21
41.976625
0
LINE
8
DEFAULT_255_2_778
10
61.6800209
20
41.976625
11
61.3307209
21
41.395425
0
LINE
8
DEFAULT_255_2_778
10
61.3307209
20
41.395425
11
60.9923209
21
41.395425
0
LINE
8
DEFAULT_255_2_778
10
60.8456854
20
42.887625
11
60.8456854
21
42.652425
0
LINE
8
DEFAULT_255_2_778
10
60.8456854
20
42.652425
11
60.4175854
21
42.652425
0
LINE
8
DEFAULT_255_2_778
10
60.4175854
20
42.652425
11
60.4175854
21
41.395425
0
LINE
8
DEFAULT_255_2_778
10
60.4175854
20
41.395425
11
60.1178854
21
41.395425
0
LINE
8
DEFAULT_255_2_778
10
60.1178854
20
41.395425
11
60.1178854
21
42.652425
0
LINE
8
DEFAULT_255_2_778
10
60.1178854
20
42.652425
11
59.6894854
21
42.652425
0
LINE
8
DEFAULT_255_2_778
10
59.6894854
20
42.652425
11
59.6894854
21
42.887625
0
LINE
8
DEFAULT_255_2_778
10
59.6894854
20
42.887625
11
60.8454854
21
42.887625
0
LINE
8
DEFAULT_255_2_778
10
59.6292156
20
42.2304385
11
59.6292156
21
42.0031385
0
LINE
8
DEFAULT_255_2_778
10
59.6292156
20
42.0031385
11
59.0664156
21
42.0031385
0
LINE
8
DEFAULT_255_2_778
10
59.0664156
20
42.0031385
11
59.0664156
21
42.2304385
0
LINE
8
DEFAULT_255_2_778
10
59.0664156
20
42.2304385
11
59.6292156
21
42.2304385
0
LINE
8
DEFAULT_255_2_778
10
58.7954552
20
41.630325
11
58.7954552
21
41.395425
0
LINE
8
DEFAULT_255_2_778
10
58.7954552
20
41.395425
11
57.9093552
21
41.395425
0
LINE
8
DEFAULT_255_2_778
10
57.9093552
20
41.395425
11
57.9093552
21
42.887625
0
LINE
8
DEFAULT_255_2_778
10
57.9093552
20
42.887625
11
58.7914552
21
42.887625
0
LINE
8
DEFAULT_255_2_778
10
58.7914552
20
42.887625
11
58.7914552
21
42.652425
0
LINE
8
DEFAULT_255_2_778
10
58.7914552
20
42.652425
11
58.2088552
21
42.652425
0
LINE
8
DEFAULT_255_2_778
10
58.2088552
20
42.652425
11
58.2088552
21
42.284925
0
LINE
8
DEFAULT_255_2_778
10
58.2088552
20
42.284925
11
58.7419552
21
42.284925
0
LINE
8
DEFAULT_255_2_778
10
58.7419552
20
42.284925
11
58.7419552
21
42.049725
0
LINE
8
DEFAULT_255_2_778
10
58.7419552
20
42.049725
11
58.2088552
21
42.049725
0
LINE
8
DEFAULT_255_2_778
10
58.2088552
20
42.049725
11
58.2088552
21
41.630625
0
LINE
8
DEFAULT_255_2_778
10
58.2088552
20
41.630625
11
58.7954552
21
41.630625
0
ARC
8
DEFAULT_255_2_778
10
63.9331105
20
42.1417401
40
1.6197761
50
359.5782336
51
8.7215257
0
ARC
8
DEFAULT_255_2_778
10
64.6836255
20
42.2625372
40
0.8596409
50
8.3484013
51
24.306643
0
ARC
8
DEFAULT_255_2_778
10
65.0589262
20
42.4420977
40
0.4437925
50
23.1236764
51
87.9772613
0
ARC
8
DEFAULT_255_2_778
10
65.0220041
20
42.1964989
40
0.6911181
50
85.6362189
51
90.0548274
0
ARC
8
DEFAULT_255_2_778
10
65.008292
20
42.272706
40
0.6150492
50
88.7841538
51
111.9181795
0
ARC
8
DEFAULT_255_2_778
10
64.9637436
20
42.4207921
40
0.4612487
50
113.6512428
51
161.4516452
0
ARC
8
DEFAULT_255_2_778
10
65.394529
20
42.250657
40
0.9240965
50
159.9471424
51
175.1082244
0
ARC
8
DEFAULT_255_2_778
10
65.994906
20
42.182718
40
1.5281691
50
174.4897633
51
180.1575219
0
ARC
8
DEFAULT_255_2_778
10
66.2903171
20
42.1660982
40
1.8236167
50
179.6098242
51
188.2201639
0
ARC
8
DEFAULT_255_2_778
10
65.460275
20
42.0410089
40
0.9842307
50
187.9217051
51
202.2637519
0
ARC
8
DEFAULT_255_2_778
10
65.0213842
20
41.8532843
40
0.5069908
50
201.4221416
51
233.83207
0
ARC
8
DEFAULT_255_2_778
10
64.9995772
20
41.8585458
40
0.498799
50
236.2116302
51
269.9669718
0
ARC
8
DEFAULT_255_2_778
10
65.0212336
20
42.0882789
40
0.7288623
50
268.2747305
51
270.008579
0
ARC
8
DEFAULT_255_2_778
10
65.0353425
20
41.8729185
40
0.5136927
50
268.4383114
51
298.0338721
0
ARC
8
DEFAULT_255_2_778
10
65.0419619
20
41.8193702
40
0.463719
50
300.4222522
51
338.234002
0
ARC
8
DEFAULT_255_2_778
10
64.6334691
20
42.0008189
40
0.9105324
50
337.1619088
51
352.0342148
0
ARC
8
DEFAULT_255_2_778
10
63.8659385
20
42.1181338
40
1.6869433
50
351.7007799
51
0.3900103
0
ARC
8
DEFAULT_255_2_778
10
65.0157817
20
42.4846921
40
0.1342516
50
92.4927235
51
159.341541
0
ARC
8
DEFAULT_255_2_778
10
65.3431769
20
42.3154067
40
0.5021542
50
154.4410759
51
170.4821581
0
ARC
8
DEFAULT_255_2_778
10
66.1460715
20
42.1634281
40
1.3192378
50
169.738426
51
177.4150684
0
ARC
8
DEFAULT_255_2_778
10
67.258239
20
42.0974512
40
2.4333002
50
177.0441894
51
180.102063
0
ARC
8
DEFAULT_255_2_778
10
66.516488
20
42.0816283
40
1.6915843
50
179.6108736
51
186.1402759
0
ARC
8
DEFAULT_255_2_778
10
65.5211877
20
41.9685152
40
0.6899213
50
185.6416743
51
198.2378022
0
ARC
8
DEFAULT_255_2_778
10
65.0690146
20
41.8116875
40
0.2115124
50
196.2228657
51
229.396829
0
ARC
8
DEFAULT_255_2_778
10
64.9994445
20
41.7404138
40
0.1123058
50
232.6810863
51
270.7419372
0
ARC
8
DEFAULT_255_2_778
10
65.0008408
20
41.766615
40
0.1384978
50
270.0239825
51
273.7681369
0
ARC
8
DEFAULT_255_2_778
10
65.0053257
20
41.7704146
40
0.142073
50
271.8623031
51
340.8590851
0
ARC
8
DEFAULT_255_2_778
10
64.669355
20
41.9335188
40
0.5148275
50
335.9647079
51
352.051181
0
ARC
8
DEFAULT_255_2_778
10
63.8619379
20
42.0629826
40
1.3324933
50
351.3389503
51
359.1780455
0
ARC
8
DEFAULT_255_2_778
10
63.0451793
20
42.0924435
40
2.1496636
50
358.7051768
51
0.0179406
0
ARC
8
DEFAULT_255_2_778
10
62.6001787
20
42.151591
40
2.5953228
50
358.7089783
51
359.8991761
0
ARC
8
DEFAULT_255_2_778
10
63.0163126
20
42.1503924
40
2.1791874
50
359.9114368
51
0.0032012
0
ARC
8
DEFAULT_255_2_778
10
63.5678886
20
42.1620699
40
1.6276524
50
359.5932166
51
6.4284706
0
ARC
8
DEFAULT_255_2_778
10
64.5168491
20
42.2746738
40
0.6720748
50
5.9469903
51
18.866585
0
ARC
8
DEFAULT_255_2_778
10
64.9476161
20
42.4295822
40
0.2144832
50
16.9186413
51
50.6119137
0
ARC
8
DEFAULT_255_2_778
10
65.0117154
20
42.4966843
40
0.1221454
50
53.8781245
51
90.8315719
0
LINE
8
DEFAULT_255_2_778
10
65.5528427
20
42.1296166
11
65.5528427
21
42.1298166
0
LINE
8
DEFAULT_255_2_778
10
65.0099427
20
42.6188166
11
65.0099427
21
42.6188166
0
ARC
8
DEFAULT_255_2_778
10
68.6123099
20
41.7973265
40
0.7125033
50
351.1537268
51
357.1758458
0
ARC
8
DEFAULT_255_2_778
10
68.7373398
20
41.7899211
40
0.5872617
50
357.2964471
51
359.9760112
0
ARC
8
DEFAULT_255_2_778
10
68.948855
20
41.801734
40
0.3759399
50
358.1618359
51
29.9465003
0
ARC
8
DEFAULT_255_2_778
10
68.986206
20
41.8035669
40
0.3430849
50
32.7962381
51
71.6128451
0
ARC
8
DEFAULT_255_2_778
10
68.880727
20
41.5496887
40
0.6175982
50
69.7560099
51
79.1542593
0
ARC
8
DEFAULT_255_2_778
10
68.9605648
20
42.4695769
40
0.315426
50
276.6216854
51
349.6266353
0
ARC
8
DEFAULT_255_2_778
10
68.705929
20
42.5559024
40
0.5827548
50
345.7829873
51
351.0811664
0
ARC
8
DEFAULT_255_2_778
10
68.5447418
20
42.4804836
40
0.737047
50
358.8394112
51
359.9947424
0
ARC
8
DEFAULT_255_2_778
10
68.8019709
20
42.4929172
40
0.4799808
50
358.5075507
51
22.8765959
0
ARC
8
DEFAULT_255_2_778
10
68.9409799
20
42.5378951
40
0.3346579
50
25.0342054
51
77.934185
0
ARC
8
DEFAULT_255_2_778
10
68.8302341
20
42.1500715
40
0.7375662
50
75.8183806
51
90.8336181
0
ARC
8
DEFAULT_255_2_778
10
68.8196213
20
41.8022288
40
1.0853309
50
90.0062264
51
91.1131024
0
ARC
8
DEFAULT_255_2_778
10
68.8015676
20
42.2147394
40
0.8551013
50
270.359815
51
285.3354237
0
ARC
8
DEFAULT_255_2_778
10
68.943628
20
41.7600005
40
0.3793525
50
282.8066125
51
349.0212858
0
ARC
8
DEFAULT_255_2_778
10
68.8003821
20
41.9421309
40
0.3454059
50
269.2461344
51
294.1401405
0
ARC
8
DEFAULT_255_2_778
10
68.8608599
20
41.7876811
40
0.1799063
50
296.6812884
51
5.157953
0
ARC
8
DEFAULT_255_2_778
10
68.7626486
20
41.8166029
40
0.2776818
50
357.3687241
51
29.5587525
0
ARC
8
DEFAULT_255_2_778
10
68.8367132
20
41.8392014
40
0.202812
50
34.3329626
51
88.8036953
0
ARC
8
DEFAULT_255_2_778
10
68.8012165
20
41.6245351
40
0.4193207
50
84.5630185
51
90.120097
0
LINE
8
DEFAULT_255_2_778
10
68.8003376
20
42.043855
11
68.6170376
21
42.043855
0
LINE
8
DEFAULT_255_2_778
10
68.6170376
20
42.043855
11
68.6170376
21
41.596755
0
ARC
8
DEFAULT_255_2_778
10
68.6994133
20
42.8062132
40
1.2122603
50
266.1036263
51
270.1051291
0
ARC
8
DEFAULT_255_2_778
10
68.6991619
20
43.2563244
40
1.6623713
50
270.0853278
51
273.3270288
0
ARC
8
DEFAULT_255_2_778
10
68.7820062
20
42.6000411
40
0.3313234
50
269.1407518
51
293.4359631
0
ARC
8
DEFAULT_255_2_778
10
68.8487198
20
42.4347455
40
0.1531971
50
295.1311371
51
4.5336883
0
ARC
8
DEFAULT_255_2_778
10
68.7901495
20
42.4601517
40
0.211706
50
356.3990349
51
37.9799065
0
ARC
8
DEFAULT_255_2_778
10
68.8127363
20
42.4508467
40
0.2007549
50
44.0514684
51
89.1096873
0
ARC
8
DEFAULT_255_2_778
10
68.7820309
20
42.2371842
40
0.4157714
50
85.3335833
51
90.0955369
0
LINE
8
DEFAULT_255_2_778
10
68.7813376
20
42.652955
11
68.6130376
21
42.652955
0
LINE
8
DEFAULT_255_2_778
10
68.6130376
20
42.652955
11
68.6130376
21
42.268755
0
ARC
8
DEFAULT_255_2_778
10
68.6886253
20
43.4569813
40
1.1906281
50
266.360095
51
270.0992406
0
ARC
8
DEFAULT_255_2_778
10
68.6883996
20
43.9032734
40
1.6369201
50
270.0800837
51
273.1040405
0
LINE
8
DEFAULT_255_2_778
10
68.7985376
20
42.887355
11
68.3410376
21
42.887355
0
LINE
8
DEFAULT_255_2_778
10
68.3410376
20
42.887355
11
68.3410376
21
41.359655
0
LINE
8
DEFAULT_255_2_778
10
68.3410376
20
41.359655
11
68.8069376
21
41.359655
0
LINE
8
DEFAULT_255_2_778
10
69.3160376
20
41.687755
11
69.3163376
21
41.687755
0
LINE
8
DEFAULT_255_2_778
10
68.7956376
20
41.596755
11
68.7958376
21
41.596755
0
LINE
8
DEFAULT_255_2_778
10
68.7770376
20
42.268755
11
68.7770376
21
42.268755
0
LINE
8
DEFAULT_255_2_778
10
69.5393667
20
41.395425
11
70.1216667
21
42.887625
0
LINE
8
DEFAULT_255_2_778
10
70.1216667
20
42.887625
11
70.4598667
21
42.887625
0
LINE
8
DEFAULT_255_2_778
10
70.4598667
20
42.887625
11
71.0464667
21
41.395425
0
LINE
8
DEFAULT_255_2_778
10
71.0464667
20
41.395425
11
70.7146667
21
41.395425
0
LINE
8
DEFAULT_255_2_778
10
70.7146667
20
41.395425
11
70.5860667
21
41.737525
0
LINE
8
DEFAULT_255_2_778
10
70.5860667
20
41.737525
11
69.9801667
21
41.737525
0
LINE
8
DEFAULT_255_2_778
10
69.9801667
20
41.737525
11
69.8494667
21
41.395425
0
LINE
8
DEFAULT_255_2_778
10
69.8494667
20
41.395425
11
69.5393667
21
41.395425
0
LINE
8
DEFAULT_255_2_778
10
70.2820667
20
42.588125
11
70.0658667
21
41.972425
0
LINE
8
DEFAULT_255_2_778
10
70.0658667
20
41.972425
11
70.5026667
21
41.972425
0
LINE
8
DEFAULT_255_2_778
10
70.5026667
20
41.972425
11
70.2865667
21
42.588125
0
LINE
8
DEFAULT_255_2_778
10
70.2865667
20
42.588125
11
70.2820667
21
42.588125
0
ARC
8
DEFAULT_255_2_778
10
50.5798904
20
42.129135
40
1.5697961
50
359.5721763
51
8.8595207
0
ARC
8
DEFAULT_255_2_778
10
51.3058707
20
42.2479545
40
0.8341966
50
8.4754396
51
24.7919161
0
ARC
8
DEFAULT_255_2_778
10
51.657061
20
42.4174412
40
0.4443525
50
23.9403943
51
88.7776474
0
ARC
8
DEFAULT_255_2_778
10
51.6186902
20
42.1562711
40
0.7070425
50
86.1194711
51
90.0443628
0
ARC
8
DEFAULT_255_2_778
10
51.6050082
20
42.2395418
40
0.62391
50
88.7937234
51
111.5828554
0
ARC
8
DEFAULT_255_2_778
10
51.5570546
20
42.397332
40
0.4597402
50
113.2594684
51
162.0950761
0
ARC
8
DEFAULT_255_2_778
10
51.9924438
20
42.2299928
40
0.925837
50
160.5242709
51
175.6350458
0
ARC
8
DEFAULT_255_2_778
10
52.5681191
20
42.1690046
40
1.5045803
50
174.9877657
51
180.1291361
0
ARC
8
DEFAULT_255_2_778
10
52.8211772
20
42.1530394
40
1.7576794
50
179.5901113
51
188.5074051
0
ARC
8
DEFAULT_255_2_778
10
52.0192169
20
42.0282142
40
0.9460894
50
188.2159896
51
202.9245576
0
ARC
8
DEFAULT_255_2_778
10
51.580369
20
41.8254075
40
0.4631767
50
200.9636057
51
265.131537
0
ARC
8
DEFAULT_255_2_778
10
51.6168245
20
42.0468258
40
0.6871135
50
263.6694072
51
270.1099244
0
ARC
8
DEFAULT_255_2_778
10
51.6318339
20
41.8831017
40
0.5235672
50
268.5015526
51
296.9434045
0
ARC
8
DEFAULT_255_2_778
10
51.6440188
20
41.8176856
40
0.460114
50
299.2824346
51
338.6733352
0
ARC
8
DEFAULT_255_2_778
10
51.2287405
20
41.9991804
40
0.9131401
50
337.5415788
51
352.6462834
0
ARC
8
DEFAULT_255_2_778
10
50.4840511
20
42.1075597
40
1.6656207
50
352.2275843
51
0.338965
0
ARC
8
DEFAULT_255_2_778
10
51.6125924
20
42.4631429
40
0.1356967
50
92.4706904
51
159.781116
0
ARC
8
DEFAULT_255_2_778
10
51.9396229
20
42.295617
40
0.5024196
50
154.7364785
51
170.4719738
0
ARC
8
DEFAULT_255_2_778
10
52.742656
20
42.1455363
40
1.319304
50
169.8168699
51
177.7287321
0
ARC
8
DEFAULT_255_2_778
10
53.8249441
20
42.0850288
40
2.4032039
50
177.3098794
51
180.0838081
0
ARC
8
DEFAULT_255_2_778
10
53.0593186
20
42.0702142
40
1.6376149
50
179.6046642
51
186.2407877
0
ARC
8
DEFAULT_255_2_778
10
52.0932845
20
41.9583792
40
0.6651769
50
185.7103905
51
198.7033862
0
ARC
8
DEFAULT_255_2_778
10
51.6565565
20
41.8024303
40
0.20165
50
196.5240246
51
231.6949732
0
ARC
8
DEFAULT_255_2_778
10
51.5961933
20
41.7375815
40
0.1135725
50
235.3155425
51
270.7612017
0
ARC
8
DEFAULT_255_2_778
10
51.5976413
20
41.7648447
40
0.1408256
50
270.02473
51
273.7055389
0
ARC
8
DEFAULT_255_2_778
10
51.6022308
20
41.7675379
40
0.1432954
50
271.804369
51
341.2393022
0
ARC
8
DEFAULT_255_2_778
10
51.2598648
20
41.9310942
40
0.5219961
50
336.3207073
51
352.4684292
0
ARC
8
DEFAULT_255_2_778
10
50.4273175
20
42.058195
40
1.3641248
50
351.7594077
51
359.6681935
0
ARC
8
DEFAULT_255_2_778
10
49.6463291
20
42.0812419
40
2.1453136
50
359.1734683
51
0.0072553
0
ARC
8
DEFAULT_255_2_778
10
49.280229
20
42.1390423
40
2.5120725
50
358.6877588
51
359.8975216
0
ARC
8
DEFAULT_255_2_778
10
49.6832811
20
42.1378631
40
2.1090188
50
359.9099723
51
0.0032566
0
ARC
8
DEFAULT_255_2_778
10
50.2166273
20
42.1493462
40
1.5757136
50
359.586809
51
6.5336586
0
ARC
8
DEFAULT_255_2_778
10
51.1336199
20
42.259923
40
0.6521179
50
6.0489357
51
19.1594671
0
ARC
8
DEFAULT_255_2_778
10
51.5503447
20
42.4125919
40
0.2085033
50
17.1134725
51
52.0099765
0
ARC
8
DEFAULT_255_2_778
10
51.6085665
20
42.4751126
40
0.1236145
50
55.4431767
51
90.8453578
0
LINE
8
DEFAULT_255_2_778
10
52.1496427
20
42.1174135
11
52.1496427
21
42.1174135
0
LINE
8
DEFAULT_255_2_778
10
51.6067427
20
42.5987135
11
51.6067427
21
42.5987135
0
ARC
8
DEFAULT_255_2_778
10
51.8670904
20
42.129135
40
1.5697961
50
359.5721763
51
8.8595207
0
ARC
8
DEFAULT_255_2_778
10
52.5930707
20
42.2479545
40
0.8341966
50
8.4754396
51
24.7919161
0
ARC
8
DEFAULT_255_2_778
10
52.944261
20
42.4174412
40
0.4443525
50
23.9403943
51
88.7776474
0
ARC
8
DEFAULT_255_2_778
10
52.9058902
20
42.1562711
40
0.7070425
50
86.1194711
51
90.0443628
0
ARC
8
DEFAULT_255_2_778
10
52.8922082
20
42.2395418
40
0.62391
50
88.7937234
51
111.5828554
0
ARC
8
DEFAULT_255_2_778
10
52.8442546
20
42.397332
40
0.4597402
50
113.2594684
51
162.0950761
0
ARC
8
DEFAULT_255_2_778
10
53.2796438
20
42.2299928
40
0.925837
50
160.5242709
51
175.6350458
0
ARC
8
DEFAULT_255_2_778
10
53.8553191
20
42.1690046
40
1.5045803
50
174.9877657
51
180.1291361
0
ARC
8
DEFAULT_255_2_778
10
54.1083772
20
42.1530394
40
1.7576794
50
179.5901113
51
188.5074051
0
ARC
8
DEFAULT_255_2_778
10
53.3064169
20
42.0282142
40
0.9460894
50
188.2159896
51
202.9245576
0
ARC
8
DEFAULT_255_2_778
10
52.867569
20
41.8254075
40
0.4631767
50
200.9636057
51
265.131537
0
ARC
8
DEFAULT_255_2_778
10
52.9040245
20
42.0468258
40
0.6871135
50
263.6694072
51
270.1099244
0
ARC
8
DEFAULT_255_2_778
10
52.9190339
20
41.8831017
40
0.5235672
50
268.5015526
51
296.9434045
0
ARC
8
DEFAULT_255_2_778
10
52.9312188
20
41.8176856
40
0.460114
50
299.2824346
51
338.6733352
0
ARC
8
DEFAULT_255_2_778
10
52.5159405
20
41.9991804
40
0.9131401
50
337.5415788
51
352.6462834
0
ARC
8
DEFAULT_255_2_778
10
51.7712511
20
42.1075597
40
1.6656207
50
352.2275843
51
0.338965
0
ARC
8
DEFAULT_255_2_778
10
52.8997924
20
42.4631429
40
0.1356967
50
92.4706904
51
159.781116
0
ARC
8
DEFAULT_255_2_778
10
53.2268229
20
42.295617
40
0.5024196
50
154.7364785
51
170.4719738
0
ARC
8
DEFAULT_255_2_778
10
54.029856
20
42.1455363
40
1.319304
50
169.8168699
51
177.7287321
0
ARC
8
DEFAULT_255_2_778
10
55.1121441
20
42.0850288
40
2.4032039
50
177.3098794
51
180.0838081
0
ARC
8
DEFAULT_255_2_778
10
54.3465186
20
42.0702142
40
1.6376149
50
179.6046642
51
186.2407877
0
ARC
8
DEFAULT_255_2_778
10
53.3804845
20
41.9583792
40
0.6651769
50
185.7103905
51
198.7033862
0
ARC
8
DEFAULT_255_2_778
10
52.9437565
20
41.8024303
40
0.20165
50
196.5240246
51
231.6949732
0
ARC
8
DEFAULT_255_2_778
10
52.8833933
20
41.7375815
40
0.1135725
50
235.3155425
51
270.7612017
0
ARC
8
DEFAULT_255_2_778
10
52.8848413
20
41.7648447
40
0.1408256
50
270.02473
51
273.7055389
0
ARC
8
DEFAULT_255_2_778
10
52.8894308
20
41.7675379
40
0.1432954
50
271.804369
51
341.2393022
0
ARC
8
DEFAULT_255_2_778
10
52.5470648
20
41.9310942
40
0.5219961
50
336.3207073
51
352.4684292
0
ARC
8
DEFAULT_255_2_778
10
51.7145175
20
42.058195
40
1.3641248
50
351.7594077
51
359.6681935
0
ARC
8
DEFAULT_255_2_778
10
50.9335291
20
42.0812419
40
2.1453136
50
359.1734683
51
0.0072553
0
ARC
8
DEFAULT_255_2_778
10
50.567429
20
42.1390423
40
2.5120725
50
358.6877588
51
359.8975216
0
ARC
8
DEFAULT_255_2_778
10
50.9704811
20
42.1378631
40
2.1090188
50
359.9099723
51
0.0032566
0
ARC
8
DEFAULT_255_2_778
10
51.5038273
20
42.1493462
40
1.5757136
50
359.586809
51
6.5336586
0
ARC
8
DEFAULT_255_2_778
10
52.4208199
20
42.259923
40
0.6521179
50
6.0489357
51
19.1594671
0
ARC
8
DEFAULT_255_2_778
10
52.8375447
20
42.4125919
40
0.2085033
50
17.1134725
51
52.0099765
0
ARC
8
DEFAULT_255_2_778
10
52.8957665
20
42.4751126
40
0.1236145
50
55.4431767
51
90.8453578
0
LINE
8
DEFAULT_255_2_778
10
53.4368427
20
42.1174135
11
53.4368427
21
42.1174135
0
LINE
8
DEFAULT_255_2_778
10
52.8939427
20
42.5987135
11
52.8939427
21
42.5987135
0
ARC
8
DEFAULT_255_2_778
10
53.9833099
20
41.7973265
40
0.7125033
50
351.1537268
51
357.1758458
0
ARC
8
DEFAULT_255_2_778
10
54.1083398
20
41.7899211
40
0.5872617
50
357.2964471
51
359.9760112
0
ARC
8
DEFAULT_255_2_778
10
54.319855
20
41.801734
40
0.3759399
50
358.1618359
51
29.9465003
0
ARC
8
DEFAULT_255_2_778
10
54.357206
20
41.8035669
40
0.3430849
50
32.7962381
51
71.6128451
0
ARC
8
DEFAULT_255_2_778
10
54.251727
20
41.5496887
40
0.6175982
50
69.7560099
51
79.1542593
0
ARC
8
DEFAULT_255_2_778
10
54.3315648
20
42.4695769
40
0.315426
50
276.6216854
51
349.6266353
0
ARC
8
DEFAULT_255_2_778
10
54.076929
20
42.5559024
40
0.5827548
50
345.7829873
51
351.0811664
0
ARC
8
DEFAULT_255_2_778
10
53.9157418
20
42.4804836
40
0.737047
50
358.8394112
51
359.9947424
0
ARC
8
DEFAULT_255_2_778
10
54.1729709
20
42.4929172
40
0.4799808
50
358.5075507
51
22.8765959
0
ARC
8
DEFAULT_255_2_778
10
54.3119799
20
42.5378951
40
0.3346579
50
25.0342054
51
77.934185
0
ARC
8
DEFAULT_255_2_778
10
54.2012341
20
42.1500715
40
0.7375662
50
75.8183806
51
90.8336181
0
ARC
8
DEFAULT_255_2_778
10
54.1906213
20
41.8022288
40
1.0853309
50
90.0062264
51
91.1131024
0
ARC
8
DEFAULT_255_2_778
10
54.1725676
20
42.2147394
40
0.8551013
50
270.359815
51
285.3354237
0
ARC
8
DEFAULT_255_2_778
10
54.314628
20
41.7600005
40
0.3793525
50
282.8066125
51
349.0212858
0
ARC
8
DEFAULT_255_2_778
10
54.1713821
20
41.9421309
40
0.3454059
50
269.2461344
51
294.1401405
0
ARC
8
DEFAULT_255_2_778
10
54.2318599
20
41.7876811
40
0.1799063
50
296.6812884
51
5.157953
0
ARC
8
DEFAULT_255_2_778
10
54.1336486
20
41.8166029
40
0.2776818
50
357.3687241
51
29.5587525
0
ARC
8
DEFAULT_255_2_778
10
54.2077132
20
41.8392014
40
0.202812
50
34.3329626
51
88.8036953
0
ARC
8
DEFAULT_255_2_778
10
54.1722165
20
41.6245351
40
0.4193207
50
84.5630185
51
90.120097
0
LINE
8
DEFAULT_255_2_778
10
54.1713376
20
42.043855
11
53.9882376
21
42.043855
0
LINE
8
DEFAULT_255_2_778
10
53.9882376
20
42.043855
11
53.9882376
21
41.596755
0
ARC
8
DEFAULT_255_2_778
10
54.0706133
20
42.8062132
40
1.2122603
50
266.1036263
51
270.1051291
0
ARC
8
DEFAULT_255_2_778
10
54.0703619
20
43.2563244
40
1.6623713
50
270.0853278
51
273.3270288
0
ARC
8
DEFAULT_255_2_778
10
54.1528022
20
42.5997667
40
0.331049
50
269.1407287
51
293.4458057
0
ARC
8
DEFAULT_255_2_778
10
54.2194111
20
42.4347336
40
0.1532067
50
295.1492111
51
4.537856
0
ARC
8
DEFAULT_255_2_778
10
54.1608495
20
42.4601517
40
0.211706
50
356.3990349
51
37.9799065
0
ARC
8
DEFAULT_255_2_778
10
54.1834363
20
42.4508467
40
0.2007549
50
44.0514684
51
89.1096873
0
ARC
8
DEFAULT_255_2_778
10
54.1527309
20
42.2371842
40
0.4157714
50
85.3335833
51
90.0955369
0
LINE
8
DEFAULT_255_2_778
10
54.1520376
20
42.652955
11
53.9837376
21
42.652955
0
LINE
8
DEFAULT_255_2_778
10
53.9837376
20
42.652955
11
53.9837376
21
42.268755
0
ARC
8
DEFAULT_255_2_778
10
54.059339
20
43.4574032
40
1.19105
50
266.3607292
51
270.0997524
0
ARC
8
DEFAULT_255_2_778
10
54.0591114
20
43.9065222
40
1.6401688
50
270.0803883
51
273.1009739
0
LINE
8
DEFAULT_255_2_778
10
54.1695376
20
42.887355
11
53.7120376
21
42.887355
0
LINE
8
DEFAULT_255_2_778
10
53.7120376
20
42.887355
11
53.7120376
21
41.359655
0
LINE
8
DEFAULT_255_2_778
10
53.7120376
20
41.359655
11
54.1779376
21
41.359655
0
LINE
8
DEFAULT_255_2_778
10
54.6870376
20
41.687755
11
54.6873376
21
41.687755
0
LINE
8
DEFAULT_255_2_778
10
54.1668376
20
41.596755
11
54.1668376
21
41.596755
0
LINE
8
DEFAULT_255_2_778
10
54.1478376
20
42.268755
11
54.1478376
21
42.268755
0
LINE
8
DEFAULT_255_2_778
10
54.9097667
20
41.395425
11
55.4920667
21
42.887625
0
LINE
8
DEFAULT_255_2_778
10
55.4920667
20
42.887625
11
55.8302667
21
42.887625
0
LINE
8
DEFAULT_255_2_778
10
55.8302667
20
42.887625
11
56.4168667
21
41.395425
0
LINE
8
DEFAULT_255_2_778
10
56.4168667
20
41.395425
11
56.0850667
21
41.395425
0
LINE
8
DEFAULT_255_2_778
10
56.0850667
20
41.395425
11
55.9564667
21
41.737525
0
LINE
8
DEFAULT_255_2_778
10
55.9564667
20
41.737525
11
55.3505667
21
41.737525
0
LINE
8
DEFAULT_255_2_778
10
55.3505667
20
41.737525
11
55.2201667
21
41.395425
0
LINE
8
DEFAULT_255_2_778
10
55.2201667
20
41.395425
11
54.9097667
21
41.395425
0
LINE
8
DEFAULT_255_2_778
10
55.6526667
20
42.588125
11
55.4365667
21
41.972425
0
LINE
8
DEFAULT_255_2_778
10
55.4365667
20
41.972425
11
55.8733667
21
41.972425
0
LINE
8
DEFAULT_255_2_778
10
55.8733667
20
41.972425
11
55.6571667
21
42.588125
0
LINE
8
DEFAULT_255_2_778
10
55.6571667
20
42.588125
11
55.6526667
21
42.588125
0
LINE
8
DEFAULT_255_2_778
10
63.6736229
20
42.2748844
11
63.5532229
21
42.5505844
0
LINE
8
DEFAULT_255_2_778
10
63.5532229
20
42.5505844
11
63.8969229
21
42.8876844
0
LINE
8
DEFAULT_255_2_778
10
63.8969229
20
42.8876844
11
64.1348229
21
42.8876844
0
LINE
8
DEFAULT_255_2_778
10
64.1348229
20
42.8876844
11
64.1348229
21
41.3596844
0
LINE
8
DEFAULT_255_2_778
10
64.1348229
20
41.3596844
11
63.8651229
21
41.3596844
0
LINE
8
DEFAULT_255_2_778
10
63.8651229
20
41.3596844
11
63.8651229
21
42.4804844
0
LINE
8
DEFAULT_255_2_778
10
63.8651229
20
42.4804844
11
63.6736229
21
42.2748844
0
ARC
8
DEFAULT_255_2_778
10
66.5639105
20
42.1417401
40
1.6197761
50
359.5782336
51
8.7215257
0
ARC
8
DEFAULT_255_2_778
10
67.3144255
20
42.2625372
40
0.8596409
50
8.3484013
51
24.306643
0
ARC
8
DEFAULT_255_2_778
10
67.6897262
20
42.4420977
40
0.4437925
50
23.1236764
51
87.9772613
0
ARC
8
DEFAULT_255_2_778
10
67.6528041
20
42.1964989
40
0.6911181
50
85.6362189
51
90.0548274
0
ARC
8
DEFAULT_255_2_778
10
67.639092
20
42.272706
40
0.6150492
50
88.7841538
51
111.9181795
0
ARC
8
DEFAULT_255_2_778
10
67.5945436
20
42.4207921
40
0.4612487
50
113.6512428
51
161.4516452
0
ARC
8
DEFAULT_255_2_778
10
68.025329
20
42.250657
40
0.9240965
50
159.9471424
51
175.1082244
0
ARC
8
DEFAULT_255_2_778
10
68.625706
20
42.182718
40
1.5281691
50
174.4897633
51
180.1575219
0
ARC
8
DEFAULT_255_2_778
10
68.9211171
20
42.1660982
40
1.8236167
50
179.6098242
51
188.2201639
0
ARC
8
DEFAULT_255_2_778
10
68.091075
20
42.0410089
40
0.9842307
50
187.9217051
51
202.2637519
0
ARC
8
DEFAULT_255_2_778
10
67.6521842
20
41.8532843
40
0.5069908
50
201.4221416
51
233.83207
0
ARC
8
DEFAULT_255_2_778
10
67.6303772
20
41.8585458
40
0.498799
50
236.2116302
51
269.9669718
0
ARC
8
DEFAULT_255_2_778
10
67.6520336
20
42.0882789
40
0.7288623
50
268.2747305
51
270.008579
0
ARC
8
DEFAULT_255_2_778
10
67.6661425
20
41.8729185
40
0.5136927
50
268.4383114
51
298.0338721
0
ARC
8
DEFAULT_255_2_778
10
67.6727619
20
41.8193702
40
0.463719
50
300.4222522
51
338.234002
0
ARC
8
DEFAULT_255_2_778
10
67.2642691
20
42.0008189
40
0.9105324
50
337.1619088
51
352.0342148
0
ARC
8
DEFAULT_255_2_778
10
66.4967385
20
42.1181338
40
1.6869433
50
351.7007799
51
0.3900103
0
ARC
8
DEFAULT_255_2_778
10
67.6462989
20
42.484762
40
0.1341825
50
92.5013855
51
159.3623132
0
ARC
8
DEFAULT_255_2_778
10
67.9739764
20
42.315417
40
0.5023616
50
154.453692
51
170.4873165
0
ARC
8
DEFAULT_255_2_778
10
68.7773918
20
42.1634253
40
1.3199594
50
169.7439702
51
177.4163581
0
ARC
8
DEFAULT_255_2_778
10
69.8900606
20
42.0974582
40
2.4345216
50
177.0458394
51
180.1021773
0
ARC
8
DEFAULT_255_2_778
10
69.1479938
20
42.0816265
40
1.6924901
50
179.6110234
51
186.1369187
0
ARC
8
DEFAULT_255_2_778
10
68.1520952
20
41.968507
40
0.6902317
50
185.6384422
51
198.2285889
0
ARC
8
DEFAULT_255_2_778
10
67.6996123
20
41.8116523
40
0.2115216
50
196.2122008
51
229.3792626
0
ARC
8
DEFAULT_255_2_778
10
67.6299528
20
41.7403124
40
0.1122045
50
232.6635694
51
270.7408594
0
ARC
8
DEFAULT_255_2_778
10
67.6313458
20
41.7664587
40
0.1383415
50
270.0239446
51
273.7703057
0
ARC
8
DEFAULT_255_2_778
10
67.6358453
20
41.7704865
40
0.1421442
50
271.8534571
51
340.8383989
0
ARC
8
DEFAULT_255_2_778
10
67.3001473
20
41.9335339
40
0.5146308
50
335.9530974
51
352.0464244
0
ARC
8
DEFAULT_255_2_778
10
66.4932021
20
42.062987
40
1.3318289
50
351.3344071
51
359.177448
0
ARC
8
DEFAULT_255_2_778
10
65.6773232
20
42.0924351
40
2.1481197
50
358.7044723
51
0.0181798
0
ARC
8
DEFAULT_255_2_778
10
65.2289302
20
42.1511076
40
2.59716
50
358.720558
51
359.900571
0
ARC
8
DEFAULT_255_2_778
10
65.3221825
20
42.1500674
40
2.5039064
50
359.9206706
51
359.9999267
0
ARC
8
DEFAULT_255_2_778
10
66.1961282
20
42.1616314
40
1.6300019
50
359.5934017
51
6.4253481
0
ARC
8
DEFAULT_255_2_778
10
67.1465071
20
42.2743489
40
0.6730024
50
5.9439977
51
18.8578723
0
ARC
8
DEFAULT_255_2_778
10
67.5778793
20
42.4293831
40
0.2147978
50
16.9146461
51
50.5615582
0
ARC
8
DEFAULT_255_2_778
10
67.6422154
20
42.4966682
40
0.1221612
50
53.8203804
51
90.8314312
0
LINE
8
DEFAULT_255_2_778
10
68.1836427
20
42.1296166
11
68.1836427
21
42.1298166
0
LINE
8
DEFAULT_255_2_778
10
67.6404427
20
42.6188166
11
67.6404427
21
42.6188166
0
ARC
8
DEFAULT_255_2_778
10
65.2410105
20
42.1417401
40
1.6197761
50
359.5782336
51
8.7215257
0
ARC
8
DEFAULT_255_2_778
10
65.9915255
20
42.2625372
40
0.8596409
50
8.3484013
51
24.306643
0
ARC
8
DEFAULT_255_2_778
10
66.3668262
20
42.4420977
40
0.4437925
50
23.1236764
51
87.9772613
0
ARC
8
DEFAULT_255_2_778
10
66.3299041
20
42.1964989
40
0.6911181
50
85.6362189
51
90.0548274
0
ARC
8
DEFAULT_255_2_778
10
66.316192
20
42.272706
40
0.6150492
50
88.7841538
51
111.9181795
0
ARC
8
DEFAULT_255_2_778
10
66.2716436
20
42.4207921
40
0.4612487
50
113.6512428
51
161.4516452
0
ARC
8
DEFAULT_255_2_778
10
66.702429
20
42.250657
40
0.9240965
50
159.9471424
51
175.1082244
0
ARC
8
DEFAULT_255_2_778
10
67.302806
20
42.182718
40
1.5281691
50
174.4897633
51
180.1575219
0
ARC
8
DEFAULT_255_2_778
10
67.5982171
20
42.1660982
40
1.8236167
50
179.6098242
51
188.2201639
0
ARC
8
DEFAULT_255_2_778
10
66.768175
20
42.0410089
40
0.9842307
50
187.9217051
51
202.2637519
0
ARC
8
DEFAULT_255_2_778
10
66.3292842
20
41.8532843
40
0.5069908
50
201.4221416
51
233.83207
0
ARC
8
DEFAULT_255_2_778
10
66.3074772
20
41.8585458
40
0.498799
50
236.2116302
51
269.9669718
0
ARC
8
DEFAULT_255_2_778
10
66.3291336
20
42.0882789
40
0.7288623
50
268.2747305
51
270.008579
0
ARC
8
DEFAULT_255_2_778
10
66.3432425
20
41.8729185
40
0.5136927
50
268.4383114
51
298.0338721
0
ARC
8
DEFAULT_255_2_778
10
66.3498619
20
41.8193702
40
0.463719
50
300.4222522
51
338.234002
0
ARC
8
DEFAULT_255_2_778
10
65.9413691
20
42.0008189
40
0.9105324
50
337.1619088
51
352.0342148
0
ARC
8
DEFAULT_255_2_778
10
65.1738385
20
42.1181338
40
1.6869433
50
351.7007799
51
0.3900103
0
ARC
8
DEFAULT_255_2_778
10
66.3233989
20
42.484762
40
0.1341825
50
92.5013855
51
159.3623132
0
ARC
8
DEFAULT_255_2_778
10
66.6510764
20
42.315417
40
0.5023616
50
154.453692
51
170.4873165
0
ARC
8
DEFAULT_255_2_778
10
67.4544918
20
42.1634253
40
1.3199594
50
169.7439702
51
177.4163581
0
ARC
8
DEFAULT_255_2_778
10
68.5671606
20
42.0974582
40
2.4345216
50
177.0458394
51
180.1021773
0
ARC
8
DEFAULT_255_2_778
10
67.8250938
20
42.0816265
40
1.6924901
50
179.6110234
51
186.1369187
0
ARC
8
DEFAULT_255_2_778
10
66.8291952
20
41.968507
40
0.6902317
50
185.6384422
51
198.2285889
0
ARC
8
DEFAULT_255_2_778
10
66.3767123
20
41.8116523
40
0.2115216
50
196.2122008
51
229.3792626
0
ARC
8
DEFAULT_255_2_778
10
66.3070528
20
41.7403124
40
0.1122045
50
232.6635694
51
270.7408594
0
ARC
8
DEFAULT_255_2_778
10
66.3084458
20
41.7664587
40
0.1383415
50
270.0239446
51
273.7703057
0
ARC
8
DEFAULT_255_2_778
10
66.3129453
20
41.7704865
40
0.1421442
50
271.8534571
51
340.8383989
0
ARC
8
DEFAULT_255_2_778
10
65.9772473
20
41.9335339
40
0.5146308
50
335.9530974
51
352.0464244
0
ARC
8
DEFAULT_255_2_778
10
65.1703021
20
42.062987
40
1.3318289
50
351.3344071
51
359.177448
0
ARC
8
DEFAULT_255_2_778
10
64.3544232
20
42.0924351
40
2.1481197
50
358.7044723
51
0.0181798
0
ARC
8
DEFAULT_255_2_778
10
63.9060302
20
42.1511076
40
2.59716
50
358.720558
51
359.900571
0
ARC
8
DEFAULT_255_2_778
10
63.9992825
20
42.1500674
40
2.5039064
50
359.9206706
51
359.9999267
0
ARC
8
DEFAULT_255_2_778
10
64.8732282
20
42.1616314
40
1.6300019
50
359.5934017
51
6.4253481
0
ARC
8
DEFAULT_255_2_778
10
65.8236071
20
42.2743489
40
0.6730024
50
5.9439977
51
18.8578723
0
ARC
8
DEFAULT_255_2_778
10
66.2549793
20
42.4293831
40
0.2147978
50
16.9146461
51
50.5615582
0
ARC
8
DEFAULT_255_2_778
10
66.3193154
20
42.4966682
40
0.1221612
50
53.8203804
51
90.8314312
0
LINE
8
DEFAULT_255_2_778
10
66.8607427
20
42.1296166
11
66.8607427
21
42.1298166
0
LINE
8
DEFAULT_255_2_778
10
66.3175427
20
42.6188166
11
66.3175427
21
42.6188166
0
ARC
8
DEFAULT_255_2_778
10
4.5387675
20
72.2923968
40
0.9364303
50
220.2746517
51
229.5650804
0
ARC
8
DEFAULT_255_2_778
10
4.5942107
20
72.3618902
40
1.0252884
50
229.7255793
51
252.0079117
0
ARC
8
DEFAULT_255_2_778
10
4.7521143
20
72.5996388
40
0.9822559
50
275.1849746
51
291.6757443
0
ARC
8
DEFAULT_255_2_778
10
4.6854685
20
73.1523649
40
1.5388307
50
269.8527538
51
275.7964482
0
ARC
8
DEFAULT_255_2_778
10
4.6683979
20
72.7144036
40
1.1009426
50
254.2656317
51
270.6826022
0
ARC
8
DEFAULT_255_2_778
10
4.6026603
20
72.4484122
40
0.8271388
50
247.0332901
51
253.6521228
0
ARC
8
DEFAULT_255_2_778
10
4.7603644
20
72.4454959
40
1.1225391
50
289.4533432
51
297.1047241
0
ARC
8
DEFAULT_255_2_778
10
5.6717022
20
71.1875276
40
0.5000116
50
0.0013268
51
90.0101312
0
ARC
8
DEFAULT_255_2_778
10
5.6716169
20
71.1875362
40
0.5000969
50
269.9996485
51
0.0003515
0
ARC
8
DEFAULT_255_2_778
10
2.1802513
20
95.71933
40
0.7413361
50
295.4151805
51
346.9957236
0
ARC
8
DEFAULT_255_2_778
10
1.6190017
20
95.8838607
40
1.3256512
50
345.5253396
51
358.9828911
0
ARC
8
DEFAULT_255_2_778
10
1.1534899
20
95.909316
40
1.7916239
50
358.4332139
51
0.0103375
0
ARC
8
DEFAULT_255_2_778
10
1.6890146
20
95.9225149
40
1.2561652
50
359.4127099
51
12.8333656
0
ARC
8
DEFAULT_255_2_778
10
2.2021386
20
96.0461435
40
0.7284285
50
12.3168048
51
39.567251
0
ARC
8
DEFAULT_255_2_778
10
2.2476016
20
96.0582214
40
0.6859702
50
41.2086284
51
73.5990166
0
ARC
8
DEFAULT_255_2_778
10
2.0973662
20
95.5957898
40
1.1720836
50
72.9365796
51
86.9475988
0
ARC
8
DEFAULT_255_2_778
10
2.0537645
20
95.0801369
40
1.6894032
50
86.4021834
51
90.055983
0
ARC
8
DEFAULT_255_2_778
10
2.0392929
20
95.5567175
40
1.2128895
50
89.3943424
51
103.3187313
0
ARC
8
DEFAULT_255_2_778
10
1.9157872
20
96.046427
40
0.7079379
50
102.7221961
51
133.2297905
0
ARC
8
DEFAULT_255_2_778
10
1.9396666
20
96.0512211
40
0.7210973
50
134.8733701
51
163.5139081
0
ARC
8
DEFAULT_255_2_778
10
2.421766
20
95.8961137
40
1.2274515
50
162.9575236
51
176.4697833
0
ARC
8
DEFAULT_255_2_778
10
2.9825739
20
95.8458075
40
1.7903616
50
175.9680111
51
180.0725915
0
ARC
8
DEFAULT_255_2_778
10
2.5366902
20
95.8815664
40
1.345014
50
181.6201204
51
194.4589764
0
ARC
8
DEFAULT_255_2_778
10
2.0044424
20
95.7380284
40
0.7938084
50
194.0189439
51
218.7959803
0
ARC
8
DEFAULT_255_2_778
10
1.9294112
20
95.7015122
40
0.7126927
50
220.2874993
51
254.958503
0
ARC
8
DEFAULT_255_2_778
10
2.0721027
20
96.1755456
40
1.2076063
50
254.2571376
51
268.4833217
0
ARC
8
DEFAULT_255_2_778
10
2.1012932
20
96.6327476
40
1.6655085
50
267.8957651
51
270.0179088
0
ARC
8
DEFAULT_255_2_778
10
2.0488954
20
96.1028849
40
0.3365093
50
86.7089377
51
157.9946259
0
ARC
8
DEFAULT_255_2_778
10
2.393242
20
95.9445853
40
0.7153037
50
156.5732816
51
173.133348
0
ARC
8
DEFAULT_255_2_778
10
3.0434437
20
95.851472
40
1.3720528
50
172.5191456
51
180.3312678
0
ARC
8
DEFAULT_255_2_778
10
2.8152592
20
95.9025995
40
1.1453692
50
182.9557358
51
194.0496599
0
ARC
8
DEFAULT_255_2_778
10
2.2201526
20
95.7472334
40
0.5303844
50
193.3746124
51
215.1294235
0
ARC
8
DEFAULT_255_2_778
10
2.0381213
20
95.6256023
40
0.3115641
50
216.098403
51
272.518824
0
ARC
8
DEFAULT_255_2_778
10
2.0498902
20
95.7081525
40
0.393818
50
270.2798623
51
310.1147987
0
ARC
8
DEFAULT_255_2_778
10
2.0037585
20
95.7291032
40
0.4401031
50
312.9514925
51
344.0387184
0
ARC
8
DEFAULT_255_2_778
10
1.5461113
20
95.8759398
40
0.9206129
50
343.0846895
51
356.9426983
0
ARC
8
DEFAULT_255_2_778
10
1.2502479
20
95.8391301
40
1.215228
50
359.4204986
51
10.52224
0
ARC
8
DEFAULT_255_2_778
10
1.858612
20
95.9581595
40
0.5953868
50
9.9515629
51
30.9603871
0
ARC
8
DEFAULT_255_2_778
10
2.0548881
20
96.0683388
40
0.3704511
50
31.9645269
51
87.8921104
0
LINE
8
DEFAULT_255_2_778
10
5.2718138
20
71.3875392
11
5.2718138
21
71.6875392
0
LINE
8
DEFAULT_255_2_778
10
5.6517138
20
71.3875392
11
5.6517138
21
71.6875392
0
LINE
8
DEFAULT_255_2_778
10
6.1240138
20
71.3875392
11
1.6716138
21
71.3875392
0
LINE
8
DEFAULT_255_2_778
10
1.6716138
20
71.3875392
11
1.6716138
21
71.6875392
0
LINE
8
DEFAULT_255_2_778
10
5.5216138
20
71.6875392
11
5.5216138
21
71.3875392
0
LINE
8
DEFAULT_255_2_778
10
0.1717138
20
71.6875392
11
5.6716138
21
71.6875392
0
LINE
8
DEFAULT_255_2_778
10
5.6716138
20
70.6874392
11
0.1717138
21
70.6874392
0
LINE
8
DEFAULT_255_2_778
10
3.6716138
20
70.6874392
11
3.6716138
21
71.3875392
0
LINE
8
DEFAULT_255_2_778
10
17.4178138
20
95.9469392
11
18.1319138
21
95.9469392
0
LINE
8
DEFAULT_255_2_778
10
18.1319138
20
95.9469392
11
18.1319138
21
95.6839392
0
LINE
8
DEFAULT_255_2_778
10
18.1319138
20
95.6839392
11
17.4178138
21
95.6839392
0
LINE
8
DEFAULT_255_2_778
10
17.4178138
20
95.6839392
11
17.4178138
21
95.9467392
0
LINE
8
DEFAULT_255_2_778
10
18.3896138
20
96.7801392
11
18.7185138
21
96.7801392
0
LINE
8
DEFAULT_255_2_778
10
18.7185138
20
96.7801392
11
18.7185138
21
95.1992392
0
LINE
8
DEFAULT_255_2_778
10
18.7185138
20
95.1992392
11
19.6739138
21
95.1992392
0
LINE
8
DEFAULT_255_2_778
10
19.6739138
20
95.1992392
11
19.6739138
21
94.9174392
0
LINE
8
DEFAULT_255_2_778
10
19.6739138
20
94.9174392
11
18.3893138
21
94.9174392
0
LINE
8
DEFAULT_255_2_778
10
18.3893138
20
94.9174392
11
18.3893138
21
96.7801392
0
LINE
8
DEFAULT_255_2_778
10
2.1013138
20
94.9672392
11
2.3826138
21
94.6695392
0
LINE
8
DEFAULT_255_2_778
10
2.3826138
20
94.6695392
11
2.9117138
21
94.6695392
0
LINE
8
DEFAULT_255_2_778
10
2.9117138
20
94.6695392
11
2.4984138
21
95.0497392
0
LINE
8
DEFAULT_255_2_778
10
2.1018138
20
94.9672392
11
2.1013138
21
94.9672392
0
LINE
8
DEFAULT_255_2_778
10
2.0685138
20
96.4385392
11
2.0682138
21
96.4388392
0
ARC
8
DEFAULT_255_2_778
10
1.7336015
20
98.1739057
40
3.6281326
50
306.6269546
51
311.426212
0
ARC
8
DEFAULT_255_2_778
10
2.56831
20
97.2321753
40
2.3697278
50
311.3592174
51
317.9497355
0
ARC
8
DEFAULT_255_2_778
10
3.2316507
20
96.6379119
40
1.4791352
50
317.8327877
51
327.3820452
0
ARC
8
DEFAULT_255_2_778
10
3.730539
20
96.3230382
40
0.8892098
50
327.1432975
51
342.6043778
0
ARC
8
DEFAULT_255_2_778
10
4.0002659
20
96.2354529
40
0.6056413
50
342.8824895
51
359.690929
0
ARC
8
DEFAULT_255_2_778
10
4.0528226
20
96.2307827
40
0.5530775
50
0.1453642
51
26.2808611
0
ARC
8
DEFAULT_255_2_778
10
3.9728921
20
96.1970877
40
0.6396861
50
25.816997
51
27.3923633
0
ARC
8
DEFAULT_255_2_778
10
4.0229
20
96.1271782
40
0.6331911
50
35.1142655
51
79.6260686
0
ARC
8
DEFAULT_255_2_778
10
3.9404482
20
95.777834
40
0.9918388
50
78.5748156
51
90.3753221
0
ARC
8
DEFAULT_255_2_778
10
3.9390441
20
95.3417284
40
1.4279322
50
90.2043564
51
97.4158901
0
ARC
8
DEFAULT_255_2_778
10
4.0072637
20
94.8037601
40
1.9702066
50
97.3639243
51
102.7545623
0
ARC
8
DEFAULT_255_2_778
10
4.1606625
20
94.1211327
40
2.6698569
50
102.731097
51
107.0960779
0
ARC
8
DEFAULT_255_2_778
10
4.2996153
20
93.6500453
40
3.1609821
50
106.9932143
51
107.5500905
0
ARC
8
DEFAULT_255_2_778
10
4.4438481
20
93.3264527
40
3.1375051
50
107.2161004
51
110.0292236
0
ARC
8
DEFAULT_255_2_778
10
4.1334249
20
94.3315418
40
2.0855709
50
103.6306845
51
107.2426945
0
ARC
8
DEFAULT_255_2_778
10
3.9535095
20
95.0796069
40
1.3161765
50
98.6296432
51
103.6934949
0
ARC
8
DEFAULT_255_2_778
10
3.8729095
20
95.6222448
40
0.7675901
50
91.1123222
51
98.7590489
0
ARC
8
DEFAULT_255_2_778
10
3.8650048
20
95.8309979
40
0.5587361
50
90.0044342
51
90.7174363
0
ARC
8
DEFAULT_255_2_778
10
3.8708278
20
96.0177832
40
0.3719969
50
75.7603588
51
90.903576
0
ARC
8
DEFAULT_255_2_778
10
3.9253924
20
96.2166125
40
0.1659026
50
38.2202129
51
77.1351718
0
ARC
8
DEFAULT_255_2_778
10
3.9118902
20
96.218959
40
0.1753554
50
0.4314871
51
34.8865269
0
ARC
8
DEFAULT_255_2_778
10
3.8049798
20
96.207717
40
0.2825403
50
359.9766859
51
2.5483818
0
ARC
8
DEFAULT_255_2_778
10
3.7184813
20
96.2096384
40
0.3690444
50
351.1421623
51
359.6838409
0
ARC
8
DEFAULT_255_2_778
10
3.5298454
20
96.2382368
40
0.5598348
50
345.0507785
51
351.2229548
0
ARC
8
DEFAULT_255_2_778
10
3.3651201
20
96.279867
40
0.7297275
50
343.4330193
51
345.2291544
0
ARC
8
DEFAULT_255_2_778
10
2.545388
20
96.8529798
40
1.7082493
50
319.1563041
51
332.7869074
0
ARC
8
DEFAULT_255_2_778
10
1.9196685
20
97.3840454
40
2.5289308
50
310.7049812
51
319.3255425
0
ARC
8
DEFAULT_255_2_778
10
1.2493326
20
98.151134
40
3.5476214
50
305.4842829
51
310.8325511
0
LINE
8
DEFAULT_255_2_778
10
3.3086545
20
95.2623954
11
3.3086545
21
94.9176954
0
LINE
8
DEFAULT_255_2_778
10
3.3086545
20
94.9176954
11
4.6315545
21
94.9176954
0
ARC
8
DEFAULT_255_2_778
10
4.6765473
20
94.9357657
40
0.048486
50
175.8919547
51
201.8817132
0
ARC
8
DEFAULT_255_2_778
10
5.8595832
20
95.0140126
40
1.2336656
50
181.4092141
51
183.4748726
0
ARC
8
DEFAULT_255_2_778
10
10.4363084
20
95.1342115
40
5.8119675
50
180.4003904
51
181.4842101
0
ARC
8
DEFAULT_255_2_778
10
23.6341555
20
95.248275
40
19.010302
50
179.9759067
51
180.4661941
0
ARC
8
DEFAULT_255_2_778
10
51.2291299
20
95.2638965
40
46.6052755
50
180.0018455
51
180.0093772
0
LINE
8
DEFAULT_255_2_778
10
4.6238545
20
95.2623954
11
3.8981545
21
95.2623954
0
ARC
8
DEFAULT_255_2_778
10
5.5783844
20
94.6990036
40
2.0823856
50
73.977478
51
78.1386937
0
ARC
8
DEFAULT_255_2_778
10
5.6695725
20
95.1363886
40
1.6355968
50
78.1155559
51
83.3248275
0
ARC
8
DEFAULT_255_2_778
10
5.7113666
20
95.4986486
40
1.2709345
50
83.2978474
51
89.8594972
0
ARC
8
DEFAULT_255_2_778
10
5.7040948
20
95.8862117
40
0.8834286
50
89.3262326
51
107.53665
0
ARC
8
DEFAULT_255_2_778
10
5.6558459
20
96.0688211
40
0.6948263
50
108.2801829
51
150.3303039
0
ARC
8
DEFAULT_255_2_778
10
6.0224698
20
95.8400547
40
1.1267555
50
149.4508099
51
162.9772344
0
ARC
8
DEFAULT_255_2_778
10
6.5016934
20
95.6818364
40
1.6313393
50
162.5911355
51
168.1441458
0
ARC
8
DEFAULT_255_2_778
10
7.8203355
20
95.7791744
40
2.9248656
50
175.3361275
51
177.3798257
0
ARC
8
DEFAULT_255_2_778
10
7.3952932
20
95.7985231
40
2.4993833
50
177.3774829
51
179.6279633
0
ARC
8
DEFAULT_255_2_778
10
7.1723892
20
95.8011228
40
2.2764674
50
179.6569648
51
179.9993427
0
ARC
8
DEFAULT_255_2_778
10
6.6421576
20
95.7899496
40
1.7462716
50
179.6325432
51
188.5875067
0
ARC
8
DEFAULT_255_2_778
10
5.919668
20
95.6764801
40
1.0149479
50
188.3438942
51
202.787362
0
ARC
8
DEFAULT_255_2_778
10
5.5205108
20
95.5000317
40
0.5786612
50
201.9875115
51
238.0093812
0
ARC
8
DEFAULT_255_2_778
10
5.5414166
20
95.5679319
40
0.6475823
50
239.6235156
51
264.6827359
0
ARC
8
DEFAULT_255_2_778
10
5.5864834
20
95.8815638
40
0.9641706
50
263.7432774
51
270.1230733
0
ARC
8
DEFAULT_255_2_778
10
5.5529276
20
95.983318
40
1.0665179
50
271.9143143
51
286.2160353
0
ARC
8
DEFAULT_255_2_778
10
5.6959865
20
95.5185416
40
0.5803311
50
285.4682407
51
317.7497319
0
ARC
8
DEFAULT_255_2_778
10
5.6764394
20
95.5083181
40
0.5882907
50
319.7672159
51
350.436055
0
ARC
8
DEFAULT_255_2_778
10
5.3401071
20
95.5847149
40
0.9328444
50
349.2410939
51
357.3506312
0
ARC
8
DEFAULT_255_2_778
10
5.5396693
20
95.5089924
40
0.7330106
50
2.5492519
51
21.8407477
0
ARC
8
DEFAULT_255_2_778
10
5.7854946
20
95.60024
40
0.4709321
50
22.6627394
51
80.1988814
0
ARC
8
DEFAULT_255_2_778
10
5.6932419
20
95.2956619
40
0.7877377
50
77.3568244
51
82.4638894
0
ARC
8
DEFAULT_255_2_778
10
5.7005906
20
95.4979582
40
0.5865407
50
80.5835089
51
89.8240117
0
ARC
8
DEFAULT_255_2_778
10
5.6994195
20
95.6287719
40
0.4557338
50
89.6262694
51
141.3999409
0
ARC
8
DEFAULT_255_2_778
10
6.1088284
20
95.9382947
40
0.7659885
50
180.0109774
51
181.8852453
0
ARC
8
DEFAULT_255_2_778
10
5.8601117
20
95.9514495
40
0.517443
50
153.8343692
51
181.4730224
0
ARC
8
DEFAULT_255_2_778
10
5.7838458
20
95.9692594
40
0.4414918
50
110.8228168
51
151.5437096
0
ARC
8
DEFAULT_255_2_778
10
5.9157603
20
95.6887628
40
0.7509311
50
103.7751456
51
112.6228454
0
ARC
8
DEFAULT_255_2_778
10
5.873988
20
95.7160965
40
0.7152486
50
91.8725838
51
101.0455104
0
ARC
8
DEFAULT_255_2_778
10
5.8664356
20
95.8554997
40
0.5756808
50
90.007819
51
91.5746883
0
ARC
8
DEFAULT_255_2_778
10
5.8766318
20
96.0292635
40
0.4020483
50
61.3319628
51
91.4644172
0
ARC
8
DEFAULT_255_2_778
10
5.9021268
20
96.0898216
40
0.3367494
50
48.9548512
51
60.1949715
0
ARC
8
DEFAULT_255_2_778
10
22.9183791
20
95.1476853
40
16.8376628
50
175.2671123
51
175.9264044
0
ARC
8
DEFAULT_255_2_778
10
16.3459181
20
95.6939778
40
10.242538
50
174.3605352
51
175.2790397
0
ARC
8
DEFAULT_255_2_778
10
5.6198833
20
95.5193205
40
0.2690369
50
117.0780612
51
181.6241104
0
ARC
8
DEFAULT_255_2_778
10
5.5888124
20
95.5635693
40
0.215626
50
89.988828
51
115.0786943
0
ARC
8
DEFAULT_255_2_778
10
5.5760926
20
95.5304158
40
0.2491067
50
2.8038876
51
87.0634269
0
ARC
8
DEFAULT_255_2_778
10
5.5196867
20
95.5117687
40
0.3067678
50
359.9863066
51
5.7684592
0
ARC
8
DEFAULT_255_2_778
10
5.5571467
20
95.5041713
40
0.2694128
50
297.4780298
51
1.6003379
0
ARC
8
DEFAULT_255_2_778
10
5.5888628
20
95.4592318
40
0.2150363
50
269.9977941
51
295.5052464
0
ARC
8
DEFAULT_255_2_778
10
5.6016885
20
95.4933156
40
0.2494506
50
183.0476976
51
267.0508899
0
ARC
8
DEFAULT_255_2_778
10
5.6563511
20
95.5116256
40
0.3053967
50
179.9869063
51
185.9339715
0
ARC
8
DEFAULT_255_2_778
10
6.7427518
20
95.8394315
40
0.8687039
50
0.8748623
51
14.9737531
0
ARC
8
DEFAULT_255_2_778
10
7.1507932
20
95.9553992
40
0.4446036
50
14.1229726
51
47.7541813
0
ARC
8
DEFAULT_255_2_778
10
7.1395101
20
95.913026
40
0.4839759
50
50.1386278
51
80.4159607
0
ARC
8
DEFAULT_255_2_778
10
7.0437691
20
95.4578802
40
0.9488922
50
79.2912429
51
90.5267999
0
ARC
8
DEFAULT_255_2_778
10
7.0363911
20
94.9848266
40
1.4219064
50
90.0542494
51
93.048241
0
ARC
8
DEFAULT_255_2_778
10
7.047761
20
94.7483591
40
1.6586444
50
93.006072
51
94.2252979
0
ARC
8
DEFAULT_255_2_778
10
7.0582899
20
96.6324652
40
1.3532951
50
264.3712024
51
267.0485787
0
ARC
8
DEFAULT_255_2_778
10
7.0487209
20
96.4460666
40
1.1666511
50
267.046551
51
269.9636637
0
ARC
8
DEFAULT_255_2_778
10
7.0568389
20
96.1010592
40
0.8216911
50
269.3823411
51
283.3583362
0
ARC
8
DEFAULT_255_2_778
10
7.1368852
20
95.7770989
40
0.4880113
50
283.0022776
51
308.0865536
0
ARC
8
DEFAULT_255_2_778
10
7.0832525
20
95.7852933
40
0.5288513
50
312.115626
51
3.0698918
0
ARC
8
DEFAULT_255_2_778
10
6.6616781
20
95.8294979
40
0.9497996
50
359.04186
51
0.0035937
0
ARC
8
DEFAULT_255_2_778
10
6.623916
20
95.8294966
40
0.9875617
50
0.0035321
51
0.9050391
0
ARC
8
DEFAULT_255_2_778
10
7.1125091
20
96.2190592
40
1.3026295
50
268.0354939
51
294.1436585
0
ARC
8
DEFAULT_255_2_778
10
7.3393528
20
95.6625241
40
0.7022968
50
295.8275545
51
333.2721971
0
ARC
8
DEFAULT_255_2_778
10
7.1430352
20
95.7560996
40
0.9197365
50
333.5660549
51
350.2935263
0
ARC
8
DEFAULT_255_2_778
10
6.6621812
20
95.8437831
40
1.4085003
50
350.0756555
51
0.3544056
0
ARC
8
DEFAULT_255_2_778
10
6.4049975
20
95.871358
40
1.6657638
50
359.351185
51
359.9991212
0
ARC
8
DEFAULT_255_2_778
10
6.7655082
20
95.8811415
40
1.30529
50
359.5694292
51
11.1863454
0
ARC
8
DEFAULT_255_2_778
10
7.2176898
20
95.9732386
40
0.8438366
50
11.0081805
51
29.2462416
0
ARC
8
DEFAULT_255_2_778
10
7.2982723
20
95.9830979
40
0.7693248
50
31.5382549
51
83.7425242
0
ARC
8
DEFAULT_255_2_778
10
7.1230335
20
95.1776219
40
1.5914493
50
80.6303756
51
90.3309763
0
ARC
8
DEFAULT_255_2_778
10
7.1140107
20
94.739731
40
2.0293138
50
90.0048106
51
91.063249
0
ARC
8
DEFAULT_255_2_778
10
10.8644745
20
95.9023502
40
0.6708249
50
171.260539
51
179.7826137
0
ARC
8
DEFAULT_255_2_778
10
11.0184275
20
95.8796522
40
0.8264397
50
162.8737312
51
171.3269114
0
ARC
8
DEFAULT_255_2_778
10
11.0876713
20
95.8593154
40
0.8986023
50
155.4713983
51
162.9346715
0
ARC
8
DEFAULT_255_2_778
10
11.0890753
20
95.8597662
40
0.8996931
50
138.2565562
51
155.5346407
0
ARC
8
DEFAULT_255_2_778
10
11.0705585
20
95.874865
40
0.8758249
50
120.7253738
51
138.1870324
0
ARC
8
DEFAULT_255_2_778
10
11.107304
20
95.8099846
40
0.9503733
50
106.5179215
51
120.6312323
0
ARC
8
DEFAULT_255_2_778
10
11.161555
20
95.6261683
40
1.142028
50
95.2334553
51
106.5053949
0
ARC
8
DEFAULT_255_2_778
10
11.1864867
20
95.392643
40
1.3768585
50
89.9341313
51
95.3802251
0
ARC
8
DEFAULT_255_2_778
10
11.1864677
20
95.1757351
40
1.5937665
50
85.2514674
51
89.9424138
0
ARC
8
DEFAULT_255_2_778
10
11.1655492
20
94.9214247
40
1.8489358
50
81.1285355
51
85.2578466
0
ARC
8
DEFAULT_255_2_778
10
11.1199073
20
94.6275799
40
2.1463041
50
77.4832431
51
81.134417
0
ARC
8
DEFAULT_255_2_778
10
11.04622
20
94.2946302
40
2.4873102
50
74.2431761
51
77.4883719
0
ARC
8
DEFAULT_255_2_778
10
10.9766895
20
94.0421448
40
2.7491897
50
73.1638192
51
74.277478
0
ARC
8
DEFAULT_255_2_778
10
11.2618031
20
95.4783921
40
0.9356381
50
59.7215524
51
83.5312088
0
ARC
8
DEFAULT_255_2_778
10
11.2734562
20
95.5693142
40
0.843983
50
83.6218641
51
89.9497096
0
ARC
8
DEFAULT_255_2_778
10
11.2460282
20
95.848353
40
0.5656456
50
87.145533
51
140.9140732
0
ARC
8
DEFAULT_255_2_778
10
11.249115
20
95.8776133
40
0.5501462
50
143.4829802
51
165.2431818
0
ARC
8
DEFAULT_255_2_778
10
11.468472
20
95.8166462
40
0.7778032
50
165.0161385
51
177.5942383
0
ARC
8
DEFAULT_255_2_778
10
10.8954492
20
95.8021543
40
0.707988
50
172.4159052
51
179.1252153
0
ARC
8
DEFAULT_255_2_778
10
10.93803
20
95.8007606
40
0.7505855
50
179.0684663
51
180.0012715
0
ARC
8
DEFAULT_255_2_778
10
10.9864178
20
95.8018985
40
0.7989742
50
180.0827941
51
189.2584157
0
ARC
8
DEFAULT_255_2_778
10
11.0366086
20
95.8092628
40
0.8496966
50
189.2040208
51
194.5764407
0
ARC
8
DEFAULT_255_2_778
10
11.0626041
20
95.8163357
40
0.8766356
50
194.5962374
51
217.9468047
0
ARC
8
DEFAULT_255_2_778
10
11.0621291
20
95.8172619
40
0.8768311
50
218.013618
51
238.7042969
0
ARC
8
DEFAULT_255_2_778
10
11.1127547
20
95.9032777
40
0.9766303
50
238.787715
51
254.2855664
0
ARC
8
DEFAULT_255_2_778
10
11.1723951
20
96.1140064
40
1.1956359
50
254.2694215
51
265.9946151
0
ARC
8
DEFAULT_255_2_778
10
11.1931067
20
96.3415288
40
1.4240574
50
265.8027601
51
270.0384906
0
ARC
8
DEFAULT_255_2_778
10
11.1925445
20
96.5284791
40
1.6110081
50
270.0540187
51
274.7478156
0
ARC
8
DEFAULT_255_2_778
10
11.1729845
20
96.7667368
40
1.8500673
50
274.7407601
51
278.8471381
0
ARC
8
DEFAULT_255_2_778
10
11.1309487
20
97.0378996
40
2.1244689
50
278.8425854
51
282.5250948
0
ARC
8
DEFAULT_255_2_778
10
11.0631827
20
97.3437529
40
2.4377394
50
282.5209501
51
285.827372
0
ARC
8
DEFAULT_255_2_778
10
11.0006317
20
97.5700518
40
2.6725194
50
285.7943307
51
286.8443389
0
ARC
8
DEFAULT_255_2_778
10
11.2635987
20
96.2082192
40
0.936673
50
276.5077122
51
300.2630545
0
ARC
8
DEFAULT_255_2_778
10
11.2754127
20
96.1165807
40
0.8442871
50
270.0509742
51
276.4159689
0
ARC
8
DEFAULT_255_2_778
10
11.2480498
20
95.8372504
40
0.5656555
50
219.1757657
51
272.8488698
0
ARC
8
DEFAULT_255_2_778
10
11.2508497
20
95.8077367
40
0.5497349
50
194.7848051
51
216.6059802
0
ARC
8
DEFAULT_255_2_778
10
11.4705412
20
95.8689158
40
0.7777711
50
182.4037409
51
195.0124772
0
ARC
8
DEFAULT_255_2_778
10
12.7281978
20
95.9023564
40
0.682448
50
171.4110465
51
179.7868355
0
ARC
8
DEFAULT_255_2_778
10
12.8830276
20
95.8799489
40
0.8388886
50
163.1567256
51
171.4770811
0
ARC
8
DEFAULT_255_2_778
10
12.9499598
20
95.8606821
40
0.9085327
50
155.851343
51
163.2168645
0
ARC
8
DEFAULT_255_2_778
10
12.9434227
20
95.8650516
40
0.900781
50
138.2783358
51
155.9348443
0
ARC
8
DEFAULT_255_2_778
10
12.9154983
20
95.8883193
40
0.8644546
50
120.1351125
51
138.1976527
0
ARC
8
DEFAULT_255_2_778
10
12.950006
20
95.8252396
40
0.9363346
50
105.4800636
51
120.0234461
0
ARC
8
DEFAULT_255_2_778
10
13.0012849
20
95.6404761
40
1.1280821
50
94.4433872
51
105.4853849
0
ARC
8
DEFAULT_255_2_778
10
13.0217437
20
95.4251209
40
1.3443802
50
89.9522596
51
94.6016233
0
ARC
8
DEFAULT_255_2_778
10
13.021262
20
95.2296814
40
1.5398202
50
85.1304789
51
89.940396
0
ARC
8
DEFAULT_255_2_778
10
13.0003852
20
94.9819465
40
1.788433
50
80.9508097
51
85.1377852
0
ARC
8
DEFAULT_255_2_778
10
12.9549266
20
94.6953568
40
2.0786054
50
77.2229861
51
80.9558442
0
ARC
8
DEFAULT_255_2_778
10
12.8808232
20
94.3675235
40
2.4147094
50
73.9159665
51
77.2285459
0
ARC
8
DEFAULT_255_2_778
10
12.8121339
20
94.1232029
40
2.6684971
50
72.8825942
51
73.9522032
0
ARC
8
DEFAULT_255_2_778
10
13.0940084
20
95.5050699
40
0.9090464
50
59.2604953
51
83.3628492
0
ARC
8
DEFAULT_255_2_778
10
13.1065177
20
95.5983115
40
0.8149855
50
83.4787378
51
89.9481417
0
ARC
8
DEFAULT_255_2_778
10
13.0788427
20
95.8679627
40
0.5460738
50
87.017516
51
144.4567568
0
ARC
8
DEFAULT_255_2_778
10
13.1112272
20
95.8727789
40
0.5700784
50
146.7432979
51
166.4968261
0
ARC
8
DEFAULT_255_2_778
10
13.3357102
20
95.8153413
40
0.8017751
50
166.2514828
51
177.5728762
0
ARC
8
DEFAULT_255_2_778
10
12.7591644
20
95.8020495
40
0.7195169
50
172.5297138
51
179.0879481
0
ARC
8
DEFAULT_255_2_778
10
12.8022514
20
95.800621
40
0.7626215
50
179.0321643
51
180.0013862
0
ARC
8
DEFAULT_255_2_778
10
12.851933
20
95.8017434
40
0.812304
50
180.0804657
51
189.0980361
0
ARC
8
DEFAULT_255_2_778
10
12.9015223
20
95.8088731
40
0.862397
50
189.0448015
51
194.3304069
0
ARC
8
DEFAULT_255_2_778
10
12.9209679
20
95.8136694
40
0.8824246
50
194.3196353
51
218.3093666
0
ARC
8
DEFAULT_255_2_778
10
12.9090224
20
95.8059386
40
0.8682599
50
218.3977197
51
239.458076
0
ARC
8
DEFAULT_255_2_778
10
12.9561648
20
95.8892406
40
0.9639622
50
239.5608853
51
255.3801383
0
ARC
8
DEFAULT_255_2_778
10
13.0125125
20
96.1036571
40
1.1856587
50
255.3606386
51
267.1699046
0
ARC
8
DEFAULT_255_2_778
10
13.0281584
20
96.3131593
40
1.3956877
50
266.9530341
51
270.0199857
0
ARC
8
DEFAULT_255_2_778
10
13.0271511
20
96.4722892
40
1.5548182
50
270.05506
51
274.8328929
0
ARC
8
DEFAULT_255_2_778
10
13.0078477
20
96.7031999
40
1.7865343
50
274.8258567
51
279.004196
0
ARC
8
DEFAULT_255_2_778
10
12.9662167
20
96.9669718
40
2.0535712
50
278.9996181
51
282.7441609
0
ARC
8
DEFAULT_255_2_778
10
12.8989297
20
97.2652743
40
2.3593683
50
282.7398956
51
286.0992219
0
ARC
8
DEFAULT_255_2_778
10
12.8367074
20
97.4863958
40
2.5890729
50
286.0652483
51
287.1313816
0
ARC
8
DEFAULT_255_2_778
10
13.0958124
20
96.1805149
40
0.9090394
50
276.6307439
51
300.7394828
0
ARC
8
DEFAULT_255_2_778
10
13.1083096
20
96.0872994
40
0.8150059
50
270.0518195
51
276.5147418
0
ARC
8
DEFAULT_255_2_778
10
13.08065
20
95.817825
40
0.5462696
50
215.5539542
51
272.97975
0
ARC
8
DEFAULT_255_2_778
10
13.1130243
20
95.8130274
40
0.5702718
50
193.5207783
51
213.2698534
0
ARC
8
DEFAULT_255_2_778
10
13.3374402
20
95.8705176
40
0.8019163
50
182.4458737
51
193.7657739
0
ARC
8
DEFAULT_255_2_778
10
14.5743148
20
96.1602528
40
0.2428087
50
357.8622233
51
77.579371
0
ARC
8
DEFAULT_255_2_778
10
14.4226123
20
95.7243572
40
0.7032382
50
73.143031
51
88.0708817
0
ARC
8
DEFAULT_255_2_778
10
14.3862787
20
95.2269747
40
1.2017212
50
87.1378022
51
90.0536007
0
LINE
8
DEFAULT_255_2_778
10
14.3851545
20
96.4286954
11
14.3851545
21
95.9042954
0
ARC
8
DEFAULT_255_2_778
10
14.3969696
20
96.923724
40
1.0194971
50
269.3359739
51
280.0036273
0
ARC
8
DEFAULT_255_2_778
10
14.5093651
20
96.3246048
40
0.4100154
50
279.0794215
51
301.6371084
0
ARC
8
DEFAULT_255_2_778
10
14.6187569
20
96.1433792
40
0.1983517
50
302.1931248
51
2.2583635
0
ARC
8
DEFAULT_255_2_778
10
14.5366126
20
97.8696766
40
2.3403872
50
266.2895107
51
268.0568953
0
ARC
8
DEFAULT_255_2_778
10
14.527182
20
97.5901148
40
2.0606662
50
268.0553954
51
269.9793206
0
ARC
8
DEFAULT_255_2_778
10
14.5376922
20
97.0001163
40
1.4707107
50
269.5615654
51
279.6093116
0
ARC
8
DEFAULT_255_2_778
10
14.6491032
20
96.3683938
40
0.829266
50
279.3056539
51
296.1281066
0
ARC
8
DEFAULT_255_2_778
10
14.7827518
20
96.0928162
40
0.5229949
50
296.2779244
51
355.0554735
0
ARC
8
DEFAULT_255_2_778
10
14.4148611
20
96.1644258
40
0.8965652
50
352.5217894
51
0.1793864
0
ARC
8
DEFAULT_255_2_778
10
14.2186388
20
96.1668269
40
1.092783
50
0.0212868
51
2.4108891
0
ARC
8
DEFAULT_255_2_778
10
14.7804917
20
96.2260796
40
0.5301293
50
358.5641019
51
27.3024995
0
ARC
8
DEFAULT_255_2_778
10
14.8328758
20
96.2325361
40
0.4809671
50
29.4819379
51
66.3596469
0
ARC
8
DEFAULT_255_2_778
10
14.6457351
20
95.8442249
40
0.9118695
50
65.3715202
51
80.0107551
0
ARC
8
DEFAULT_255_2_778
10
14.5073546
20
95.1036393
40
1.6652505
50
79.7417538
51
88.7556672
0
ARC
8
DEFAULT_255_2_778
10
14.4764779
20
94.4181752
40
2.3512777
50
88.3661684
51
90.0168999
0
ARC
8
DEFAULT_255_2_778
10
14.4764551
20
94.1140421
40
2.6554107
50
90.0144726
51
91.4718273
0
ARC
8
DEFAULT_255_2_778
10
14.4814808
20
93.8947448
40
2.8747648
50
91.4596956
51
91.9201999
0
LINE
8
DEFAULT_255_2_778
10
14.3851545
20
96.7678954
11
13.8917545
21
96.7678954
0
LINE
8
DEFAULT_255_2_778
10
15.4792545
20
96.7694954
11
15.9649545
21
96.7694954
0
LINE
8
DEFAULT_255_2_778
10
15.9649545
20
96.7694954
11
15.9649545
21
95.6460954
0
ARC
8
DEFAULT_255_2_778
10
16.5288739
20
95.6336731
40
0.5640562
50
178.7380661
51
197.3013476
0
ARC
8
DEFAULT_255_2_778
10
16.2404525
20
95.5425581
40
0.2615902
50
197.0348806
51
274.6883962
0
ARC
8
DEFAULT_255_2_778
10
16.2687491
20
95.7820049
40
0.5002095
50
269.2078929
51
270.0006187
0
ARC
8
DEFAULT_255_2_778
10
16.2823109
20
95.5932404
40
0.3117399
50
267.5076337
51
302.657269
0
ARC
8
DEFAULT_255_2_778
10
16.2844229
20
95.5533737
40
0.2777382
50
306.7318042
51
349.916448
0
ARC
8
DEFAULT_255_2_778
10
15.9436344
20
95.638656
40
0.628664
50
347.701371
51
0.6780321
0
LINE
8
DEFAULT_255_2_778
10
16.5722545
20
95.6460954
11
16.5722545
21
96.7694954
0
LINE
8
DEFAULT_255_2_778
10
16.5722545
20
96.7694954
11
17.0884545
21
96.7694954
0
LINE
8
DEFAULT_255_2_778
10
17.0884545
20
96.7694954
11
17.0884545
21
95.5550954
0
ARC
8
DEFAULT_255_2_778
10
16.3120645
20
95.542089
40
0.7764989
50
341.7463823
51
0.9597531
0
ARC
8
DEFAULT_255_2_778
10
16.5589676
20
95.4687894
40
0.5191184
50
286.0591194
51
340.8937518
0
ARC
8
DEFAULT_255_2_778
10
16.3834888
20
95.9564241
40
1.0368157
50
273.520674
51
287.9238036
0
ARC
8
DEFAULT_255_2_778
10
16.3317105
20
96.5169959
40
1.5996022
50
269.915609
51
274.1387963
0
ARC
8
DEFAULT_255_2_778
10
16.3170326
20
96.5189044
40
1.6015564
50
260.3917549
51
270.4408197
0
ARC
8
DEFAULT_255_2_778
10
16.1935296
20
95.8218014
40
0.8936349
50
243.3980996
51
260.7390488
0
ARC
8
DEFAULT_255_2_778
10
16.0491792
20
95.5270354
40
0.565442
50
184.4344753
51
243.1018573
0
ARC
8
DEFAULT_255_2_778
10
16.3969626
20
95.5978932
40
0.9187055
50
182.6700873
51
187.1643532
0
LINE
8
DEFAULT_255_2_778
10
15.4792545
20
95.5550954
11
15.4792545
21
96.7694954
0
ARC
8
DEFAULT_255_2_778
10
20.3793756
20
95.188635
40
1.3304955
50
67.4710821
51
74.3752256
0
ARC
8
DEFAULT_255_2_778
10
20.5124104
20
95.671311
40
0.8298273
50
74.2451789
51
84.4015548
0
ARC
8
DEFAULT_255_2_778
10
20.5392107
20
95.9076788
40
0.5919834
50
84.7512825
51
89.9187026
0
ARC
8
DEFAULT_255_2_778
10
20.5324047
20
96.0949501
40
0.4047836
50
88.9176802
51
113.9598072
0
ARC
8
DEFAULT_255_2_778
10
20.5094543
20
96.1607704
40
0.3353645
50
114.9433388
51
138.8172689
0
ARC
8
DEFAULT_255_2_778
10
20.5256773
20
96.2352695
40
0.3058913
50
151.4217141
51
165.1876838
0
ARC
8
DEFAULT_255_2_778
10
20.4234646
20
96.2632152
40
0.1999327
50
165.4415964
51
179.6524381
0
ARC
8
DEFAULT_255_2_778
10
20.4045943
20
96.2691152
40
0.1811192
50
181.4829288
51
236.1777388
0
ARC
8
DEFAULT_255_2_778
10
20.5901128
20
96.5059675
40
0.4816673
50
233.5257368
51
249.5656043
0
ARC
8
DEFAULT_255_2_778
10
20.7723521
20
96.9566938
40
0.9677497
50
248.7717986
51
255.2128556
0
ARC
8
DEFAULT_255_2_778
10
20.1306568
20
94.7682474
40
1.3134549
50
63.1373746
51
72.5121595
0
ARC
8
DEFAULT_255_2_778
10
20.3925512
20
95.2762788
40
0.7419172
50
47.547562
51
63.4523488
0
ARC
8
DEFAULT_255_2_778
10
20.6116084
20
95.5069036
40
0.4239365
50
359.5894306
51
48.3533763
0
ARC
8
DEFAULT_255_2_778
10
20.4737443
20
95.5067948
40
0.5617974
50
347.841117
51
359.7012713
0
ARC
8
DEFAULT_255_2_778
10
20.2654459
20
95.5505919
40
0.7746486
50
339.5459709
51
347.919366
0
ARC
8
DEFAULT_255_2_778
10
20.1138917
20
95.6033312
40
0.9350845
50
338.7088696
51
339.7633235
0
ARC
8
DEFAULT_255_2_778
10
20.3014788
20
95.6526662
40
0.7865322
50
313.3776306
51
330.3690325
0
ARC
8
DEFAULT_255_2_778
10
20.4246345
20
95.5310615
40
0.6135901
50
270.3799631
51
312.8176971
0
ARC
8
DEFAULT_255_2_778
10
20.4045664
20
95.7264718
40
0.8093469
50
269.9936789
51
271.7089921
0
ARC
8
DEFAULT_255_2_778
10
20.4090995
20
95.8859668
40
0.9688529
50
259.7731571
51
269.7266376
0
ARC
8
DEFAULT_255_2_778
10
20.4767034
20
96.2679397
40
1.3567608
50
252.3575106
51
259.8275419
0
ARC
8
DEFAULT_255_2_778
10
20.632435
20
96.7643737
40
1.8770453
50
246.9896909
51
252.4201066
0
ARC
8
DEFAULT_255_2_778
10
20.7675271
20
97.0957852
40
2.2349011
50
246.4326674
51
247.1231095
0
ARC
8
DEFAULT_255_2_778
10
-5.3432597
20
98.3603399
40
25.4339174
50
352.5153321
51
353.2116433
0
ARC
8
DEFAULT_255_2_778
10
20.5127857
20
96.6678798
40
1.4445795
50
245.4401042
51
252.4297132
0
ARC
8
DEFAULT_255_2_778
10
20.3553403
20
96.1644866
40
0.917144
50
252.3133941
51
262.4203211
0
ARC
8
DEFAULT_255_2_778
10
20.3163769
20
95.8942073
40
0.6440935
50
262.6846794
51
269.8556697
0
ARC
8
DEFAULT_255_2_778
10
20.3223974
20
95.6936651
40
0.4436152
50
269.0128136
51
295.1057019
0
ARC
8
DEFAULT_255_2_778
10
20.3371626
20
95.6478643
40
0.395923
50
295.9830631
51
315.8312391
0
ARC
8
DEFAULT_255_2_778
10
20.4002384
20
95.5020022
40
0.2563312
50
329.5236204
51
345.2999629
0
ARC
8
DEFAULT_255_2_778
10
20.4804138
20
95.4796342
40
0.1731088
50
345.7271656
51
359.7378349
0
ARC
8
DEFAULT_255_2_778
10
20.4783431
20
95.4728174
40
0.1752814
50
1.9697213
51
52.9942869
0
ARC
8
DEFAULT_255_2_778
10
20.2826747
20
95.2482994
40
0.4728197
50
50.434155
51
66.180901
0
ARC
8
DEFAULT_255_2_778
10
20.0406545
20
94.7254946
40
1.0488849
50
65.6198195
51
73.7732378
0
ARC
8
DEFAULT_255_2_778
10
20.5469651
20
96.6925499
40
0.9833471
50
243.5668942
51
257.4775968
0
ARC
8
DEFAULT_255_2_778
10
20.3247912
20
96.2619133
40
0.4988828
50
213.6952757
51
244.3992991
0
ARC
8
DEFAULT_255_2_778
10
20.2753154
20
96.2134027
40
0.4309998
50
183.9789792
51
211.9784264
0
ARC
8
DEFAULT_255_2_778
10
20.8256746
20
96.2089113
40
0.9806495
50
180.0087547
51
181.4851235
0
ARC
8
DEFAULT_255_2_778
10
20.5474209
20
96.2187012
40
0.7024662
50
163.4655776
51
180.8107513
0
ARC
8
DEFAULT_255_2_778
10
20.3093093
20
96.2864643
40
0.4549247
50
106.0621055
51
163.1124955
0
ARC
8
DEFAULT_255_2_778
10
20.4574792
20
95.881216
40
0.8858655
50
94.3752665
51
108.0197591
0
ARC
8
DEFAULT_255_2_778
10
20.505768
20
95.4064035
40
1.3630305
50
89.8847423
51
94.8765615
0
ARC
8
DEFAULT_255_2_778
10
20.5057688
20
94.9783217
40
1.7911118
50
85.9875299
51
89.9123124
0
ARC
8
DEFAULT_255_2_778
10
20.4705635
20
94.4664713
40
2.304171
50
82.8113328
51
86.0048635
0
ARC
8
DEFAULT_255_2_778
10
20.3956365
20
93.8672359
40
2.9080723
50
80.1873667
51
82.824109
0
ARC
8
DEFAULT_255_2_778
10
20.3196225
20
93.412856
40
3.3687606
50
79.4338448
51
80.2305081
0
LINE
8
DEFAULT_255_2_778
10
3.3464545
20
96.6638954
11
3.3692545
21
96.2741954
0
LINE
8
DEFAULT_255_2_778
10
3.8981545
20
95.2623954
11
3.8981545
21
95.2621954
0
LINE
8
DEFAULT_255_2_778
10
6.1529545
20
96.7004954
11
6.1531545
21
96.7004954
0
LINE
8
DEFAULT_255_2_778
10
5.3509545
20
95.5116954
11
5.3509545
21
95.5116954
0
LINE
8
DEFAULT_255_2_778
10
6.9255545
20
96.4024954
11
6.9255545
21
95.2856954
0
LINE
8
DEFAULT_255_2_778
10
7.0763545
20
96.7686954
11
6.4831545
21
96.7686954
0
LINE
8
DEFAULT_255_2_778
10
6.4831545
20
96.7686954
11
6.4831545
21
94.9168954
0
LINE
8
DEFAULT_255_2_778
10
6.4831545
20
94.9168954
11
7.0678545
21
94.9171954
0
LINE
8
DEFAULT_255_2_778
10
9.4501545
20
96.7694954
11
9.8216545
21
96.7694954
0
LINE
8
DEFAULT_255_2_778
10
9.8216545
20
96.7694954
11
9.8216545
21
94.9173954
0
LINE
8
DEFAULT_255_2_778
10
9.8216545
20
94.9173954
11
9.4501545
21
94.9173954
0
LINE
8
DEFAULT_255_2_778
10
9.4501545
20
94.9173954
11
9.4501545
21
95.7293954
0
LINE
8
DEFAULT_255_2_778
10
9.4501545
20
95.7293954
11
8.7069545
21
95.7293954
0
LINE
8
DEFAULT_255_2_778
10
8.7069545
20
95.7293954
11
8.7069545
21
94.9173954
0
LINE
8
DEFAULT_255_2_778
10
8.7069545
20
94.9173954
11
8.3354545
21
94.9173954
0
LINE
8
DEFAULT_255_2_778
10
8.3354545
20
94.9173954
11
8.3354545
21
96.7694954
0
LINE
8
DEFAULT_255_2_778
10
8.3354545
20
96.7694954
11
8.7069545
21
96.7694954
0
LINE
8
DEFAULT_255_2_778
10
8.7069545
20
96.7694954
11
8.7069545
21
96.0212954
0
LINE
8
DEFAULT_255_2_778
10
8.7069545
20
96.0212954
11
9.4501545
21
96.0212954
0
LINE
8
DEFAULT_255_2_778
10
9.4501545
20
96.0212954
11
9.4501545
21
96.7694954
0
LINE
8
DEFAULT_255_2_778
10
11.7729545
20
96.6734954
11
11.7335545
21
96.2863954
0
LINE
8
DEFAULT_255_2_778
10
11.7750545
20
95.0121954
11
11.7356545
21
95.3991954
0
LINE
8
DEFAULT_255_2_778
10
13.5975545
20
96.6734954
11
13.5586545
21
96.2863954
0
LINE
8
DEFAULT_255_2_778
10
13.5993545
20
95.0121954
11
13.5604545
21
95.3991954
0
LINE
8
DEFAULT_255_2_778
10
14.8169545
20
96.1511954
11
14.8169545
21
96.1511954
0
LINE
8
DEFAULT_255_2_778
10
13.8917545
20
96.7678954
11
13.8917545
21
94.9173954
0
LINE
8
DEFAULT_255_2_778
10
13.8917545
20
94.9173954
11
14.3851545
21
94.9173954
0
LINE
8
DEFAULT_255_2_778
10
14.3851545
20
94.9173954
11
14.3851545
21
95.5341954
0
LINE
8
DEFAULT_255_2_778
10
13.8917545
20
96.7678954
11
13.8917545
21
96.7678954
0
LINE
8
DEFAULT_255_2_778
10
15.4792545
20
96.7694954
11
15.4792545
21
96.7694954
0
LINE
8
DEFAULT_255_2_778
10
20.9373545
20
96.7244954
11
20.8989545
21
96.4270954
0
ARC
8
DEFAULT_255_2_778
10
20.240971
20
3.6056949
40
0.6117913
50
171.3105606
51
179.7661637
0
ARC
8
DEFAULT_255_2_778
10
20.3739162
20
3.5865167
40
0.7461088
50
162.4093102
51
171.3971154
0
ARC
8
DEFAULT_255_2_778
10
20.3987569
20
3.5795267
40
0.7719007
50
158.255762
51
162.4719648
0
ARC
8
DEFAULT_255_2_778
10
20.3344536
20
3.6102467
40
0.7008079
50
134.6878047
51
158.6410134
0
ARC
8
DEFAULT_255_2_778
10
20.2672373
20
3.6722551
40
0.6094681
50
111.2893879
51
134.2948073
0
ARC
8
DEFAULT_255_2_778
10
20.2955592
20
3.5929563
40
0.6936425
50
94.7917569
51
111.0909323
0
ARC
8
DEFAULT_255_2_778
10
20.3118611
20
3.4489814
40
0.8384866
50
89.9490201
51
95.0799878
0
ARC
8
DEFAULT_255_2_778
10
20.3111463
20
3.3184719
40
0.9689966
50
83.8616201
51
89.9136198
0
ARC
8
DEFAULT_255_2_778
10
20.2910743
20
3.1306526
40
1.1578854
50
78.5654504
51
83.8678884
0
ARC
8
DEFAULT_255_2_778
10
20.2451954
20
2.9024059
40
1.3906972
50
74.0590203
51
78.577037
0
ARC
8
DEFAULT_255_2_778
10
20.1775633
20
2.6626604
40
1.6397986
50
70.8685655
51
74.0874645
0
ARC
8
DEFAULT_255_2_778
10
20.3577727
20
3.4182475
40
0.5904739
50
56.0206863
51
82.3716798
0
ARC
8
DEFAULT_255_2_778
10
20.371353
20
3.4990135
40
0.5086274
50
82.6801847
51
89.9395752
0
ARC
8
DEFAULT_255_2_778
10
20.3576084
20
3.6389134
40
0.3690039
50
87.7820235
51
148.6653537
0
ARC
8
DEFAULT_255_2_778
10
20.4565472
20
3.587371
40
0.4803732
50
149.5512396
51
168.8796478
0
ARC
8
DEFAULT_255_2_778
10
20.6810499
20
3.5376446
40
0.7102726
50
168.436559
51
177.8338005
0
ARC
8
DEFAULT_255_2_778
10
20.2614062
20
3.5271574
40
0.6364835
50
173.3656757
51
179.6561885
0
ARC
8
DEFAULT_255_2_778
10
20.3004142
20
3.5262125
40
0.675497
50
179.5959032
51
180.0002701
0
ARC
8
DEFAULT_255_2_778
10
20.3459379
20
3.5273709
40
0.7210216
50
180.0922999
51
189.7249788
0
ARC
8
DEFAULT_255_2_778
10
20.3785011
20
3.5320754
40
0.7539121
50
189.6593441
51
192.8311702
0
ARC
8
DEFAULT_255_2_778
10
20.3311539
20
3.5147136
40
0.7039209
50
192.3091365
51
226.602577
0
ARC
8
DEFAULT_255_2_778
10
20.2711738
20
3.4632111
40
0.625343
50
227.3536171
51
251.9542188
0
ARC
8
DEFAULT_255_2_778
10
20.3075925
20
3.5801718
40
0.7478337
50
252.0771501
51
268.5134949
0
ARC
8
DEFAULT_255_2_778
10
20.3169696
20
3.7174676
40
0.8853456
50
268.1373447
51
270.0069789
0
ARC
8
DEFAULT_255_2_778
10
20.3155535
20
3.8151279
40
0.9830072
50
270.0888249
51
276.4113871
0
ARC
8
DEFAULT_255_2_778
10
20.2957296
20
3.9948897
40
1.1638585
50
276.3930035
51
281.5455958
0
ARC
8
DEFAULT_255_2_778
10
20.2522817
20
4.2079493
40
1.3813031
50
281.5425
51
286.203307
0
ARC
8
DEFAULT_255_2_778
10
20.1910078
20
4.4225327
40
1.6044613
50
286.166211
51
289.1101473
0
ARC
8
DEFAULT_255_2_778
10
20.3591561
20
3.7000206
40
0.5903317
50
277.6220104
51
303.9788616
0
ARC
8
DEFAULT_255_2_778
10
20.3727034
20
3.6194092
40
0.5086429
50
270.060576
51
277.3138637
0
ARC
8
DEFAULT_255_2_778
10
20.3589616
20
3.4795707
40
0.3690804
50
211.3413947
51
272.2172957
0
ARC
8
DEFAULT_255_2_778
10
20.4577705
20
3.5310355
40
0.4802978
50
191.123405
51
210.453973
0
ARC
8
DEFAULT_255_2_778
10
20.6820895
20
3.5807349
40
0.7100123
50
182.1666792
51
191.566393
0
LINE
8
DEFAULT_255_2_778
10
20.7149848
20
4.2118917
11
20.6877848
21
3.9078917
0
LINE
8
DEFAULT_255_2_778
10
20.7162848
20
2.9064917
11
20.6890848
21
3.2104917
0
LINE
8
DEFAULT_255_2_778
10
21.6754333
20
4.2876041
11
21.9400333
21
4.2876041
0
LINE
8
DEFAULT_255_2_778
10
21.9400333
20
4.2876041
11
21.9400333
21
2.8324041
0
LINE
8
DEFAULT_255_2_778
10
21.9400333
20
2.8324041
11
21.6754333
21
2.8324041
0
LINE
8
DEFAULT_255_2_778
10
21.6754333
20
2.8324041
11
21.6754333
21
3.4703041
0
LINE
8
DEFAULT_255_2_778
10
21.6754333
20
3.4703041
11
21.1463333
21
3.4703041
0
LINE
8
DEFAULT_255_2_778
10
21.1463333
20
3.4703041
11
21.1463333
21
2.8324041
0
LINE
8
DEFAULT_255_2_778
10
21.1463333
20
2.8324041
11
20.8817333
21
2.8324041
0
LINE
8
DEFAULT_255_2_778
10
20.8817333
20
2.8324041
11
20.8817333
21
4.2876041
0
LINE
8
DEFAULT_255_2_778
10
20.8817333
20
4.2876041
11
21.1463333
21
4.2876041
0
LINE
8
DEFAULT_255_2_778
10
21.1463333
20
4.2876041
11
21.1463333
21
3.6997041
0
LINE
8
DEFAULT_255_2_778
10
21.1463333
20
3.6997041
11
21.6754333
21
3.6997041
0
LINE
8
DEFAULT_255_2_778
10
21.6754333
20
3.6997041
11
21.6754333
21
4.2876041
0
ARC
8
DEFAULT_255_2_778
10
22.4718391
20
3.2393112
40
0.777723
50
89.1015017
51
103.6970534
0
ARC
8
DEFAULT_255_2_778
10
22.3831842
20
3.610344
40
0.3962532
50
103.9461178
51
121.7390473
0
ARC
8
DEFAULT_255_2_778
10
23.7721442
20
4.1850479
40
1.6149993
50
181.3277424
51
188.4640302
0
ARC
8
DEFAULT_255_2_778
10
24.7425527
20
4.2245457
40
2.5861184
50
179.9691408
51
181.7044155
0
ARC
8
DEFAULT_255_2_778
10
22.498567
20
3.3149132
40
0.9731505
50
91.836426
51
110.5834831
0
ARC
8
DEFAULT_255_2_778
10
22.4876154
20
3.4403617
40
0.8474436
50
90.001167
51
91.3681699
0
ARC
8
DEFAULT_255_2_778
10
22.4880606
20
3.4631516
40
0.8246539
50
78.849715
51
90.0321285
0
ARC
8
DEFAULT_255_2_778
10
22.54208
20
3.8813312
40
0.4048818
50
47.5529445
51
74.9027679
0
ARC
8
DEFAULT_255_2_778
10
22.5865983
20
3.9512882
40
0.3235337
50
359.6987717
51
45.0082395
0
ARC
8
DEFAULT_255_2_778
10
22.4033538
20
3.9301711
40
0.5071455
50
359.9862898
51
2.1941253
0
ARC
8
DEFAULT_255_2_778
10
22.2972921
20
3.9320723
40
0.6132104
50
352.5417521
51
359.8110133
0
ARC
8
DEFAULT_255_2_778
10
22.1664027
20
3.9469666
40
0.7449292
50
351.0860109
51
352.7126325
0
ARC
8
DEFAULT_255_2_778
10
22.5179116
20
3.8862837
40
0.3883017
50
328.66389
51
351.8950947
0
ARC
8
DEFAULT_255_2_778
10
22.6932351
20
3.7814344
40
0.1840319
50
278.5308426
51
328.158506
0
ARC
8
DEFAULT_255_2_778
10
22.5533029
20
3.2296745
40
0.4058226
50
39.866657
51
65.6643606
0
ARC
8
DEFAULT_255_2_778
10
22.6156518
20
3.2942877
40
0.3166965
50
358.4808215
51
38.1246675
0
ARC
8
DEFAULT_255_2_778
10
22.4178003
20
3.2895389
40
0.5144498
50
347.8015037
51
359.5937847
0
ARC
8
DEFAULT_255_2_778
10
22.2110534
20
3.3307405
40
0.7252427
50
342.4488644
51
348.0712251
0
ARC
8
DEFAULT_255_2_778
10
22.5279267
20
3.2344591
40
0.3941039
50
281.6930105
51
341.9028014
0
ARC
8
DEFAULT_255_2_778
10
22.4647764
20
3.4843674
40
0.6517206
50
269.4955354
51
282.6769476
0
ARC
8
DEFAULT_255_2_778
10
22.4630097
20
3.8292236
40
0.9965596
50
262.5386849
51
269.771677
0
ARC
8
DEFAULT_255_2_778
10
22.5167865
20
4.2507943
40
1.4215446
50
257.2193552
51
262.5960116
0
ARC
8
DEFAULT_255_2_778
10
22.6000212
20
4.6350847
40
1.814731
50
255.2646107
51
257.3405882
0
LINE
8
DEFAULT_255_2_778
10
22.1384347
20
2.8800386
11
22.1384347
21
3.1816386
0
ARC
8
DEFAULT_255_2_778
10
22.6023066
20
4.4146567
40
1.3173879
50
249.3832733
51
254.806448
0
ARC
8
DEFAULT_255_2_778
10
22.4606987
20
3.8868533
40
0.7709225
50
254.6824191
51
262.7260238
0
ARC
8
DEFAULT_255_2_778
10
22.4220034
20
3.5970231
40
0.4785284
50
262.9280396
51
269.7807309
0
ARC
8
DEFAULT_255_2_778
10
22.428091
20
3.3736682
40
0.2552928
50
268.222478
51
294.7545391
0
ARC
8
DEFAULT_255_2_778
10
22.4519233
20
3.3009196
40
0.1794666
50
297.5714375
51
351.0653117
0
ARC
8
DEFAULT_255_2_778
10
22.3366084
20
3.3370636
40
0.2995248
50
347.6591172
51
347.9510506
0
ARC
8
DEFAULT_255_2_778
10
22.414929
20
3.2676486
40
0.2147163
50
1.8388771
51
35.5815325
0
ARC
8
DEFAULT_255_2_778
10
22.4601159
20
3.2828242
40
0.1697105
50
40.296617
51
90.5183351
0
ARC
8
DEFAULT_255_2_778
10
22.4401372
20
3.1327831
40
0.3202762
50
86.698736
51
90.0418045
0
ARC
8
DEFAULT_255_2_778
10
22.4431197
20
3.0060781
40
0.4469928
50
90.4122525
51
99.5776163
0
ARC
8
DEFAULT_255_2_778
10
22.4773822
20
2.7842109
40
0.6714754
50
99.3105318
51
103.5346377
0
LINE
8
DEFAULT_255_2_778
10
22.3202347
20
3.4370386
11
22.3202347
21
3.6923386
0
ARC
8
DEFAULT_255_2_778
10
22.4133999
20
4.1921404
40
0.5084109
50
259.441004
51
267.3365293
0
ARC
8
DEFAULT_255_2_778
10
22.4063044
20
4.0778009
40
0.3938691
50
267.594676
51
269.9788165
0
ARC
8
DEFAULT_255_2_778
10
22.4178734
20
3.9106419
40
0.2270124
50
267.0420123
51
308.6644888
0
ARC
8
DEFAULT_255_2_778
10
22.4024154
20
3.9046678
40
0.2325427
50
312.5609862
51
347.6014898
0
ARC
8
DEFAULT_255_2_778
10
22.4470781
20
3.8672499
40
0.1828851
50
356.0773035
51
35.2172547
0
ARC
8
DEFAULT_255_2_778
10
22.4951742
20
3.8810946
40
0.136599
50
42.1234482
51
94.6776201
0
ARC
8
DEFAULT_255_2_778
10
15.1811572
20
6.475749
40
1.0792256
50
65.9176343
51
73.722488
0
ARC
8
DEFAULT_255_2_778
10
15.301351
20
6.8940321
40
0.6440229
50
73.5565904
51
85.3520934
0
ARC
8
DEFAULT_255_2_778
10
15.3199678
20
7.0737621
40
0.4633924
50
85.8456483
51
89.9529664
0
ARC
8
DEFAULT_255_2_778
10
15.3079911
20
7.2375849
40
0.2998242
50
87.637917
51
140.7121658
0
ARC
8
DEFAULT_255_2_778
10
15.3356598
20
7.2958076
40
0.2911766
50
153.1236905
51
167.431917
0
ARC
8
DEFAULT_255_2_778
10
15.243078
20
7.3178269
40
0.1960264
50
167.8253167
51
179.7546604
0
ARC
8
DEFAULT_255_2_778
10
15.2249259
20
7.3230165
40
0.1779257
50
181.4010122
51
237.5431885
0
ARC
8
DEFAULT_255_2_778
10
15.40481
20
7.5625439
40
0.4771415
50
234.7514051
51
250.7242897
0
ARC
8
DEFAULT_255_2_778
10
15.5469428
20
7.9247151
40
0.8660531
50
249.7578784
51
253.9455199
0
ARC
8
DEFAULT_255_2_778
10
14.9714545
20
6.0943335
40
1.0531365
50
59.9491513
51
71.3958351
0
ARC
8
DEFAULT_255_2_778
10
15.2131107
20
6.5035198
40
0.5779546
50
39.7064486
51
60.3720202
0
ARC
8
DEFAULT_255_2_778
10
15.3437466
20
6.618283
40
0.4041647
50
359.1549198
51
39.0212702
0
ARC
8
DEFAULT_255_2_778
10
15.1826162
20
6.615357
40
0.5652593
50
348.0282811
51
359.6923628
0
ARC
8
DEFAULT_255_2_778
10
14.9648644
20
6.660396
40
0.7876183
50
339.8624471
51
348.1089244
0
ARC
8
DEFAULT_255_2_778
10
15.0628295
20
6.7271274
40
0.7250502
50
315.6157118
51
332.2236641
0
ARC
8
DEFAULT_255_2_778
10
15.2157764
20
6.5804635
40
0.5131625
50
268.6135785
51
315.3738866
0
ARC
8
DEFAULT_255_2_778
10
15.208278
20
6.8586248
40
0.791189
50
258.091005
51
269.643871
0
ARC
8
DEFAULT_255_2_778
10
15.2798375
20
7.2080683
40
1.1478799
50
250.2174143
51
258.1953792
0
ARC
8
DEFAULT_255_2_778
10
15.4379725
20
7.6544968
40
1.6214846
50
244.7084557
51
250.2984066
0
ARC
8
DEFAULT_255_2_778
10
-4.0436566
20
8.5105495
40
18.9318418
50
352.9545663
51
353.8219663
0
ARC
8
DEFAULT_255_2_778
10
15.3014022
20
7.5364163
40
1.1850163
50
243.8013003
51
251.5216913
0
ARC
8
DEFAULT_255_2_778
10
15.155804
20
7.0938824
40
0.7191545
50
251.3490102
51
263.1702479
0
ARC
8
DEFAULT_255_2_778
10
15.1267071
20
6.8823598
40
0.5056866
50
263.5935761
51
269.8982957
0
ARC
8
DEFAULT_255_2_778
10
15.1360937
20
6.7183614
40
0.3418422
50
268.2760205
51
318.0257604
0
ARC
8
DEFAULT_255_2_778
10
15.1771083
20
6.6067248
40
0.2431226
50
331.2373837
51
347.8403114
0
ARC
8
DEFAULT_255_2_778
10
15.2485403
20
6.5896157
40
0.1696977
50
348.407219
51
359.8296238
0
ARC
8
DEFAULT_255_2_778
10
15.2452542
20
6.5832745
40
0.1730815
50
1.9324842
51
53.958923
0
ARC
8
DEFAULT_255_2_778
10
15.0518903
20
6.354276
40
0.472512
50
51.3366038
51
67.2280744
0
ARC
8
DEFAULT_255_2_778
10
14.8560951
20
5.9236758
40
0.9454351
50
66.387864
51
72.3765667
0
ARC
8
DEFAULT_255_2_778
10
15.3216852
20
7.5847232
40
0.7808605
50
239.759803
51
256.72158
0
ARC
8
DEFAULT_255_2_778
10
15.1280942
20
7.2660276
40
0.4080907
50
183.1871727
51
240.7067108
0
ARC
8
DEFAULT_255_2_778
10
15.6991368
20
7.2669822
40
0.9787877
50
180.0077397
51
181.3841716
0
ARC
8
DEFAULT_255_2_778
10
15.4127534
20
7.2767222
40
0.6924747
50
164.0995805
51
180.8168592
0
ARC
8
DEFAULT_255_2_778
10
15.1454668
20
7.3537701
40
0.4143072
50
103.4617917
51
164.2202436
0
ARC
8
DEFAULT_255_2_778
10
15.268323
20
6.9673787
40
0.8192156
50
91.8419971
51
105.5275651
0
ARC
8
DEFAULT_255_2_778
10
15.2922567
20
6.6107824
40
1.1764629
50
89.97235
51
92.4487896
0
ARC
8
DEFAULT_255_2_778
10
15.289926
20
6.3308892
40
1.4563586
50
85.2780994
51
89.8859671
0
ARC
8
DEFAULT_255_2_778
10
15.2524125
20
5.8666964
40
1.9220642
50
81.6473464
51
85.3027189
0
ARC
8
DEFAULT_255_2_778
10
15.1701152
20
5.3025312
40
2.4922003
50
78.5855098
51
81.6595184
0
ARC
8
DEFAULT_255_2_778
10
28.1506018
20
6.4405504
40
1.0905235
50
66.2656011
51
73.9738995
0
ARC
8
DEFAULT_255_2_778
10
28.2702208
20
6.8645166
40
0.6500136
50
73.7908686
51
85.6832929
0
ARC
8
DEFAULT_255_2_778
10
28.2880509
20
7.0450326
40
0.4686863
50
86.1957815
51
89.9600485
0
ARC
8
DEFAULT_255_2_778
10
28.2801546
20
7.1924492
40
0.3213748
50
88.5337994
51
120.8629768
0
ARC
8
DEFAULT_255_2_778
10
28.2731046
20
7.2163855
40
0.2972767
50
122.0632919
51
140.4345576
0
ARC
8
DEFAULT_255_2_778
10
28.2960967
20
7.2758309
40
0.2836577
50
152.7435823
51
167.2253661
0
ARC
8
DEFAULT_255_2_778
10
28.204963
20
7.2978691
40
0.1899114
50
167.6300861
51
179.7484885
0
ARC
8
DEFAULT_255_2_778
10
28.1881738
20
7.3030928
40
0.1731761
50
181.4526199
51
237.5159376
0
ARC
8
DEFAULT_255_2_778
10
28.3667822
20
7.5411772
40
0.4704868
50
234.7386855
51
250.8851207
0
ARC
8
DEFAULT_255_2_778
10
28.5113546
20
7.9125912
40
0.8688939
50
249.8974841
51
254.2454139
0
ARC
8
DEFAULT_255_2_778
10
27.9407984
20
6.0662524
40
1.064075
50
60.452806
51
71.6702333
0
ARC
8
DEFAULT_255_2_778
10
28.1827791
20
6.4845441
40
0.5808672
50
40.7369419
51
60.8705008
0
ARC
8
DEFAULT_255_2_778
10
28.3220556
20
6.609436
40
0.3938503
50
359.1986117
51
40.1925314
0
ARC
8
DEFAULT_255_2_778
10
28.1683342
20
6.60693
40
0.5475414
50
347.8353534
51
359.6858052
0
ARC
8
DEFAULT_255_2_778
10
27.955213
20
6.6517492
40
0.7653225
50
339.5568131
51
347.9174315
0
ARC
8
DEFAULT_255_2_778
10
28.0434722
20
6.7214
40
0.7134501
50
315.0672206
51
331.816399
0
ARC
8
DEFAULT_255_2_778
10
28.1843371
20
6.5854176
40
0.5176956
50
268.5559178
51
314.7105411
0
ARC
8
DEFAULT_255_2_778
10
28.176185
20
6.8718689
40
0.8039974
50
258.2866954
51
269.6511988
0
ARC
8
DEFAULT_255_2_778
10
28.2469851
20
7.2235986
40
1.162778
50
250.5245107
51
258.3892135
0
ARC
8
DEFAULT_255_2_778
10
28.4028509
20
7.6711147
40
1.636657
50
245.0797375
51
250.6034771
0
ARC
8
DEFAULT_255_2_778
10
10.3224314
20
8.3832676
40
17.5289572
50
352.8017523
51
353.7240022
0
ARC
8
DEFAULT_255_2_778
10
28.2672603
20
7.5427832
40
1.1952363
50
244.1615739
51
251.7956764
0
ARC
8
DEFAULT_255_2_778
10
28.1235392
20
7.0989068
40
0.7286804
50
251.6272294
51
263.2806202
0
ARC
8
DEFAULT_255_2_778
10
28.0946866
20
6.8856923
40
0.5135679
50
263.6941855
51
269.8999623
0
ARC
8
DEFAULT_255_2_778
10
28.1045276
20
6.7163905
40
0.3444326
50
268.2135069
51
317.4420892
0
ARC
8
DEFAULT_255_2_778
10
28.1507288
20
6.599181
40
0.2376026
50
330.8481456
51
347.4127405
0
ARC
8
DEFAULT_255_2_778
10
28.2215306
20
6.5817313
40
0.1647075
50
347.969602
51
359.8157291
0
ARC
8
DEFAULT_255_2_778
10
28.2182306
20
6.5754448
40
0.1681052
50
1.9624825
51
53.906782
0
ARC
8
DEFAULT_255_2_778
10
28.0266709
20
6.3482183
40
0.4650373
50
51.3268953
51
67.4546337
0
ARC
8
DEFAULT_255_2_778
10
27.8280912
20
5.9072723
40
0.9485313
50
66.588506
51
72.6889861
0
ARC
8
DEFAULT_255_2_778
10
28.289574
20
7.5837158
40
0.7914407
50
240.4003991
51
256.9105354
0
ARC
8
DEFAULT_255_2_778
10
28.089432
20
7.2488635
40
0.4015227
50
183.4446062
51
241.6316251
0
ARC
8
DEFAULT_255_2_778
10
28.6363952
20
7.248008
40
0.9480461
50
180.007869
51
181.4064392
0
ARC
8
DEFAULT_255_2_778
10
28.3570319
20
7.2577932
40
0.6687564
50
163.5927638
51
180.8495397
0
ARC
8
DEFAULT_255_2_778
10
28.10999
20
7.3290579
40
0.4116473
50
102.9244818
51
163.3954823
0
ARC
8
DEFAULT_255_2_778
10
28.2366018
20
6.9263516
40
0.8331374
50
91.8049999
51
105.2173911
0
ARC
8
DEFAULT_255_2_778
10
28.260462
20
6.56372
40
1.196405
50
89.9729873
51
92.4000982
0
ARC
8
DEFAULT_255_2_778
10
28.2581312
20
6.2798369
40
1.4802907
50
85.3569429
51
89.8879544
0
ARC
8
DEFAULT_255_2_778
10
28.2207542
20
5.8094285
40
1.9521813
50
81.7849048
51
85.3811335
0
ARC
8
DEFAULT_255_2_778
10
28.1388693
20
5.2386072
40
2.5288459
50
78.770512
51
81.7966827
0
ARC
8
DEFAULT_255_2_778
10
9.329362
20
6.9469498
40
1.8945134
50
359.6246448
51
8.0894639
0
ARC
8
DEFAULT_255_2_778
10
10.1776633
20
7.0727076
40
1.0369691
50
7.8057813
51
21.802828
0
ARC
8
DEFAULT_255_2_778
10
10.6333152
20
7.2624819
40
0.5434709
50
21.0686317
51
51.2120864
0
ARC
8
DEFAULT_255_2_778
10
10.669381
20
7.2755596
40
0.5110725
50
53.4458424
51
88.6603666
0
ARC
8
DEFAULT_255_2_778
10
10.6415773
20
7.0319983
40
0.7555405
50
86.9840509
51
90.0259826
0
ARC
8
DEFAULT_255_2_778
10
10.6279028
20
7.1219115
40
0.6657606
50
88.8525717
51
111.5558287
0
ARC
8
DEFAULT_255_2_778
10
10.5817329
20
7.2771247
40
0.5046364
50
113.1553105
51
159.7648918
0
ARC
8
DEFAULT_255_2_778
10
11.0165692
20
7.091754
40
0.9770336
50
158.3848038
51
173.3574339
0
ARC
8
DEFAULT_255_2_778
10
11.7117978
20
6.9972489
40
1.6785808
50
172.8983332
51
180.2631813
0
ARC
8
DEFAULT_255_2_778
10
12.1782798
20
6.9771812
40
2.1450807
50
179.6699272
51
187.4270283
0
ARC
8
DEFAULT_255_2_778
10
11.2447962
20
6.8505156
40
1.2030657
50
187.1918752
51
199.6527793
0
ARC
8
DEFAULT_255_2_778
10
10.7171666
20
6.6557765
40
0.6407045
50
199.1212903
51
222.9562906
0
ARC
8
DEFAULT_255_2_778
10
10.6083118
20
6.5754512
40
0.5065336
50
224.6973857
51
268.5966341
0
ARC
8
DEFAULT_255_2_778
10
10.6408198
20
6.8261242
40
0.7583857
50
266.6048163
51
270.0313476
0
ARC
8
DEFAULT_255_2_778
10
10.6552088
20
6.6259418
40
0.5583781
50
268.5659579
51
297.1068772
0
ARC
8
DEFAULT_255_2_778
10
10.6640527
20
6.5669249
40
0.5021741
50
299.277336
51
336.4552197
0
ARC
8
DEFAULT_255_2_778
10
10.2527525
20
6.7636216
40
0.9579403
50
335.4969327
51
350.4451308
0
ARC
8
DEFAULT_255_2_778
10
9.4624679
20
6.9061808
40
1.7609501
50
350.1392654
51
359.0766353
0
ARC
8
DEFAULT_255_2_778
10
8.7704489
20
6.9340758
40
2.4533859
50
358.6857037
51
0.0108083
0
ARC
8
DEFAULT_255_2_778
10
10.6344643
20
7.34157
40
0.1433913
50
92.3699842
51
157.9212216
0
ARC
8
DEFAULT_255_2_778
10
10.9627218
20
7.1634754
40
0.5162023
50
153.2933996
51
169.3413446
0
ARC
8
DEFAULT_255_2_778
10
11.7756017
20
6.9939208
40
1.3465159
50
168.6485529
51
176.5695718
0
ARC
8
DEFAULT_255_2_778
10
13.082821
20
6.9009251
40
2.6569975
50
176.2545256
51
180.1657517
0
ARC
8
DEFAULT_255_2_778
10
12.4330309
20
6.881888
40
2.0072283
50
179.6759981
51
185.5030999
0
ARC
8
DEFAULT_255_2_778
10
11.3080735
20
6.7676615
40
0.8765208
50
185.1228524
51
195.8714157
0
ARC
8
DEFAULT_255_2_778
10
10.7511784
20
6.6021374
40
0.2956691
50
194.5313607
51
219.6822926
0
ARC
8
DEFAULT_255_2_778
10
10.6177238
20
6.4940577
40
0.1239676
50
220.6237787
51
270.357683
0
ARC
8
DEFAULT_255_2_778
10
10.6184258
20
6.5178476
40
0.147755
50
270.0278842
51
273.923066
0
ARC
8
DEFAULT_255_2_778
10
10.6237313
20
6.522892
40
0.152529
50
271.8046624
51
339.5558126
0
ARC
8
DEFAULT_255_2_778
10
10.2813343
20
6.6969052
40
0.5359062
50
334.904751
51
351.0109917
0
ARC
8
DEFAULT_255_2_778
10
9.4552175
20
6.8441727
40
1.3749842
50
350.3283245
51
358.3150054
0
ARC
8
DEFAULT_255_2_778
10
8.4808228
20
6.8912258
40
2.3504129
50
357.8669255
51
0.0490666
0
ARC
8
DEFAULT_255_2_778
10
7.8150038
20
6.9586906
40
3.016941
50
358.7568813
51
359.8250255
0
ARC
8
DEFAULT_255_2_778
10
8.0011523
20
6.9573693
40
2.8307894
50
359.8402624
51
359.9982343
0
ARC
8
DEFAULT_255_2_778
10
8.8978468
20
6.9687132
40
1.9341288
50
359.6613654
51
5.7605331
0
ARC
8
DEFAULT_255_2_778
10
9.9720855
20
7.0825644
40
0.853905
50
5.3945869
51
16.4152718
0
ARC
8
DEFAULT_255_2_778
10
10.5020805
20
7.2455262
40
0.2995323
50
15.163377
51
40.3376131
0
ARC
8
DEFAULT_255_2_778
10
10.6298459
20
7.3508625
40
0.1339824
50
41.3679971
51
90.5607399
0
LINE
8
DEFAULT_255_2_778
10
22.4840347
20
4.0172386
11
22.4840347
21
4.0169386
0
LINE
8
DEFAULT_255_2_778
10
15.6633347
20
7.7454386
11
15.6302347
21
7.4692386
0
LINE
8
DEFAULT_255_2_778
10
19.3336347
20
6.0799386
11
19.9064347
21
7.7600386
0
LINE
8
DEFAULT_255_2_778
10
19.9064347
20
7.7600386
11
20.1503347
21
7.7600386
0
LINE
8
DEFAULT_255_2_778
10
20.1503347
20
7.7600386
11
19.5778347
21
6.0799386
0
LINE
8
DEFAULT_255_2_778
10
19.5778347
20
6.0799386
11
19.3336347
21
6.0799386
0
LINE
8
DEFAULT_255_2_778
10
19.3463347
20
7.7875386
11
19.3463347
21
7.5227386
0
LINE
8
DEFAULT_255_2_778
10
19.3463347
20
7.5227386
11
18.8772347
21
7.5227386
0
LINE
8
DEFAULT_255_2_778
10
18.8772347
20
7.5227386
11
18.8772347
21
6.1079386
0
LINE
8
DEFAULT_255_2_778
10
18.8772347
20
6.1079386
11
18.5485347
21
6.1079386
0
LINE
8
DEFAULT_255_2_778
10
18.5485347
20
6.1079386
11
18.5485347
21
7.5227386
0
LINE
8
DEFAULT_255_2_778
10
18.5485347
20
7.5227386
11
18.0794347
21
7.5227386
0
LINE
8
DEFAULT_255_2_778
10
18.0794347
20
7.5227386
11
18.0794347
21
7.7875386
0
LINE
8
DEFAULT_255_2_778
10
18.0794347
20
7.7875386
11
19.3465347
21
7.7875386
0
LINE
8
DEFAULT_255_2_778
10
18.0128347
20
7.0480386
11
18.0128347
21
6.7921386
0
LINE
8
DEFAULT_255_2_778
10
18.0128347
20
6.7921386
11
17.3955347
21
6.7921386
0
LINE
8
DEFAULT_255_2_778
10
17.3955347
20
6.7921386
11
17.3955347
21
7.0480386
0
LINE
8
DEFAULT_255_2_778
10
17.3955347
20
7.0480386
11
18.0128347
21
7.0480386
0
LINE
8
DEFAULT_255_2_778
10
17.0986347
20
6.3725386
11
17.0986347
21
6.1079386
0
LINE
8
DEFAULT_255_2_778
10
17.0986347
20
6.1079386
11
16.1271347
21
6.1079386
0
LINE
8
DEFAULT_255_2_778
10
16.1271347
20
6.1079386
11
16.1271347
21
7.7875386
0
LINE
8
DEFAULT_255_2_778
10
16.1271347
20
7.7875386
11
17.0939347
21
7.7875386
0
LINE
8
DEFAULT_255_2_778
10
17.0939347
20
7.7875386
11
17.0939347
21
7.5227386
0
LINE
8
DEFAULT_255_2_778
10
17.0939347
20
7.5227386
11
16.4560347
21
7.5227386
0
LINE
8
DEFAULT_255_2_778
10
16.4560347
20
7.5227386
11
16.4560347
21
7.1091386
0
LINE
8
DEFAULT_255_2_778
10
16.4560347
20
7.1091386
11
17.0402347
21
7.1091386
0
LINE
8
DEFAULT_255_2_778
10
17.0402347
20
7.1091386
11
17.0402347
21
6.8443386
0
LINE
8
DEFAULT_255_2_778
10
17.0402347
20
6.8443386
11
16.4560347
21
6.8443386
0
LINE
8
DEFAULT_255_2_778
10
16.4560347
20
6.8443386
11
16.4560347
21
6.3728386
0
LINE
8
DEFAULT_255_2_778
10
16.4560347
20
6.3728386
11
17.0989347
21
6.3728386
0
LINE
8
DEFAULT_255_2_778
10
20.3715347
20
7.3501386
11
20.8504347
21
7.7319386
0
LINE
8
DEFAULT_255_2_778
10
20.8504347
20
7.7319386
11
21.1412347
21
7.7319386
0
LINE
8
DEFAULT_255_2_778
10
21.1412347
20
7.7319386
11
21.1412347
21
6.1079386
0
LINE
8
DEFAULT_255_2_778
10
21.1412347
20
6.1079386
11
20.8129347
21
6.1079386
0
LINE
8
DEFAULT_255_2_778
10
20.8129347
20
6.1079386
11
20.8129347
21
7.3621386
0
LINE
8
DEFAULT_255_2_778
10
20.8129347
20
7.3621386
11
20.5358347
21
7.1387386
0
LINE
8
DEFAULT_255_2_778
10
20.5358347
20
7.1387386
11
20.3715347
21
7.3504386
0
LINE
8
DEFAULT_255_2_778
10
28.6313347
20
7.7190386
11
28.5982347
21
7.4472386
0
LINE
8
DEFAULT_255_2_778
10
32.4754347
20
6.1079386
11
33.0128347
21
6.9813386
0
LINE
8
DEFAULT_255_2_778
10
33.0128347
20
6.9813386
11
32.5249347
21
7.7875386
0
LINE
8
DEFAULT_255_2_778
10
32.5249347
20
7.7875386
11
32.9054347
21
7.7875386
0
LINE
8
DEFAULT_255_2_778
10
32.9054347
20
7.7875386
11
33.2477347
21
7.1882386
0
LINE
8
DEFAULT_255_2_778
10
33.2477347
20
7.1882386
11
33.5975347
21
7.7875386
0
LINE
8
DEFAULT_255_2_778
10
33.5975347
20
7.7875386
11
33.9497347
21
7.7875386
0
LINE
8
DEFAULT_255_2_778
10
33.9497347
20
7.7875386
11
33.4568347
21
6.9813386
0
LINE
8
DEFAULT_255_2_778
10
33.4568347
20
6.9813386
11
33.9941347
21
6.1079386
0
LINE
8
DEFAULT_255_2_778
10
33.9941347
20
6.1079386
11
33.6068347
21
6.1079386
0
LINE
8
DEFAULT_255_2_778
10
33.6068347
20
6.1079386
11
33.2292347
21
6.7622386
0
LINE
8
DEFAULT_255_2_778
10
33.2292347
20
6.7622386
11
32.8464347
21
6.1079386
0
LINE
8
DEFAULT_255_2_778
10
32.8464347
20
6.1079386
11
32.4754347
21
6.1079386
0
LINE
8
DEFAULT_255_2_778
10
32.3148347
20
7.7875386
11
32.3148347
21
7.5227386
0
LINE
8
DEFAULT_255_2_778
10
32.3148347
20
7.5227386
11
31.8457347
21
7.5227386
0
LINE
8
DEFAULT_255_2_778
10
31.8457347
20
7.5227386
11
31.8457347
21
6.1079386
0
LINE
8
DEFAULT_255_2_778
10
31.8457347
20
6.1079386
11
31.5171347
21
6.1079386
0
LINE
8
DEFAULT_255_2_778
10
31.5171347
20
6.1079386
11
31.5171347
21
7.5227386
0
LINE
8
DEFAULT_255_2_778
10
31.5171347
20
7.5227386
11
31.0475347
21
7.5227386
0
LINE
8
DEFAULT_255_2_778
10
31.0475347
20
7.5227386
11
31.0475347
21
7.7875386
0
LINE
8
DEFAULT_255_2_778
10
31.0475347
20
7.7875386
11
32.3148347
21
7.7875386
0
LINE
8
DEFAULT_255_2_778
10
30.9811347
20
7.0480386
11
30.9811347
21
6.7921386
0
LINE
8
DEFAULT_255_2_778
10
30.9811347
20
6.7921386
11
30.3640347
21
6.7921386
0
LINE
8
DEFAULT_255_2_778
10
30.3640347
20
6.7921386
11
30.3640347
21
7.0480386
0
LINE
8
DEFAULT_255_2_778
10
30.3640347
20
7.0480386
11
30.9811347
21
7.0480386
0
LINE
8
DEFAULT_255_2_778
10
30.0669347
20
6.3725386
11
30.0669347
21
6.1079386
0
LINE
8
DEFAULT_255_2_778
10
30.0669347
20
6.1079386
11
29.0954347
21
6.1079386
0
LINE
8
DEFAULT_255_2_778
10
29.0954347
20
6.1079386
11
29.0954347
21
7.7875386
0
LINE
8
DEFAULT_255_2_778
10
29.0954347
20
7.7875386
11
30.0624347
21
7.7875386
0
LINE
8
DEFAULT_255_2_778
10
30.0624347
20
7.7875386
11
30.0624347
21
7.5227386
0
LINE
8
DEFAULT_255_2_778
10
30.0624347
20
7.5227386
11
29.4237347
21
7.5227386
0
LINE
8
DEFAULT_255_2_778
10
29.4237347
20
7.5227386
11
29.4237347
21
7.1091386
0
LINE
8
DEFAULT_255_2_778
10
29.4237347
20
7.1091386
11
30.0084347
21
7.1091386
0
LINE
8
DEFAULT_255_2_778
10
30.0084347
20
7.1091386
11
30.0084347
21
6.8443386
0
LINE
8
DEFAULT_255_2_778
10
30.0084347
20
6.8443386
11
29.4237347
21
6.8443386
0
LINE
8
DEFAULT_255_2_778
10
29.4237347
20
6.8443386
11
29.4237347
21
6.3728386
0
LINE
8
DEFAULT_255_2_778
10
29.4237347
20
6.3728386
11
30.0669347
21
6.3728386
0
LINE
8
DEFAULT_255_2_778
10
11.2238347
20
6.9345386
11
11.2238347
21
6.9345386
0
LINE
8
DEFAULT_255_2_778
10
10.6285347
20
7.4848386
11
10.6285347
21
7.4848386
0
ARC
8
DEFAULT_255_2_778
10
11.7760829
20
6.5610375
40
0.8279397
50
351.382164
51
356.9795201
0
ARC
8
DEFAULT_255_2_778
10
11.921144
20
6.5522041
40
0.6826158
50
357.0783503
51
359.9711637
0
ARC
8
DEFAULT_255_2_778
10
12.1579002
20
6.5635652
40
0.4460131
50
358.4962224
51
25.8224412
0
ARC
8
DEFAULT_255_2_778
10
12.2335662
20
6.5835506
40
0.3695007
50
28.1442266
51
70.3663094
0
ARC
8
DEFAULT_255_2_778
10
12.1182828
20
6.3216241
40
0.6552576
50
68.5671946
51
78.8785527
0
ARC
8
DEFAULT_255_2_778
10
12.2021507
20
7.3076583
40
0.3457072
50
277.0656631
51
347.878979
0
ARC
8
DEFAULT_255_2_778
10
11.9151378
20
7.4102347
40
0.6490954
50
344.3438684
51
351.3646889
0
ARC
8
DEFAULT_255_2_778
10
11.7059204
20
7.3295147
40
0.8511192
50
358.8731375
51
359.994234
0
ARC
8
DEFAULT_255_2_778
10
11.989248
20
7.3418547
40
0.5679274
50
358.7463379
51
20.3371872
0
ARC
8
DEFAULT_255_2_778
10
12.1779457
20
7.4018098
40
0.3702737
50
21.786177
51
78.4867237
0
ARC
8
DEFAULT_255_2_778
10
12.0605865
20
6.9857239
40
0.802048
50
76.2037713
51
90.7725952
0
ARC
8
DEFAULT_255_2_778
10
12.0498966
20
6.6269524
40
1.1607465
50
90.0061637
51
91.121634
0
ARC
8
DEFAULT_255_2_778
10
12.0289117
20
6.9971588
40
0.9293148
50
270.4786431
51
285.0470901
0
ARC
8
DEFAULT_255_2_778
10
12.1578121
20
6.5473926
40
0.4615702
50
284.0892829
51
318.0374734
0
ARC
8
DEFAULT_255_2_778
10
12.165605
20
6.5189957
40
0.4370775
50
320.1228625
51
349.2241378
0
ARC
8
DEFAULT_255_2_778
10
12.0276685
20
6.7137154
40
0.3791569
50
269.4418649
51
293.3279398
0
ARC
8
DEFAULT_255_2_778
10
12.089546
20
6.5485383
40
0.2031611
50
295.7511538
51
5.4903853
0
ARC
8
DEFAULT_255_2_778
10
11.9598697
20
6.5806126
40
0.3321458
50
357.8197211
51
25.9339222
0
ARC
8
DEFAULT_255_2_778
10
12.0693224
20
6.6181497
40
0.2177565
50
29.6492154
51
88.6098027
0
ARC
8
DEFAULT_255_2_778
10
12.0299857
20
6.3916705
40
0.4464072
50
84.2635328
51
90.1297117
0
LINE
8
DEFAULT_255_2_778
10
12.028975
20
6.8380765
11
11.828175
21
6.8380765
0
LINE
8
DEFAULT_255_2_778
10
11.828175
20
6.8380765
11
11.828175
21
6.3348765
0
ARC
8
DEFAULT_255_2_778
10
11.9184818
20
7.6693094
40
1.3374851
50
266.1284533
51
270.1046644
0
ARC
8
DEFAULT_255_2_778
10
11.9182164
20
8.1658593
40
1.8340348
50
270.0846189
51
273.3057649
0
ARC
8
DEFAULT_255_2_778
10
12.00776
20
7.4540161
40
0.3629661
50
269.3078049
51
292.8002593
0
ARC
8
DEFAULT_255_2_778
10
12.0769578
20
7.276999
40
0.1730322
50
294.3921179
51
4.8327402
0
ARC
8
DEFAULT_255_2_778
10
11.9947206
20
7.3045614
40
0.2549853
50
357.0809925
51
32.4329214
0
ARC
8
DEFAULT_255_2_778
10
12.0470112
20
7.3156314
40
0.2057655
50
37.6473886
51
87.7868617
0
ARC
8
DEFAULT_255_2_778
10
12.0092481
20
7.0933724
40
0.4303055
50
83.9022626
51
90.1561928
0
LINE
8
DEFAULT_255_2_778
10
12.008075
20
7.5236765
11
11.823675
21
7.5236765
0
LINE
8
DEFAULT_255_2_778
10
11.823675
20
7.5236765
11
11.823675
21
7.0910765
0
ARC
8
DEFAULT_255_2_778
10
11.9066331
20
8.3873241
40
1.2988995
50
266.3381439
51
270.0977922
0
ARC
8
DEFAULT_255_2_778
10
11.9063842
20
8.8635511
40
1.7751264
50
270.0795901
51
273.1321346
0
LINE
8
DEFAULT_255_2_778
10
12.027175
20
7.7874765
11
11.525775
21
7.7874765
0
LINE
8
DEFAULT_255_2_778
10
11.525775
20
7.7874765
11
11.525775
21
6.0678765
0
LINE
8
DEFAULT_255_2_778
10
11.525775
20
6.0678765
11
12.036675
21
6.0678765
0
LINE
8
DEFAULT_255_2_778
10
12.594975
20
6.4372765
11
12.594675
21
6.4369765
0
LINE
8
DEFAULT_255_2_778
10
12.023975
20
6.3348765
11
12.023975
21
6.3345765
0
LINE
8
DEFAULT_255_2_778
10
12.003375
20
7.0910765
11
12.003375
21
7.0910765
0
LINE
8
DEFAULT_255_2_778
10
12.838875
20
6.1078765
11
13.477375
21
7.7874765
0
LINE
8
DEFAULT_255_2_778
10
13.477375
20
7.7874765
11
13.847975
21
7.7874765
0
LINE
8
DEFAULT_255_2_778
10
13.847975
20
7.7874765
11
14.491175
21
6.1078765
0
LINE
8
DEFAULT_255_2_778
10
14.491175
20
6.1078765
11
14.127375
21
6.1078765
0
LINE
8
DEFAULT_255_2_778
10
14.127375
20
6.1078765
11
13.986375
21
6.4928765
0
LINE
8
DEFAULT_255_2_778
10
13.986375
20
6.4928765
11
13.322275
21
6.4928765
0
LINE
8
DEFAULT_255_2_778
10
13.322275
20
6.4928765
11
13.178875
21
6.1078765
0
LINE
8
DEFAULT_255_2_778
10
13.178875
20
6.1078765
11
12.838875
21
6.1078765
0
LINE
8
DEFAULT_255_2_778
10
13.652975
20
7.4503765
11
13.415975
21
6.7573765
0
LINE
8
DEFAULT_255_2_778
10
13.415975
20
6.7573765
11
13.894875
21
6.7573765
0
LINE
8
DEFAULT_255_2_778
10
13.894875
20
6.7573765
11
13.657775
21
7.4503765
0
LINE
8
DEFAULT_255_2_778
10
13.657775
20
7.4503765
11
13.652975
21
7.4503765
0
ARC
8
DEFAULT_255_2_778
10
20.9462763
20
6.9329353
40
1.8346517
50
359.619061
51
8.2205792
0
ARC
8
DEFAULT_255_2_778
10
21.7644856
20
7.056163
40
1.0072421
50
7.9378486
51
22.1360041
0
ARC
8
DEFAULT_255_2_778
10
22.2045512
20
7.2433408
40
0.5291371
50
21.3171797
51
53.4652632
0
ARC
8
DEFAULT_255_2_778
10
22.2250389
20
7.2360616
40
0.5232027
50
55.7431285
51
88.8806042
0
ARC
8
DEFAULT_255_2_778
10
22.1985833
20
6.9892122
40
0.7708254
50
87.2727681
51
90.021989
0
ARC
8
DEFAULT_255_2_778
10
22.1851427
20
7.0824975
40
0.6776675
50
88.8885585
51
110.9302709
0
ARC
8
DEFAULT_255_2_778
10
22.1350104
20
7.2503654
40
0.5031391
50
112.4271556
51
160.4565489
0
ARC
8
DEFAULT_255_2_778
10
22.5702525
20
7.0688999
40
0.9743417
50
158.9619758
51
173.6257245
0
ARC
8
DEFAULT_255_2_778
10
23.2338518
20
6.9816332
40
1.6435789
50
173.1707012
51
180.2403877
0
ARC
8
DEFAULT_255_2_778
10
23.6674887
20
6.9625908
40
2.0772367
50
179.6649602
51
187.5474945
0
ARC
8
DEFAULT_255_2_778
10
22.7667409
20
6.8384188
40
1.1679928
50
187.312776
51
199.9537012
0
ARC
8
DEFAULT_255_2_778
10
22.2569314
20
6.6466133
40
0.623364
50
199.3734225
51
224.2963696
0
ARC
8
DEFAULT_255_2_778
10
22.1639045
20
6.5789654
40
0.5098069
50
226.1565962
51
268.0468926
0
ARC
8
DEFAULT_255_2_778
10
22.1977393
20
6.8321787
40
0.7644413
50
266.1588876
51
270.0410868
0
ARC
8
DEFAULT_255_2_778
10
22.212084
20
6.6355415
40
0.5679716
50
268.6081049
51
296.2550152
0
ARC
8
DEFAULT_255_2_778
10
22.2256479
20
6.565792
40
0.4997674
50
298.3982676
51
336.9680176
0
ARC
8
DEFAULT_255_2_778
10
21.8086476
20
6.7618723
40
0.9603985
50
335.9358196
51
350.9383561
0
ARC
8
DEFAULT_255_2_778
10
21.0231269
20
6.8974239
40
1.7574938
50
350.6076938
51
359.3718403
0
ARC
8
DEFAULT_255_2_778
10
20.3769779
20
6.9204575
40
2.4039095
50
358.9917186
51
0.0066723
0
ARC
8
DEFAULT_255_2_778
10
22.1913874
20
7.3178395
40
0.1446143
50
92.2984999
51
158.1139243
0
ARC
8
DEFAULT_255_2_778
10
22.5165538
20
7.1420627
40
0.5135799
50
153.4344825
51
169.29362
0
ARC
8
DEFAULT_255_2_778
10
23.3038599
20
6.9776499
40
1.3178134
50
168.6289109
51
176.5438155
0
ARC
8
DEFAULT_255_2_778
10
24.5612276
20
6.8877584
40
2.5783508
50
176.2343233
51
180.1649069
0
ARC
8
DEFAULT_255_2_778
10
23.9018088
20
6.8684043
40
1.9189583
50
179.6437004
51
185.829
0
ARC
8
DEFAULT_255_2_778
10
22.8066393
20
6.7508624
40
0.8175338
50
185.4288913
51
196.8079935
0
ARC
8
DEFAULT_255_2_778
10
22.2850695
20
6.5860057
40
0.2706654
50
195.3273152
51
222.5972814
0
ARC
8
DEFAULT_255_2_778
10
22.1742218
20
6.4891567
40
0.1235721
50
224.3283734
51
270.5769582
0
ARC
8
DEFAULT_255_2_778
10
22.1753962
20
6.5156722
40
0.1500811
50
270.026699
51
273.893689
0
ARC
8
DEFAULT_255_2_778
10
22.1810151
20
6.519428
40
0.1535586
50
271.7063147
51
339.7039114
0
ARC
8
DEFAULT_255_2_778
10
21.8420886
20
6.6909669
40
0.5327087
50
335.0389659
51
351.0252282
0
ARC
8
DEFAULT_255_2_778
10
21.0302022
20
6.8347283
40
1.3571688
50
350.3772889
51
358.4515791
0
ARC
8
DEFAULT_255_2_778
10
20.0907834
20
6.8786105
40
2.2975048
50
357.99068
51
0.0430675
0
ARC
8
DEFAULT_255_2_778
10
19.4691518
20
6.9447275
40
2.9198458
50
358.7363801
51
359.8221377
0
ARC
8
DEFAULT_255_2_778
10
19.6492886
20
6.9434275
40
2.7397059
50
359.8376295
51
359.9982047
0
ARC
8
DEFAULT_255_2_778
10
20.5168984
20
6.9545823
40
1.87213
50
359.6559818
51
5.8552115
0
ARC
8
DEFAULT_255_2_778
10
21.5588699
20
7.0670341
40
0.8241417
50
5.4680838
51
16.8042615
0
ARC
8
DEFAULT_255_2_778
10
22.0711639
20
7.2286915
40
0.2870651
50
15.4771378
51
41.7786184
0
ARC
8
DEFAULT_255_2_778
10
22.1872087
20
7.3278242
40
0.134523
50
43.2224702
51
90.6904961
0
LINE
8
DEFAULT_255_2_778
10
22.7808875
20
6.9207375
11
22.7808875
21
6.9207375
0
LINE
8
DEFAULT_255_2_778
10
22.1855875
20
7.4623375
11
22.1855875
21
7.4623375
0
ARC
8
DEFAULT_255_2_778
10
22.3575763
20
6.9329353
40
1.8346517
50
359.619061
51
8.2205792
0
ARC
8
DEFAULT_255_2_778
10
23.1757856
20
7.056163
40
1.0072421
50
7.9378486
51
22.1360041
0
ARC
8
DEFAULT_255_2_778
10
23.6158512
20
7.2433408
40
0.5291371
50
21.3171797
51
53.4652632
0
ARC
8
DEFAULT_255_2_778
10
23.6363389
20
7.2360616
40
0.5232027
50
55.7431285
51
88.8806042
0
ARC
8
DEFAULT_255_2_778
10
23.6098833
20
6.9892122
40
0.7708254
50
87.2727681
51
90.021989
0
ARC
8
DEFAULT_255_2_778
10
23.5964427
20
7.0824975
40
0.6776675
50
88.8885585
51
110.9302709
0
ARC
8
DEFAULT_255_2_778
10
23.5463104
20
7.2503654
40
0.5031391
50
112.4271556
51
160.4565489
0
ARC
8
DEFAULT_255_2_778
10
23.9815525
20
7.0688999
40
0.9743417
50
158.9619758
51
173.6257245
0
ARC
8
DEFAULT_255_2_778
10
24.6451518
20
6.9816332
40
1.6435789
50
173.1707012
51
180.2403877
0
ARC
8
DEFAULT_255_2_778
10
25.0787887
20
6.9625908
40
2.0772367
50
179.6649602
51
187.5474945
0
ARC
8
DEFAULT_255_2_778
10
24.1780409
20
6.8384188
40
1.1679928
50
187.312776
51
199.9537012
0
ARC
8
DEFAULT_255_2_778
10
23.6682314
20
6.6466133
40
0.623364
50
199.3734225
51
224.2963696
0
ARC
8
DEFAULT_255_2_778
10
23.5752045
20
6.5789654
40
0.5098069
50
226.1565962
51
268.0468926
0
ARC
8
DEFAULT_255_2_778
10
23.6090393
20
6.8321787
40
0.7644413
50
266.1588876
51
270.0410868
0
ARC
8
DEFAULT_255_2_778
10
23.623384
20
6.6355415
40
0.5679716
50
268.6081049
51
296.2550152
0
ARC
8
DEFAULT_255_2_778
10
23.6369479
20
6.565792
40
0.4997674
50
298.3982676
51
336.9680176
0
ARC
8
DEFAULT_255_2_778
10
23.2199476
20
6.7618723
40
0.9603985
50
335.9358196
51
350.9383561
0
ARC
8
DEFAULT_255_2_778
10
22.4344269
20
6.8974239
40
1.7574938
50
350.6076938
51
359.3718403
0
ARC
8
DEFAULT_255_2_778
10
21.7882779
20
6.9204575
40
2.4039095
50
358.9917186
51
0.0066723
0
ARC
8
DEFAULT_255_2_778
10
23.6026874
20
7.3178395
40
0.1446143
50
92.2984999
51
158.1139243
0
ARC
8
DEFAULT_255_2_778
10
23.9278538
20
7.1420627
40
0.5135799
50
153.4344825
51
169.29362
0
ARC
8
DEFAULT_255_2_778
10
24.7151599
20
6.9776499
40
1.3178134
50
168.6289109
51
176.5438155
0
ARC
8
DEFAULT_255_2_778
10
25.9725276
20
6.8877584
40
2.5783508
50
176.2343233
51
180.1649069
0
ARC
8
DEFAULT_255_2_778
10
25.3131088
20
6.8684043
40
1.9189583
50
179.6437004
51
185.829
0
ARC
8
DEFAULT_255_2_778
10
24.2179393
20
6.7508624
40
0.8175338
50
185.4288913
51
196.8079935
0
ARC
8
DEFAULT_255_2_778
10
23.6963695
20
6.5860057
40
0.2706654
50
195.3273152
51
222.5972814
0
ARC
8
DEFAULT_255_2_778
10
23.5855218
20
6.4891567
40
0.1235721
50
224.3283734
51
270.5769582
0
ARC
8
DEFAULT_255_2_778
10
23.5866962
20
6.5156722
40
0.1500811
50
270.026699
51
273.893689
0
ARC
8
DEFAULT_255_2_778
10
23.5923151
20
6.519428
40
0.1535586
50
271.7063147
51
339.7039114
0
ARC
8
DEFAULT_255_2_778
10
23.2533886
20
6.6909669
40
0.5327087
50
335.0389659
51
351.0252282
0
ARC
8
DEFAULT_255_2_778
10
22.4415022
20
6.8347283
40
1.3571688
50
350.3772889
51
358.4515791
0
ARC
8
DEFAULT_255_2_778
10
21.5020834
20
6.8786105
40
2.2975048
50
357.99068
51
0.0430675
0
ARC
8
DEFAULT_255_2_778
10
20.8804518
20
6.9447275
40
2.9198458
50
358.7363801
51
359.8221377
0
ARC
8
DEFAULT_255_2_778
10
21.0605886
20
6.9434275
40
2.7397059
50
359.8376295
51
359.9982047
0
ARC
8
DEFAULT_255_2_778
10
21.9281984
20
6.9545823
40
1.87213
50
359.6559818
51
5.8552115
0
ARC
8
DEFAULT_255_2_778
10
22.9701699
20
7.0670341
40
0.8241417
50
5.4680838
51
16.8042615
0
ARC
8
DEFAULT_255_2_778
10
23.4824639
20
7.2286915
40
0.2870651
50
15.4771378
51
41.7786184
0
ARC
8
DEFAULT_255_2_778
10
23.5985087
20
7.3278242
40
0.134523
50
43.2224702
51
90.6904961
0
LINE
8
DEFAULT_255_2_778
10
24.1921875
20
6.9207375
11
24.1921875
21
6.9207375
0
LINE
8
DEFAULT_255_2_778
10
23.5968875
20
7.4623375
11
23.5968875
21
7.4623375
0
ARC
8
DEFAULT_255_2_778
10
24.7442389
20
6.5609811
40
0.8281326
50
351.3953642
51
356.9843148
0
ARC
8
DEFAULT_255_2_778
10
24.8892671
20
6.5521654
40
0.6828424
50
357.0827906
51
359.9712595
0
ARC
8
DEFAULT_255_2_778
10
25.1260327
20
6.5635338
40
0.4462303
50
358.4961485
51
25.8187347
0
ARC
8
DEFAULT_255_2_778
10
25.2018246
20
6.5835784
40
0.3695774
50
28.1394991
51
70.3639298
0
ARC
8
DEFAULT_255_2_778
10
25.0865416
20
6.3216603
40
0.6553268
50
68.5658234
51
78.8782754
0
ARC
8
DEFAULT_255_2_778
10
25.1707447
20
7.3073583
40
0.3452678
50
277.0214025
51
347.7485508
0
ARC
8
DEFAULT_255_2_778
10
24.884847
20
7.4098171
40
0.6475995
50
344.2554463
51
351.3912023
0
ARC
8
DEFAULT_255_2_778
10
24.6755109
20
7.3297769
40
0.8498074
50
358.8606865
51
359.9948113
0
ARC
8
DEFAULT_255_2_778
10
24.9579371
20
7.3421177
40
0.567517
50
358.7462192
51
20.3404037
0
ARC
8
DEFAULT_255_2_778
10
25.1464086
20
7.4019909
40
0.3701047
50
21.791495
51
78.490636
0
ARC
8
DEFAULT_255_2_778
10
25.0290707
20
6.985939
40
0.8018402
50
76.2059994
51
90.77255
0
ARC
8
DEFAULT_255_2_778
10
25.0183764
20
6.6278582
40
1.1598481
50
90.0057812
51
91.1326124
0
ARC
8
DEFAULT_255_2_778
10
24.997292
20
6.9971682
40
0.9292208
50
270.4783804
51
285.0478479
0
ARC
8
DEFAULT_255_2_778
10
25.1262072
20
6.5473622
40
0.4614338
50
284.090034
51
318.0373496
0
ARC
8
DEFAULT_255_2_778
10
25.1340157
20
6.5189436
40
0.4369153
50
320.1242455
51
349.2408347
0
ARC
8
DEFAULT_255_2_778
10
24.9962437
20
6.7138187
40
0.3791569
50
269.4418649
51
293.3279398
0
ARC
8
DEFAULT_255_2_778
10
25.0581213
20
6.5486416
40
0.2031611
50
295.7511538
51
5.4903853
0
ARC
8
DEFAULT_255_2_778
10
24.9283374
20
6.5807175
40
0.3322532
50
357.8201417
51
25.9246122
0
ARC
8
DEFAULT_255_2_778
10
25.0379348
20
6.6183147
40
0.2177047
50
29.6382909
51
88.6271781
0
ARC
8
DEFAULT_255_2_778
10
24.9986575
20
6.391956
40
0.4462247
50
84.2775296
51
90.1293267
0
LINE
8
DEFAULT_255_2_778
10
24.9976503
20
6.8381797
11
24.7967503
21
6.8381797
0
LINE
8
DEFAULT_255_2_778
10
24.7967503
20
6.8381797
11
24.7967503
21
6.3349797
0
ARC
8
DEFAULT_255_2_778
10
24.8870597
20
7.669583
40
1.3376553
50
266.1288296
51
270.1045344
0
ARC
8
DEFAULT_255_2_778
10
24.8867918
20
8.1659553
40
1.8340276
50
270.0846141
51
273.3057728
0
ARC
8
DEFAULT_255_2_778
10
24.9763372
20
7.4538581
40
0.3628049
50
269.3071818
51
292.8106271
0
ARC
8
DEFAULT_255_2_778
10
25.0454372
20
7.2770788
40
0.1731298
50
294.4123089
51
4.837804
0
ARC
8
DEFAULT_255_2_778
10
24.9634881
20
7.3046564
40
0.2547928
50
357.0806506
51
32.4454424
0
ARC
8
DEFAULT_255_2_778
10
25.015601
20
7.3156099
40
0.2057906
50
37.6631454
51
87.7912111
0
ARC
8
DEFAULT_255_2_778
10
24.9778216
20
7.093167
40
0.4305143
50
83.9050025
51
90.1558907
0
LINE
8
DEFAULT_255_2_778
10
24.9766503
20
7.5236797
11
24.7922503
21
7.5236797
0
LINE
8
DEFAULT_255_2_778
10
24.7922503
20
7.5236797
11
24.7922503
21
7.0910797
0
ARC
8
DEFAULT_255_2_778
10
24.8752073
20
8.4122698
40
1.3237919
50
266.4071375
51
270.0959986
0
ARC
8
DEFAULT_255_2_778
10
24.8749684
20
8.897364
40
1.8088859
50
270.0778198
51
273.0733371
0
ARC
8
DEFAULT_255_2_778
10
19.3865103
20
37.6322621
40
3.0224292
50
270.396603
51
273.0732436
0
ARC
8
DEFAULT_255_2_778
10
19.4006951
20
36.6357354
40
2.0258412
50
270.000006
51
270.1905207
0
ARC
8
DEFAULT_255_2_778
10
19.3788773
20
35.625903
40
1.0162431
50
258.2786214
51
271.2301908
0
ARC
8
DEFAULT_255_2_778
10
19.22102
20
34.8868045
40
0.2605252
50
230.1143714
51
259.249794
0
ARC
8
DEFAULT_255_2_778
10
19.1485474
20
34.787239
40
0.1378987
50
222.6672019
51
226.6899243
0
ARC
8
DEFAULT_255_2_778
10
19.196922
20
34.8272168
40
0.2005917
50
211.1094931
51
221.698981
0
ARC
8
DEFAULT_255_2_778
10
19.3136941
20
34.9029267
40
0.339717
50
210.845018
51
211.8664807
0
ARC
8
DEFAULT_255_2_778
10
19.6967283
20
35.1120161
40
0.7759609
50
201.0583058
51
209.599032
0
ARC
8
DEFAULT_255_2_778
10
20.8578262
20
35.5856393
40
2.0298479
50
199.5236939
51
201.7580433
0
ARC
8
DEFAULT_255_2_778
10
22.4555075
20
36.1552159
40
3.7260197
50
198.4570803
51
199.5681047
0
ARC
8
DEFAULT_255_2_778
10
15.0986779
20
33.6952313
40
4.0312017
50
18.5184266
51
21.0157343
0
ARC
8
DEFAULT_255_2_778
10
17.481575
20
34.6129561
40
1.4776935
50
20.9337362
51
27.9380373
0
ARC
8
DEFAULT_255_2_778
10
16.8387696
20
36.3663576
40
1.5326851
50
329.8386326
51
332.7041964
0
ARC
8
DEFAULT_255_2_778
10
10.9892943
20
39.3187332
40
8.0849538
50
333.1212357
51
334.2068464
0
ARC
8
DEFAULT_255_2_778
10
20.464299
20
34.9986121
40
2.3375003
50
159.725799
51
159.9296728
0
ARC
8
DEFAULT_255_2_778
10
19.1429587
20
35.5085754
40
0.9215425
50
150.0143139
51
161.0008739
0
ARC
8
DEFAULT_255_2_778
10
18.6135371
20
35.8077453
40
0.3135114
50
136.4930561
51
149.0145692
0
ARC
8
DEFAULT_255_2_778
10
18.6699387
20
35.7765568
40
0.3762396
50
105.8139693
51
138.9621435
0
ARC
8
DEFAULT_255_2_778
10
18.8316402
20
35.2673114
40
0.910432
50
95.846092
51
106.8715709
0
ARC
8
DEFAULT_255_2_778
10
18.9866888
20
33.9082287
40
2.2782939
50
91.1618609
51
96.2437115
0
ARC
8
DEFAULT_255_2_778
10
19.0487865
20
31.9970852
40
4.1903687
50
90.340961
51
91.4808976
0
ARC
8
DEFAULT_255_2_778
10
19.4591922
20
36.2977253
40
0.4491088
50
194.2231408
51
269.0377782
0
ARC
8
DEFAULT_255_2_778
10
19.4415399
20
36.3046388
40
0.4560712
50
271.2702615
51
354.0282457
0
ARC
8
DEFAULT_255_2_778
10
19.3497019
20
36.3349447
40
0.5509483
50
351.8868371
51
0.034848
0
ARC
8
DEFAULT_255_2_778
10
19.3949926
20
36.342135
40
0.5057041
50
359.2232813
51
42.6729167
0
ARC
8
DEFAULT_255_2_778
10
19.4520525
20
36.3914426
40
0.4303372
50
42.9955482
51
90.0535583
0
ARC
8
DEFAULT_255_2_778
10
19.4581242
20
36.3748108
40
0.4470159
50
90.829816
51
166.2869988
0
ARC
8
DEFAULT_255_2_778
10
19.0361913
20
33.4403678
40
3.040437
50
90.2325616
51
95.5905028
0
ARC
8
DEFAULT_255_2_778
10
18.8450736
20
35.2964564
40
1.1745961
50
95.132348
51
108.7620825
0
ARC
8
DEFAULT_255_2_778
10
18.6720885
20
35.8102381
40
0.6324785
50
108.8942743
51
138.6149544
0
ARC
8
DEFAULT_255_2_778
10
19.1256466
20
35.5046576
40
1.1769183
50
142.05318
51
158.8981572
0
ARC
8
DEFAULT_255_2_778
10
15.371264
20
37.0909867
40
2.8996626
50
334.3558638
51
336.3626945
0
ARC
8
DEFAULT_255_2_778
10
16.6715845
20
36.4692905
40
1.4583682
50
332.1086981
51
334.2657233
0
ARC
8
DEFAULT_255_2_778
10
17.4198803
20
36.0597091
40
0.6055146
50
320.1056906
51
333.2398552
0
ARC
8
DEFAULT_255_2_778
10
17.7367894
20
35.7849454
40
0.1862997
50
271.0951947
51
322.4281631
0
ARC
8
DEFAULT_255_2_778
10
16.7095699
20
35.4823334
40
0.5053557
50
13.3104169
51
87.9950389
0
ARC
8
DEFAULT_255_2_778
10
16.7473554
20
35.4792349
40
0.5085424
50
92.265775
51
168.323473
0
ARC
8
DEFAULT_255_2_778
10
16.7954328
20
35.4533435
40
0.5610826
50
166.7276527
51
180.0167208
0
ARC
8
DEFAULT_255_2_778
10
16.7853638
20
35.4508464
40
0.5510185
50
179.7573716
51
231.978691
0
ARC
8
DEFAULT_255_2_778
10
16.7301214
20
35.3807119
40
0.4617411
50
232.0183066
51
269.6437246
0
ARC
8
DEFAULT_255_2_778
10
16.7079033
20
35.4260893
40
0.5074784
50
272.1848619
51
346.4952398
0
ARC
8
DEFAULT_255_2_778
10
18.370525
20
35.1365177
40
0.1712231
50
33.1518289
51
87.5145231
0
ARC
8
DEFAULT_255_2_778
10
18.0095508
20
34.8521077
40
0.6302882
50
24.6732703
51
36.8553717
0
ARC
8
DEFAULT_255_2_778
10
17.3656792
20
34.5290527
40
1.3504608
50
24.1913058
51
25.7247172
0
ARC
8
DEFAULT_255_2_778
10
16.4153581
20
34.1098453
40
2.389122
50
21.4529007
51
24.0226316
0
ARC
8
DEFAULT_255_2_778
10
11.765736
20
32.2753496
40
7.3875561
50
20.57084
51
21.5061338
0
ARC
8
DEFAULT_255_2_778
10
-59.947854
20
7.341911
40
83.3099539
50
19.2345244
51
19.2956497
0
ARC
8
DEFAULT_255_2_778
10
19.8580889
20
35.1507177
40
1.2027701
50
197.5928859
51
209.3863297
0
ARC
8
DEFAULT_255_2_778
10
19.1602591
20
34.7705252
40
0.4083227
50
210.9509166
51
224.8845674
0
ARC
8
DEFAULT_255_2_778
10
19.2652048
20
34.910869
40
0.5822712
50
227.3827235
51
267.9057448
0
ARC
8
DEFAULT_255_2_778
10
19.3858238
20
35.7974779
40
1.4753309
50
264.4807661
51
269.1854591
0
ARC
8
DEFAULT_255_2_778
10
19.4014897
20
36.4456996
40
2.1237196
50
269.0114655
51
270.0156171
0
ARC
8
DEFAULT_255_2_778
10
19.3843485
20
38.3162185
40
3.9942777
50
270.2541856
51
272.4120427
0
LINE
8
DEFAULT_255_2_778
10
16.8217503
20
39.1096797
11
17.2275503
21
39.1096797
0
LINE
8
DEFAULT_255_2_778
10
17.2275503
20
39.1096797
11
17.2275503
21
38.0936797
0
ARC
8
DEFAULT_255_2_778
10
17.7666135
20
38.0814572
40
0.5392018
50
178.701119
51
196.8316495
0
ARC
8
DEFAULT_255_2_778
10
17.4629786
20
37.9839084
40
0.2203957
50
195.414915
51
274.78159
0
ARC
8
DEFAULT_255_2_778
10
17.4993158
20
37.9853934
40
0.2218423
50
265.3549144
51
347.6779564
0
ARC
8
DEFAULT_255_2_778
10
17.1727775
20
38.0833599
40
0.5623675
50
345.0255679
51
1.0514798
0
LINE
8
DEFAULT_255_2_778
10
17.7350503
20
38.0936797
11
17.7350503
21
39.1096797
0
LINE
8
DEFAULT_255_2_778
10
17.7350503
20
39.1096797
11
18.1663503
21
39.1096797
0
LINE
8
DEFAULT_255_2_778
10
18.1663503
20
39.1096797
11
18.1663503
21
38.0111797
0
ARC
8
DEFAULT_255_2_778
10
17.4187069
20
37.9984131
40
0.7477523
50
342.4139882
51
0.9782806
0
ARC
8
DEFAULT_255_2_778
10
17.6917835
20
37.9167562
40
0.4627901
50
281.588533
51
341.8363052
0
ARC
8
DEFAULT_255_2_778
10
17.5473199
20
38.4204383
40
0.9860504
50
269.6333506
51
283.9330902
0
ARC
8
DEFAULT_255_2_778
10
17.5321968
20
38.8115103
40
1.3771304
50
269.9980654
51
270.3666773
0
ARC
8
DEFAULT_255_2_778
10
17.5194628
20
38.6322312
40
1.1979187
50
258.1098174
51
270.6068432
0
ARC
8
DEFAULT_255_2_778
10
17.3978042
20
38.0836769
40
0.6360966
50
234.6226151
51
258.6526223
0
ARC
8
DEFAULT_255_2_778
10
17.3339324
20
37.9668976
40
0.50414
50
189.1750682
51
232.857094
0
ARC
8
DEFAULT_255_2_778
10
17.6519813
20
38.0445159
40
0.8309001
50
182.2993518
51
190.9621366
0
LINE
8
DEFAULT_255_2_778
10
16.8217503
20
38.0111797
11
16.8217503
21
39.1096797
0
LINE
8
DEFAULT_255_2_778
10
24.9954503
20
7.7874797
11
24.4940503
21
7.7874797
0
LINE
8
DEFAULT_255_2_778
10
24.4940503
20
7.7874797
11
24.4940503
21
6.0679797
0
LINE
8
DEFAULT_255_2_778
10
24.4940503
20
6.0679797
11
25.0050503
21
6.0679797
0
LINE
8
DEFAULT_255_2_778
10
25.5632503
20
6.4373797
11
25.5630503
21
6.4370797
0
LINE
8
DEFAULT_255_2_778
10
24.9925503
20
6.3349797
11
24.9925503
21
6.3346797
0
LINE
8
DEFAULT_255_2_778
10
24.9719503
20
7.0910797
11
24.9719503
21
7.0910797
0
LINE
8
DEFAULT_255_2_778
10
25.8072503
20
6.1079797
11
26.4456503
21
7.7874797
0
LINE
8
DEFAULT_255_2_778
10
26.4456503
20
7.7874797
11
26.8163503
21
7.7874797
0
LINE
8
DEFAULT_255_2_778
10
26.8163503
20
7.7874797
11
27.4595503
21
6.1079797
0
LINE
8
DEFAULT_255_2_778
10
27.4595503
20
6.1079797
11
27.0957503
21
6.1079797
0
LINE
8
DEFAULT_255_2_778
10
27.0957503
20
6.1079797
11
26.9547503
21
6.4928797
0
LINE
8
DEFAULT_255_2_778
10
26.9547503
20
6.4928797
11
26.2906503
21
6.4928797
0
LINE
8
DEFAULT_255_2_778
10
26.2906503
20
6.4928797
11
26.1477503
21
6.1079797
0
LINE
8
DEFAULT_255_2_778
10
26.1477503
20
6.1079797
11
25.8072503
21
6.1079797
0
LINE
8
DEFAULT_255_2_778
10
26.6216503
20
7.4504797
11
26.3845503
21
6.7574797
0
LINE
8
DEFAULT_255_2_778
10
26.3845503
20
6.7574797
11
26.8634503
21
6.7574797
0
LINE
8
DEFAULT_255_2_778
10
26.8634503
20
6.7574797
11
26.6263503
21
7.4504797
0
LINE
8
DEFAULT_255_2_778
10
26.6263503
20
7.4504797
11
26.6216503
21
7.4504797
0
LINE
8
DEFAULT_255_2_778
10
9.1638503
20
7.0977797
11
9.0318503
21
7.4080797
0
LINE
8
DEFAULT_255_2_778
10
9.0318503
20
7.4080797
11
9.4086503
21
7.7874797
0
LINE
8
DEFAULT_255_2_778
10
9.4086503
20
7.7874797
11
9.6694503
21
7.7874797
0
LINE
8
DEFAULT_255_2_778
10
9.6694503
20
7.7874797
11
9.6694503
21
6.0676797
0
LINE
8
DEFAULT_255_2_778
10
9.6694503
20
6.0676797
11
9.3739503
21
6.0676797
0
LINE
8
DEFAULT_255_2_778
10
9.3739503
20
6.0676797
11
9.3739503
21
7.3292797
0
LINE
8
DEFAULT_255_2_778
10
9.3739503
20
7.3292797
11
9.1638503
21
7.0977797
0
LINE
8
DEFAULT_255_2_778
10
20.3560503
20
34.0434797
11
20.3560503
21
34.9186797
0
LINE
8
DEFAULT_255_2_778
10
20.3560503
20
34.9186797
11
19.5485503
21
34.9186797
0
LINE
8
DEFAULT_255_2_778
10
19.5485503
20
34.9186797
11
19.5485503
21
34.6141797
0
LINE
8
DEFAULT_255_2_778
10
18.7870503
20
35.3052797
11
20.8047503
21
35.3052797
0
LINE
8
DEFAULT_255_2_778
10
20.8047503
20
35.3052797
11
20.8047503
21
34.8186797
0
LINE
8
DEFAULT_255_2_778
10
20.8047503
20
34.8186797
11
21.7905503
21
35.4120797
0
LINE
8
DEFAULT_255_2_778
10
21.7905503
20
35.4120797
11
20.8047503
21
36.0828797
0
LINE
8
DEFAULT_255_2_778
10
20.8047503
20
36.0828797
11
20.8047503
21
35.5962797
0
LINE
8
DEFAULT_255_2_778
10
20.8047503
20
35.5962797
11
18.1639503
21
35.5962797
0
LINE
8
DEFAULT_255_2_778
10
17.7403503
20
35.5986797
11
17.2013503
21
35.5986797
0
LINE
8
DEFAULT_255_2_778
10
17.2013503
20
35.3075797
11
18.3779503
21
35.3075797
0
LINE
8
DEFAULT_255_2_778
10
19.5524503
20
34.3254797
11
19.5524503
21
34.0457797
0
LINE
8
DEFAULT_255_2_778
10
19.5524503
20
34.0457797
11
20.3557503
21
34.0457797
0
LINE
8
DEFAULT_255_2_778
10
20.3557503
20
34.0457797
11
20.3560503
21
34.0434797
0
LINE
8
DEFAULT_255_2_778
10
16.8217503
20
39.1096797
11
16.8217503
21
39.1096797
0
ARC
8
DEFAULT_255_2_778
10
18.960945
20
37.7404229
40
1.1672521
50
66.9359969
51
74.1368032
0
ARC
8
DEFAULT_255_2_778
10
19.083153
20
38.1778659
40
0.7130664
50
73.9747157
51
84.9440924
0
ARC
8
DEFAULT_255_2_778
10
19.1048481
20
38.3798779
40
0.5099427
50
85.3719258
51
89.9388136
0
ARC
8
DEFAULT_255_2_778
10
19.0975137
20
38.5430291
40
0.3468806
50
88.6984824
51
117.5500087
0
ARC
8
DEFAULT_255_2_778
10
19.0826143
20
38.5848508
40
0.3029719
50
118.7100212
51
139.5600101
0
ARC
8
DEFAULT_255_2_778
10
19.1007748
20
38.6491161
40
0.2817229
50
152.0006988
51
166.3905297
0
ARC
8
DEFAULT_255_2_778
10
19.0083963
20
38.6727081
40
0.1863907
50
166.7571552
51
179.7140266
0
ARC
8
DEFAULT_255_2_778
10
18.9927827
20
38.6782723
40
0.1708377
50
181.5543136
51
237.3278859
0
ARC
8
DEFAULT_255_2_778
10
19.1721411
20
38.9154211
40
0.46785
50
234.5150653
51
250.6002433
0
ARC
8
DEFAULT_255_2_778
10
19.327989
20
39.3139959
40
0.8956803
50
249.6656087
51
254.7453266
0
ARC
8
DEFAULT_255_2_778
10
18.7432941
20
37.3671234
40
1.137617
50
61.7673569
51
72.1328945
0
ARC
8
DEFAULT_255_2_778
10
18.9884022
20
37.814992
40
0.6270938
50
44.0130752
51
62.1404266
0
ARC
8
DEFAULT_255_2_778
10
19.1580683
20
37.9787405
40
0.3912971
50
359.3421901
51
44.0310781
0
ARC
8
DEFAULT_255_2_778
10
19.0141049
20
37.9772969
40
0.5352434
50
347.4736832
51
359.6736404
0
ARC
8
DEFAULT_255_2_778
10
18.8028199
20
38.0230513
40
0.7514234
50
339.0473222
51
347.5621208
0
ARC
8
DEFAULT_255_2_778
10
18.4206383
20
38.1643616
40
1.1588755
50
339.2336907
51
339.279725
0
ARC
8
DEFAULT_255_2_778
10
18.8788754
20
38.0988279
40
0.7143763
50
313.3621825
51
331.0900678
0
ARC
8
DEFAULT_255_2_778
10
18.9986509
20
37.9811892
40
0.5466472
50
268.4791368
51
312.7009482
0
ARC
8
DEFAULT_255_2_778
10
18.9891727
20
38.2935314
40
0.8588117
50
258.630495
51
269.664404
0
ARC
8
DEFAULT_255_2_778
10
19.0613003
20
38.6630426
40
1.2352924
50
251.0655323
51
258.729363
0
ARC
8
DEFAULT_255_2_778
10
19.2189309
20
39.1295167
40
1.7276763
50
245.7349056
51
251.1405921
0
ARC
8
DEFAULT_255_2_778
10
-1.3430113
20
40.1208472
40
20.0171355
50
352.6339012
51
353.4465022
0
ARC
8
DEFAULT_255_2_778
10
19.079268
20
38.9767679
40
1.2601426
50
244.8302123
51
252.3055899
0
ARC
8
DEFAULT_255_2_778
10
18.9350025
20
38.518341
40
0.7795578
50
252.1663922
51
263.2145284
0
ARC
8
DEFAULT_255_2_778
10
18.9046304
20
38.2926226
40
0.5518428
50
263.576913
51
269.8930889
0
ARC
8
DEFAULT_255_2_778
10
18.9155592
20
38.1039541
40
0.3633701
50
268.1140465
51
316.3143484
0
ARC
8
DEFAULT_255_2_778
10
18.9735967
20
37.9705374
40
0.2360837
50
330.1339822
51
346.5784639
0
ARC
8
DEFAULT_255_2_778
10
19.0456362
20
37.9518154
40
0.1616728
50
347.1062748
51
359.7894348
0
ARC
8
DEFAULT_255_2_778
10
19.0415553
20
37.9452402
40
0.1658605
50
2.0665701
51
54.0171592
0
ARC
8
DEFAULT_255_2_778
10
18.8488892
20
37.7165301
40
0.4646297
50
51.361594
51
67.3849697
0
ARC
8
DEFAULT_255_2_778
10
18.6382244
20
37.246461
40
0.9796593
50
66.5832606
51
73.2336264
0
ARC
8
DEFAULT_255_2_778
10
19.1066559
20
39.0075261
40
0.8437697
50
241.6261783
51
257.2770471
0
ARC
8
DEFAULT_255_2_778
10
18.8864305
20
38.6265897
40
0.4041417
50
183.9039615
51
243.4325514
0
ARC
8
DEFAULT_255_2_778
10
19.407814
20
38.6223211
40
0.9248795
50
180.0075063
51
181.4402959
0
ARC
8
DEFAULT_255_2_778
10
19.1369657
20
38.6321627
40
0.6541071
50
163.0425069
51
180.8727126
0
ARC
8
DEFAULT_255_2_778
10
18.9091389
20
38.6983292
40
0.4168996
50
104.5096002
51
162.6083865
0
ARC
8
DEFAULT_255_2_778
10
19.042809
20
38.3035057
40
0.8331786
50
92.8653838
51
106.6065753
0
ARC
8
DEFAULT_255_2_778
10
19.0757634
20
37.8988218
40
1.2390688
50
89.9425971
51
93.4518813
0
ARC
8
DEFAULT_255_2_778
10
19.0745366
20
37.576211
40
1.5616809
50
85.8744913
51
89.909444
0
ARC
8
DEFAULT_255_2_778
10
19.0404312
20
37.1019621
40
2.0371546
50
82.2757959
51
85.877336
0
ARC
8
DEFAULT_255_2_778
10
18.9623174
20
36.5189871
40
2.6253391
50
79.4639434
51
82.2965213
0
ARC
8
DEFAULT_255_2_778
10
18.8949327
20
36.1412092
40
3.0090705
50
79.1486203
51
79.5178233
0
ARC
8
DEFAULT_255_2_778
10
20.2858709
20
37.9379383
40
0.7110611
50
350.3769854
51
356.6196448
0
ARC
8
DEFAULT_255_2_778
10
20.4128052
20
37.9292878
40
0.5838387
50
356.732593
51
359.967863
0
ARC
8
DEFAULT_255_2_778
10
20.6205221
20
37.9416344
40
0.3763351
50
358.0700523
51
33.4042317
0
ARC
8
DEFAULT_255_2_778
10
20.6244093
20
37.9223616
40
0.3841333
50
36.1242455
51
69.6714154
0
ARC
8
DEFAULT_255_2_778
10
20.4902837
20
37.6077308
40
0.7259502
50
68.3715756
51
80.1936483
0
ARC
8
DEFAULT_255_2_778
10
20.5748094
20
38.7030536
40
0.3819878
50
275.8776375
51
314.001476
0
ARC
8
DEFAULT_255_2_778
10
20.5436091
20
38.7041891
40
0.405058
50
317.0659526
51
350.5743399
0
ARC
8
DEFAULT_255_2_778
10
20.3274006
20
38.7620844
40
0.628204
50
348.5942655
51
350.2477379
0
ARC
8
DEFAULT_255_2_778
10
20.2161605
20
38.6714797
40
0.7305371
50
358.7602653
51
359.9937444
0
ARC
8
DEFAULT_255_2_778
10
20.4637195
20
38.6841215
40
0.4831457
50
358.49119
51
24.3420877
0
ARC
8
DEFAULT_255_2_778
10
20.5746205
20
38.7179596
40
0.3684568
50
26.656855
51
74.0985097
0
ARC
8
DEFAULT_255_2_778
10
20.4390358
20
38.3222895
40
0.7864418
50
72.4962989
51
88.1376672
0
ARC
8
DEFAULT_255_2_778
10
20.4066449
20
37.8827791
40
1.2269062
50
87.2928196
51
90.0382705
0
ARC
8
DEFAULT_255_2_778
10
20.4059692
20
37.7284313
40
1.3812537
50
90.0059638
51
91.0015079
0
ARC
8
DEFAULT_255_2_778
10
20.3824946
20
38.5847875
40
1.1184533
50
270.4831894
51
282.6905613
0
ARC
8
DEFAULT_255_2_778
10
20.511584
20
38.0399893
40
0.55864
50
282.0493637
51
306.1033935
0
ARC
8
DEFAULT_255_2_778
10
20.6013241
20
37.9016768
40
0.3941135
50
307.4110239
51
347.9313139
0
ARC
8
DEFAULT_255_2_778
10
20.3818315
20
38.1793511
40
0.4581863
50
269.6367489
51
289.6022035
0
ARC
8
DEFAULT_255_2_778
10
20.4728224
20
37.9293547
40
0.192161
50
289.0515419
51
4.363161
0
ARC
8
DEFAULT_255_2_778
10
20.3837409
20
37.9569626
40
0.2809861
50
357.3505433
51
31.4658265
0
ARC
8
DEFAULT_255_2_778
10
20.4390357
20
37.9692749
40
0.2281357
50
36.0822802
51
84.8164959
0
ARC
8
DEFAULT_255_2_778
10
20.3871601
20
37.7130021
40
0.4888792
50
81.4732518
51
90.3086411
0
LINE
8
DEFAULT_255_2_778
10
20.3845266
20
38.201874
11
20.1704266
21
38.201874
0
LINE
8
DEFAULT_255_2_778
10
20.1704266
20
38.201874
11
20.1704266
21
37.720874
0
ARC
8
DEFAULT_255_2_778
10
20.2666752
20
39.3154826
40
1.5975108
50
266.5458903
51
270.0924061
0
ARC
8
DEFAULT_255_2_778
10
20.2664029
20
39.9010573
40
2.1830852
50
270.0747651
51
272.9545302
0
ARC
8
DEFAULT_255_2_778
10
20.3605758
20
38.8828054
40
0.4388458
50
269.5366211
51
289.2083937
0
ARC
8
DEFAULT_255_2_778
10
20.4546053
20
38.6254493
40
0.1649326
50
287.7758453
51
3.519409
0
ARC
8
DEFAULT_255_2_778
10
20.4058721
20
38.6495756
40
0.2138135
50
356.2452839
51
42.0742267
0
ARC
8
DEFAULT_255_2_778
10
20.405526
20
38.6187068
40
0.2358486
50
47.5928387
51
86.5823967
0
ARC
8
DEFAULT_255_2_778
10
20.3637037
20
38.358607
40
0.4986699
50
83.5657985
51
90.1926881
0
LINE
8
DEFAULT_255_2_778
10
20.3620266
20
38.857274
11
20.1654266
21
38.857274
0
LINE
8
DEFAULT_255_2_778
10
20.1654266
20
38.857274
11
20.1654266
21
38.443974
0
ARC
8
DEFAULT_255_2_778
10
20.2537758
20
40.0026841
40
1.5612119
50
266.7558924
51
270.0881099
0
ARC
8
DEFAULT_255_2_778
10
20.2535274
20
40.5837386
40
2.1422663
50
270.0708542
51
272.7692062
0
LINE
8
DEFAULT_255_2_778
10
19.4614266
20
39.096474
11
19.4270266
21
38.822874
0
LINE
8
DEFAULT_255_2_778
10
20.3818266
20
39.109474
11
19.8476266
21
39.109474
0
LINE
8
DEFAULT_255_2_778
10
19.8476266
20
39.109474
11
19.8476266
21
37.466374
0
LINE
8
DEFAULT_255_2_778
10
19.8476266
20
37.466374
11
20.3919266
21
37.466374
0
LINE
8
DEFAULT_255_2_778
10
20.9867266
20
37.819274
11
20.9869266
21
37.819074
0
LINE
8
DEFAULT_255_2_778
10
20.3789266
20
37.720874
11
20.3789266
21
37.721174
0
LINE
8
DEFAULT_255_2_778
10
20.3570266
20
38.443974
11
20.3570266
21
38.443974
0
ENDSEC
0
EOF