0
SECTION
2
HEADER
9
$MEASUREMENT
70
1
0
ENDSEC
0
SECTION
2
TABLES
0
TABLE
2
LTYPE
0
LTYPE
72
65
70
64
2
CONTINUOUS
3
______
73
0
40
0
0
ENDTAB
0
TABLE
2
LAYER
0
LAYER
2
DEFAULT_255_2_778
70
0
62
255
6
CONTINUOUS
0
ENDTAB
0
ENDSEC
0
SECTION
2
ENTITIES
0
LINE
8
DEFAULT_255_2_778
10
5.7716146
20
28.38768
11
5.7716146
21
42.88768
0
LINE
8
DEFAULT_255_2_778
10
7.9716146
20
31.38758
11
7.9716146
21
30.98748
0
LINE
8
DEFAULT_255_2_778
10
7.9716146
20
30.98748
11
9.7716146
21
30.98748
0
LINE
8
DEFAULT_255_2_778
10
8.0716146
20
30.98778
11
8.5717146
21
30.48768
0
ARC
8
DEFAULT_255_2_778
10
22.8716084
20
43.3877296
40
0.5000969
50
269.9996485
51
0.0003515
0
LINE
8
DEFAULT_255_2_778
10
23.3717053
20
43.3877327
11
23.3717053
21
44.8876327
0
LINE
8
DEFAULT_255_2_778
10
23.3717053
20
44.8876327
11
33.3716053
21
44.8876327
0
LINE
8
DEFAULT_255_2_778
10
33.3716053
20
44.8876327
11
33.3716053
21
28.3876327
0
LINE
8
DEFAULT_255_2_778
10
33.3716053
20
28.3876327
11
4.7717053
21
28.3876327
0
LINE
8
DEFAULT_255_2_778
10
4.7717053
20
28.3876327
11
4.7717053
21
42.8876327
0
LINE
8
DEFAULT_255_2_778
10
4.7717053
20
42.8876327
11
33.3716053
21
42.8876327
0
LINE
8
DEFAULT_255_2_778
10
38.6717053
20
75.3877327
11
38.6717053
21
75.4877327
0
LINE
8
DEFAULT_255_2_778
10
44.6717053
20
75.3877327
11
44.6717053
21
75.4877327
0
LINE
8
DEFAULT_255_2_778
10
0.1717053
20
74.1875327
11
29.9717053
21
74.1875327
0
LINE
8
DEFAULT_255_2_778
10
29.9717053
20
74.1875327
11
29.9717053
21
45.5877327
0
LINE
8
DEFAULT_255_2_778
10
29.9717053
20
45.5877327
11
0.1717053
21
45.5877327
0
LINE
8
DEFAULT_255_2_778
10
83.1715053
20
45.5877327
11
33.3716053
21
45.5877327
0
LINE
8
DEFAULT_255_2_778
10
33.3716053
20
45.5877327
11
33.3716053
21
74.1875327
0
LINE
8
DEFAULT_255_2_778
10
33.3716053
20
74.1875327
11
83.1715053
21
74.1875327
0
ARC
8
DEFAULT_255_2_778
10
7.5716844
20
29.7827684
40
0.8887561
50
87.6231826
51
90.0070264
0
ARC
8
DEFAULT_255_2_778
10
7.5785815
20
29.8833328
40
0.7879969
50
75.7030441
51
87.8210046
0
ARC
8
DEFAULT_255_2_778
10
7.734475
20
30.2510737
40
0.3861421
50
47.9758734
51
58.7881451
0
ARC
8
DEFAULT_255_2_778
10
7.8171685
20
30.3386773
40
0.2657207
50
34.7203957
51
48.5762403
0
ARC
8
DEFAULT_255_2_778
10
7.8680791
20
30.371079
40
0.2054337
50
19.4616255
51
35.3800151
0
ARC
8
DEFAULT_255_2_778
10
7.8969741
20
30.381554
40
0.1746999
50
1.9256841
51
19.3798218
0
ARC
8
DEFAULT_255_2_778
10
6.2716511
20
28.9878002
40
0.5000758
50
180.008676
51
270.0027763
0
ARC
8
DEFAULT_255_2_778
10
6.2716723
20
42.2875275
40
0.5000969
50
89.9996485
51
180.0003515
0
LINE
8
DEFAULT_255_2_778
10
5.7715754
20
30.6715245
11
7.5715754
21
30.6715245
0
LINE
8
DEFAULT_255_2_778
10
7.7731754
20
30.6469245
11
7.8606754
21
30.6184245
0
LINE
8
DEFAULT_255_2_778
10
7.8606754
20
30.6184245
11
7.9345754
21
30.5813245
0
LINE
8
DEFAULT_255_2_778
10
33.1717754
20
52.8875245
11
30.1716754
21
52.8875245
0
LINE
8
DEFAULT_255_2_778
10
30.1716754
20
66.8877245
11
33.1717754
21
66.8877245
0
LINE
8
DEFAULT_255_2_778
10
29.9703754
20
45.5887245
11
29.9716754
21
45.5874245
0
LINE
8
DEFAULT_255_2_778
10
9.5714754
20
28.4877245
11
9.5714754
21
28.3877245
0
LINE
8
DEFAULT_255_2_778
10
7.9715754
20
28.3877245
11
7.9715754
21
28.4877245
0
LINE
8
DEFAULT_255_2_778
10
9.7715754
20
39.8875245
11
9.7715754
21
40.8876245
0
LINE
8
DEFAULT_255_2_778
10
26.9064754
20
58.6375245
11
29.0715754
21
59.8874245
0
LINE
8
DEFAULT_255_2_778
10
29.0715754
20
59.8874245
11
26.9064754
21
61.1372245
0
LINE
8
DEFAULT_255_2_778
10
26.9064754
20
61.1372245
11
26.9064754
21
58.6372245
0
LINE
8
DEFAULT_255_2_778
10
19.7551448
20
61.1375927
11
20.2927448
21
61.1375927
0
LINE
8
DEFAULT_255_2_778
10
20.2927448
20
61.1375927
11
20.2927448
21
59.6471927
0
ARC
8
DEFAULT_255_2_778
10
21.248681
20
59.634925
40
0.9560149
50
179.2647554
51
191.6790585
0
ARC
8
DEFAULT_255_2_778
10
20.7225057
20
59.5192636
40
0.4173744
50
190.7519144
51
217.1500506
0
ARC
8
DEFAULT_255_2_778
10
20.6120284
20
59.452829
40
0.289525
50
219.8752272
51
273.3297655
0
ARC
8
DEFAULT_255_2_778
10
20.6469886
20
59.4519066
40
0.2886846
50
266.3965861
51
341.6394928
0
ARC
8
DEFAULT_255_2_778
10
20.2917581
20
59.5932478
40
0.6707225
50
339.738444
51
356.4303453
0
ARC
8
DEFAULT_255_2_778
10
19.7783377
20
59.6447116
40
1.1865097
50
355.4936179
51
0.1198118
0
LINE
8
DEFAULT_255_2_778
10
20.9648448
20
59.6471927
11
20.9648448
21
61.1375927
0
LINE
8
DEFAULT_255_2_778
10
20.9648448
20
61.1375927
11
21.5360448
21
61.1375927
0
LINE
8
DEFAULT_255_2_778
10
21.5360448
20
61.1375927
11
21.5360448
21
59.5262927
0
ARC
8
DEFAULT_255_2_778
10
20.2463085
20
59.5134985
40
1.2897998
50
347.7039518
51
0.5683566
0
ARC
8
DEFAULT_255_2_778
10
20.781948
20
59.3906775
40
0.7403151
50
323.5046085
51
348.1630609
0
ARC
8
DEFAULT_255_2_778
10
20.8675237
20
59.3495265
40
0.6472907
50
285.2232879
51
321.9274656
0
ARC
8
DEFAULT_255_2_778
10
20.7258759
20
59.8101236
40
1.1290291
50
271.4982607
51
286.0217332
0
ARC
8
DEFAULT_255_2_778
10
20.6967648
20
60.2609048
40
1.5805122
50
269.9811502
51
272.1259589
0
ARC
8
DEFAULT_255_2_778
10
20.6834173
20
60.1744143
40
1.4940766
50
258.7776711
51
270.4919221
0
ARC
8
DEFAULT_255_2_778
10
20.5578659
20
59.5700147
40
0.8768167
50
238.2011953
51
259.1386832
0
ARC
8
DEFAULT_255_2_778
10
20.4756408
20
59.4101688
40
0.6977831
50
194.9349036
51
237.0231891
0
ARC
8
DEFAULT_255_2_778
10
20.9618236
20
59.5613675
40
1.2066886
50
181.6656521
51
195.9221627
0
LINE
8
DEFAULT_255_2_778
10
19.7556448
20
59.5262927
11
19.7556448
21
61.1375927
0
LINE
8
DEFAULT_255_2_778
10
19.7556448
20
61.1375927
11
19.7551448
21
61.1375927
0
LINE
8
DEFAULT_255_2_778
10
23.6203448
20
59.0865156
11
23.6203448
21
58.7029156
0
LINE
8
DEFAULT_255_2_778
10
23.6203448
20
58.7029156
11
22.1871448
21
58.7029156
0
LINE
8
DEFAULT_255_2_778
10
22.1871448
20
58.7029156
11
22.1871448
21
61.1373156
0
LINE
8
DEFAULT_255_2_778
10
22.1871448
20
61.1373156
11
22.6747448
21
61.1373156
0
LINE
8
DEFAULT_255_2_778
10
22.6747448
20
61.1373156
11
22.6747448
21
59.0863156
0
LINE
8
DEFAULT_255_2_778
10
22.6747448
20
59.0863156
11
23.6206448
21
59.0863156
0
LINE
8
DEFAULT_255_2_778
10
25.3647448
20
59.0865156
11
25.3647448
21
58.7029156
0
LINE
8
DEFAULT_255_2_778
10
25.3647448
20
58.7029156
11
23.9307448
21
58.7029156
0
LINE
8
DEFAULT_255_2_778
10
23.9307448
20
58.7029156
11
23.9307448
21
61.1373156
0
LINE
8
DEFAULT_255_2_778
10
23.9307448
20
61.1373156
11
24.4191448
21
61.1373156
0
LINE
8
DEFAULT_255_2_778
10
24.4191448
20
61.1373156
11
24.4191448
21
59.0863156
0
LINE
8
DEFAULT_255_2_778
10
24.4191448
20
59.0863156
11
25.3650448
21
59.0863156
0
ARC
8
DEFAULT_255_2_778
10
18.4213286
20
58.1807924
40
2.9567851
50
86.0482839
51
90.2564211
0
ARC
8
DEFAULT_255_2_778
10
18.4712049
20
59.0438692
40
2.0923456
50
85.3790801
51
85.7820632
0
ARC
8
DEFAULT_255_2_778
10
18.6004455
20
60.069597
40
1.0605461
50
59.596821
51
87.875
0
ARC
8
DEFAULT_255_2_778
10
18.8167019
20
60.4906835
40
0.5885224
50
24.5868953
51
57.0076401
0
ARC
8
DEFAULT_255_2_778
10
18.6408178
20
60.412752
40
0.7808881
50
8.2494405
51
24.4170405
0
ARC
8
DEFAULT_255_2_778
10
18.381432
20
60.3656814
40
1.0443858
50
4.9032075
51
8.7632756
0
ARC
8
DEFAULT_255_2_778
10
18.6015894
20
60.3544984
40
0.8204246
50
332.9578188
51
359.6193518
0
ARC
8
DEFAULT_255_2_778
10
18.8063736
20
60.2681055
40
0.5989687
50
295.9760426
51
331.4121251
0
ARC
8
DEFAULT_255_2_778
10
18.6689151
20
60.5413608
40
0.9048335
50
280.3623034
51
296.2222128
0
ARC
8
DEFAULT_255_2_778
10
18.5598259
20
61.1068628
40
1.4807448
50
270.4926485
51
280.5786804
0
ARC
8
DEFAULT_255_2_778
10
18.5427027
20
61.5619828
40
1.9360404
50
269.9958923
51
270.8835714
0
ARC
8
DEFAULT_255_2_778
10
18.5428122
20
61.6836943
40
2.0577521
50
268.7985147
51
269.9930873
0
ARC
8
DEFAULT_255_2_778
10
18.5447145
20
61.7864497
40
2.1605247
50
268.4187509
51
268.8052173
0
ARC
8
DEFAULT_255_2_778
10
18.4538076
20
61.2651599
40
1.2547172
50
269.8350718
51
273.2055591
0
ARC
8
DEFAULT_255_2_778
10
18.5404979
20
60.3985832
40
0.386531
50
267.5492149
51
324.5948529
0
ARC
8
DEFAULT_255_2_778
10
18.4787506
20
60.4021057
40
0.440132
50
328.8820529
51
349.5595636
0
ARC
8
DEFAULT_255_2_778
10
18.5770538
20
60.4063523
40
0.3352936
50
2.973931
51
73.5981495
0
ARC
8
DEFAULT_255_2_778
10
18.4944897
20
60.1536584
40
0.6010691
50
72.84981
51
90.9152323
0
ARC
8
DEFAULT_255_2_778
10
18.4851965
20
59.8830681
40
0.8715827
50
90.020233
51
92.3014807
0
LINE
8
DEFAULT_255_2_778
10
19.4219959
20
60.4549479
11
19.4232959
21
60.4014479
0
LINE
8
DEFAULT_255_2_778
10
19.4232959
20
60.4014479
11
19.4219959
21
60.3490479
0
LINE
8
DEFAULT_255_2_778
10
18.4850959
20
59.6267479
11
18.2786959
21
59.6267479
0
LINE
8
DEFAULT_255_2_778
10
18.2786959
20
59.6267479
11
18.2786959
21
58.7028479
0
LINE
8
DEFAULT_255_2_778
10
18.2786959
20
58.7028479
11
17.7902959
21
58.7028479
0
LINE
8
DEFAULT_255_2_778
10
17.7902959
20
58.7028479
11
17.7902959
21
61.1372479
0
LINE
8
DEFAULT_255_2_778
10
17.7902959
20
61.1372479
11
18.4080959
21
61.1375479
0
LINE
8
DEFAULT_255_2_778
10
18.9115959
20
60.3223479
11
18.9141959
21
60.3729479
0
LINE
8
DEFAULT_255_2_778
10
18.9141959
20
60.3729479
11
18.9118959
21
60.4237479
0
LINE
8
DEFAULT_255_2_778
10
18.4501959
20
60.7539479
11
18.2789959
21
60.7539479
0
LINE
8
DEFAULT_255_2_778
10
18.2789959
20
60.7539479
11
18.2789959
21
60.0104479
0
LINE
8
DEFAULT_255_2_778
10
18.2789959
20
60.0104479
11
18.4501959
21
60.0104479
0
LINE
8
DEFAULT_255_2_778
10
36.4368573
20
58.6375239
11
34.2717573
21
59.8874239
0
LINE
8
DEFAULT_255_2_778
10
34.2717573
20
59.8874239
11
36.4368573
21
61.1373239
0
LINE
8
DEFAULT_255_2_778
10
36.4368573
20
61.1373239
11
36.4368573
21
58.6373239
0
ARC
8
DEFAULT_255_2_778
10
11.0714588
20
30.8874868
40
0.5000757
50
359.9972139
51
89.9913281
0
ARC
8
DEFAULT_255_2_778
10
11.0714802
20
30.8875168
40
0.5000542
50
270.0062131
51
359.993773
0
LINE
8
DEFAULT_255_2_778
10
5.7716345
20
31.3875625
11
11.0715345
21
31.3875625
0
LINE
8
DEFAULT_255_2_778
10
11.0715345
20
30.3874625
11
5.7716345
21
30.3874625
0
LINE
8
DEFAULT_255_2_778
10
11.2717323
20
30.4350229
11
11.2717323
21
31.3404229
0
LINE
8
DEFAULT_255_2_778
10
11.2717323
20
28.3877229
11
11.2717323
21
28.4877229
0
LINE
8
DEFAULT_255_2_778
10
9.7715323
20
30.3874229
11
9.7715323
21
31.3875229
0
LINE
8
DEFAULT_255_2_778
10
9.7715323
20
28.3877229
11
9.7715323
21
28.4877229
0
LINE
8
DEFAULT_255_2_778
10
8.0716323
20
30.3874229
11
8.0716323
21
31.3875229
0
ARC
8
DEFAULT_255_2_778
10
11.0714588
20
40.3875868
40
0.5000757
50
359.9972139
51
89.9913281
0
ARC
8
DEFAULT_255_2_778
10
11.0714802
20
40.3876168
40
0.5000542
50
270.0062131
51
359.993773
0
LINE
8
DEFAULT_255_2_778
10
5.7716345
20
40.8876625
11
11.0715345
21
40.8876625
0
LINE
8
DEFAULT_255_2_778
10
11.0715345
20
39.8875625
11
5.7716345
21
39.8875625
0
LINE
8
DEFAULT_255_2_778
10
11.2717261
20
40.8402625
11
11.2717261
21
39.9348625
0
LINE
8
DEFAULT_255_2_778
10
7.9716261
20
40.8876625
11
7.9716261
21
39.8875625
0
ARC
8
DEFAULT_255_2_778
10
32.6714761
20
42.2875618
40
0.5000969
50
359.9996485
51
90.0003515
0
ARC
8
DEFAULT_255_2_778
10
32.6714973
20
28.9875344
40
0.5000758
50
269.9972237
51
359.991324
0
ARC
8
DEFAULT_255_2_778
10
32.6714774
20
66.3877051
40
0.5000956
50
314.9958871
51
359.9946851
0
ARC
8
DEFAULT_255_2_778
10
32.6716386
20
66.387484
40
0.4998253
50
269.9810259
51
315.0007439
0
ARC
8
DEFAULT_255_2_778
10
30.6713114
20
66.3872523
40
0.4995936
50
224.9882566
51
270.018537
0
ARC
8
DEFAULT_255_2_778
10
30.6715687
20
66.3877051
40
0.5000956
50
180.0053149
51
225.0041129
0
LINE
8
DEFAULT_255_2_778
10
5.771573
20
42.7876587
11
32.671473
21
42.7876587
0
LINE
8
DEFAULT_255_2_778
10
33.171573
20
42.2875587
11
33.171573
21
28.9874587
0
LINE
8
DEFAULT_255_2_778
10
32.671473
20
28.4874587
11
5.771573
21
28.4874587
0
LINE
8
DEFAULT_255_2_778
10
83.171773
20
75.4877587
11
0.171673
21
75.4877587
0
LINE
8
DEFAULT_255_2_778
10
0.171673
20
75.3877587
11
83.171773
21
75.3877587
0
LINE
8
DEFAULT_255_2_778
10
83.171773
20
74.3876587
11
33.171573
21
74.3876587
0
LINE
8
DEFAULT_255_2_778
10
33.171573
20
74.3876587
11
33.171573
21
66.3876587
0
LINE
8
DEFAULT_255_2_778
10
32.671473
20
65.8876587
11
30.671473
21
65.8876587
0
LINE
8
DEFAULT_255_2_778
10
30.171473
20
66.3876587
11
30.171473
21
74.3876587
0
LINE
8
DEFAULT_255_2_778
10
30.171473
20
74.3876587
11
0.171673
21
74.3876587
0
ARC
8
DEFAULT_255_2_778
10
82.4715391
20
97.0874042
40
0.7002339
50
0.0109667
51
89.9890415
0
ARC
8
DEFAULT_255_2_778
10
0.8718429
20
97.0874684
40
0.7001699
50
90.0057163
51
179.9942837
0
ARC
8
DEFAULT_255_2_778
10
0.871907
20
0.4877721
40
0.700234
50
180.0109556
51
269.9890345
0
ARC
8
DEFAULT_255_2_778
10
82.4714749
20
0.4878363
40
0.7002981
50
270.0162121
51
359.983792
0
LINE
8
DEFAULT_255_2_778
10
82.471673
20
97.7876382
11
0.871773
21
97.7876382
0
LINE
8
DEFAULT_255_2_778
10
0.171673
20
97.0875382
11
0.171673
21
0.4876382
0
LINE
8
DEFAULT_255_2_778
10
0.871773
20
-0.2124618
11
82.471673
21
-0.2124618
0
LINE
8
DEFAULT_255_2_778
10
83.171773
20
0.4876382
11
83.171773
21
97.0875382
0
ARC
8
DEFAULT_255_2_778
10
30.67177
20
53.387605
40
0.5000969
50
89.9996485
51
180.0003515
0
ARC
8
DEFAULT_255_2_778
10
32.6717761
20
53.387605
40
0.5000969
50
359.9996485
51
90.0003515
0
LINE
8
DEFAULT_255_2_778
10
0.171673
20
45.387702
11
30.171673
21
45.387702
0
LINE
8
DEFAULT_255_2_778
10
30.171673
20
45.387702
11
30.171673
21
53.387602
0
LINE
8
DEFAULT_255_2_778
10
30.671773
20
53.887702
11
32.671773
21
53.887702
0
LINE
8
DEFAULT_255_2_778
10
33.171873
20
53.387602
11
33.171873
21
45.387702
0
LINE
8
DEFAULT_255_2_778
10
33.171873
20
45.387702
11
83.171773
21
45.387702
0
ARC
8
DEFAULT_255_2_778
10
77.6718739
20
48.5876001
40
0.5000969
50
89.9996485
51
180.0003515
0
ARC
8
DEFAULT_255_2_778
10
77.6718524
20
48.5876725
40
0.5000754
50
180.0086483
51
270.0028154
0
ARC
8
DEFAULT_255_2_778
10
77.6721739
20
71.1875001
40
0.5000969
50
89.9996485
51
180.0003515
0
ARC
8
DEFAULT_255_2_778
10
77.6721524
20
71.1875725
40
0.5000754
50
180.0086483
51
270.0028154
0
ARC
8
DEFAULT_255_2_778
10
41.8222722
20
29.4945234
40
0.1212855
50
278.5849042
51
312.2860676
0
ARC
8
DEFAULT_255_2_778
10
41.3635074
20
28.7544749
40
0.5532544
50
96.3853846
51
105.1406546
0
ARC
8
DEFAULT_255_2_778
10
41.2206961
20
29.2580556
40
0.0305159
50
93.180131
51
151.1136094
0
ARC
8
DEFAULT_255_2_778
10
41.2214993
20
29.2881424
40
0.0315112
50
209.1423387
51
267.1912486
0
ARC
8
DEFAULT_255_2_778
10
41.3669596
20
29.8104757
40
0.5729854
50
255.1340299
51
263.7776192
0
ARC
8
DEFAULT_255_2_778
10
41.5873597
20
31.5475576
40
2.3239267
50
263.0176544
51
266.481691
0
ARC
8
DEFAULT_255_2_778
10
41.7254694
20
33.54342
40
4.3245301
50
266.2780753
51
267.6596735
0
ARC
8
DEFAULT_255_2_778
10
41.4032071
20
25.4959226
40
3.7294205
50
85.0647908
51
87.7614767
0
ARC
8
DEFAULT_255_2_778
10
41.6156184
20
27.8735815
40
1.3423216
50
80.2690324
51
85.3668137
0
ARC
8
DEFAULT_255_2_778
10
41.8204799
20
29.02042
40
0.177541
50
64.0500395
51
82.8752257
0
ARC
8
DEFAULT_255_2_778
10
41.8939104
20
29.1709116
40
0.0100918
50
9.0384698
51
65.0376489
0
ARC
8
DEFAULT_255_2_778
10
41.8763665
20
30.5782218
40
0.0314909
50
272.8176672
51
330.8799877
0
ARC
8
DEFAULT_255_2_778
10
41.7309964
20
31.0999581
40
0.5723663
50
276.2243815
51
284.8734831
0
ARC
8
DEFAULT_255_2_778
10
41.5106941
20
32.8356666
40
2.3219328
50
273.5186654
51
276.9847646
0
ARC
8
DEFAULT_255_2_778
10
41.3725771
20
34.831356
40
4.3223641
50
272.3402727
51
273.722455
0
ARC
8
DEFAULT_255_2_778
10
41.6948508
20
26.7836911
40
3.7317542
50
92.2387188
51
94.9340734
0
ARC
8
DEFAULT_255_2_778
10
41.4823996
20
29.1623311
40
1.3436745
50
94.6322383
51
99.7267095
0
ARC
8
DEFAULT_255_2_778
10
41.2774221
20
30.3103308
40
0.1777305
50
97.1217833
51
115.9361142
0
ARC
8
DEFAULT_255_2_778
10
41.2039438
20
30.4610093
40
0.0100924
50
114.9386066
51
170.9487796
0
ARC
8
DEFAULT_255_2_778
10
41.2238167
20
30.4806489
40
0.0348751
50
211.1722727
51
267.9012887
0
ARC
8
DEFAULT_255_2_778
10
41.3665671
20
31.0043117
40
0.5767864
50
255.5398312
51
263.6203638
0
ARC
8
DEFAULT_255_2_778
10
41.8226241
20
30.2405807
40
0.1214654
50
47.8240791
51
81.4526937
0
ARC
8
DEFAULT_255_2_778
10
41.8226247
20
35.4950125
40
0.1214643
50
278.5471093
51
312.1759911
0
ARC
8
DEFAULT_255_2_778
10
41.3638074
20
34.7546749
40
0.5532544
50
96.3853846
51
105.1406546
0
ARC
8
DEFAULT_255_2_778
10
41.2209961
20
35.2582556
40
0.0305159
50
93.180131
51
151.1136094
0
ARC
8
DEFAULT_255_2_778
10
41.2217796
20
35.2883375
40
0.0314916
50
209.1520145
51
267.2225529
0
ARC
8
DEFAULT_255_2_778
10
41.3672677
20
35.8116124
40
0.5738797
50
255.156727
51
263.7850294
0
ARC
8
DEFAULT_255_2_778
10
41.5889998
20
37.561392
40
2.3375854
50
263.0251924
51
266.4679898
0
ARC
8
DEFAULT_255_2_778
10
41.7297567
20
39.5902062
40
4.3712449
50
266.2647977
51
267.6310792
0
ARC
8
DEFAULT_255_2_778
10
41.4034089
20
31.4941802
40
3.7313612
50
85.0663515
51
87.7626692
0
ARC
8
DEFAULT_255_2_778
10
41.6158971
20
33.873464
40
1.3426371
50
80.2706758
51
85.3683855
0
ARC
8
DEFAULT_255_2_778
10
41.8207775
20
35.0206054
40
0.1775551
50
64.0514644
51
82.8769483
0
ARC
8
DEFAULT_255_2_778
10
41.8942107
20
35.1711118
40
0.0100915
50
9.0380525
51
65.0398069
0
ARC
8
DEFAULT_255_2_778
10
41.8766745
20
36.5784375
40
0.0314916
50
272.7774471
51
330.8479855
0
ARC
8
DEFAULT_255_2_778
10
41.7311863
20
37.1017124
40
0.5738797
50
276.2149706
51
284.843273
0
ARC
8
DEFAULT_255_2_778
10
41.5094542
20
38.851492
40
2.3375854
50
273.5320102
51
276.9748076
0
ARC
8
DEFAULT_255_2_778
10
41.3686973
20
40.8803062
40
4.3712449
50
272.3689208
51
273.7352023
0
ARC
8
DEFAULT_255_2_778
10
41.6956449
20
32.7678396
40
3.7478128
50
92.2366806
51
94.9211411
0
ARC
8
DEFAULT_255_2_778
10
41.4821135
20
35.165032
40
1.3411582
50
94.6177249
51
99.7209342
0
ARC
8
DEFAULT_255_2_778
10
41.2775434
20
36.3113548
40
0.1769374
50
97.1046324
51
115.9979732
0
ARC
8
DEFAULT_255_2_778
10
41.2042723
20
36.4612226
40
0.0101185
50
115.0700188
51
171.0482764
0
ARC
8
DEFAULT_255_2_778
10
41.2241167
20
36.4808489
40
0.0348751
50
211.1722727
51
267.9012887
0
ARC
8
DEFAULT_255_2_778
10
41.3668671
20
37.0045117
40
0.5767864
50
255.5398312
51
263.6203638
0
ARC
8
DEFAULT_255_2_778
10
41.8228966
20
36.241121
40
0.1212318
50
47.7064365
51
81.4229322
0
ARC
8
DEFAULT_255_2_778
10
37.0843079
20
38.8177661
40
0.3001309
50
90.0058902
51
179.9750049
0
ARC
8
DEFAULT_255_2_778
10
41.6040676
20
38.8177876
40
0.3001094
50
0.0208901
51
89.9791099
0
ARC
8
DEFAULT_255_2_778
10
41.6039822
20
26.9180918
40
0.3001949
50
270.0371877
51
359.9819077
0
ARC
8
DEFAULT_255_2_778
10
37.0838719
20
26.9180918
40
0.3001949
50
180.0180923
51
269.9628123
0
ARC
8
DEFAULT_255_2_778
10
39.9886727
20
38.7288343
40
0.2120887
50
331.5044148
51
349.7507035
0
ARC
8
DEFAULT_255_2_778
10
40.1592125
20
38.6352982
40
0.017604
50
278.7057459
51
334.2443586
0
ARC
8
DEFAULT_255_2_778
10
38.5335925
20
38.6429951
40
0.0260872
50
194.0836883
51
254.1715825
0
ARC
8
DEFAULT_255_2_778
10
38.7664891
20
38.7482141
40
0.2812726
50
191.7163443
51
203.3689838
0
ARC
8
DEFAULT_255_2_778
10
38.7019103
20
27.0065335
40
0.2142595
50
151.6682672
51
169.7398313
0
ARC
8
DEFAULT_255_2_778
10
38.5291515
20
27.1006535
40
0.0175487
50
98.7664038
51
154.4727673
0
ARC
8
DEFAULT_255_2_778
10
40.1546956
20
27.0927845
40
0.0262153
50
14.1588084
51
74.1012397
0
ARC
8
DEFAULT_255_2_778
10
39.9229363
20
26.9877532
40
0.2802862
50
11.7219957
51
23.4286788
0
ARC
8
DEFAULT_255_2_778
10
40.8968912
20
26.9614281
40
0.6515669
50
200.2019834
51
211.9744153
0
ARC
8
DEFAULT_255_2_778
10
41.9785717
20
27.3786068
40
1.8108574
50
195.0331639
51
200.7707807
0
ARC
8
DEFAULT_255_2_778
10
43.4975609
20
27.8043521
40
3.3883332
50
193.075434
51
195.3237089
0
ARC
8
DEFAULT_255_2_778
10
35.6179415
20
27.6982406
40
2.9480661
50
343.0025733
51
347.0543871
0
ARC
8
DEFAULT_255_2_778
10
37.2267925
20
27.1998969
40
1.2638286
50
335.7856071
51
343.2864438
0
ARC
8
DEFAULT_255_2_778
10
37.9090995
20
26.8952755
40
0.5166156
50
327.3287452
51
335.5605029
0
ARC
8
DEFAULT_255_2_778
10
43.0694394
20
38.0380042
40
2.947504
50
163.0068582
51
167.0608654
0
ARC
8
DEFAULT_255_2_778
10
41.4607708
20
38.5361582
40
1.2634968
50
155.7869152
51
163.2907088
0
ARC
8
DEFAULT_255_2_778
10
40.77871
20
38.8406468
40
0.5165629
50
147.3287088
51
155.5614337
0
ARC
8
DEFAULT_255_2_778
10
37.7913871
20
38.77459
40
0.6513958
50
20.1927215
51
31.970945
0
ARC
8
DEFAULT_255_2_778
10
36.7077337
20
38.3568008
40
1.8127464
50
15.0302126
51
20.7634375
0
ARC
8
DEFAULT_255_2_778
10
35.1859359
20
37.9303554
40
3.3931155
50
13.0755148
51
15.3208379
0
ARC
8
DEFAULT_255_2_778
10
35.2979012
20
28.4001699
40
0.3715815
50
232.4183786
51
251.6430804
0
ARC
8
DEFAULT_255_2_778
10
35.3035765
20
28.4217326
40
0.3938368
50
251.8473936
51
270.0229769
0
ARC
8
DEFAULT_255_2_778
10
35.3039702
20
28.3055481
40
0.2776522
50
269.951353
51
270.1458642
0
ARC
8
DEFAULT_255_2_778
10
35.3039702
20
32.750346
40
0.2776519
50
89.8541358
51
90.048647
0
ARC
8
DEFAULT_255_2_778
10
35.3035765
20
32.6341615
40
0.3938367
50
89.9770231
51
108.1526064
0
ARC
8
DEFAULT_255_2_778
10
35.2979012
20
32.6557242
40
0.3715815
50
108.3569196
51
127.5816214
0
ARC
8
DEFAULT_255_2_778
10
38.1021592
20
37.7775149
40
0.1402824
50
90.1152434
51
179.8847566
0
ARC
8
DEFAULT_255_2_778
10
38.1021592
20
27.9580792
40
0.1402824
50
180.1152434
51
269.8847566
0
ARC
8
DEFAULT_255_2_778
10
38.1020702
20
37.777504
40
0.6402931
50
90.0172825
51
179.9737766
0
ARC
8
DEFAULT_255_2_778
10
38.10207
20
27.95809
40
0.640293
50
180.0262145
51
269.9827328
0
ARC
8
DEFAULT_255_2_778
10
35.2997661
20
29.6522404
40
0.3757607
50
108.4933303
51
127.4885705
0
ARC
8
DEFAULT_255_2_778
10
35.3034252
20
29.6334295
40
0.3947687
50
89.9983345
51
108.1309736
0
ARC
8
DEFAULT_255_2_778
10
35.3036716
20
29.7517884
40
0.2764099
50
89.8537847
51
90.0487095
0
ARC
8
DEFAULT_255_2_778
10
35.3036716
20
31.3047057
40
0.2764096
50
269.9512905
51
270.1462153
0
ARC
8
DEFAULT_255_2_778
10
35.3034252
20
31.4230645
40
0.3947686
50
251.8690264
51
270.0016655
0
ARC
8
DEFAULT_255_2_778
10
35.2975251
20
31.400037
40
0.3710518
50
232.3897388
51
251.6283155
0
ARC
8
DEFAULT_255_2_778
10
37.0845231
20
26.9193432
40
0.6006464
50
180.0520945
51
269.9479055
0
ARC
8
DEFAULT_255_2_778
10
41.6033309
20
26.9193432
40
0.6006464
50
270.0520945
51
359.9479055
0
ARC
8
DEFAULT_255_2_778
10
37.0845231
20
38.8181509
40
0.6006464
50
90.0520945
51
179.9479055
0
ARC
8
DEFAULT_255_2_778
10
41.6033309
20
38.8181509
40
0.6006464
50
0.0520945
51
89.9479055
0
ARC
8
DEFAULT_255_2_778
10
35.5014626
20
37.8670728
40
0.7990411
50
279.8443969
51
290.797653
0
ARC
8
DEFAULT_255_2_778
10
35.4725845
20
38.0169345
40
0.9516377
50
269.9754679
51
280.0148185
0
ARC
8
DEFAULT_255_2_778
10
35.4721391
20
38.0349942
40
0.9696972
50
267.4063076
51
270.0022376
0
ARC
8
DEFAULT_255_2_778
10
35.4678938
20
37.9780806
40
0.9126512
50
256.0629783
51
267.5108669
0
ARC
8
DEFAULT_255_2_778
10
35.3424243
20
37.6119644
40
0.5248514
50
238.9326347
51
248.6303489
0
ARC
8
DEFAULT_255_2_778
10
35.4946016
20
36.3446521
40
0.5471112
50
57.9937463
51
74.8294319
0
ARC
8
DEFAULT_255_2_778
10
35.4736292
20
36.2685071
40
0.6260911
50
74.8006166
51
90.0296543
0
ARC
8
DEFAULT_255_2_778
10
35.473023
20
36.4969924
40
0.3976057
50
89.9593437
51
90.1219136
0
ARC
8
DEFAULT_255_2_778
10
35.4718223
20
36.2649911
40
0.6296061
50
89.967718
51
100.5285693
0
ARC
8
DEFAULT_255_2_778
10
35.463733
20
36.299006
40
0.5946882
50
100.3611474
51
111.2932569
0
ARC
8
DEFAULT_255_2_778
10
35.436581
20
36.3671552
40
0.5213313
50
111.2327413
51
123.258085
0
ARC
8
DEFAULT_255_2_778
10
35.4055691
20
36.4180606
40
0.4617608
50
123.5043432
51
136.4176124
0
ARC
8
DEFAULT_255_2_778
10
43.1720869
20
25.4788871
40
0.4999901
50
269.9988673
51
0.0011385
0
ARC
8
DEFAULT_255_2_778
10
43.1720015
20
41.0290216
40
0.5000755
50
359.9971846
51
89.9913517
0
ARC
8
DEFAULT_255_2_778
10
35.5721739
20
41.0290001
40
0.5000969
50
89.9996485
51
180.0003515
0
ARC
8
DEFAULT_255_2_778
10
35.5720886
20
25.4789086
40
0.5000116
50
180.0013268
51
270.0101312
0
ARC
8
DEFAULT_255_2_778
10
27.5317014
20
25.7882214
40
0.5000756
50
359.9972098
51
89.9913379
0
ARC
8
DEFAULT_255_2_778
10
13.5318739
20
25.7882001
40
0.5000969
50
89.9996485
51
180.0003515
0
ARC
8
DEFAULT_255_2_778
10
13.5318739
20
9.288294
40
0.5000969
50
179.9996485
51
270.0003515
0
ARC
8
DEFAULT_255_2_778
10
27.5317014
20
9.2882726
40
0.5000756
50
270.0086621
51
0.0028016
0
LINE
8
DEFAULT_255_2_778
10
77.371877
20
48.387597
11
77.371877
21
48.189197
0
LINE
8
DEFAULT_255_2_778
10
78.971777
20
48.387597
11
78.971777
21
48.087597
0
LINE
8
DEFAULT_255_2_778
10
83.171777
20
49.087697
11
77.671877
21
49.087697
0
LINE
8
DEFAULT_255_2_778
10
77.671877
20
48.087597
11
83.171777
21
48.087597
0
LINE
8
DEFAULT_255_2_778
10
81.671877
20
48.087597
11
81.671877
21
48.387597
0
LINE
8
DEFAULT_255_2_778
10
81.671877
20
48.387597
11
77.219477
21
48.387597
0
LINE
8
DEFAULT_255_2_778
10
79.671877
20
48.387597
11
79.671877
21
49.087697
0
LINE
8
DEFAULT_255_2_778
10
79.471777
20
48.387597
11
79.471777
21
48.347597
0
LINE
8
DEFAULT_255_2_778
10
79.471777
20
48.347597
11
78.971777
21
48.347597
0
LINE
8
DEFAULT_255_2_778
10
78.971777
20
71.687597
11
78.971777
21
71.387597
0
LINE
8
DEFAULT_255_2_778
10
80.271677
20
71.387597
11
80.271677
21
71.687597
0
LINE
8
DEFAULT_255_2_778
10
77.219477
20
71.387597
11
81.671877
21
71.387597
0
LINE
8
DEFAULT_255_2_778
10
81.671877
20
71.387597
11
81.671877
21
71.687597
0
LINE
8
DEFAULT_255_2_778
10
77.371877
20
71.585997
11
77.371877
21
71.387597
0
LINE
8
DEFAULT_255_2_778
10
80.271877
20
71.637597
11
78.972077
21
71.637597
0
LINE
8
DEFAULT_255_2_778
10
77.372077
20
71.497597
11
77.283677
21
71.497597
0
LINE
8
DEFAULT_255_2_778
10
83.171977
20
71.687597
11
77.672177
21
71.687597
0
LINE
8
DEFAULT_255_2_778
10
77.672177
20
70.687497
11
83.171977
21
70.687497
0
LINE
8
DEFAULT_255_2_778
10
79.672077
20
70.687497
11
79.672077
21
71.387597
0
LINE
8
DEFAULT_255_2_778
10
41.840377
20
29.374597
11
41.301977
21
29.304297
0
LINE
8
DEFAULT_255_2_778
10
41.903877
20
30.562897
11
41.903877
21
30.562897
0
LINE
8
DEFAULT_255_2_778
10
41.302477
20
30.431097
11
41.840677
21
30.360697
0
LINE
8
DEFAULT_255_2_778
10
41.840677
20
35.374897
11
41.302277
21
35.304497
0
LINE
8
DEFAULT_255_2_778
10
41.904177
20
36.563097
11
41.904177
21
36.563097
0
LINE
8
DEFAULT_255_2_778
10
41.302777
20
36.431297
11
41.840977
21
36.360997
0
LINE
8
DEFAULT_255_2_778
10
37.084277
20
39.117897
11
41.604177
21
39.117897
0
LINE
8
DEFAULT_255_2_778
10
41.904177
20
38.817897
11
41.904177
21
26.917997
0
LINE
8
DEFAULT_255_2_778
10
41.604177
20
26.617897
11
37.083677
21
26.617897
0
LINE
8
DEFAULT_255_2_778
10
36.783677
20
26.917997
11
36.784177
21
38.817897
0
LINE
8
DEFAULT_255_2_778
10
41.264177
20
39.117897
11
41.264177
21
40.117997
0
LINE
8
DEFAULT_255_2_778
10
41.264177
20
40.117997
11
37.424277
21
40.117997
0
LINE
8
DEFAULT_255_2_778
10
37.424277
20
40.117997
11
37.424277
21
39.117897
0
LINE
8
DEFAULT_255_2_778
10
40.161877
20
38.617897
11
38.526477
21
38.617897
0
LINE
8
DEFAULT_255_2_778
10
41.194277
20
36.462797
11
41.194277
21
35.272997
0
LINE
8
DEFAULT_255_2_778
10
41.874277
20
36.546197
11
41.874277
21
37.067897
0
LINE
8
DEFAULT_255_2_778
10
37.424277
20
26.617897
11
37.424277
21
25.617797
0
LINE
8
DEFAULT_255_2_778
10
37.424277
20
25.617797
11
41.264177
21
25.617797
0
LINE
8
DEFAULT_255_2_778
10
41.264177
20
25.617797
11
41.264177
21
26.617897
0
LINE
8
DEFAULT_255_2_778
10
38.526477
20
27.117997
11
40.161877
21
27.117997
0
LINE
8
DEFAULT_255_2_778
10
41.194277
20
30.462897
11
41.194277
21
29.272997
0
LINE
8
DEFAULT_255_2_778
10
43.472077
20
39.577997
11
43.672077
21
39.577997
0
LINE
8
DEFAULT_255_2_778
10
43.672077
20
39.728097
11
43.472077
21
39.728097
0
LINE
8
DEFAULT_255_2_778
10
43.472077
20
40.904097
11
43.672077
21
40.904097
0
LINE
8
DEFAULT_255_2_778
10
36.943977
20
38.728197
11
36.783977
21
38.728197
0
LINE
8
DEFAULT_255_2_778
10
36.483877
20
38.728197
11
35.071877
21
38.728197
0
LINE
8
DEFAULT_255_2_778
10
43.671877
20
38.568097
11
42.203977
21
38.568097
0
LINE
8
DEFAULT_255_2_778
10
41.882477
20
38.928197
11
41.821877
21
38.928197
0
LINE
8
DEFAULT_255_2_778
10
41.821877
20
38.928197
11
41.821877
21
37.068197
0
LINE
8
DEFAULT_255_2_778
10
41.821877
20
37.068197
11
41.903877
21
37.068197
0
LINE
8
DEFAULT_255_2_778
10
41.903877
20
37.428297
11
41.821877
21
37.428297
0
LINE
8
DEFAULT_255_2_778
10
41.903877
20
38.568397
11
41.821877
21
38.568397
0
LINE
8
DEFAULT_255_2_778
10
36.783977
20
38.478397
11
35.783777
21
38.478397
0
LINE
8
DEFAULT_255_2_778
10
35.783777
20
38.478397
11
35.783777
21
27.258497
0
LINE
8
DEFAULT_255_2_778
10
35.783777
20
27.258497
11
36.783977
21
27.258497
0
LINE
8
DEFAULT_255_2_778
10
41.573977
20
30.514697
11
41.573977
21
35.222197
0
LINE
8
DEFAULT_255_2_778
10
41.903877
20
27.258497
11
42.904077
21
27.258497
0
LINE
8
DEFAULT_255_2_778
10
42.904077
20
27.258497
11
42.904077
21
38.478397
0
LINE
8
DEFAULT_255_2_778
10
42.904077
20
38.478397
11
41.903877
21
38.478397
0
LINE
8
DEFAULT_255_2_778
10
38.921777
20
37.918297
11
38.921777
21
27.818397
0
LINE
8
DEFAULT_255_2_778
10
38.921777
20
27.818397
11
39.301677
21
27.318297
0
LINE
8
DEFAULT_255_2_778
10
39.301677
20
27.318297
11
39.301677
21
38.417797
0
LINE
8
DEFAULT_255_2_778
10
39.301677
20
38.417797
11
38.921777
21
37.917797
0
LINE
8
DEFAULT_255_2_778
10
38.921777
20
37.917797
11
38.101877
21
37.917797
0
LINE
8
DEFAULT_255_2_778
10
37.961877
20
37.777797
11
37.961877
21
27.957797
0
LINE
8
DEFAULT_255_2_778
10
38.101877
20
27.817797
11
38.921777
21
27.817797
0
LINE
8
DEFAULT_255_2_778
10
39.301677
20
38.417797
11
38.101877
21
38.417797
0
LINE
8
DEFAULT_255_2_778
10
37.461777
20
37.777797
11
37.461777
21
27.957797
0
LINE
8
DEFAULT_255_2_778
10
38.101877
20
27.317797
11
39.301677
21
27.317797
0
LINE
8
DEFAULT_255_2_778
10
42.903777
20
37.067697
11
43.671877
21
37.067697
0
LINE
8
DEFAULT_255_2_778
10
42.903777
20
37.427797
11
43.671877
21
37.427797
0
LINE
8
DEFAULT_255_2_778
10
43.053777
20
36.167797
11
43.671877
21
36.167797
0
LINE
8
DEFAULT_255_2_778
10
43.671877
20
36.567897
11
43.053777
21
36.567897
0
LINE
8
DEFAULT_255_2_778
10
42.903777
20
28.567897
11
43.671877
21
28.567897
0
LINE
8
DEFAULT_255_2_778
10
42.903777
20
28.927997
11
43.671877
21
28.927997
0
LINE
8
DEFAULT_255_2_778
10
42.903777
20
31.067997
11
43.671877
21
31.067997
0
LINE
8
DEFAULT_255_2_778
10
42.903777
20
31.428097
11
43.671877
21
31.428097
0
LINE
8
DEFAULT_255_2_778
10
42.903777
20
34.068097
11
43.671877
21
34.068097
0
LINE
8
DEFAULT_255_2_778
10
42.903777
20
34.428197
11
43.671877
21
34.428197
0
LINE
8
DEFAULT_255_2_778
10
35.071877
20
28.028197
11
35.783777
21
28.028197
0
LINE
8
DEFAULT_255_2_778
10
35.071877
20
33.028297
11
35.783777
21
33.028297
0
LINE
8
DEFAULT_255_2_778
10
35.304377
20
30.028197
11
35.784077
21
30.028197
0
LINE
8
DEFAULT_255_2_778
10
35.784077
20
31.028297
11
35.304377
21
31.028297
0
LINE
8
DEFAULT_255_2_778
10
43.671877
20
29.806197
11
43.471777
21
29.806197
0
LINE
8
DEFAULT_255_2_778
10
43.471777
20
30.672197
11
43.671877
21
30.672197
0
LINE
8
DEFAULT_255_2_778
10
43.671877
20
29.168297
11
43.053777
21
29.168297
0
LINE
8
DEFAULT_255_2_778
10
43.671877
20
29.568297
11
43.053777
21
29.568297
0
LINE
8
DEFAULT_255_2_778
10
41.903877
20
28.928297
11
41.821877
21
28.928297
0
LINE
8
DEFAULT_255_2_778
10
41.821877
20
28.928297
11
41.821877
21
26.713197
0
LINE
8
DEFAULT_255_2_778
10
41.903877
20
26.928297
11
41.821877
21
26.928297
0
LINE
8
DEFAULT_255_2_778
10
41.821877
20
28.568197
11
41.903877
21
28.568197
0
LINE
8
DEFAULT_255_2_778
10
43.471777
20
38.928197
11
43.471777
21
39.118197
0
LINE
8
DEFAULT_255_2_778
10
43.471777
20
39.418197
11
43.471777
21
41.427497
0
LINE
8
DEFAULT_255_2_778
10
43.471777
20
31.068197
11
43.471777
21
29.568297
0
LINE
8
DEFAULT_255_2_778
10
43.471777
20
25.079097
11
43.471777
21
26.318397
0
LINE
8
DEFAULT_255_2_778
10
43.471777
20
40.378397
11
43.271777
21
40.378397
0
LINE
8
DEFAULT_255_2_778
10
43.271777
20
40.378397
11
43.271777
21
40.578397
0
LINE
8
DEFAULT_255_2_778
10
43.271777
20
40.578397
11
43.471777
21
40.578397
0
LINE
8
DEFAULT_255_2_778
10
43.471777
20
40.878497
11
43.271777
21
40.878497
0
LINE
8
DEFAULT_255_2_778
10
43.271777
20
40.878497
11
43.271777
21
41.078497
0
LINE
8
DEFAULT_255_2_778
10
43.271777
20
41.078497
11
43.471777
21
41.078497
0
LINE
8
DEFAULT_255_2_778
10
43.471777
20
41.378497
11
43.271777
21
41.378497
0
LINE
8
DEFAULT_255_2_778
10
43.271777
20
41.378497
11
43.271777
21
41.517997
0
LINE
8
DEFAULT_255_2_778
10
42.273777
20
39.068697
11
42.273777
21
38.928697
0
LINE
8
DEFAULT_255_2_778
10
42.146777
20
39.068697
11
43.053777
21
39.068697
0
LINE
8
DEFAULT_255_2_778
10
43.053777
20
39.068697
11
43.053777
21
38.928697
0
LINE
8
DEFAULT_255_2_778
10
36.483877
20
27.258797
11
36.483877
21
26.918797
0
LINE
8
DEFAULT_255_2_778
10
37.083977
20
26.318697
11
37.423977
21
26.318697
0
LINE
8
DEFAULT_255_2_778
10
42.203977
20
27.258797
11
42.203977
21
26.918797
0
LINE
8
DEFAULT_255_2_778
10
37.423977
20
39.418797
11
37.083977
21
39.418797
0
LINE
8
DEFAULT_255_2_778
10
36.483877
20
38.818697
11
36.483877
21
38.478697
0
LINE
8
DEFAULT_255_2_778
10
42.203977
20
38.818697
11
42.203977
21
38.478697
0
LINE
8
DEFAULT_255_2_778
10
41.873977
20
38.928697
11
41.873977
21
38.946997
0
LINE
8
DEFAULT_255_2_778
10
41.306477
20
24.978897
11
41.306477
21
26.318997
0
LINE
8
DEFAULT_255_2_778
10
41.306477
20
26.618997
11
41.306477
21
26.668997
0
LINE
8
DEFAULT_255_2_778
10
39.301977
20
36.768997
11
39.847077
21
36.768997
0
LINE
8
DEFAULT_255_2_778
10
39.847077
20
36.768997
11
39.847077
21
35.968897
0
LINE
8
DEFAULT_255_2_778
10
39.847077
20
35.968897
11
39.301977
21
35.968897
0
LINE
8
DEFAULT_255_2_778
10
39.301977
20
34.268897
11
39.847077
21
34.268897
0
LINE
8
DEFAULT_255_2_778
10
39.847077
20
34.268897
11
39.847077
21
33.468797
0
LINE
8
DEFAULT_255_2_778
10
39.847077
20
33.468797
11
39.301977
21
33.468797
0
LINE
8
DEFAULT_255_2_778
10
39.301977
20
32.268897
11
39.847077
21
32.268897
0
LINE
8
DEFAULT_255_2_778
10
39.847077
20
32.268897
11
39.847077
21
31.468797
0
LINE
8
DEFAULT_255_2_778
10
39.847077
20
31.468797
11
39.301977
21
31.468797
0
LINE
8
DEFAULT_255_2_778
10
39.301977
20
29.768897
11
39.847077
21
29.768897
0
LINE
8
DEFAULT_255_2_778
10
39.847077
20
29.768897
11
39.847077
21
28.968797
0
LINE
8
DEFAULT_255_2_778
10
39.847077
20
28.968797
11
39.301977
21
28.968797
0
LINE
8
DEFAULT_255_2_778
10
35.248077
20
37.092297
11
35.151177
21
37.123197
0
LINE
8
DEFAULT_255_2_778
10
41.264177
20
39.418797
11
43.672077
21
39.418797
0
LINE
8
DEFAULT_255_2_778
10
42.123777
20
39.118697
11
43.672077
21
39.118697
0
LINE
8
DEFAULT_255_2_778
10
41.769777
20
39.068697
11
40.319077
21
39.068697
0
LINE
8
DEFAULT_255_2_778
10
43.672077
20
38.928697
11
42.193377
21
38.928697
0
LINE
8
DEFAULT_255_2_778
10
35.971977
20
27.174597
11
36.483877
21
27.174597
0
LINE
8
DEFAULT_255_2_778
10
42.203977
20
26.928797
11
43.671877
21
26.928797
0
LINE
8
DEFAULT_255_2_778
10
40.318777
20
26.668697
11
41.769477
21
26.668697
0
LINE
8
DEFAULT_255_2_778
10
42.088577
20
26.568697
11
43.671877
21
26.568697
0
LINE
8
DEFAULT_255_2_778
10
41.263877
20
26.318697
11
43.671877
21
26.318697
0
LINE
8
DEFAULT_255_2_778
10
36.783977
20
38.568597
11
37.283977
21
39.068697
0
LINE
8
DEFAULT_255_2_778
10
37.283977
20
39.068697
11
38.369077
21
39.068697
0
LINE
8
DEFAULT_255_2_778
10
38.369077
20
26.668697
11
37.283977
21
26.668697
0
LINE
8
DEFAULT_255_2_778
10
37.283977
20
26.668697
11
36.783977
21
27.168797
0
LINE
8
DEFAULT_255_2_778
10
43.672077
20
25.478897
11
43.672077
21
41.028997
0
LINE
8
DEFAULT_255_2_778
10
43.172077
20
41.529097
11
35.572177
21
41.529097
0
LINE
8
DEFAULT_255_2_778
10
35.072077
20
41.028997
11
35.072077
21
25.478897
0
LINE
8
DEFAULT_255_2_778
10
35.572177
20
24.978897
11
43.172077
21
24.978897
0
LINE
8
DEFAULT_255_2_778
10
43.054077
20
36.728697
11
43.472077
21
36.728697
0
LINE
8
DEFAULT_255_2_778
10
43.472077
20
36.728697
11
43.472077
21
37.068697
0
LINE
8
DEFAULT_255_2_778
10
43.424177
20
26.568697
11
43.424177
21
26.318697
0
LINE
8
DEFAULT_255_2_778
10
43.424177
20
39.418797
11
43.424177
21
39.118697
0
LINE
8
DEFAULT_255_2_778
10
43.054277
20
31.068797
11
43.054277
21
28.928797
0
LINE
8
DEFAULT_255_2_778
10
43.054277
20
37.068697
11
43.054277
21
34.428697
0
LINE
8
DEFAULT_255_2_778
10
41.874277
20
28.928797
11
41.874277
21
29.190497
0
LINE
8
DEFAULT_255_2_778
10
41.574277
20
36.514997
11
41.574277
21
37.118697
0
LINE
8
DEFAULT_255_2_778
10
41.574277
20
37.118697
11
41.822177
21
37.118697
0
LINE
8
DEFAULT_255_2_778
10
41.822177
20
28.618697
11
41.574277
21
28.618697
0
LINE
8
DEFAULT_255_2_778
10
41.574277
20
28.618697
11
41.574277
21
29.222497
0
LINE
8
DEFAULT_255_2_778
10
39.522077
20
24.978897
11
39.522077
21
25.618897
0
LINE
8
DEFAULT_255_2_778
10
35.972177
20
27.258797
11
35.972177
21
24.978897
0
LINE
8
DEFAULT_255_2_778
10
35.972177
20
38.728997
11
35.972177
21
38.478997
0
LINE
8
DEFAULT_255_2_778
10
13.531877
20
10.527797
11
13.031777
21
10.527797
0
LINE
8
DEFAULT_255_2_778
10
13.531877
20
11.287697
11
13.031777
21
11.287697
0
LINE
8
DEFAULT_255_2_778
10
26.371777
20
15.527697
11
26.371777
21
19.527597
0
LINE
8
DEFAULT_255_2_778
10
25.571677
20
15.527697
11
26.871577
21
15.527697
0
LINE
8
DEFAULT_255_2_778
10
26.871577
20
15.527697
11
26.871577
21
19.527597
0
LINE
8
DEFAULT_255_2_778
10
26.871577
20
19.527597
11
25.571677
21
19.527597
0
LINE
8
DEFAULT_255_2_778
10
23.371677
20
26.287697
11
23.371677
21
25.527897
0
LINE
8
DEFAULT_255_2_778
10
25.371677
20
25.527897
11
25.371677
21
26.287697
0
LINE
8
DEFAULT_255_2_778
10
14.321577
20
25.527897
11
14.321577
21
26.287697
0
LINE
8
DEFAULT_255_2_778
10
15.321777
20
25.527897
11
15.321777
21
25.692997
0
LINE
8
DEFAULT_255_2_778
10
15.321777
20
25.692997
11
20.521877
21
25.692997
0
LINE
8
DEFAULT_255_2_778
10
20.521877
20
25.692997
11
20.521877
21
26.287997
0
LINE
8
DEFAULT_255_2_778
10
21.371977
20
25.528097
11
21.371977
21
26.287997
0
LINE
8
DEFAULT_255_2_778
10
27.371977
20
25.528097
11
13.531877
21
25.528097
0
LINE
8
DEFAULT_255_2_778
10
13.531877
20
25.528097
11
13.531877
21
9.528197
0
LINE
8
DEFAULT_255_2_778
10
13.531877
20
9.528197
11
28.031777
21
9.528197
0
LINE
8
DEFAULT_255_2_778
10
23.871777
20
23.528097
11
15.371777
21
23.528097
0
LINE
8
DEFAULT_255_2_778
10
15.371777
20
23.528097
11
15.371777
21
11.528197
0
LINE
8
DEFAULT_255_2_778
10
15.371777
20
11.528197
11
23.871777
21
11.528197
0
LINE
8
DEFAULT_255_2_778
10
23.871777
20
11.528197
11
23.871777
21
14.528297
0
LINE
8
DEFAULT_255_2_778
10
23.871777
20
14.528297
11
25.571677
21
14.528297
0
LINE
8
DEFAULT_255_2_778
10
25.571677
20
14.528297
11
25.571677
21
20.528297
0
LINE
8
DEFAULT_255_2_778
10
25.571677
20
20.528297
11
23.871777
21
20.528297
0
LINE
8
DEFAULT_255_2_778
10
23.871777
20
20.528297
11
23.871777
21
23.528097
0
LINE
8
DEFAULT_255_2_778
10
27.531777
20
26.288297
11
13.531877
21
26.288297
0
LINE
8
DEFAULT_255_2_778
10
13.031777
20
25.788197
11
13.031777
21
9.288297
0
LINE
8
DEFAULT_255_2_778
10
13.531877
20
8.788197
11
27.531777
21
8.788197
0
LINE
8
DEFAULT_255_2_778
10
28.031777
20
9.288297
11
28.031777
21
25.788197
0
LINE
8
DEFAULT_255_2_778
10
28.028077
20
25.848297
11
27.371977
21
25.848297
0
LINE
8
DEFAULT_255_2_778
10
25.371977
20
25.693197
11
27.371977
21
25.693197
0
LINE
8
DEFAULT_255_2_778
10
13.531877
20
25.193197
11
13.031777
21
25.193197
0
LINE
8
DEFAULT_255_2_778
10
28.031777
20
24.848097
11
27.371977
21
24.848097
0
LINE
8
DEFAULT_255_2_778
10
27.371977
20
8.788197
11
27.371977
21
26.288297
0
LINE
8
DEFAULT_255_2_778
10
26.571877
20
25.693197
11
26.571877
21
26.288297
0
LINE
8
DEFAULT_255_2_778
10
24.371777
20
14.028297
11
25.871777
21
14.028297
0
LINE
8
DEFAULT_255_2_778
10
25.871777
20
14.028297
11
25.871777
21
11.028197
0
LINE
8
DEFAULT_255_2_778
10
25.871777
20
11.028197
11
24.371777
21
11.028197
0
LINE
8
DEFAULT_255_2_778
10
24.371777
20
11.028197
11
24.371777
21
14.028297
0
LINE
8
DEFAULT_255_2_778
10
25.871777
20
24.028197
11
24.371777
21
24.028197
0
LINE
8
DEFAULT_255_2_778
10
24.371777
20
24.028197
11
24.371777
21
21.028097
0
LINE
8
DEFAULT_255_2_778
10
24.371777
20
21.028097
11
25.871777
21
21.028097
0
LINE
8
DEFAULT_255_2_778
10
25.871777
20
21.028097
11
25.871777
21
24.028197
0
LINE
8
DEFAULT_255_2_778
10
21.371677
20
25.693197
11
20.571577
21
25.693197
0
LINE
8
DEFAULT_255_2_778
10
20.571577
20
25.693197
11
20.571577
21
26.288297
0
LINE
8
DEFAULT_255_2_778
10
16.771677
20
25.693197
11
16.771677
21
25.528097
0
LINE
8
DEFAULT_255_2_778
10
14.071577
20
8.788197
11
14.071577
21
9.528197
0
LINE
8
DEFAULT_255_2_778
10
14.3715948
20
87.7877
11
12.1715948
21
87.7877
0
LINE
8
DEFAULT_255_2_778
10
11.8715573
20
85.6877177
11
14.6716573
21
85.6877177
0
LINE
8
DEFAULT_255_2_778
10
14.6716573
20
85.6877177
11
14.3715573
21
85.9877177
0
LINE
8
DEFAULT_255_2_778
10
14.3715573
20
85.9877177
11
14.3715573
21
87.7877177
0
LINE
8
DEFAULT_255_2_778
10
14.3715573
20
87.7877177
11
14.6716573
21
88.0877177
0
LINE
8
DEFAULT_255_2_778
10
14.6716573
20
88.0877177
11
14.6716573
21
85.6877177
0
LINE
8
DEFAULT_255_2_778
10
14.6716573
20
88.0877177
11
11.8715573
21
88.0877177
0
LINE
8
DEFAULT_255_2_778
10
11.8715573
20
88.0877177
11
12.1715573
21
87.7877177
0
LINE
8
DEFAULT_255_2_778
10
12.1715573
20
87.7877177
11
12.1715573
21
85.9877177
0
LINE
8
DEFAULT_255_2_778
10
12.1715573
20
85.9877177
11
11.8715573
21
85.6877177
0
LINE
8
DEFAULT_255_2_778
10
11.8715573
20
85.6877177
11
11.8715573
21
88.0877177
0
LINE
8
DEFAULT_255_2_778
10
12.1715573
20
85.9877177
11
14.3715573
21
85.9877177
0
LINE
8
DEFAULT_255_2_778
10
15.1716573
20
78.9877177
11
17.3716573
21
78.9877177
0
LINE
8
DEFAULT_255_2_778
10
17.6717573
20
81.0877177
11
14.8716573
21
81.0877177
0
LINE
8
DEFAULT_255_2_778
10
14.8716573
20
81.0877177
11
15.1716573
21
80.7877177
0
LINE
8
DEFAULT_255_2_778
10
15.1716573
20
80.7877177
11
15.1716573
21
78.9877177
0
LINE
8
DEFAULT_255_2_778
10
15.1716573
20
78.9877177
11
14.8716573
21
78.6877177
0
LINE
8
DEFAULT_255_2_778
10
14.8716573
20
78.6877177
11
14.8716573
21
81.0877177
0
LINE
8
DEFAULT_255_2_778
10
14.8716573
20
78.6877177
11
17.6717573
21
78.6877177
0
LINE
8
DEFAULT_255_2_778
10
17.6717573
20
78.6877177
11
17.3716573
21
78.9877177
0
LINE
8
DEFAULT_255_2_778
10
17.3716573
20
78.9877177
11
17.3716573
21
80.7877177
0
LINE
8
DEFAULT_255_2_778
10
17.3716573
20
80.7877177
11
17.6717573
21
81.0877177
0
LINE
8
DEFAULT_255_2_778
10
17.6717573
20
81.0877177
11
17.6717573
21
78.6877177
0
LINE
8
DEFAULT_255_2_778
10
17.3716573
20
80.7877177
11
15.1716573
21
80.7877177
0
LINE
8
DEFAULT_255_2_778
10
12.1715573
20
78.9877177
11
14.3715573
21
78.9877177
0
LINE
8
DEFAULT_255_2_778
10
14.6716573
20
81.0877177
11
11.8715573
21
81.0877177
0
LINE
8
DEFAULT_255_2_778
10
11.8715573
20
81.0877177
11
12.1715573
21
80.7877177
0
LINE
8
DEFAULT_255_2_778
10
12.1715573
20
80.7877177
11
12.1715573
21
78.9877177
0
LINE
8
DEFAULT_255_2_778
10
12.1715573
20
78.9877177
11
11.8715573
21
78.6877177
0
LINE
8
DEFAULT_255_2_778
10
11.8715573
20
78.6877177
11
11.8715573
21
81.0877177
0
LINE
8
DEFAULT_255_2_778
10
11.8715573
20
78.6877177
11
14.6716573
21
78.6877177
0
LINE
8
DEFAULT_255_2_778
10
14.6716573
20
78.6877177
11
14.3715573
21
78.9877177
0
LINE
8
DEFAULT_255_2_778
10
14.3715573
20
78.9877177
11
14.3715573
21
80.7877177
0
LINE
8
DEFAULT_255_2_778
10
14.3715573
20
80.7877177
11
14.6716573
21
81.0877177
0
LINE
8
DEFAULT_255_2_778
10
14.6716573
20
81.0877177
11
14.6716573
21
78.6877177
0
LINE
8
DEFAULT_255_2_778
10
14.3715573
20
80.7877177
11
12.1715573
21
80.7877177
0
LINE
8
DEFAULT_255_2_778
10
12.1716022
20
82.4876177
11
14.3716022
21
82.4876177
0
LINE
8
DEFAULT_255_2_778
10
14.6717022
20
84.5876177
11
11.8716022
21
84.5876177
0
LINE
8
DEFAULT_255_2_778
10
11.8716022
20
84.5876177
11
12.1716022
21
84.2876177
0
LINE
8
DEFAULT_255_2_778
10
12.1716022
20
84.2876177
11
12.1716022
21
82.4876177
0
LINE
8
DEFAULT_255_2_778
10
12.1716022
20
82.4876177
11
11.8716022
21
82.1876177
0
LINE
8
DEFAULT_255_2_778
10
11.8716022
20
82.1876177
11
11.8716022
21
84.5876177
0
LINE
8
DEFAULT_255_2_778
10
11.8716022
20
82.1876177
11
14.6717022
21
82.1876177
0
LINE
8
DEFAULT_255_2_778
10
14.6717022
20
82.1876177
11
14.3716022
21
82.4876177
0
LINE
8
DEFAULT_255_2_778
10
14.3716022
20
82.4876177
11
14.3716022
21
84.2876177
0
LINE
8
DEFAULT_255_2_778
10
14.3716022
20
84.2876177
11
14.6717022
21
84.5876177
0
LINE
8
DEFAULT_255_2_778
10
14.6717022
20
84.5876177
11
14.6717022
21
82.1876177
0
LINE
8
DEFAULT_255_2_778
10
14.3716022
20
84.2876177
11
12.1716022
21
84.2876177
0
LINE
8
DEFAULT_255_2_778
10
15.1717022
20
82.4876177
11
17.3718022
21
82.4876177
0
LINE
8
DEFAULT_255_2_778
10
17.6718022
20
84.5876177
11
14.8717022
21
84.5876177
0
LINE
8
DEFAULT_255_2_778
10
14.8717022
20
84.5876177
11
15.1717022
21
84.2876177
0
LINE
8
DEFAULT_255_2_778
10
15.1717022
20
84.2876177
11
15.1717022
21
82.4876177
0
LINE
8
DEFAULT_255_2_778
10
15.1717022
20
82.4876177
11
14.8717022
21
82.1876177
0
LINE
8
DEFAULT_255_2_778
10
14.8717022
20
82.1876177
11
14.8717022
21
84.5876177
0
LINE
8
DEFAULT_255_2_778
10
14.8717022
20
82.1876177
11
17.6718022
21
82.1876177
0
LINE
8
DEFAULT_255_2_778
10
17.6718022
20
82.1876177
11
17.3718022
21
82.4876177
0
LINE
8
DEFAULT_255_2_778
10
17.3718022
20
82.4876177
11
17.3718022
21
84.2876177
0
LINE
8
DEFAULT_255_2_778
10
17.3718022
20
84.2876177
11
17.6718022
21
84.5876177
0
LINE
8
DEFAULT_255_2_778
10
17.6718022
20
84.5876177
11
17.6718022
21
82.1876177
0
LINE
8
DEFAULT_255_2_778
10
17.3718022
20
84.2876177
11
15.1717022
21
84.2876177
0
LINE
8
DEFAULT_255_2_778
10
15.1716573
20
85.9877177
11
17.3716573
21
85.9877177
0
LINE
8
DEFAULT_255_2_778
10
17.6717573
20
88.0877177
11
14.8716573
21
88.0877177
0
LINE
8
DEFAULT_255_2_778
10
14.8716573
20
88.0877177
11
15.1716573
21
87.7877177
0
LINE
8
DEFAULT_255_2_778
10
15.1716573
20
87.7877177
11
15.1716573
21
85.9877177
0
LINE
8
DEFAULT_255_2_778
10
15.1716573
20
85.9877177
11
14.8716573
21
85.6877177
0
LINE
8
DEFAULT_255_2_778
10
14.8716573
20
85.6877177
11
14.8716573
21
88.0877177
0
LINE
8
DEFAULT_255_2_778
10
14.8716573
20
85.6877177
11
17.6717573
21
85.6877177
0
LINE
8
DEFAULT_255_2_778
10
17.6717573
20
85.6877177
11
17.3716573
21
85.9877177
0
LINE
8
DEFAULT_255_2_778
10
17.3716573
20
85.9877177
11
17.3716573
21
87.7877177
0
LINE
8
DEFAULT_255_2_778
10
17.3716573
20
87.7877177
11
17.6717573
21
88.0877177
0
LINE
8
DEFAULT_255_2_778
10
17.6717573
20
88.0877177
11
17.6717573
21
85.6877177
0
LINE
8
DEFAULT_255_2_778
10
17.3716573
20
87.7877177
11
15.1716573
21
87.7877177
0
LINE
8
DEFAULT_255_2_778
10
15.1716573
20
89.4876177
11
17.3716573
21
89.4876177
0
LINE
8
DEFAULT_255_2_778
10
17.6717573
20
91.5876177
11
14.8716573
21
91.5876177
0
LINE
8
DEFAULT_255_2_778
10
14.8716573
20
91.5876177
11
15.1716573
21
91.2876177
0
LINE
8
DEFAULT_255_2_778
10
15.1716573
20
91.2876177
11
15.1716573
21
89.4876177
0
LINE
8
DEFAULT_255_2_778
10
15.1716573
20
89.4876177
11
14.8716573
21
89.1876177
0
LINE
8
DEFAULT_255_2_778
10
14.8716573
20
89.1876177
11
14.8716573
21
91.5876177
0
LINE
8
DEFAULT_255_2_778
10
17.3716573
20
91.2876177
11
15.1716573
21
91.2876177
0
LINE
8
DEFAULT_255_2_778
10
14.8716573
20
89.1876177
11
17.6717573
21
89.1876177
0
LINE
8
DEFAULT_255_2_778
10
17.6717573
20
89.1876177
11
17.3716573
21
89.4876177
0
LINE
8
DEFAULT_255_2_778
10
17.3716573
20
89.4876177
11
17.3716573
21
91.2876177
0
LINE
8
DEFAULT_255_2_778
10
17.3716573
20
91.2876177
11
17.6717573
21
91.5876177
0
LINE
8
DEFAULT_255_2_778
10
17.6717573
20
91.5876177
11
17.6717573
21
89.1876177
0
LINE
8
DEFAULT_255_2_778
10
12.1715573
20
89.4876177
11
14.3715573
21
89.4876177
0
LINE
8
DEFAULT_255_2_778
10
14.6716573
20
91.5876177
11
11.8715573
21
91.5876177
0
LINE
8
DEFAULT_255_2_778
10
11.8715573
20
91.5876177
11
12.1715573
21
91.2876177
0
LINE
8
DEFAULT_255_2_778
10
12.1715573
20
91.2876177
11
12.1715573
21
89.4876177
0
LINE
8
DEFAULT_255_2_778
10
12.1715573
20
89.4876177
11
11.8715573
21
89.1876177
0
LINE
8
DEFAULT_255_2_778
10
11.8715573
20
89.1876177
11
11.8715573
21
91.5876177
0
LINE
8
DEFAULT_255_2_778
10
11.8715573
20
89.1876177
11
14.6716573
21
89.1876177
0
LINE
8
DEFAULT_255_2_778
10
14.6716573
20
89.1876177
11
14.3715573
21
89.4876177
0
LINE
8
DEFAULT_255_2_778
10
14.3715573
20
89.4876177
11
14.3715573
21
91.2876177
0
LINE
8
DEFAULT_255_2_778
10
14.3715573
20
91.2876177
11
14.6716573
21
91.5876177
0
LINE
8
DEFAULT_255_2_778
10
14.6716573
20
91.5876177
11
14.6716573
21
89.1876177
0
LINE
8
DEFAULT_255_2_778
10
14.3715573
20
91.2876177
11
12.1715573
21
91.2876177
0
ARC
8
DEFAULT_255_2_778
10
19.6237292
20
83.3311308
40
1.4434636
50
178.027274
51
179.4850485
0
ARC
8
DEFAULT_255_2_778
10
19.5336559
20
83.332149
40
1.3533847
50
179.4938834
51
179.9982853
0
ARC
8
DEFAULT_255_2_778
10
19.1875141
20
83.3236345
40
1.0072791
50
179.5133668
51
190.2823811
0
ARC
8
DEFAULT_255_2_778
10
18.7585471
20
83.2427773
40
0.5707762
50
189.9824221
51
207.8031736
0
ARC
8
DEFAULT_255_2_778
10
18.5923623
20
83.1564098
40
0.3834933
50
207.9701658
51
243.9099909
0
ARC
8
DEFAULT_255_2_778
10
18.6704684
20
83.3353349
40
0.5785993
50
244.7557653
51
264.312068
0
ARC
8
DEFAULT_255_2_778
10
18.736286
20
83.8125473
40
1.0601416
50
263.3285597
51
267.4933929
0
ARC
8
DEFAULT_255_2_778
10
18.7549732
20
84.0065763
40
1.2548434
50
267.0284075
51
269.2072453
0
ARC
8
DEFAULT_255_2_778
10
18.753084
20
83.9005269
40
1.1487781
50
269.2282794
51
269.9978152
0
ARC
8
DEFAULT_255_2_778
10
18.7643322
20
83.557551
40
0.8058813
50
269.1971503
51
284.5116102
0
ARC
8
DEFAULT_255_2_778
10
18.8662904
20
83.1922563
40
0.4267527
50
283.5487477
51
346.7164509
0
ARC
8
DEFAULT_255_2_778
10
18.4122197
20
83.3263159
40
0.8998574
50
345.0517758
51
0.0934142
0
ARC
8
DEFAULT_255_2_778
10
17.9838545
20
83.3452922
40
1.3283367
50
359.2447457
51
0.003288
0
ARC
8
DEFAULT_255_2_778
10
17.9015258
20
83.3452109
40
1.4106655
50
0.0064004
51
1.1214564
0
ARC
8
DEFAULT_255_2_778
10
19.4467637
20
83.3336154
40
0.9896592
50
178.8012212
51
179.9929099
0
ARC
8
DEFAULT_255_2_778
10
19.1098319
20
83.3232729
40
0.6528114
50
179.081467
51
194.3867948
0
ARC
8
DEFAULT_255_2_778
10
18.7633064
20
83.2283511
40
0.293626
50
193.246172
51
227.9701312
0
ARC
8
DEFAULT_255_2_778
10
18.7339485
20
83.2171704
40
0.266051
50
231.0557831
51
270.1448495
0
ARC
8
DEFAULT_255_2_778
10
18.0078482
20
83.3370717
40
1.0253828
50
0.0234836
51
2.132135
0
ARC
8
DEFAULT_255_2_778
10
18.3580976
20
83.3279111
40
0.6752013
50
346.3552413
51
0.8130349
0
ARC
8
DEFAULT_255_2_778
10
18.7014137
20
83.2397581
40
0.3208133
50
318.1617023
51
347.1904332
0
ARC
8
DEFAULT_255_2_778
10
18.7623565
20
83.1995196
40
0.2487976
50
267.7577148
51
315.7033304
0
ARC
8
DEFAULT_255_2_778
10
18.7526704
20
83.3123949
40
0.3614824
50
268.0580825
51
269.9923585
0
LINE
8
DEFAULT_255_2_778
10
18.4578211
20
83.3509202
11
18.4578211
21
84.1626202
0
LINE
8
DEFAULT_255_2_778
10
18.4578211
20
84.1626202
11
18.1800211
21
84.1626202
0
LINE
8
DEFAULT_255_2_778
10
18.1800211
20
84.1626202
11
18.1800211
21
83.3509202
0
LINE
8
DEFAULT_255_2_778
10
19.3108211
20
83.3509202
11
19.3108211
21
84.1626202
0
LINE
8
DEFAULT_255_2_778
10
19.3108211
20
84.1626202
11
19.0330211
21
84.1626202
0
LINE
8
DEFAULT_255_2_778
10
19.0330211
20
84.1626202
11
19.0330211
21
83.3509202
0
ARC
8
DEFAULT_255_2_778
10
19.9903125
20
83.0351956
40
0.9556203
50
66.8617078
51
75.0443482
0
ARC
8
DEFAULT_255_2_778
10
20.0923669
20
83.4252999
40
0.5523972
50
74.8288849
51
87.7359128
0
ARC
8
DEFAULT_255_2_778
10
20.1025205
20
83.5696671
40
0.4077656
50
88.3601209
51
89.9916638
0
ARC
8
DEFAULT_255_2_778
10
20.0943245
20
83.694872
40
0.2826811
50
88.3265271
51
122.9053372
0
ARC
8
DEFAULT_255_2_778
10
20.0867821
20
83.7168403
40
0.2602003
50
124.1389721
51
139.4657853
0
ARC
8
DEFAULT_255_2_778
10
20.0925848
20
83.7771048
40
0.2308304
50
151.8672662
51
168.0739209
0
ARC
8
DEFAULT_255_2_778
10
20.0174801
20
83.7946457
40
0.1537308
50
168.685883
51
179.799942
0
ARC
8
DEFAULT_255_2_778
10
20.0104157
20
83.8000251
40
0.1467454
50
181.8911118
51
239.403861
0
ARC
8
DEFAULT_255_2_778
10
20.1764829
20
84.0329627
40
0.432466
50
236.1714269
51
252.1869536
0
ARC
8
DEFAULT_255_2_778
10
20.3020334
20
84.3749915
40
0.7966445
50
251.1151988
51
254.6556197
0
ARC
8
DEFAULT_255_2_778
10
19.8092828
20
82.7248521
40
0.9258653
50
60.424222
51
72.2708472
0
ARC
8
DEFAULT_255_2_778
10
20.0344731
20
83.1125658
40
0.4775422
50
38.5831888
51
60.9621482
0
ARC
8
DEFAULT_255_2_778
10
20.1489979
20
83.2104528
40
0.3270102
50
359.2559791
51
37.6904187
0
ARC
8
DEFAULT_255_2_778
10
20.0179083
20
83.2093049
40
0.4580826
50
346.4789936
51
359.6124455
0
ARC
8
DEFAULT_255_2_778
10
19.8352828
20
83.2509564
40
0.6453883
50
339.054677
51
346.6744055
0
ARC
8
DEFAULT_255_2_778
10
19.9221011
20
83.3032925
40
0.5884672
50
311.4202679
51
331.249838
0
ARC
8
DEFAULT_255_2_778
10
20.0121705
20
83.2128335
40
0.4611104
50
268.5270353
51
310.4640274
0
ARC
8
DEFAULT_255_2_778
10
20.0053626
20
83.4860191
40
0.7341609
50
257.7688773
51
269.6062681
0
ARC
8
DEFAULT_255_2_778
10
20.0791485
20
83.8370211
40
1.0928299
50
249.8041025
51
257.8868798
0
ARC
8
DEFAULT_255_2_778
10
20.2167999
20
84.2237886
40
1.5033457
50
245.782506
51
249.9693525
0
ARC
8
DEFAULT_255_2_778
10
4.6790196
20
84.784048
40
15.0455749
50
352.6249631
51
353.5352773
0
ARC
8
DEFAULT_255_2_778
10
20.0711875
20
84.0292577
40
1.0381313
50
244.7849019
51
253.1299492
0
ARC
8
DEFAULT_255_2_778
10
19.9486558
20
83.6175458
40
0.6085822
50
252.9208464
51
266.0256791
0
ARC
8
DEFAULT_255_2_778
10
19.9326226
20
83.4524614
40
0.442807
50
266.6147785
51
269.9712023
0
ARC
8
DEFAULT_255_2_778
10
19.9425073
20
83.3153026
40
0.3058151
50
268.1060118
51
316.306398
0
ARC
8
DEFAULT_255_2_778
10
19.9969625
20
83.2004866
40
0.1925551
50
329.9435854
51
348.7502654
0
ARC
8
DEFAULT_255_2_778
10
20.0546998
20
83.1870844
40
0.1333258
50
349.5586564
51
359.8709885
0
ARC
8
DEFAULT_255_2_778
10
20.0447664
20
83.1805815
40
0.1433932
50
2.4791729
51
56.2607272
0
ARC
8
DEFAULT_255_2_778
10
19.8622238
20
82.9495803
40
0.4375058
50
53.1821893
51
69.1792152
0
ARC
8
DEFAULT_255_2_778
10
19.6899323
20
82.5404706
40
0.8812781
50
68.163386
51
73.0454002
0
ARC
8
DEFAULT_255_2_778
10
20.0961392
20
84.0539813
40
0.686938
50
239.8257304
51
257.4544262
0
ARC
8
DEFAULT_255_2_778
10
19.9145564
20
83.7542847
40
0.3366404
50
183.719701
51
240.9050902
0
ARC
8
DEFAULT_255_2_778
10
20.3570427
20
83.7520405
40
0.7786641
50
180.0074316
51
181.4420351
0
ARC
8
DEFAULT_255_2_778
10
20.112776
20
83.7619125
40
0.5344904
50
160.972549
51
181.0691313
0
ARC
8
DEFAULT_255_2_778
10
19.9382155
20
83.8153211
40
0.3521137
50
104.2168942
51
159.9278504
0
ARC
8
DEFAULT_255_2_778
10
20.054073
20
83.462184
40
0.7233415
50
91.8310189
51
106.2435874
0
ARC
8
DEFAULT_255_2_778
10
20.0781187
20
83.1152397
40
1.0709551
50
89.9687818
51
92.5237424
0
ARC
8
DEFAULT_255_2_778
10
20.0757465
20
82.8383338
40
1.3478643
50
85.1619045
51
89.8743571
0
ARC
8
DEFAULT_255_2_778
10
20.0373894
20
82.3744268
40
1.8133536
50
81.504683
51
85.1905196
0
ARC
8
DEFAULT_255_2_778
10
19.9644668
20
81.8750167
40
2.3180575
50
79.1119745
51
81.5455827
0
LINE
8
DEFAULT_255_2_778
10
20.4023252
20
84.151345
11
20.3734252
21
83.920845
0
ARC
8
DEFAULT_255_2_778
10
22.2052187
20
83.1768572
40
0.1781052
50
24.45075
51
98.4011994
0
ARC
8
DEFAULT_255_2_778
10
21.9704496
20
83.0524587
40
0.4436007
50
17.9337986
51
26.526642
0
ARC
8
DEFAULT_255_2_778
10
22.1360208
20
80.2961538
40
3.8663191
50
90.0005657
51
90.1915225
0
ARC
8
DEFAULT_255_2_778
10
22.1505226
20
81.716913
40
2.4456031
50
85.259231
51
90.3406458
0
ARC
8
DEFAULT_255_2_778
10
22.2774567
20
83.1703003
40
0.9867178
50
75.0390991
51
85.6297479
0
ARC
8
DEFAULT_255_2_778
10
22.4445494
20
83.7659243
40
0.3682271
50
48.8534179
51
76.2314467
0
ARC
8
DEFAULT_255_2_778
10
22.4756521
20
83.8318635
40
0.2987757
50
2.1092966
51
45.0217196
0
ARC
8
DEFAULT_255_2_778
10
22.1524178
20
83.7839666
40
0.6245903
50
1.0811054
51
5.4105445
0
ARC
8
DEFAULT_255_2_778
10
22.3819059
20
83.7863443
40
0.395103
50
0.0042137
51
1.3642772
0
ARC
8
DEFAULT_255_2_778
10
22.4606964
20
83.779182
40
0.3163942
50
314.6968145
51
1.3023855
0
ARC
8
DEFAULT_255_2_778
10
22.4482241
20
83.7999557
40
0.3399819
50
277.8394523
51
313.7285001
0
ARC
8
DEFAULT_255_2_778
10
22.302947
20
83.178737
40
0.3636365
50
22.5437593
51
39.5843754
0
ARC
8
DEFAULT_255_2_778
10
22.4602062
20
83.306692
40
0.1609121
50
40.1521392
51
59.1598431
0
ARC
8
DEFAULT_255_2_778
10
22.4809052
20
83.3392111
40
0.1223849
50
59.6755087
51
80.9648946
0
ARC
8
DEFAULT_255_2_778
10
22.4830356
20
83.3509607
40
0.1104466
50
81.0991529
51
85.398118
0
ARC
8
DEFAULT_255_2_778
10
22.2396954
20
83.9941036
40
0.4207409
50
274.3075015
51
291.6296289
0
ARC
8
DEFAULT_255_2_778
10
22.3320199
20
83.7464509
40
0.1565904
50
293.6287241
51
8.4832693
0
ARC
8
DEFAULT_255_2_778
10
22.2943642
20
83.7788787
40
0.1927585
50
357.2264001
51
359.982962
0
ARC
8
DEFAULT_255_2_778
10
22.315232
20
83.7672084
40
0.1722826
50
3.8650669
51
92.5445235
0
ARC
8
DEFAULT_255_2_778
10
22.2628998
20
83.5627873
40
0.3791757
50
83.2323114
51
85.478155
0
ARC
8
DEFAULT_255_2_778
10
22.2617487
20
83.5485235
40
0.3934857
50
85.4748007
51
86.9482696
0
LINE
8
DEFAULT_255_2_778
10
21.5507969
20
82.9942512
11
21.5507969
21
82.7757512
0
LINE
8
DEFAULT_255_2_778
10
21.5507969
20
82.7757512
11
20.7284969
21
82.7757512
0
LINE
8
DEFAULT_255_2_778
10
20.7284969
20
82.7757512
11
20.7284969
21
84.1624512
0
LINE
8
DEFAULT_255_2_778
10
20.7284969
20
84.1624512
11
21.5468969
21
84.1624512
0
LINE
8
DEFAULT_255_2_778
10
21.5468969
20
84.1624512
11
21.5468969
21
83.9438512
0
LINE
8
DEFAULT_255_2_778
10
21.5468969
20
83.9438512
11
21.0065969
21
83.9438512
0
LINE
8
DEFAULT_255_2_778
10
21.0065969
20
83.9438512
11
21.0065969
21
83.6020512
0
LINE
8
DEFAULT_255_2_778
10
21.0065969
20
83.6020512
11
21.5012969
21
83.6020512
0
LINE
8
DEFAULT_255_2_778
10
21.5012969
20
83.6020512
11
21.5012969
21
83.3834512
0
LINE
8
DEFAULT_255_2_778
10
21.5012969
20
83.3834512
11
21.0065969
21
83.3834512
0
LINE
8
DEFAULT_255_2_778
10
21.0065969
20
83.3834512
11
21.0065969
21
82.9942512
0
LINE
8
DEFAULT_255_2_778
10
21.0065969
20
82.9942512
11
21.5507969
21
82.9942512
0
LINE
8
DEFAULT_255_2_778
10
22.1860969
20
83.3522512
11
22.1026969
21
83.3522512
0
LINE
8
DEFAULT_255_2_778
10
22.1026969
20
83.3522512
11
22.1026969
21
82.7757512
0
LINE
8
DEFAULT_255_2_778
10
22.1026969
20
82.7757512
11
21.8246969
21
82.7757512
0
LINE
8
DEFAULT_255_2_778
10
21.8246969
20
82.7757512
11
21.8246969
21
84.1624512
0
LINE
8
DEFAULT_255_2_778
10
21.8246969
20
84.1624512
11
22.1230969
21
84.1624512
0
LINE
8
DEFAULT_255_2_778
10
22.3929969
20
83.1869512
11
22.5514969
21
82.7757512
0
LINE
8
DEFAULT_255_2_778
10
22.5514969
20
82.7757512
11
22.8612969
21
82.7757512
0
LINE
8
DEFAULT_255_2_778
10
22.8612969
20
82.7757512
11
22.6387969
21
83.3181512
0
LINE
8
DEFAULT_255_2_778
10
22.4918969
20
83.4610512
11
22.4918969
21
83.4612512
0
LINE
8
DEFAULT_255_2_778
10
22.2826969
20
83.9414512
11
22.1024969
21
83.9436512
0
LINE
8
DEFAULT_255_2_778
10
22.1024969
20
83.9436512
11
22.1024969
21
83.5708512
0
LINE
8
DEFAULT_255_2_778
10
22.1024969
20
83.5708512
11
22.2651969
21
83.5742512
0
LINE
8
DEFAULT_255_2_778
10
22.069648
20
86.5221989
11
22.069648
21
86.2385989
0
LINE
8
DEFAULT_255_2_778
10
22.069648
20
86.2385989
11
21.785748
21
86.2385989
0
LINE
8
DEFAULT_255_2_778
10
21.785748
20
86.2385989
11
21.785748
21
86.5221989
0
LINE
8
DEFAULT_255_2_778
10
21.785748
20
86.5221989
11
22.069648
21
86.5221989
0
LINE
8
DEFAULT_255_2_778
10
19.018448
20
86.4613989
11
19.018448
21
86.2385989
0
LINE
8
DEFAULT_255_2_778
10
19.018448
20
86.2385989
11
18.179748
21
86.2385989
0
LINE
8
DEFAULT_255_2_778
10
18.179748
20
86.2385989
11
18.179748
21
87.6527989
0
LINE
8
DEFAULT_255_2_778
10
18.179748
20
87.6527989
11
19.014248
21
87.6527989
0
LINE
8
DEFAULT_255_2_778
10
19.014248
20
87.6527989
11
19.014248
21
87.4299989
0
LINE
8
DEFAULT_255_2_778
10
19.014248
20
87.4299989
11
18.463348
21
87.4299989
0
LINE
8
DEFAULT_255_2_778
10
18.463348
20
87.4299989
11
18.463348
21
87.0815989
0
LINE
8
DEFAULT_255_2_778
10
18.463348
20
87.0815989
11
18.967948
21
87.0815989
0
LINE
8
DEFAULT_255_2_778
10
18.967948
20
87.0815989
11
18.967948
21
86.8587989
0
LINE
8
DEFAULT_255_2_778
10
18.967948
20
86.8587989
11
18.463348
21
86.8587989
0
LINE
8
DEFAULT_255_2_778
10
18.463348
20
86.8587989
11
18.463348
21
86.4615989
0
LINE
8
DEFAULT_255_2_778
10
18.463348
20
86.4615989
11
19.018448
21
86.4615989
0
ARC
8
DEFAULT_255_2_778
10
19.6861355
20
86.6474957
40
0.1816577
50
24.6681733
51
98.3898364
0
ARC
8
DEFAULT_255_2_778
10
19.4495225
20
86.5219125
40
0.4493541
50
17.8979705
51
26.6282211
0
ARC
8
DEFAULT_255_2_778
10
19.6152878
20
83.7169531
40
3.9360772
50
89.9996471
51
90.187162
0
ARC
8
DEFAULT_255_2_778
10
19.6301332
20
85.1577484
40
2.4953261
50
85.2594303
51
90.3403138
0
ARC
8
DEFAULT_255_2_778
10
19.7595833
20
86.6400142
40
1.0074538
50
75.045634
51
85.6294776
0
ARC
8
DEFAULT_255_2_778
10
19.9288225
20
87.2451566
40
0.3792058
50
49.5190771
51
76.1563344
0
ARC
8
DEFAULT_255_2_778
10
19.965131
20
87.3173131
40
0.3013648
50
2.4435608
51
45.8612133
0
ARC
8
DEFAULT_255_2_778
10
19.6397041
20
87.2676253
40
0.629631
50
1.0450986
51
5.7001675
0
ARC
8
DEFAULT_255_2_778
10
19.8667525
20
87.2693049
40
0.4025972
50
0.0032731
51
1.3954549
0
ARC
8
DEFAULT_255_2_778
10
19.9468514
20
87.2621236
40
0.3225788
50
315.6017926
51
1.2797251
0
ARC
8
DEFAULT_255_2_778
10
19.9338981
20
87.2834858
40
0.3468353
50
277.8602273
51
314.5774337
0
ARC
8
DEFAULT_255_2_778
10
19.2916374
20
86.4129079
40
0.918786
50
24.3895175
51
24.5035769
0
ARC
8
DEFAULT_255_2_778
10
19.7826949
20
86.6489038
40
0.37424
50
22.8077664
51
39.4126703
0
ARC
8
DEFAULT_255_2_778
10
19.9450937
20
86.7784186
40
0.1665706
50
40.4601188
51
59.1418074
0
ARC
8
DEFAULT_255_2_778
10
19.9692746
20
86.8179373
40
0.1202445
50
59.3744
51
85.4897845
0
ARC
8
DEFAULT_255_2_778
10
19.72111
20
87.4829319
40
0.4307443
50
274.3164783
51
291.4873615
0
ARC
8
DEFAULT_255_2_778
10
19.8154373
20
87.2287395
40
0.1597561
50
293.4022675
51
8.5204648
0
ARC
8
DEFAULT_255_2_778
10
19.7763117
20
87.2617758
40
0.1973409
50
357.2795254
51
359.9824436
0
ARC
8
DEFAULT_255_2_778
10
19.7991905
20
87.2505981
40
0.1748159
50
3.6461216
51
92.0272227
0
ARC
8
DEFAULT_255_2_778
10
19.7442775
20
87.0392652
40
0.3891026
50
82.805718
51
85.5679951
0
ARC
8
DEFAULT_255_2_778
10
19.7429865
20
87.0236861
40
0.4047351
50
85.5562084
51
86.849509
0
LINE
8
DEFAULT_255_2_778
10
19.6665302
20
86.8267093
11
19.5815302
21
86.8267093
0
LINE
8
DEFAULT_255_2_778
10
19.5815302
20
86.8267093
11
19.5815302
21
86.2388093
0
LINE
8
DEFAULT_255_2_778
10
19.5815302
20
86.2388093
11
19.2979302
21
86.2388093
0
LINE
8
DEFAULT_255_2_778
10
19.2979302
20
86.2388093
11
19.2979302
21
87.6530093
0
LINE
8
DEFAULT_255_2_778
10
19.2979302
20
87.6530093
11
19.6024302
21
87.6530093
0
LINE
8
DEFAULT_255_2_778
10
19.8776302
20
86.6584093
11
20.0395302
21
86.2390093
0
LINE
8
DEFAULT_255_2_778
10
20.0395302
20
86.2390093
11
20.3554302
21
86.2390093
0
LINE
8
DEFAULT_255_2_778
10
20.3554302
20
86.2390093
11
20.1284302
21
86.7923093
0
LINE
8
DEFAULT_255_2_778
10
19.9787302
20
86.9378093
11
19.9787302
21
86.9381093
0
LINE
8
DEFAULT_255_2_778
10
19.7652302
20
87.4278093
11
19.5815302
21
87.4302093
0
LINE
8
DEFAULT_255_2_778
10
19.5815302
20
87.4302093
11
19.5815302
21
87.0500093
0
LINE
8
DEFAULT_255_2_778
10
19.5815302
20
87.0500093
11
19.7477302
21
87.0534093
0
ARC
8
DEFAULT_255_2_778
10
20.9241355
20
86.6474957
40
0.1816577
50
24.6681733
51
98.3898364
0
ARC
8
DEFAULT_255_2_778
10
20.6875225
20
86.5219125
40
0.4493541
50
17.8979705
51
26.6282211
0
ARC
8
DEFAULT_255_2_778
10
20.8532878
20
83.7169531
40
3.9360772
50
89.9996471
51
90.187162
0
ARC
8
DEFAULT_255_2_778
10
20.8681332
20
85.1577484
40
2.4953261
50
85.2594303
51
90.3403138
0
ARC
8
DEFAULT_255_2_778
10
20.9975833
20
86.6400142
40
1.0074538
50
75.045634
51
85.6294776
0
ARC
8
DEFAULT_255_2_778
10
21.1668225
20
87.2451566
40
0.3792058
50
49.5190771
51
76.1563344
0
ARC
8
DEFAULT_255_2_778
10
21.203131
20
87.3173131
40
0.3013648
50
2.4435608
51
45.8612133
0
ARC
8
DEFAULT_255_2_778
10
20.8777041
20
87.2676253
40
0.629631
50
1.0450986
51
5.7001675
0
ARC
8
DEFAULT_255_2_778
10
21.1047525
20
87.2693049
40
0.4025972
50
0.0032731
51
1.3954549
0
ARC
8
DEFAULT_255_2_778
10
21.1848514
20
87.2621236
40
0.3225788
50
315.6017926
51
1.2797251
0
ARC
8
DEFAULT_255_2_778
10
21.1718981
20
87.2834858
40
0.3468353
50
277.8602273
51
314.5774337
0
ARC
8
DEFAULT_255_2_778
10
20.5296374
20
86.4129079
40
0.918786
50
24.3895175
51
24.5035769
0
ARC
8
DEFAULT_255_2_778
10
21.0206949
20
86.6489038
40
0.37424
50
22.8077664
51
39.4126703
0
ARC
8
DEFAULT_255_2_778
10
21.1830937
20
86.7784186
40
0.1665706
50
40.4601188
51
59.1418074
0
ARC
8
DEFAULT_255_2_778
10
21.2072746
20
86.8179373
40
0.1202445
50
59.3744
51
85.4897845
0
ARC
8
DEFAULT_255_2_778
10
20.95911
20
87.4829319
40
0.4307443
50
274.3164783
51
291.4873615
0
ARC
8
DEFAULT_255_2_778
10
21.0534373
20
87.2287395
40
0.1597561
50
293.4022675
51
8.5204648
0
ARC
8
DEFAULT_255_2_778
10
21.0143117
20
87.2617758
40
0.1973409
50
357.2795254
51
359.9824436
0
ARC
8
DEFAULT_255_2_778
10
21.0371905
20
87.2505981
40
0.1748159
50
3.6461216
51
92.0272227
0
ARC
8
DEFAULT_255_2_778
10
20.9822775
20
87.0392652
40
0.3891026
50
82.805718
51
85.5679951
0
ARC
8
DEFAULT_255_2_778
10
20.9809865
20
87.0236861
40
0.4047351
50
85.5562084
51
86.849509
0
LINE
8
DEFAULT_255_2_778
10
20.9045302
20
86.8267093
11
20.8195302
21
86.8267093
0
LINE
8
DEFAULT_255_2_778
10
20.8195302
20
86.8267093
11
20.8195302
21
86.2388093
0
LINE
8
DEFAULT_255_2_778
10
20.8195302
20
86.2388093
11
20.5359302
21
86.2388093
0
LINE
8
DEFAULT_255_2_778
10
20.5359302
20
86.2388093
11
20.5359302
21
87.6530093
0
LINE
8
DEFAULT_255_2_778
10
20.5359302
20
87.6530093
11
20.8404302
21
87.6530093
0
LINE
8
DEFAULT_255_2_778
10
21.1156302
20
86.6584093
11
21.2775302
21
86.2390093
0
LINE
8
DEFAULT_255_2_778
10
21.2775302
20
86.2390093
11
21.5934302
21
86.2390093
0
LINE
8
DEFAULT_255_2_778
10
21.5934302
20
86.2390093
11
21.3664302
21
86.7923093
0
LINE
8
DEFAULT_255_2_778
10
21.2167302
20
86.9378093
11
21.2167302
21
86.9381093
0
LINE
8
DEFAULT_255_2_778
10
21.0032302
20
87.4278093
11
20.8195302
21
87.4302093
0
LINE
8
DEFAULT_255_2_778
10
20.8195302
20
87.4302093
11
20.8195302
21
87.0500093
0
LINE
8
DEFAULT_255_2_778
10
20.8195302
20
87.0500093
11
20.9857302
21
87.0534093
0
ARC
8
DEFAULT_255_2_778
10
21.0557459
20
90.4185329
40
1.0523789
50
178.8773733
51
179.9968548
0
ARC
8
DEFAULT_255_2_778
10
20.8507995
20
90.4102074
40
0.847474
50
179.4332214
51
197.179922
0
ARC
8
DEFAULT_255_2_778
10
20.6361344
20
90.3430703
40
0.6225568
50
197.1122593
51
227.3530022
0
ARC
8
DEFAULT_255_2_778
10
20.6524364
20
90.3806116
40
0.6613507
50
228.5176769
51
270.8077359
0
ARC
8
DEFAULT_255_2_778
10
20.6617586
20
90.4555773
40
0.7362508
50
270.0000809
51
271.0583477
0
ARC
8
DEFAULT_255_2_778
10
20.6616554
20
90.4598248
40
0.7404995
50
271.0602578
51
271.9435242
0
ARC
8
DEFAULT_255_2_778
10
20.6916231
20
90.6546867
40
0.934948
50
269.7025272
51
269.9975429
0
ARC
8
DEFAULT_255_2_778
10
20.7273317
20
90.353486
40
0.6347547
50
266.771453
51
330.073834
0
ARC
8
DEFAULT_255_2_778
10
20.5977597
20
90.4007383
40
0.7709881
50
331.8345692
51
351.3983849
0
ARC
8
DEFAULT_255_2_778
10
20.2564595
20
90.4619204
40
1.11764
50
350.9140295
51
359.5760851
0
ARC
8
DEFAULT_255_2_778
10
21.0556317
20
90.4713688
40
1.0522647
50
180.0031222
51
181.1226906
0
ARC
8
DEFAULT_255_2_778
10
20.8530551
20
90.4794942
40
0.8497274
50
163.0819365
51
180.5517552
0
ARC
8
DEFAULT_255_2_778
10
20.6341328
20
90.5472799
40
0.6205548
50
133.3544559
51
163.1876426
0
ARC
8
DEFAULT_255_2_778
10
20.6410712
20
90.5209072
40
0.6446265
50
89.1591153
51
132.1935716
0
ARC
8
DEFAULT_255_2_778
10
20.6504907
20
90.4396472
40
0.725817
50
86.8497676
51
89.9967718
0
LINE
8
DEFAULT_255_2_778
10
20.6903774
20
91.1643674
11
20.690669
21
91.1643514
0
ARC
8
DEFAULT_255_2_778
10
20.7000603
20
90.2607201
40
0.90368
50
90.0002983
51
90.5954472
0
ARC
8
DEFAULT_255_2_778
10
20.7356139
20
90.5368071
40
0.6285995
50
29.3830639
51
93.2428118
0
ARC
8
DEFAULT_255_2_778
10
20.6094446
20
90.4935452
40
0.76015
50
7.7417905
51
27.5581067
0
ARC
8
DEFAULT_255_2_778
10
20.2942396
20
90.4402389
40
1.0797127
50
0.7117619
51
8.2915328
0
ARC
8
DEFAULT_255_2_778
10
20.1427562
20
90.4621061
40
0.9409692
50
357.0097628
51
358.9553862
0
ARC
8
DEFAULT_255_2_778
10
20.4977783
20
90.4154565
40
0.584671
50
322.0670832
51
359.7612035
0
ARC
8
DEFAULT_255_2_778
10
20.7080458
20
90.2790174
40
0.335651
50
275.0171474
51
318.3695767
0
ARC
8
DEFAULT_255_2_778
10
20.6876606
20
90.4011752
40
0.4592244
50
270.0759066
51
276.2179751
0
ARC
8
DEFAULT_255_2_778
10
20.680173
20
90.310559
40
0.3686966
50
239.0479041
51
271.2582294
0
ARC
8
DEFAULT_255_2_778
10
20.7591401
20
90.3650239
40
0.4577457
50
184.9107522
51
234.0712197
0
ARC
8
DEFAULT_255_2_778
10
21.1533024
20
90.4574934
40
0.8603605
50
182.9610511
51
188.8021108
0
ARC
8
DEFAULT_255_2_778
10
21.2240365
20
90.4622779
40
0.9312481
50
182.6297106
51
183.0302236
0
ARC
8
DEFAULT_255_2_778
10
21.2653819
20
90.4197305
40
0.9716129
50
177.4064943
51
180.0105647
0
ARC
8
DEFAULT_255_2_778
10
20.9011115
20
90.463217
40
0.6063475
50
144.2133081
51
179.9547634
0
ARC
8
DEFAULT_255_2_778
10
20.669093
20
90.6071049
40
0.3345306
50
95.4303382
51
140.9650272
0
ARC
8
DEFAULT_255_2_778
10
20.6899026
20
90.4855704
40
0.4575817
50
89.9040426
51
96.5842349
0
ARC
8
DEFAULT_255_2_778
10
20.6936982
20
90.4652348
40
0.4779262
50
90.00043
51
90.3631517
0
ARC
8
DEFAULT_255_2_778
10
20.7025798
20
90.5850524
40
0.3582187
50
58.5527534
51
91.4213127
0
ARC
8
DEFAULT_255_2_778
10
20.6232939
20
90.5271079
40
0.4505726
50
6.0852848
51
53.7901284
0
ARC
8
DEFAULT_255_2_778
10
20.2337593
20
90.4309784
40
0.849839
50
2.8740977
51
9.7482384
0
ARC
8
DEFAULT_255_2_778
10
20.1443916
20
90.4249805
40
0.9393963
50
1.2364591
51
2.9661569
0
ARC
8
DEFAULT_255_2_778
10
21.984375
20
91.385987
40
1.4386737
50
267.3504273
51
269.2939958
0
ARC
8
DEFAULT_255_2_778
10
21.9825147
20
91.2695712
40
1.3222438
50
269.3124436
51
269.9975422
0
ARC
8
DEFAULT_255_2_778
10
21.9937215
20
90.8762107
40
0.9289517
50
269.3052727
51
282.5758141
0
ARC
8
DEFAULT_255_2_778
10
22.1006217
20
90.4244999
40
0.4648409
50
281.8382143
51
309.4024515
0
ARC
8
DEFAULT_255_2_778
10
22.1359761
20
90.356179
40
0.3899378
50
311.7612978
51
353.6679797
0
ARC
8
DEFAULT_255_2_778
10
21.8635776
20
90.4090136
40
0.6668803
50
351.7371191
51
0.2264153
0
ARC
8
DEFAULT_255_2_778
10
21.6795632
20
90.4109929
40
0.8508898
50
0.0441774
51
3.3801219
0
ARC
8
DEFAULT_255_2_778
10
21.5777207
20
90.405619
40
0.9528723
50
3.3416309
51
3.5458383
0
ARC
8
DEFAULT_255_2_778
10
21.9518367
20
90.473879
40
0.5770077
50
359.0737465
51
19.7137358
0
ARC
8
DEFAULT_255_2_778
10
22.1494196
20
90.5365438
40
0.3699463
50
20.8996786
51
78.6878729
0
ARC
8
DEFAULT_255_2_778
10
22.0347833
20
90.1273324
40
0.7943448
50
76.3689278
51
90.747691
0
ARC
8
DEFAULT_255_2_778
10
22.025461
20
89.7081326
40
1.2134774
50
90.0492601
51
93.1386414
0
ARC
8
DEFAULT_255_2_778
10
22.0353772
20
89.5131333
40
1.4087276
50
93.1071071
51
94.7848537
0
LINE
8
DEFAULT_255_2_778
10
21.917869
20
90.9169514
11
21.917869
21
89.9488514
0
LINE
8
DEFAULT_255_2_778
10
21.630269
20
89.7437514
11
21.630269
21
91.1431514
0
LINE
8
DEFAULT_255_2_778
10
21.630269
20
91.1431514
11
22.061469
21
91.1431514
0
ARC
8
DEFAULT_255_2_778
10
22.073165
20
89.8399116
40
1.3032922
50
79.0928372
51
90.5141907
0
ARC
8
DEFAULT_255_2_778
10
22.1875716
20
90.40632
40
0.7254866
50
58.9638696
51
79.5007611
0
ARC
8
DEFAULT_255_2_778
10
22.27715
20
90.5763919
40
0.5336889
50
9.7154932
51
57.7902618
0
ARC
8
DEFAULT_255_2_778
10
21.8858598
20
90.4819391
40
0.9356982
50
359.5721612
51
11.3730396
0
ARC
8
DEFAULT_255_2_778
10
21.5491425
20
90.4759293
40
1.2723897
50
356.681026
51
359.9559982
0
ARC
8
DEFAULT_255_2_778
10
21.375761
20
90.4852609
40
1.4460208
50
354.9053093
51
356.7096304
0
ARC
8
DEFAULT_255_2_778
10
22.0106898
20
90.3910987
40
0.806107
50
338.7916781
51
357.5650663
0
ARC
8
DEFAULT_255_2_778
10
22.2672021
20
90.2987431
40
0.5335993
50
282.8418077
51
338.072731
0
ARC
8
DEFAULT_255_2_778
10
22.118568
20
90.7970383
40
1.0530206
50
270.4921421
51
284.7010988
0
ARC
8
DEFAULT_255_2_778
10
22.0976179
20
91.2168419
40
1.4730906
50
269.9942083
51
271.166729
0
LINE
8
DEFAULT_255_2_778
10
22.097469
20
89.7437514
11
21.630269
21
89.7437514
0
ARC
8
DEFAULT_255_2_778
10
7.1869388
20
87.4308006
40
0.9112692
50
270.3791478
51
280.5552883
0
ARC
8
DEFAULT_255_2_778
10
7.2842314
20
86.9936707
40
0.463975
50
278.6320945
51
295.4304119
0
ARC
8
DEFAULT_255_2_778
10
7.1773171
20
87.4764606
40
1.1657144
50
270.7693252
51
282.0545875
0
ARC
8
DEFAULT_255_2_778
10
7.1808557
20
87.3158147
40
1.0050363
50
269.9991321
51
270.6905767
0
ARC
8
DEFAULT_255_2_778
10
7.1806296
20
87.3135841
40
1.0028057
50
253.6460329
51
270.0120493
0
ARC
8
DEFAULT_255_2_778
10
7.1020223
20
87.0236382
40
0.7024849
50
242.1793726
51
253.1392581
0
ARC
8
DEFAULT_255_2_778
10
7.0492011
20
86.9226269
40
0.5884975
50
229.661952
51
242.1378236
0
ARC
8
DEFAULT_255_2_778
10
7.022014
20
86.8863592
40
0.5432617
50
216.0112962
51
229.3716191
0
ARC
8
DEFAULT_255_2_778
10
7.0418819
20
86.8988583
40
0.5666839
50
202.6145653
51
215.8524828
0
ARC
8
DEFAULT_255_2_778
10
7.1220703
20
86.9307132
40
0.6529574
50
196.4278938
51
202.4891601
0
ARC
8
DEFAULT_255_2_778
10
7.1057905
20
86.9270487
40
0.6363068
50
190.0094939
51
196.5259643
0
ARC
8
DEFAULT_255_2_778
10
7.0993549
20
87.05834
40
0.6228619
50
147.0354786
51
159.5706401
0
ARC
8
DEFAULT_255_2_778
10
7.0649751
20
87.0786224
40
0.5829834
50
133.9906834
51
146.8694187
0
ARC
8
DEFAULT_255_2_778
10
7.0679781
20
87.0690207
40
0.5919942
50
120.8318577
51
133.5543536
0
ARC
8
DEFAULT_255_2_778
10
7.1053384
20
87.0056115
40
0.6655902
50
108.970364
51
120.7958634
0
ARC
8
DEFAULT_255_2_778
10
7.1717352
20
86.7914126
40
0.8897658
50
92.396518
51
108.5298396
0
ARC
8
DEFAULT_255_2_778
10
7.1920521
20
86.5411592
40
1.1406923
50
89.9790584
51
92.8905131
0
ARC
8
DEFAULT_255_2_778
10
7.1924216
20
86.9079397
40
0.7739116
50
88.4444609
51
89.9964948
0
ARC
8
DEFAULT_255_2_778
10
7.1882066
20
86.8221039
40
0.8598324
50
79.9151323
51
88.318958
0
ARC
8
DEFAULT_255_2_778
10
7.2103132
20
86.894859
40
0.7843822
50
68.940653
51
80.5743946
0
ARC
8
DEFAULT_255_2_778
10
7.2108299
20
86.9436802
40
0.528742
50
60.2539257
51
77.2336619
0
ARC
8
DEFAULT_255_2_778
10
7.1949481
20
86.8304451
40
0.6427581
50
78.0834631
51
90.0133305
0
ARC
8
DEFAULT_255_2_778
10
7.1948623
20
86.8277331
40
0.6454702
50
90.0056657
51
90.72731
0
ARC
8
DEFAULT_255_2_778
10
7.1866091
20
86.9600787
40
0.5130727
50
89.9933091
51
93.610256
0
ARC
8
DEFAULT_255_2_778
10
7.1800347
20
87.0189352
40
0.453928
50
93.2498684
51
113.1374619
0
ARC
8
DEFAULT_255_2_778
10
7.168038
20
87.0598462
40
0.4116245
50
113.839538
51
138.0983469
0
ARC
8
DEFAULT_255_2_778
10
7.1743621
20
87.0551476
40
0.4194702
50
138.1975663
51
150.1152763
0
ARC
8
DEFAULT_255_2_778
10
7.219513
20
87.0266815
40
0.4728059
50
149.8505908
51
160.7769271
0
ARC
8
DEFAULT_255_2_778
10
7.282328
20
87.0052314
40
0.5391811
50
160.8223545
51
170.8091426
0
ARC
8
DEFAULT_255_2_778
10
7.2616653
20
86.9768439
40
0.5183897
50
189.0781734
51
199.3535567
0
ARC
8
DEFAULT_255_2_778
10
7.1893841
20
86.9495722
40
0.4411588
50
199.122784
51
210.6532368
0
ARC
8
DEFAULT_255_2_778
10
7.1693423
20
86.9362269
40
0.4171154
50
210.4798322
51
222.3281883
0
ARC
8
DEFAULT_255_2_778
10
7.1607923
20
86.932125
40
0.4080412
50
222.710804
51
247.1693901
0
ARC
8
DEFAULT_255_2_778
10
7.1865256
20
87.0094235
40
0.4893089
50
247.9041998
51
269.9629644
0
ARC
8
DEFAULT_255_2_778
10
7.1862085
20
87.0028452
40
0.4827305
50
270.0001045
51
270.707478
0
LINE
8
DEFAULT_255_2_778
10
18.452269
20
90.8986514
11
18.829069
21
89.7443514
0
LINE
8
DEFAULT_255_2_778
10
18.829069
20
89.7443514
11
19.097369
21
89.7443514
0
LINE
8
DEFAULT_255_2_778
10
19.097369
20
89.7443514
11
19.474169
21
90.8986514
0
LINE
8
DEFAULT_255_2_778
10
19.474169
20
90.8986514
11
19.478369
21
90.8986514
0
LINE
8
DEFAULT_255_2_778
10
19.478369
20
90.8986514
11
19.478369
21
89.7443514
0
LINE
8
DEFAULT_255_2_778
10
19.478369
20
89.7443514
11
19.746669
21
89.7443514
0
LINE
8
DEFAULT_255_2_778
10
19.746669
20
89.7443514
11
19.746669
21
91.1431514
0
LINE
8
DEFAULT_255_2_778
10
19.746669
20
91.1431514
11
19.297669
21
91.1431514
0
LINE
8
DEFAULT_255_2_778
10
19.297669
20
91.1431514
11
18.965069
21
90.0829514
0
LINE
8
DEFAULT_255_2_778
10
18.965069
20
90.0829514
11
18.960869
21
90.0829514
0
LINE
8
DEFAULT_255_2_778
10
18.960869
20
90.0829514
11
18.628269
21
91.1431514
0
LINE
8
DEFAULT_255_2_778
10
18.628269
20
91.1431514
11
18.179269
21
91.1431514
0
LINE
8
DEFAULT_255_2_778
10
18.179269
20
91.1431514
11
18.179269
21
89.7443514
0
LINE
8
DEFAULT_255_2_778
10
18.179269
20
89.7443514
11
18.447569
21
89.7443514
0
LINE
8
DEFAULT_255_2_778
10
18.447569
20
89.7443514
11
18.447569
21
90.8947514
0
LINE
8
DEFAULT_255_2_778
10
18.447569
20
90.8947514
11
18.452269
21
90.8986514
0
LINE
8
DEFAULT_255_2_778
10
20.292769
20
90.4623514
11
20.293769
21
90.4192514
0
LINE
8
DEFAULT_255_2_778
10
21.083569
20
90.4240514
11
21.083369
21
90.4449514
0
LINE
8
DEFAULT_255_2_778
10
21.083569
20
90.4626514
11
21.083569
21
90.4449514
0
LINE
8
DEFAULT_255_2_778
10
20.688269
20
89.9422514
11
20.688269
21
89.9422514
0
LINE
8
DEFAULT_255_2_778
10
21.917869
20
89.9488514
11
21.917869
21
89.9488514
0
LINE
8
DEFAULT_255_2_778
10
21.630269
20
89.7437514
11
21.630269
21
89.7437514
0
LINE
8
DEFAULT_255_2_778
10
23.357969
20
89.9647514
11
23.357969
21
90.3576514
0
LINE
8
DEFAULT_255_2_778
10
23.357969
20
90.3576514
11
23.856969
21
90.3576514
0
LINE
8
DEFAULT_255_2_778
10
23.856969
20
90.3576514
11
23.856969
21
90.5780514
0
LINE
8
DEFAULT_255_2_778
10
23.856969
20
90.5780514
11
23.357969
21
90.5780514
0
LINE
8
DEFAULT_255_2_778
10
23.357969
20
90.5780514
11
23.357969
21
90.9227514
0
LINE
8
DEFAULT_255_2_778
10
23.357969
20
90.9227514
11
23.902969
21
90.9227514
0
LINE
8
DEFAULT_255_2_778
10
23.902969
20
90.9227514
11
23.902969
21
91.1431514
0
LINE
8
DEFAULT_255_2_778
10
23.902969
20
91.1431514
11
23.077469
21
91.1431514
0
LINE
8
DEFAULT_255_2_778
10
23.077469
20
91.1431514
11
23.077469
21
89.7443514
0
LINE
8
DEFAULT_255_2_778
10
23.077469
20
89.7443514
11
23.907269
21
89.7443514
0
LINE
8
DEFAULT_255_2_778
10
23.907269
20
89.7443514
11
23.907269
21
89.9647514
0
LINE
8
DEFAULT_255_2_778
10
23.907269
20
89.9647514
11
23.357969
21
89.9647514
0
LINE
8
DEFAULT_255_2_778
10
7.483469
20
86.5746514
11
7.494569
21
86.3526514
0
LINE
8
DEFAULT_255_2_778
10
7.494569
20
86.3526514
11
7.420769
21
86.3364514
0
LINE
8
DEFAULT_255_2_778
10
6.479169
20
86.8164514
11
6.468769
21
86.8923514
0
LINE
8
DEFAULT_255_2_778
10
6.468769
20
86.8923514
11
6.466169
21
86.9323514
0
LINE
8
DEFAULT_255_2_778
10
6.466169
20
86.9323514
11
6.465369
21
86.9736514
0
LINE
8
DEFAULT_255_2_778
10
6.465369
20
86.9736514
11
6.466169
21
87.0156514
0
LINE
8
DEFAULT_255_2_778
10
6.466169
20
87.0156514
11
6.468569
21
87.0564514
0
LINE
8
DEFAULT_255_2_778
10
6.468569
20
87.0564514
11
6.478069
21
87.1344514
0
LINE
8
DEFAULT_255_2_778
10
6.478069
20
87.1344514
11
6.493969
21
87.2074514
0
LINE
8
DEFAULT_255_2_778
10
6.493969
20
87.2074514
11
6.515669
21
87.2757514
0
LINE
8
DEFAULT_255_2_778
10
7.492169
20
87.6268514
11
7.473169
21
87.4027514
0
LINE
8
DEFAULT_255_2_778
10
6.750069
20
87.0913514
11
6.744269
21
87.0429514
0
LINE
8
DEFAULT_255_2_778
10
6.744269
20
87.0429514
11
6.742169
21
86.9926514
0
LINE
8
DEFAULT_255_2_778
10
6.742169
20
86.9926514
11
6.743969
21
86.9429514
0
LINE
8
DEFAULT_255_2_778
10
6.743969
20
86.9429514
11
6.749769
21
86.8950514
0
LINE
8
DEFAULT_255_2_778
10
10.3442027
20
86.3335489
11
10.7863027
21
86.3335489
0
ARC
8
DEFAULT_255_2_778
10
10.7988006
20
87.3914055
40
1.0579304
50
269.3231179
51
283.1671222
0
ARC
8
DEFAULT_255_2_778
10
10.9184268
20
86.9115673
40
0.5635029
50
282.4372785
51
312.4739442
0
ARC
8
DEFAULT_255_2_778
10
10.9240797
20
86.8755138
40
0.533475
50
314.6413534
51
349.2939938
0
ARC
8
DEFAULT_255_2_778
10
10.5888177
20
86.960568
40
0.8789597
50
347.9059118
51
356.9139732
0
ARC
8
DEFAULT_255_2_778
10
10.1430093
20
87.0317742
40
1.3287901
50
354.882537
51
357.9521609
0
ARC
8
DEFAULT_255_2_778
10
10.3022446
20
87.0255444
40
1.1694339
50
357.978409
51
359.9836082
0
ARC
8
DEFAULT_255_2_778
10
10.6540991
20
87.0371159
40
0.8176661
50
359.1656826
51
16.4070697
0
ARC
8
DEFAULT_255_2_778
10
10.9490737
20
87.1218121
40
0.5107841
50
16.6393982
51
76.0880017
0
ARC
8
DEFAULT_255_2_778
10
10.7877975
20
86.6312416
40
1.026466
50
73.9330772
51
87.6380457
0
ARC
8
DEFAULT_255_2_778
10
10.7523116
20
86.1551349
40
1.5037141
50
87.0346996
51
90.0041496
0
LINE
8
DEFAULT_255_2_778
10
10.7522027
20
87.6588489
11
10.3439027
21
87.6588489
0
LINE
8
DEFAULT_255_2_778
10
10.3439027
20
87.6588489
11
10.3439027
21
86.3335489
0
ARC
8
DEFAULT_255_2_778
10
10.6552181
20
87.0263309
40
0.5393662
50
359.003321
51
20.530837
0
ARC
8
DEFAULT_255_2_778
10
10.834772
20
87.0841304
40
0.3510575
50
21.9743014
51
78.9335474
0
ARC
8
DEFAULT_255_2_778
10
10.7267277
20
86.6943401
40
0.7549841
50
76.56389
51
90.7283751
0
ARC
8
DEFAULT_255_2_778
10
10.7183273
20
86.2894762
40
1.1597878
50
90.0591421
51
93.4377679
0
ARC
8
DEFAULT_255_2_778
10
10.7283771
20
86.1041653
40
1.3453682
50
93.3917592
51
94.7827762
0
LINE
8
DEFAULT_255_2_778
10
10.6162027
20
87.4448489
11
10.6162027
21
86.5266489
0
ARC
8
DEFAULT_255_2_778
10
10.6784258
20
87.8686598
40
1.3434526
50
267.3453463
51
269.626594
0
ARC
8
DEFAULT_255_2_778
10
10.6771108
20
87.760942
40
1.2357287
50
269.6550146
51
269.9993852
0
ARC
8
DEFAULT_255_2_778
10
10.6884241
20
87.3924037
40
0.8672643
50
269.2516953
51
283.1166747
0
ARC
8
DEFAULT_255_2_778
10
10.7946572
20
86.9636981
40
0.4256805
50
282.2857253
51
312.2121733
0
ARC
8
DEFAULT_255_2_778
10
10.8138045
20
86.9169173
40
0.3785604
50
314.8237953
51
354.4233528
0
ARC
8
DEFAULT_255_2_778
10
10.5517074
20
86.9643496
40
0.6443932
50
352.4901706
51
0.1894118
0
ARC
8
DEFAULT_255_2_778
10
10.382608
20
86.9658168
40
0.8134891
50
0.0467035
51
3.4758576
0
ARC
8
DEFAULT_255_2_778
10
10.3267766
20
86.9631874
40
0.8693776
50
3.4257428
51
3.5321734
0
LINE
8
DEFAULT_255_2_778
10
10.3439027
20
86.3335489
11
10.3442027
21
86.3335489
0
LINE
8
DEFAULT_255_2_778
10
11.1945027
20
87.0167489
11
11.1945027
21
87.0169489
0
ARC
8
DEFAULT_255_2_778
10
9.525023
20
86.7164866
40
0.1705095
50
23.2193827
51
98.4158822
0
ARC
8
DEFAULT_255_2_778
10
9.2900478
20
86.5936402
40
0.4353563
50
18.0120949
51
25.8862276
0
ARC
8
DEFAULT_255_2_778
10
9.4592567
20
83.9507277
40
3.7081547
50
90.0006146
51
90.1991519
0
ARC
8
DEFAULT_255_2_778
10
9.4730877
20
85.3281287
40
2.3307951
50
85.2487041
51
90.3409733
0
ARC
8
DEFAULT_255_2_778
10
9.5963861
20
86.7273413
40
0.9262041
50
74.5852669
51
85.6803093
0
ARC
8
DEFAULT_255_2_778
10
9.760643
20
87.2938545
40
0.3364994
50
46.2474053
51
75.9077892
0
ARC
8
DEFAULT_255_2_778
10
9.7749294
20
87.33968
40
0.2942955
50
1.4459996
51
42.0830874
0
ARC
8
DEFAULT_255_2_778
10
9.4626889
20
87.2973165
40
0.6084826
50
1.0587688
51
4.6935596
0
ARC
8
DEFAULT_255_2_778
10
9.6939449
20
87.2991733
40
0.3772397
50
0.0046325
51
1.4258222
0
ARC
8
DEFAULT_255_2_778
10
9.7701847
20
87.2921238
40
0.301083
50
312.6925715
51
1.3474457
0
ARC
8
DEFAULT_255_2_778
10
9.7557462
20
87.3149149
40
0.3276607
50
278.0211897
51
311.8459391
0
ARC
8
DEFAULT_255_2_778
10
9.6167563
20
86.7178446
40
0.3496396
50
22.5912181
51
39.5461363
0
ARC
8
DEFAULT_255_2_778
10
9.7689905
20
86.8414396
40
0.1535658
50
40.1512658
51
59.13704
0
ARC
8
DEFAULT_255_2_778
10
9.7891559
20
86.8726126
40
0.11647
50
59.7857078
51
85.118111
0
ARC
8
DEFAULT_255_2_778
10
9.5592872
20
87.491335
40
0.3952316
50
274.1904784
51
292.1629447
0
ARC
8
DEFAULT_255_2_778
10
9.6461136
20
87.2615024
40
0.1497579
50
294.5706365
51
8.392476
0
ARC
8
DEFAULT_255_2_778
10
9.6104196
20
87.2923651
40
0.1840685
50
357.1958479
51
359.9839056
0
ARC
8
DEFAULT_255_2_778
10
9.6281491
20
87.2799228
40
0.1667999
50
4.2600732
51
93.4621004
0
ARC
8
DEFAULT_255_2_778
10
9.5785979
20
87.0794046
40
0.3691309
50
83.8604924
51
85.3016669
0
ARC
8
DEFAULT_255_2_778
10
9.5777878
20
87.0696287
40
0.3789405
50
85.3006692
51
86.7504957
0
LINE
8
DEFAULT_255_2_778
10
9.5066677
20
86.88436
11
9.4270677
21
86.88436
0
LINE
8
DEFAULT_255_2_778
10
9.4270677
20
86.88436
11
9.4270677
21
86.33356
0
LINE
8
DEFAULT_255_2_778
10
9.4270677
20
86.33356
11
9.1611677
21
86.33356
0
LINE
8
DEFAULT_255_2_778
10
9.1611677
20
86.33356
11
9.1611677
21
87.65886
0
LINE
8
DEFAULT_255_2_778
10
9.1611677
20
87.65886
11
9.4463677
21
87.65886
0
LINE
8
DEFAULT_255_2_778
10
9.7043677
20
86.72666
11
9.8559677
21
86.33356
0
LINE
8
DEFAULT_255_2_778
10
9.8559677
20
86.33356
11
10.1520677
21
86.33356
0
LINE
8
DEFAULT_255_2_778
10
10.1520677
20
86.33356
11
9.9395677
21
86.85216
0
LINE
8
DEFAULT_255_2_778
10
9.7990677
20
86.98866
11
9.7990677
21
86.98886
0
LINE
8
DEFAULT_255_2_778
10
9.5992677
20
87.44796
11
9.4273677
21
87.45006
0
LINE
8
DEFAULT_255_2_778
10
9.4273677
20
87.45006
11
9.4273677
21
87.09366
0
LINE
8
DEFAULT_255_2_778
10
9.4273677
20
87.09366
11
9.5828677
21
87.09716
0
ARC
8
DEFAULT_255_2_778
10
3.929485
20
86.58906
40
0.905375
50
66.848445
51
75.3608682
0
ARC
8
DEFAULT_255_2_778
10
4.026494
20
86.9689845
40
0.5132715
50
75.1199012
51
88.77557
0
ARC
8
DEFAULT_255_2_778
10
4.0338855
20
87.10147
40
0.3806857
50
89.4617231
51
89.9992147
0
ARC
8
DEFAULT_255_2_778
10
4.0253719
20
87.2152133
40
0.2670782
50
88.1721626
51
125.1677706
0
ARC
8
DEFAULT_255_2_778
10
4.0204487
20
87.2313732
40
0.2510881
50
126.3733991
51
139.3853988
0
ARC
8
DEFAULT_255_2_778
10
4.0220983
20
87.2917733
40
0.2181286
50
151.8079822
51
168.7170787
0
ARC
8
DEFAULT_255_2_778
10
3.9514477
20
87.3076941
40
0.1457395
50
169.4208097
51
179.8272222
0
ARC
8
DEFAULT_255_2_778
10
3.9469033
20
87.3131148
40
0.1412822
50
182.0205124
51
240.0946152
0
ARC
8
DEFAULT_255_2_778
10
4.1112324
20
87.5483134
40
0.4278354
50
236.7197656
51
252.7377236
0
ARC
8
DEFAULT_255_2_778
10
4.2295284
20
87.8778687
40
0.7777983
50
251.6199263
51
254.6204055
0
ARC
8
DEFAULT_255_2_778
10
3.7549316
20
86.287974
40
0.881764
50
60.2334729
51
72.2843549
0
ARC
8
DEFAULT_255_2_778
10
3.9738787
20
86.6614508
40
0.4488894
50
37.494611
51
60.8256497
0
ARC
8
DEFAULT_255_2_778
10
4.0789574
20
86.7492406
40
0.3121343
50
359.2609688
51
36.4494698
0
ARC
8
DEFAULT_255_2_778
10
3.9519152
20
86.7483446
40
0.4391616
50
346.1474565
51
359.5916471
0
ARC
8
DEFAULT_255_2_778
10
3.7764379
20
86.7890525
40
0.6192865
50
339.0399687
51
346.3777855
0
ARC
8
DEFAULT_255_2_778
10
3.8648906
20
86.8357377
40
0.558478
50
310.7194333
51
331.2976508
0
ARC
8
DEFAULT_255_2_778
10
3.9475295
20
86.7521375
40
0.4412806
50
268.5490528
51
309.6681886
0
ARC
8
DEFAULT_255_2_778
10
3.9411774
20
87.0126322
40
0.7016504
50
257.7674992
51
269.6062664
0
ARC
8
DEFAULT_255_2_778
10
4.0130326
20
87.3531012
40
1.0496156
50
249.6079776
51
257.8720097
0
ARC
8
DEFAULT_255_2_778
10
4.146068
20
87.7243317
40
1.4439438
50
245.7862621
51
249.7926456
0
ARC
8
DEFAULT_255_2_778
10
-13.0232252
20
88.540659
40
16.7137667
50
352.6671407
51
353.4500261
0
ARC
8
DEFAULT_255_2_778
10
4.0024894
20
87.5281859
40
0.9882433
50
244.7827342
51
253.3012161
0
ARC
8
DEFAULT_255_2_778
10
3.8853293
20
87.129769
40
0.5729679
50
253.0750305
51
266.6227215
0
ARC
8
DEFAULT_255_2_778
10
3.8716458
20
86.9766144
40
0.4192987
50
267.2564072
51
269.9809591
0
ARC
8
DEFAULT_255_2_778
10
3.8811884
20
86.8492626
40
0.2921074
50
268.1005823
51
316.2925992
0
ARC
8
DEFAULT_255_2_778
10
3.9342812
20
86.7389389
40
0.1826464
50
329.9303153
51
349.3171948
0
ARC
8
DEFAULT_255_2_778
10
3.9887577
20
86.7266885
40
0.1268579
50
350.1933018
51
359.8868769
0
ARC
8
DEFAULT_255_2_778
10
3.9779366
20
86.7202494
40
0.1378178
50
2.5737111
51
56.7958357
0
ARC
8
DEFAULT_255_2_778
10
3.7996803
20
86.4913628
40
0.4276134
50
53.6042064
51
69.5392985
0
ARC
8
DEFAULT_255_2_778
10
3.6365358
20
86.098518
40
0.8528456
50
68.4960851
51
73.0517893
0
ARC
8
DEFAULT_255_2_778
10
4.0258577
20
87.5495801
40
0.6506541
50
239.3301793
51
257.5104656
0
ARC
8
DEFAULT_255_2_778
10
3.8536342
20
87.2688284
40
0.321362
50
183.7119361
51
240.2082034
0
ARC
8
DEFAULT_255_2_778
10
4.2776516
20
87.2665497
40
0.7449357
50
180.0078387
51
181.425072
0
ARC
8
DEFAULT_255_2_778
10
4.0404076
20
87.2763197
40
0.5077876
50
160.5219709
51
181.1139561
0
ARC
8
DEFAULT_255_2_778
10
3.8771044
20
87.326723
40
0.3370948
50
104.0593365
51
159.3433344
0
ARC
8
DEFAULT_255_2_778
10
3.9902219
20
86.9750138
40
0.7061655
50
91.092178
51
106.030487
0
ARC
8
DEFAULT_255_2_778
10
4.0106704
20
86.6387941
40
1.0428083
50
89.9826393
51
91.8633995
0
ARC
8
DEFAULT_255_2_778
10
4.0080999
20
86.3912151
40
1.2903905
50
85.117167
51
89.8718333
0
ARC
8
DEFAULT_255_2_778
10
3.969644
20
85.9329872
40
1.7502288
50
81.2999665
51
85.1396653
0
ARC
8
DEFAULT_255_2_778
10
3.8987775
20
85.4556686
40
2.2327756
50
79.1219184
51
81.3551071
0
LINE
8
DEFAULT_255_2_778
10
8.6905464
20
86.3336234
11
8.5764464
21
86.6373234
0
LINE
8
DEFAULT_255_2_778
10
8.5764464
20
86.6373234
11
8.0393464
21
86.6373234
0
LINE
8
DEFAULT_255_2_778
10
8.0393464
20
86.6373234
11
7.9234464
21
86.3336234
0
LINE
8
DEFAULT_255_2_778
10
7.9234464
20
86.3336234
11
7.6480464
21
86.3336234
0
LINE
8
DEFAULT_255_2_778
10
7.6480464
20
86.3336234
11
8.1642464
21
87.6589234
0
LINE
8
DEFAULT_255_2_778
10
8.1642464
20
87.6589234
11
8.4642464
21
87.6589234
0
LINE
8
DEFAULT_255_2_778
10
8.4642464
20
87.6589234
11
8.9844464
21
86.3336234
0
LINE
8
DEFAULT_255_2_778
10
8.9844464
20
86.3336234
11
8.6905464
21
86.3336234
0
LINE
8
DEFAULT_255_2_778
10
8.5023464
20
86.8463234
11
8.3108464
21
87.3932234
0
LINE
8
DEFAULT_255_2_778
10
8.3108464
20
87.3932234
11
8.3068464
21
87.3932234
0
LINE
8
DEFAULT_255_2_778
10
8.3068464
20
87.3932234
11
8.1153464
21
86.8463234
0
LINE
8
DEFAULT_255_2_778
10
8.1153464
20
86.8463234
11
8.5023464
21
86.8463234
0
LINE
8
DEFAULT_255_2_778
10
4.3201464
20
87.6483234
11
4.2926464
21
87.4282234
0
LINE
8
DEFAULT_255_2_778
10
4.6318027
20
86.3335489
11
5.0739027
21
86.3335489
0
ARC
8
DEFAULT_255_2_778
10
5.0864006
20
87.3914055
40
1.0579304
50
269.3231179
51
283.1671222
0
ARC
8
DEFAULT_255_2_778
10
5.2060268
20
86.9115673
40
0.5635029
50
282.4372785
51
312.4739442
0
ARC
8
DEFAULT_255_2_778
10
5.2116797
20
86.8755138
40
0.533475
50
314.6413534
51
349.2939938
0
ARC
8
DEFAULT_255_2_778
10
4.8764177
20
86.960568
40
0.8789597
50
347.9059118
51
356.9139732
0
ARC
8
DEFAULT_255_2_778
10
4.4306093
20
87.0317742
40
1.3287901
50
354.882537
51
357.9521609
0
ARC
8
DEFAULT_255_2_778
10
4.5898446
20
87.0255444
40
1.1694339
50
357.978409
51
359.9836082
0
ARC
8
DEFAULT_255_2_778
10
4.9416991
20
87.0371159
40
0.8176661
50
359.1656826
51
16.4070697
0
ARC
8
DEFAULT_255_2_778
10
5.2366737
20
87.1218121
40
0.5107841
50
16.6393982
51
76.0880017
0
ARC
8
DEFAULT_255_2_778
10
5.0753975
20
86.6312416
40
1.026466
50
73.9330772
51
87.6380457
0
ARC
8
DEFAULT_255_2_778
10
5.0399116
20
86.1551349
40
1.5037141
50
87.0346996
51
90.0041496
0
LINE
8
DEFAULT_255_2_778
10
5.0398027
20
87.6588489
11
4.6315027
21
87.6588489
0
LINE
8
DEFAULT_255_2_778
10
4.6315027
20
87.6588489
11
4.6315027
21
86.3335489
0
ARC
8
DEFAULT_255_2_778
10
4.9428181
20
87.0263309
40
0.5393662
50
359.003321
51
20.530837
0
ARC
8
DEFAULT_255_2_778
10
5.122372
20
87.0841304
40
0.3510575
50
21.9743014
51
78.9335474
0
ARC
8
DEFAULT_255_2_778
10
5.0143277
20
86.6943401
40
0.7549841
50
76.56389
51
90.7283751
0
ARC
8
DEFAULT_255_2_778
10
5.0059273
20
86.2894762
40
1.1597878
50
90.0591421
51
93.4377679
0
ARC
8
DEFAULT_255_2_778
10
5.0159771
20
86.1041653
40
1.3453682
50
93.3917592
51
94.7827762
0
LINE
8
DEFAULT_255_2_778
10
4.9038027
20
87.4448489
11
4.9038027
21
86.5266489
0
ARC
8
DEFAULT_255_2_778
10
4.9660258
20
87.8686598
40
1.3434526
50
267.3453463
51
269.626594
0
ARC
8
DEFAULT_255_2_778
10
4.9647108
20
87.760942
40
1.2357287
50
269.6550146
51
269.9993852
0
ARC
8
DEFAULT_255_2_778
10
4.9760241
20
87.3924037
40
0.8672643
50
269.2516953
51
283.1166747
0
ARC
8
DEFAULT_255_2_778
10
5.0822572
20
86.9636981
40
0.4256805
50
282.2857253
51
312.2121733
0
ARC
8
DEFAULT_255_2_778
10
5.1014045
20
86.9169173
40
0.3785604
50
314.8237953
51
354.4233528
0
ARC
8
DEFAULT_255_2_778
10
4.8393074
20
86.9643496
40
0.6443932
50
352.4901706
51
0.1894118
0
ARC
8
DEFAULT_255_2_778
10
4.670208
20
86.9658168
40
0.8134891
50
0.0467035
51
3.4758576
0
ARC
8
DEFAULT_255_2_778
10
4.6143766
20
86.9631874
40
0.8693776
50
3.4257428
51
3.5321734
0
LINE
8
DEFAULT_255_2_778
10
4.6315027
20
86.3335489
11
4.6318027
21
86.3335489
0
LINE
8
DEFAULT_255_2_778
10
5.4821027
20
87.0167489
11
5.4821027
21
87.0169489
0
ARC
8
DEFAULT_255_2_778
10
20.9571548
20
80.1977015
40
0.1545554
50
358.2942895
51
84.5956332
0
ARC
8
DEFAULT_255_2_778
10
20.8648729
20
79.8537209
40
0.5091839
50
77.8880117
51
90.8170485
0
ARC
8
DEFAULT_255_2_778
10
20.8594676
20
79.4594429
40
0.903412
50
90.1176831
51
94.1223626
0
ARC
8
DEFAULT_255_2_778
10
20.8736281
20
79.2358854
40
1.1274107
50
94.023416
51
95.174804
0
LINE
8
DEFAULT_255_2_778
10
20.7719417
20
80.358701
11
20.7719417
21
80.027201
0
ARC
8
DEFAULT_255_2_778
10
20.8790151
20
80.997735
40
0.9764225
50
263.7043473
51
267.7100735
0
ARC
8
DEFAULT_255_2_778
10
20.8688297
20
80.7733734
40
0.7518339
50
267.8024898
51
269.9691273
0
ARC
8
DEFAULT_255_2_778
10
20.8786603
20
80.4413541
40
0.4199394
50
268.6033152
51
286.6924728
0
ARC
8
DEFAULT_255_2_778
10
20.9628534
20
80.1836603
40
0.1490688
50
284.1446627
51
3.5155213
0
ARC
8
DEFAULT_255_2_778
10
20.8023614
20
79.0628401
40
0.6795962
50
90.0289496
51
92.0507921
0
ARC
8
DEFAULT_255_2_778
10
20.8130118
20
79.3920305
40
0.3505782
50
71.5422759
51
91.7970396
0
ARC
8
DEFAULT_255_2_778
10
20.8865984
20
79.6087181
40
0.1217455
50
29.5176703
51
72.1055298
0
ARC
8
DEFAULT_255_2_778
10
21.1315005
20
79.7088517
40
0.1931361
50
25.1396727
51
68.7049976
0
ARC
8
DEFAULT_255_2_778
10
21.1266433
20
80.197051
40
0.3172425
50
283.6745957
51
356.0686314
0
ARC
8
DEFAULT_255_2_778
10
20.8616408
20
80.2486106
40
0.5861014
50
352.8145499
51
0.1816464
0
ARC
8
DEFAULT_255_2_778
10
20.7492851
20
80.250425
40
0.6984543
50
0.0035898
51
0.9578535
0
ARC
8
DEFAULT_255_2_778
10
21.0654623
20
80.2585782
40
0.3821957
50
0.5281199
51
34.8198738
0
ARC
8
DEFAULT_255_2_778
10
21.0916674
20
80.2528193
40
0.3645031
50
37.9165685
51
75.3206001
0
ARC
8
DEFAULT_255_2_778
10
20.9686547
20
79.8482334
40
0.7872278
50
74.1217061
51
89.248916
0
ARC
8
DEFAULT_255_2_778
10
20.9451897
20
79.4362783
40
1.1995911
50
88.3861496
51
90.0136284
0
ARC
8
DEFAULT_255_2_778
10
20.945131
20
79.314775
40
1.3210943
50
90.0098292
51
91.3528032
0
LINE
8
DEFAULT_255_2_778
10
20.9139417
20
80.635501
11
20.4377417
21
80.635501
0
LINE
8
DEFAULT_255_2_778
10
24.3766417
20
80.636001
11
23.8654417
21
79.740401
0
LINE
8
DEFAULT_255_2_778
10
23.8654417
20
79.740401
11
23.8654417
21
79.154901
0
LINE
8
DEFAULT_255_2_778
10
23.8654417
20
79.154901
11
23.5791417
21
79.154901
0
LINE
8
DEFAULT_255_2_778
10
23.5791417
20
79.154901
11
23.5791417
21
79.740401
0
LINE
8
DEFAULT_255_2_778
10
23.5791417
20
79.740401
11
23.0579417
21
80.636001
0
LINE
8
DEFAULT_255_2_778
10
23.0579417
20
80.636001
11
23.3931417
21
80.636001
0
LINE
8
DEFAULT_255_2_778
10
23.3931417
20
80.636001
11
23.7310417
21
80.014201
0
LINE
8
DEFAULT_255_2_778
10
23.7310417
20
80.014201
11
24.0744417
21
80.636001
0
LINE
8
DEFAULT_255_2_778
10
24.0744417
20
80.636001
11
24.3768417
21
80.636001
0
LINE
8
DEFAULT_255_2_778
10
21.1116417
20
80.192801
11
21.1116417
21
80.193101
0
LINE
8
DEFAULT_255_2_778
10
20.4377417
20
80.635501
11
20.4377417
21
79.154601
0
LINE
8
DEFAULT_255_2_778
10
20.4377417
20
79.154601
11
20.7780417
21
79.154601
0
LINE
8
DEFAULT_255_2_778
10
20.7780417
20
79.154601
11
20.7780417
21
79.742001
0
LINE
8
DEFAULT_255_2_778
10
20.9925417
20
79.668701
11
21.1547417
21
79.160701
0
LINE
8
DEFAULT_255_2_778
10
21.1547417
20
79.160701
11
21.5053417
21
79.154601
0
LINE
8
DEFAULT_255_2_778
10
21.5053417
20
79.154601
11
21.3063417
21
79.790901
0
LINE
8
DEFAULT_255_2_778
10
20.4377417
20
80.635501
11
20.4377417
21
80.635501
0
LINE
8
DEFAULT_255_2_778
10
21.753724
20
79.1671301
11
22.232924
21
79.1671301
0
ARC
8
DEFAULT_255_2_778
10
22.2455375
20
80.3000054
40
1.1329455
50
269.362092
51
282.9154457
0
ARC
8
DEFAULT_255_2_778
10
22.3665773
20
79.8028487
40
0.6213503
50
282.2831711
51
310.6177514
0
ARC
8
DEFAULT_255_2_778
10
22.3827187
20
79.7542627
40
0.5742889
50
312.5513782
51
347.1357669
0
ARC
8
DEFAULT_255_2_778
10
22.0124298
20
79.8582511
40
0.9586229
50
346.0038696
51
357.0987147
0
ARC
8
DEFAULT_255_2_778
10
21.6373462
20
79.8223367
40
1.3325375
50
359.4579402
51
11.6115193
0
ARC
8
DEFAULT_255_2_778
10
22.2050181
20
79.9449434
40
0.7518282
50
11.1665014
51
33.8149252
0
ARC
8
DEFAULT_255_2_778
10
22.3351406
20
80.0136329
40
0.6056851
50
35.2666429
51
77.0060352
0
ARC
8
DEFAULT_255_2_778
10
22.2085239
20
79.5506884
40
1.085416
50
75.9881323
51
90.670402
0
LINE
8
DEFAULT_255_2_778
10
22.195824
20
80.6360301
11
21.753724
21
80.6360301
0
LINE
8
DEFAULT_255_2_778
10
21.753724
20
80.6360301
11
21.753724
21
79.1671301
0
ARC
8
DEFAULT_255_2_778
10
21.962286
20
79.8876031
40
0.7136991
50
2.973864
51
20.0879335
0
ARC
8
DEFAULT_255_2_778
10
22.2514727
20
79.9947393
40
0.4053094
50
19.9049894
51
84.1204755
0
ARC
8
DEFAULT_255_2_778
10
22.177698
20
79.6518832
40
0.7548897
50
81.2149001
51
90.2713652
0
ARC
8
DEFAULT_255_2_778
10
22.1755741
20
79.3906894
40
1.0160761
50
90.0818428
51
94.4203876
0
ARC
8
DEFAULT_255_2_778
10
22.189654
20
79.1939562
40
1.21331
50
94.3672634
51
96.6796591
0
LINE
8
DEFAULT_255_2_778
10
22.048524
20
80.3990301
11
22.048524
21
79.3814301
0
ARC
8
DEFAULT_255_2_778
10
22.0611495
20
80.4232448
40
1.0418912
50
269.3056832
51
282.7292666
0
ARC
8
DEFAULT_255_2_778
10
22.180834
20
79.9237813
40
0.528374
50
282.0039176
51
309.9593651
0
ARC
8
DEFAULT_255_2_778
10
22.2143484
20
79.8550774
40
0.4545622
50
312.283771
51
352.6686361
0
ARC
8
DEFAULT_255_2_778
10
21.8916978
20
79.9208352
40
0.7833354
50
350.9094432
51
0.2775768
0
ARC
8
DEFAULT_255_2_778
10
19.6900181
20
79.7652958
40
1.5098118
50
178.0021795
51
179.4776768
0
ARC
8
DEFAULT_255_2_778
10
19.5893997
20
79.7664518
40
1.409187
50
179.4873823
51
180.0000678
0
ARC
8
DEFAULT_255_2_778
10
19.2428058
20
79.7580896
40
1.062626
50
179.5491995
51
189.8796128
0
ARC
8
DEFAULT_255_2_778
10
18.7990329
20
79.6776982
40
0.6116483
50
189.5932219
51
206.5918151
0
ARC
8
DEFAULT_255_2_778
10
18.6123017
20
79.5843314
40
0.402876
50
206.6055334
51
239.2895354
0
ARC
8
DEFAULT_255_2_778
10
18.6867287
20
79.7400108
40
0.574942
50
240.8359876
51
264.659023
0
ARC
8
DEFAULT_255_2_778
10
18.7636057
20
80.2748504
40
1.1149366
50
263.2837661
51
267.4357598
0
ARC
8
DEFAULT_255_2_778
10
18.7818955
20
80.4744811
40
1.3152189
50
267.0288662
51
269.2070554
0
ARC
8
DEFAULT_255_2_778
10
18.7798916
20
80.3606051
40
1.2013262
50
269.2274576
51
269.9984808
0
ARC
8
DEFAULT_255_2_778
10
18.7909061
20
80.0135722
40
0.8543647
50
269.2591836
51
283.8736794
0
ARC
8
DEFAULT_255_2_778
10
18.8930769
20
79.6279747
40
0.4555674
50
283.0271388
51
318.910193
0
ARC
8
DEFAULT_255_2_778
10
18.8227424
20
79.6618998
40
0.531276
50
321.1386379
51
349.8752006
0
ARC
8
DEFAULT_255_2_778
10
18.3152135
20
79.7709759
40
1.050233
50
348.8845568
51
0.565794
0
ARC
8
DEFAULT_255_2_778
10
17.8832025
20
79.7811666
40
1.4821928
50
0.0069655
51
1.0964897
0
ARC
8
DEFAULT_255_2_778
10
19.504717
20
79.7685259
40
1.0347144
50
178.8146907
51
179.99306
0
ARC
8
DEFAULT_255_2_778
10
19.1577198
20
79.758049
40
0.6877989
50
179.1167626
51
194.0999724
0
ARC
8
DEFAULT_255_2_778
10
18.7972085
20
79.6617079
40
0.3147291
50
193.0781304
51
225.7924425
0
ARC
8
DEFAULT_255_2_778
10
18.759141
20
79.6432893
40
0.2753626
50
228.7994436
51
270.2877711
0
ARC
8
DEFAULT_255_2_778
10
17.9996887
20
79.7718017
40
1.0734856
50
0.023448
51
2.1422972
0
ARC
8
DEFAULT_255_2_778
10
18.3582467
20
79.7628074
40
0.7149897
50
346.8818718
51
0.7559866
0
ARC
8
DEFAULT_255_2_778
10
18.7155867
20
79.6748391
40
0.3470397
50
320.4951096
51
347.6365501
0
ARC
8
DEFAULT_255_2_778
10
18.7901795
20
79.6262704
40
0.2587818
50
267.626461
51
318.2854627
0
ARC
8
DEFAULT_255_2_778
10
18.7795186
20
79.746734
40
0.3790234
50
268.0503881
51
269.9914758
0
LINE
8
DEFAULT_255_2_778
10
21.753724
20
79.1671301
11
21.753724
21
79.1671301
0
LINE
8
DEFAULT_255_2_778
10
22.675024
20
79.9246301
11
22.675024
21
79.9246301
0
LINE
8
DEFAULT_255_2_778
10
18.470824
20
79.7865301
11
18.470824
21
80.6363301
0
LINE
8
DEFAULT_255_2_778
10
18.470824
20
80.6363301
11
18.180024
21
80.6363301
0
LINE
8
DEFAULT_255_2_778
10
18.180024
20
80.6363301
11
18.180024
21
79.7865301
0
LINE
8
DEFAULT_255_2_778
10
19.364024
20
79.7865301
11
19.364024
21
80.6363301
0
LINE
8
DEFAULT_255_2_778
10
19.364024
20
80.6363301
11
19.073224
21
80.6363301
0
LINE
8
DEFAULT_255_2_778
10
19.073224
20
80.6363301
11
19.073224
21
79.7865301
0
LINE
8
DEFAULT_255_2_778
10
8.9026918
20
91.1309821
11
9.2553918
21
91.1309821
0
LINE
8
DEFAULT_255_2_778
10
9.2553918
20
91.1309821
11
9.2553918
21
90.2538821
0
ARC
8
DEFAULT_255_2_778
10
9.6996464
20
90.2416198
40
0.4444238
50
178.4189241
51
198.8470966
0
ARC
8
DEFAULT_255_2_778
10
9.4594498
20
90.1592894
40
0.1905095
50
198.7502094
51
274.9209147
0
ARC
8
DEFAULT_255_2_778
10
9.4910563
20
90.1637073
40
0.1948241
50
265.5062682
51
351.3765681
0
ARC
8
DEFAULT_255_2_778
10
9.1864546
20
90.2469623
40
0.5097841
50
347.2547439
51
0.7777611
0
LINE
8
DEFAULT_255_2_778
10
9.6961918
20
90.2538821
11
9.6961918
21
91.1309821
0
LINE
8
DEFAULT_255_2_778
10
9.6961918
20
91.1309821
11
10.0710918
21
91.1309821
0
LINE
8
DEFAULT_255_2_778
10
10.0710918
20
91.1309821
11
10.0710918
21
90.1826821
0
ARC
8
DEFAULT_255_2_778
10
9.4489937
20
90.1697367
40
0.6222327
50
340.2435023
51
1.1921123
0
ARC
8
DEFAULT_255_2_778
10
9.6598325
20
90.1034421
40
0.4014933
50
281.6902411
51
338.9767162
0
ARC
8
DEFAULT_255_2_778
10
9.5319273
20
90.5535063
40
0.868806
50
269.2128533
51
283.936985
0
ARC
8
DEFAULT_255_2_778
10
9.5073898
20
90.7089147
40
1.0242101
50
257.1539145
51
270.7049911
0
ARC
8
DEFAULT_255_2_778
10
9.3879597
20
90.2158923
40
0.5170196
50
229.2973837
51
257.9103724
0
ARC
8
DEFAULT_255_2_778
10
9.3591691
20
90.1536089
40
0.4514181
50
187.2172126
51
226.9116891
0
ARC
8
DEFAULT_255_2_778
10
9.6386072
20
90.2134375
40
0.7365579
50
182.3931087
51
189.1038017
0
LINE
8
DEFAULT_255_2_778
10
8.9026918
20
90.1826821
11
8.9026918
21
91.1309821
0
ARC
8
DEFAULT_255_2_778
10
8.2836316
20
90.7055487
40
0.1508355
50
358.1890926
51
85.3306976
0
ARC
8
DEFAULT_255_2_778
10
8.1971305
20
90.374999
40
0.4909251
50
78.3921877
51
90.7450363
0
ARC
8
DEFAULT_255_2_778
10
8.1925165
20
90.0118847
40
0.8539997
50
90.1187152
51
94.1618968
0
ARC
8
DEFAULT_255_2_778
10
8.2060204
20
89.8009081
40
1.0654015
50
94.0627626
51
95.2252976
0
LINE
8
DEFAULT_255_2_778
10
8.1089918
20
90.8618821
11
8.1089918
21
90.5398821
0
ARC
8
DEFAULT_255_2_778
10
8.2113109
20
91.4556709
40
0.921487
50
263.6249038
51
267.6819888
0
ARC
8
DEFAULT_255_2_778
10
8.201599
20
91.2440468
40
0.7096442
50
267.7744083
51
269.9688159
0
ARC
8
DEFAULT_255_2_778
10
8.2114317
20
90.9264419
40
0.3921723
50
268.5068532
51
287.4649025
0
ARC
8
DEFAULT_255_2_778
10
8.2902335
20
90.6914909
40
0.144477
50
285.6184459
51
3.8064437
0
ARC
8
DEFAULT_255_2_778
10
8.1386007
20
89.6260053
40
0.6370219
50
90.0304184
51
92.1419503
0
ARC
8
DEFAULT_255_2_778
10
8.149298
20
89.940256
40
0.3229598
50
70.3986852
51
91.9581714
0
ARC
8
DEFAULT_255_2_778
10
8.2188238
20
90.1352318
40
0.115959
50
28.8488674
51
70.4419643
0
ARC
8
DEFAULT_255_2_778
10
8.4517682
20
90.2321887
40
0.1860323
50
24.617517
51
68.2539976
0
ARC
8
DEFAULT_255_2_778
10
8.4449204
20
90.7035556
40
0.308038
50
284.2397992
51
357.2842137
0
ARC
8
DEFAULT_255_2_778
10
8.1733028
20
90.754391
40
0.582993
50
353.5559675
51
0.1490613
0
ARC
8
DEFAULT_255_2_778
10
8.0713314
20
90.7558733
40
0.6849622
50
0.0028839
51
0.9878361
0
ARC
8
DEFAULT_255_2_778
10
8.3816104
20
90.7646049
40
0.3745941
50
0.470685
51
34.5833452
0
ARC
8
DEFAULT_255_2_778
10
8.4111309
20
90.7611933
40
0.3527692
50
37.7626282
51
76.0156089
0
ARC
8
DEFAULT_255_2_778
10
8.2930298
20
90.3571488
40
0.7735644
50
74.7592996
51
90.020157
0
ARC
8
DEFAULT_255_2_778
10
8.2750643
20
89.9730586
40
1.1577899
50
89.1243707
51
90.0040884
0
ARC
8
DEFAULT_255_2_778
10
8.2752124
20
89.8844387
40
1.2464098
50
90.0106047
51
91.3893361
0
LINE
8
DEFAULT_255_2_778
10
8.2449918
20
91.1304821
11
7.7887918
21
91.1304821
0
LINE
8
DEFAULT_255_2_778
10
6.5849918
20
80.6463821
11
6.9463918
21
80.6463821
0
LINE
8
DEFAULT_255_2_778
10
6.9463918
20
80.6463821
11
6.9463918
21
79.7416821
0
ARC
8
DEFAULT_255_2_778
10
7.4124569
20
79.7295119
40
0.4662239
50
178.5041855
51
198.2088184
0
ARC
8
DEFAULT_255_2_778
10
7.1559196
20
79.6431399
40
0.1955527
50
197.6568872
51
274.8319752
0
ARC
8
DEFAULT_255_2_778
10
7.1878234
20
79.6470588
40
0.1993748
50
265.5608557
51
350.7594404
0
ARC
8
DEFAULT_255_2_778
10
6.8754891
20
79.7341029
40
0.5228577
50
346.8377399
51
0.830573
0
LINE
8
DEFAULT_255_2_778
10
7.3982918
20
79.7416821
11
7.3982918
21
80.6463821
0
LINE
8
DEFAULT_255_2_778
10
7.3982918
20
80.6463821
11
7.7821918
21
80.6463821
0
LINE
8
DEFAULT_255_2_778
10
7.7821918
20
80.6463821
11
7.7821918
21
79.6681821
0
ARC
8
DEFAULT_255_2_778
10
7.1301804
20
79.6554547
40
0.6521356
50
341.0317773
51
1.1182895
0
ARC
8
DEFAULT_255_2_778
10
7.3590265
20
79.5845515
40
0.4127345
50
281.4592314
51
340.0139106
0
ARC
8
DEFAULT_255_2_778
10
7.2294508
20
80.0435704
40
0.8890674
50
269.2357265
51
283.7669289
0
ARC
8
DEFAULT_255_2_778
10
7.2051023
20
80.2030053
40
1.0484975
50
257.3287102
51
270.682514
0
ARC
8
DEFAULT_255_2_778
10
7.0860009
20
79.7041169
40
0.5356769
50
230.1651206
51
258.0523964
0
ARC
8
DEFAULT_255_2_778
10
7.0526571
20
79.6353617
40
0.4618891
50
187.8006985
51
227.8772766
0
ARC
8
DEFAULT_255_2_778
10
7.3413848
20
79.6994906
40
0.7570407
50
182.3702205
51
189.6436982
0
LINE
8
DEFAULT_255_2_778
10
6.5849918
20
79.6681821
11
6.5849918
21
80.6463821
0
ARC
8
DEFAULT_255_2_778
10
8.4969581
20
79.4456809
40
1.0197283
50
66.8904445
51
74.7427254
0
ARC
8
DEFAULT_255_2_778
10
8.6055778
20
79.8521304
40
0.5990246
50
74.5354066
51
86.9137417
0
ARC
8
DEFAULT_255_2_778
10
8.6186605
20
80.0131037
40
0.4376024
50
87.4894607
51
89.9825796
0
ARC
8
DEFAULT_255_2_778
10
8.6106524
20
80.1484645
40
0.3023513
50
88.4570591
51
121.0296194
0
ARC
8
DEFAULT_255_2_778
10
8.6007012
20
80.1763846
40
0.2733598
50
122.2590271
51
139.4822108
0
ARC
8
DEFAULT_255_2_778
10
8.6093699
20
80.2383568
40
0.245422
50
151.8924306
51
167.6477515
0
ARC
8
DEFAULT_255_2_778
10
8.5294431
20
80.257467
40
0.1632649
50
168.1986318
51
179.7805518
0
ARC
8
DEFAULT_255_2_778
10
8.5203383
20
80.2629004
40
0.1542339
50
181.7864365
51
238.7132201
0
ARC
8
DEFAULT_255_2_778
10
8.6925509
20
80.5003305
40
0.4472076
50
235.6540083
51
251.8595432
0
ARC
8
DEFAULT_255_2_778
10
8.8276871
20
80.8628282
40
0.8339073
50
250.7906214
51
254.6465988
0
ARC
8
DEFAULT_255_2_778
10
8.3028522
20
79.1123343
40
0.993989
50
60.9902685
51
72.1889899
0
ARC
8
DEFAULT_255_2_778
10
8.5343311
20
79.520416
40
0.5248684
50
40.6513318
51
61.4852689
0
ARC
8
DEFAULT_255_2_778
10
8.6674457
20
79.6394663
40
0.346339
50
359.2736894
51
40.0551093
0
ARC
8
DEFAULT_255_2_778
10
8.532336
20
79.6381569
40
0.4814307
50
346.8007613
51
359.6333393
0
ARC
8
DEFAULT_255_2_778
10
8.3407635
20
79.6811609
40
0.6777645
50
339.0190408
51
346.9592964
0
ARC
8
DEFAULT_255_2_778
10
8.4228175
20
79.7417691
40
0.6287569
50
312.326102
51
331.1603707
0
ARC
8
DEFAULT_255_2_778
10
8.5231994
20
79.6419432
40
0.4874113
50
268.5021965
51
311.5035611
0
ARC
8
DEFAULT_255_2_778
10
8.5153526
20
79.9256072
40
0.7709245
50
258.2046157
51
269.6363126
0
ARC
8
DEFAULT_255_2_778
10
8.5855991
20
80.2729319
40
1.1252769
50
250.5263088
51
258.3184665
0
ARC
8
DEFAULT_255_2_778
10
8.7278703
20
80.6845001
40
1.5607337
50
245.7678883
51
250.6391425
0
ARC
8
DEFAULT_255_2_778
10
-10.2051903
20
81.6251852
40
18.444591
50
352.6365828
51
353.4224074
0
ARC
8
DEFAULT_255_2_778
10
8.5917561
20
80.5193498
40
1.1128506
50
244.8036699
51
252.6238802
0
ARC
8
DEFAULT_255_2_778
10
8.4610391
20
80.093811
40
0.6676976
50
252.423726
51
264.7336465
0
ARC
8
DEFAULT_255_2_778
10
8.439413
20
79.9052368
40
0.4779532
50
265.2402942
51
269.9427848
0
ARC
8
DEFAULT_255_2_778
10
8.4496103
20
79.7502101
40
0.3231026
50
268.1067372
51
316.3485254
0
ARC
8
DEFAULT_255_2_778
10
8.505169
20
79.6300731
40
0.205791
50
330.0014485
51
347.9366943
0
ARC
8
DEFAULT_255_2_778
10
8.5672887
20
79.6150071
40
0.1419053
50
348.6435932
51
359.8434368
0
ARC
8
DEFAULT_255_2_778
10
8.5590315
20
79.6084481
40
0.1502888
50
2.3533962
51
55.5879539
0
ARC
8
DEFAULT_255_2_778
10
8.3738228
20
79.378922
40
0.4449147
50
52.6141759
51
68.5137596
0
ARC
8
DEFAULT_255_2_778
10
8.190018
20
78.9522678
40
0.9093622
50
67.5838978
51
73.1052513
0
ARC
8
DEFAULT_255_2_778
10
8.6150424
20
80.5406179
40
0.736005
50
240.4971608
51
257.3843562
0
ARC
8
DEFAULT_255_2_778
10
8.421367
20
80.2153976
40
0.3576757
50
183.833855
51
241.843127
0
ARC
8
DEFAULT_255_2_778
10
8.8886592
20
80.212178
40
0.8244272
50
180.0085521
51
181.4384663
0
ARC
8
DEFAULT_255_2_778
10
8.6352685
20
80.2220157
40
0.5711232
50
161.6918308
51
180.9993306
0
ARC
8
DEFAULT_255_2_778
10
8.4441378
20
80.2796258
40
0.3716091
50
104.4799975
51
160.8676098
0
ARC
8
DEFAULT_255_2_778
10
8.5665763
20
79.9104319
40
0.7601432
50
91.9050507
51
106.4578715
0
ARC
8
DEFAULT_255_2_778
10
8.5926893
20
79.5412885
40
1.1300353
50
89.9672229
51
92.6061326
0
ARC
8
DEFAULT_255_2_778
10
8.5904089
20
79.252994
40
1.4183325
50
85.3039866
51
89.8817645
0
ARC
8
DEFAULT_255_2_778
10
8.5542914
20
78.7985728
40
1.8741856
50
81.9528589
51
85.3408803
0
ARC
8
DEFAULT_255_2_778
10
8.4798747
20
78.2690451
40
2.4089166
50
79.0975308
51
81.9634086
0
ARC
8
DEFAULT_255_2_778
10
9.6757165
20
79.6019553
40
0.6272704
50
350.3940641
51
357.1546548
0
ARC
8
DEFAULT_255_2_778
10
9.7871994
20
79.595081
40
0.5155854
50
357.3026548
51
359.9779901
0
ARC
8
DEFAULT_255_2_778
10
9.9777478
20
79.6083145
40
0.3253144
50
357.6336952
51
38.8745618
0
ARC
8
DEFAULT_255_2_778
10
9.9548936
20
79.5659745
40
0.3701488
50
41.7578221
51
72.2800785
0
ARC
8
DEFAULT_255_2_778
10
9.8443839
20
79.276741
40
0.6795137
50
70.8267496
51
80.0246909
0
ARC
8
DEFAULT_255_2_778
10
9.9365977
20
80.2639587
40
0.3189969
50
274.5839437
51
347.2545082
0
ARC
8
DEFAULT_255_2_778
10
9.7440074
20
80.3303869
40
0.5219737
50
344.80573
51
350.2824385
0
ARC
8
DEFAULT_255_2_778
10
9.609198
20
80.2564887
40
0.6494492
50
358.7465674
51
359.9951505
0
ARC
8
DEFAULT_255_2_778
10
9.8398081
20
80.2692913
40
0.4190366
50
358.2416775
51
26.7183163
0
ARC
8
DEFAULT_255_2_778
10
9.9228189
20
80.292551
40
0.3348402
50
29.5506879
51
75.4065086
0
ARC
8
DEFAULT_255_2_778
10
9.8001831
20
79.9071466
40
0.7390248
50
73.7337389
51
89.2338526
0
ARC
8
DEFAULT_255_2_778
10
9.7775563
20
79.5187968
40
1.1277774
50
88.3481981
51
90.0140233
0
ARC
8
DEFAULT_255_2_778
10
9.7774003
20
79.4192847
40
1.2272893
50
90.0056035
51
91.0135082
0
ARC
8
DEFAULT_255_2_778
10
9.7581256
20
80.1556201
40
0.9724602
50
270.38687
51
283.7305174
0
ARC
8
DEFAULT_255_2_778
10
9.8857558
20
79.6615073
40
0.4622224
50
282.8996735
51
311.1069823
0
ARC
8
DEFAULT_255_2_778
10
9.9488804
20
79.5720766
40
0.3535142
50
312.9281183
51
347.7853929
0
ARC
8
DEFAULT_255_2_778
10
9.7568158
20
79.803875
40
0.3937134
50
269.4143924
51
291.3307047
0
ARC
8
DEFAULT_255_2_778
10
9.8366023
20
79.5958999
40
0.1709681
50
291.7764916
51
4.2876623
0
ARC
8
DEFAULT_255_2_778
10
9.7661247
20
79.6219181
40
0.2413304
50
356.8559865
51
35.1048941
0
ARC
8
DEFAULT_255_2_778
10
9.8008816
20
79.6218655
40
0.2138659
50
40.4791451
51
86.6625735
0
ARC
8
DEFAULT_255_2_778
10
9.7594889
20
79.3862785
40
0.4523065
50
83.1632241
51
90.2023156
0
LINE
8
DEFAULT_255_2_778
10
9.7578918
20
79.8385821
11
9.5673918
21
79.8385821
0
LINE
8
DEFAULT_255_2_778
10
9.5673918
20
79.8385821
11
9.5673918
21
79.4101821
0
ARC
8
DEFAULT_255_2_778
10
9.6529835
20
80.7899787
40
1.3824487
50
266.4503684
51
270.0967025
0
ARC
8
DEFAULT_255_2_778
10
9.6527299
20
81.3079981
40
1.9004677
50
270.0779918
51
273.027145
0
ARC
8
DEFAULT_255_2_778
10
9.7381213
20
80.4302097
40
0.3762586
50
269.2645575
51
290.8449865
0
ARC
8
DEFAULT_255_2_778
10
9.8209473
20
80.2152945
40
0.1459404
50
290.4802128
51
3.6487645
0
ARC
8
DEFAULT_255_2_778
10
9.7944852
20
80.243216
40
0.1731124
50
353.8207002
51
83.0114074
0
ARC
8
DEFAULT_255_2_778
10
9.7413194
20
80.0224313
40
0.3995663
50
79.2937979
51
90.5058493
0
LINE
8
DEFAULT_255_2_778
10
9.7377918
20
80.4219821
11
9.5625918
21
80.4219821
0
LINE
8
DEFAULT_255_2_778
10
9.5625918
20
80.4219821
11
9.5625918
21
80.0539821
0
ARC
8
DEFAULT_255_2_778
10
9.6411968
20
81.424744
40
1.3730138
50
266.7180241
51
270.0905544
0
ARC
8
DEFAULT_255_2_778
10
9.6409607
20
81.9458513
40
1.8941207
50
270.0727816
51
272.7940547
0
ARC
8
DEFAULT_255_2_778
10
6.5146097
20
83.1896686
40
0.9958822
50
71.8282591
51
86.1318934
0
ARC
8
DEFAULT_255_2_778
10
6.5127161
20
83.2532703
40
0.71093
50
66.2278954
51
89.5909307
0
ARC
8
DEFAULT_255_2_778
10
6.5178475
20
83.6550026
40
0.3091796
50
90.0103173
51
95.6612159
0
ARC
8
DEFAULT_255_2_778
10
6.5063629
20
83.718136
40
0.2452764
50
94.44626
51
122.93987
0
ARC
8
DEFAULT_255_2_778
10
6.4679693
20
83.7876621
40
0.1661442
50
124.8658825
51
152.6541623
0
ARC
8
DEFAULT_255_2_778
10
6.5055051
20
83.7740799
40
0.2057895
50
154.0959806
51
179.9539471
0
ARC
8
DEFAULT_255_2_778
10
6.5034831
20
83.7742469
40
0.2037673
50
180.0004563
51
181.5649234
0
ARC
8
DEFAULT_255_2_778
10
6.428944
20
83.76967
40
0.129156
50
180.4382533
51
217.1444909
0
ARC
8
DEFAULT_255_2_778
10
6.4910072
20
83.8263593
40
0.2129977
50
219.2195767
51
243.1157207
0
ARC
8
DEFAULT_255_2_778
10
6.2796336
20
82.7512043
40
0.8596177
50
59.5797034
51
67.8676846
0
ARC
8
DEFAULT_255_2_778
10
6.4771995
20
83.0909102
40
0.4666451
50
44.1560438
51
59.3785124
0
ARC
8
DEFAULT_255_2_778
10
6.5559101
20
83.1754745
40
0.3513144
50
32.8966306
51
43.2036711
0
ARC
8
DEFAULT_255_2_778
10
6.5697764
20
83.1867422
40
0.3335573
50
21.1847935
51
32.5651507
0
ARC
8
DEFAULT_255_2_778
10
6.5207924
20
83.1702687
40
0.3851912
50
10.0340881
51
20.836499
0
ARC
8
DEFAULT_255_2_778
10
6.4350917
20
83.1466468
40
0.4713357
50
347.9790671
51
354.293685
0
ARC
8
DEFAULT_255_2_778
10
6.4988871
20
83.1344013
40
0.406391
50
340.8939208
51
347.7944212
0
ARC
8
DEFAULT_255_2_778
10
6.5761439
20
83.1052038
40
0.3238413
50
333.079252
51
341.3011353
0
ARC
8
DEFAULT_255_2_778
10
6.5438786
20
83.1180796
40
0.3584535
50
319.436787
51
333.5792131
0
ARC
8
DEFAULT_255_2_778
10
6.5503395
20
83.114079
40
0.3509456
50
305.0514699
51
319.2470484
0
ARC
8
DEFAULT_255_2_778
10
6.4955646
20
83.1877151
40
0.442692
50
293.8680385
51
305.3815866
0
ARC
8
DEFAULT_255_2_778
10
6.4595876
20
83.2667846
40
0.5295578
50
283.8765454
51
293.966089
0
ARC
8
DEFAULT_255_2_778
10
6.3947136
20
83.5404077
40
0.8107582
50
269.9897699
51
283.6897981
0
ARC
8
DEFAULT_255_2_778
10
6.3945916
20
83.5469289
40
0.8172793
50
269.48824
51
269.9984064
0
ARC
8
DEFAULT_255_2_778
10
6.386928
20
84.05241
40
1.3227279
50
268.2873942
51
270.0157596
0
ARC
8
DEFAULT_255_2_778
10
6.3738361
20
83.753835
40
1.0239036
50
260.4970841
51
268.5203384
0
ARC
8
DEFAULT_255_2_778
10
6.4952692
20
84.3365221
40
1.6188146
50
254.9016848
51
259.6629533
0
ARC
8
DEFAULT_255_2_778
10
11.265852
20
102.9125131
40
20.7974925
50
255.4996683
51
255.5427674
0
ARC
8
DEFAULT_255_2_778
10
3.8275123
20
74.1619711
40
8.8996887
50
75.4824256
51
75.655049
0
ARC
8
DEFAULT_255_2_778
10
6.3808315
20
83.5834337
40
0.6318177
50
246.8058983
51
269.1711468
0
ARC
8
DEFAULT_255_2_778
10
6.3716364
20
83.270932
40
0.3192499
50
270.0099356
51
273.009184
0
ARC
8
DEFAULT_255_2_778
10
6.3703099
20
83.2898545
40
0.3382162
50
273.0653213
51
284.4124117
0
ARC
8
DEFAULT_255_2_778
10
6.3885065
20
83.2380745
40
0.2835763
50
283.4554877
51
300.9134937
0
ARC
8
DEFAULT_255_2_778
10
6.4586749
20
83.1387004
40
0.1613204
50
312.5628557
51
327.1451972
0
ARC
8
DEFAULT_255_2_778
10
6.4647932
20
83.1340759
40
0.153673
50
327.3560436
51
341.2087897
0
ARC
8
DEFAULT_255_2_778
10
6.4775923
20
83.1296523
40
0.1401311
50
341.2353717
51
343.1283212
0
ARC
8
DEFAULT_255_2_778
10
6.4608288
20
83.1340589
40
0.1574533
50
343.3642435
51
351.3514519
0
ARC
8
DEFAULT_255_2_778
10
6.4878413
20
83.1398803
40
0.1295518
50
7.808743
51
17.7992704
0
ARC
8
DEFAULT_255_2_778
10
6.4729253
20
83.1344739
40
0.1454076
50
18.0310067
51
35.0990957
0
ARC
8
DEFAULT_255_2_778
10
6.4468181
20
83.115036
40
0.1779463
50
35.3862494
51
49.6662548
0
ARC
8
DEFAULT_255_2_778
10
6.1694938
20
82.673054
40
0.7010376
50
59.7089765
51
68.5380431
0
ARC
8
DEFAULT_255_2_778
10
6.6581938
20
84.2142215
40
0.9107427
50
240.0268248
51
247.8349035
0
ARC
8
DEFAULT_255_2_778
10
6.4344159
20
83.8254295
40
0.4621499
50
224.7302789
51
239.978643
0
ARC
8
DEFAULT_255_2_778
10
6.3392983
20
83.7267122
40
0.3251171
50
213.1806225
51
224.1679974
0
ARC
8
DEFAULT_255_2_778
10
6.3393489
20
83.7257898
40
0.3246555
50
201.5039747
51
213.0394871
0
ARC
8
DEFAULT_255_2_778
10
6.3840225
20
83.7411553
40
0.3718579
50
190.1566118
51
201.1835132
0
ARC
8
DEFAULT_255_2_778
10
6.4933498
20
83.7671433
40
0.4815638
50
168.2412172
51
174.5139891
0
ARC
8
DEFAULT_255_2_778
10
6.4471508
20
83.7747154
40
0.434796
50
161.4716622
51
167.9774298
0
ARC
8
DEFAULT_255_2_778
10
6.411537
20
83.7862355
40
0.3973676
50
154.6635746
51
161.414831
0
ARC
8
DEFAULT_255_2_778
10
6.3727028
20
83.804575
40
0.3544209
50
140.3809639
51
154.6566151
0
ARC
8
DEFAULT_255_2_778
10
6.380954
20
83.7972197
40
0.3654674
50
126.9251262
51
140.3176009
0
ARC
8
DEFAULT_255_2_778
10
6.4111044
20
83.7567873
40
0.4159034
50
115.143602
51
126.8992639
0
ARC
8
DEFAULT_255_2_778
10
6.4493826
20
83.6768397
40
0.5045401
50
105.3066237
51
115.2210932
0
ARC
8
DEFAULT_255_2_778
10
6.491172
20
83.5096258
40
0.676865
50
89.9807242
51
104.9820081
0
ARC
8
DEFAULT_255_2_778
10
6.4913593
20
83.5016119
40
0.6848787
50
89.7128444
51
89.9966187
0
LINE
8
DEFAULT_255_2_778
10
10.3581918
20
82.7590821
11
10.7949918
21
82.7590821
0
ARC
8
DEFAULT_255_2_778
10
10.8077859
20
83.7293059
40
0.9703081
50
269.2444975
51
284.5338137
0
ARC
8
DEFAULT_255_2_778
10
10.9328263
20
83.2923933
40
0.5161236
50
283.2686983
51
344.9044451
0
ARC
8
DEFAULT_255_2_778
10
10.560817
20
83.4127723
40
0.9068525
50
343.6822546
51
357.4788866
0
ARC
8
DEFAULT_255_2_778
10
9.9646399
20
83.4983846
40
1.5073856
50
355.2241174
51
358.0895779
0
ARC
8
DEFAULT_255_2_778
10
10.1446546
20
83.4918218
40
1.3272521
50
358.1136654
51
359.9849856
0
ARC
8
DEFAULT_255_2_778
10
10.5326863
20
83.5030641
40
0.939292
50
359.2930003
51
14.3699745
0
ARC
8
DEFAULT_255_2_778
10
10.9346908
20
83.6161767
40
0.5218846
50
13.2936422
51
73.2387359
0
ARC
8
DEFAULT_255_2_778
10
10.7982836
20
83.2220687
40
0.9387395
50
72.2036982
51
87.417889
0
ARC
8
DEFAULT_255_2_778
10
10.7621571
20
82.780467
40
1.3816154
50
86.7462591
51
90.031738
0
LINE
8
DEFAULT_255_2_778
10
10.7613918
20
84.1620821
11
10.3581918
21
84.1620821
0
LINE
8
DEFAULT_255_2_778
10
10.3581918
20
84.1620821
11
10.3581918
21
82.7590821
0
ARC
8
DEFAULT_255_2_778
10
10.5777256
20
83.491602
40
0.6203304
50
359.1761063
51
17.9706319
0
ARC
8
DEFAULT_255_2_778
10
10.8235183
20
83.5677041
40
0.3630653
50
18.5142675
51
82.6248751
0
ARC
8
DEFAULT_255_2_778
10
10.7319837
20
83.1881437
40
0.7524117
50
79.4207356
51
90.4361062
0
ARC
8
DEFAULT_255_2_778
10
10.727434
20
82.8714638
40
1.0690704
50
90.063091
51
93.6757498
0
ARC
8
DEFAULT_255_2_778
10
10.7374675
20
82.6987001
40
1.2421225
50
93.6267165
51
95.111951
0
LINE
8
DEFAULT_255_2_778
10
10.6267918
20
83.9358821
11
10.6267918
21
82.9637821
0
ARC
8
DEFAULT_255_2_778
10
10.688157
20
84.2001794
40
1.2379191
50
267.1586102
51
269.6003824
0
ARC
8
DEFAULT_255_2_778
10
10.6868924
20
84.1031394
40
1.140873
50
269.6299001
51
269.9977818
0
ARC
8
DEFAULT_255_2_778
10
10.6979601
20
83.7633359
40
0.8011464
50
269.2052839
51
284.0793603
0
ARC
8
DEFAULT_255_2_778
10
10.8037699
20
83.3729943
40
0.3968651
50
282.9713152
51
320.3039342
0
ARC
8
DEFAULT_255_2_778
10
10.7689009
20
83.3771183
40
0.4267565
50
322.868884
51
353.8190909
0
ARC
8
DEFAULT_255_2_778
10
10.4774442
20
83.4269831
40
0.722117
50
352.3753183
51
0.2093401
0
ARC
8
DEFAULT_255_2_778
10
10.2785984
20
83.4289679
40
0.9209582
50
0.040663
51
3.1317777
0
ARC
8
DEFAULT_255_2_778
10
10.1788117
20
83.4242026
40
1.0208566
50
3.0928597
51
3.2839733
0
LINE
8
DEFAULT_255_2_778
10
8.9026918
20
91.1309821
11
8.9026918
21
91.1309821
0
LINE
8
DEFAULT_255_2_778
10
8.4343918
20
90.7010821
11
8.4343918
21
90.7007821
0
LINE
8
DEFAULT_255_2_778
10
7.7887918
20
91.1306821
11
7.7887918
21
89.6916821
0
LINE
8
DEFAULT_255_2_778
10
7.7887918
20
89.6916821
11
8.1147918
21
89.6916821
0
LINE
8
DEFAULT_255_2_778
10
8.1147918
20
89.6916821
11
8.1147918
21
90.2625821
0
LINE
8
DEFAULT_255_2_778
10
8.3203918
20
90.1911821
11
8.4756918
21
89.6974821
0
LINE
8
DEFAULT_255_2_778
10
8.4756918
20
89.6974821
11
8.8113918
21
89.6913821
0
LINE
8
DEFAULT_255_2_778
10
8.8113918
20
89.6913821
11
8.6208918
21
90.3096821
0
LINE
8
DEFAULT_255_2_778
10
7.7887918
20
91.1304821
11
7.7887918
21
91.1306821
0
LINE
8
DEFAULT_255_2_778
10
11.1749918
20
90.0474821
11
11.1749918
21
91.1309821
0
LINE
8
DEFAULT_255_2_778
10
11.1749918
20
91.1309821
11
11.4717918
21
91.1309821
0
LINE
8
DEFAULT_255_2_778
10
11.4717918
20
91.1309821
11
11.4717918
21
89.6818821
0
LINE
8
DEFAULT_255_2_778
10
11.4717918
20
89.6818821
11
11.0929918
21
89.6818821
0
LINE
8
DEFAULT_255_2_778
10
11.0929918
20
89.6818821
11
10.5007918
21
90.7658821
0
LINE
8
DEFAULT_255_2_778
10
10.5007918
20
90.7658821
11
10.4962918
21
90.7658821
0
LINE
8
DEFAULT_255_2_778
10
10.4962918
20
90.7658821
11
10.4962918
21
89.6818821
0
LINE
8
DEFAULT_255_2_778
10
10.4962918
20
89.6818821
11
10.1994918
21
89.6818821
0
LINE
8
DEFAULT_255_2_778
10
10.1994918
20
89.6818821
11
10.1994918
21
91.1309821
0
LINE
8
DEFAULT_255_2_778
10
10.1994918
20
91.1309821
11
10.5806918
21
91.1309821
0
LINE
8
DEFAULT_255_2_778
10
10.5806918
20
91.1309821
11
11.1706918
21
90.0474821
0
LINE
8
DEFAULT_255_2_778
10
11.1706918
20
90.0474821
11
11.1749918
21
90.0474821
0
LINE
8
DEFAULT_255_2_778
10
6.5849918
20
80.6463821
11
6.5849918
21
80.6463821
0
LINE
8
DEFAULT_255_2_778
10
8.9354918
20
80.6344821
11
8.9047918
21
80.3907821
0
LINE
8
DEFAULT_255_2_778
10
9.7556918
20
80.6463821
11
9.2799918
21
80.6463821
0
LINE
8
DEFAULT_255_2_778
10
9.2799918
20
80.6463821
11
9.2799918
21
79.1831821
0
LINE
8
DEFAULT_255_2_778
10
9.2799918
20
79.1831821
11
9.7646918
21
79.1831821
0
LINE
8
DEFAULT_255_2_778
10
10.2943918
20
79.4972821
11
10.2941918
21
79.4972821
0
LINE
8
DEFAULT_255_2_778
10
9.7530918
20
79.4101821
11
9.7527918
21
79.4101821
0
LINE
8
DEFAULT_255_2_778
10
9.7332918
20
80.0539821
11
9.7332918
21
80.0539821
0
LINE
8
DEFAULT_255_2_778
10
10.8087918
20
80.0462821
11
10.6357918
21
80.3147821
0
LINE
8
DEFAULT_255_2_778
10
10.6357918
20
80.3147821
11
11.1296918
21
80.6431821
0
LINE
8
DEFAULT_255_2_778
10
11.1296918
20
80.6431821
11
11.4717918
21
80.6431821
0
LINE
8
DEFAULT_255_2_778
10
11.4717918
20
80.6431821
11
11.4717918
21
79.1548821
0
LINE
8
DEFAULT_255_2_778
10
11.4717918
20
79.1548821
11
11.0839918
21
79.1548821
0
LINE
8
DEFAULT_255_2_778
10
11.0839918
20
79.1548821
11
11.0839918
21
80.2465821
0
LINE
8
DEFAULT_255_2_778
10
11.0839918
20
80.2465821
11
10.8084918
21
80.0462821
0
LINE
8
DEFAULT_255_2_778
10
6.4939918
20
84.1864821
11
6.5817918
21
84.1832821
0
LINE
8
DEFAULT_255_2_778
10
6.8251918
20
84.1358821
11
6.7992918
21
83.9038821
0
LINE
8
DEFAULT_255_2_778
10
6.3946918
20
83.6363821
11
6.4407918
21
83.6133821
0
LINE
8
DEFAULT_255_2_778
10
6.4407918
20
83.6133821
11
6.4920918
21
83.5919821
0
LINE
8
DEFAULT_255_2_778
10
6.4920918
20
83.5919821
11
6.6034918
21
83.5474821
0
LINE
8
DEFAULT_255_2_778
10
6.9000918
20
83.2373821
11
6.9050918
21
83.1979821
0
LINE
8
DEFAULT_255_2_778
10
6.9050918
20
83.1979821
11
6.9069918
21
83.1553821
0
LINE
8
DEFAULT_255_2_778
10
6.9069918
20
83.1553821
11
6.9061918
21
83.1270821
0
LINE
8
DEFAULT_255_2_778
10
6.9061918
20
83.1270821
11
6.9040918
21
83.0997821
0
LINE
8
DEFAULT_255_2_778
10
6.0324918
20
82.7841821
11
6.0581918
21
83.0384821
0
LINE
8
DEFAULT_255_2_778
10
6.0581918
20
83.0384821
11
6.1319918
21
83.0026821
0
LINE
8
DEFAULT_255_2_778
10
6.5341918
20
82.9947821
11
6.5677918
21
83.0198821
0
LINE
8
DEFAULT_255_2_778
10
6.6164918
20
83.1103821
11
6.6180918
21
83.1333821
0
LINE
8
DEFAULT_255_2_778
10
6.6180918
20
83.1333821
11
6.6161918
21
83.1574821
0
LINE
8
DEFAULT_255_2_778
10
6.5619918
20
83.2506821
11
6.5230918
21
83.2783821
0
LINE
8
DEFAULT_255_2_778
10
6.4259918
20
83.3254821
11
6.3145918
21
83.3707821
0
LINE
8
DEFAULT_255_2_778
10
6.0179918
20
83.6755821
11
6.0129918
21
83.7144821
0
LINE
8
DEFAULT_255_2_778
10
6.0129918
20
83.7144821
11
6.0110918
21
83.7564821
0
LINE
8
DEFAULT_255_2_778
10
6.0110918
20
83.7564821
11
6.0118918
21
83.7853821
0
LINE
8
DEFAULT_255_2_778
10
6.0118918
20
83.7853821
11
6.0139918
21
83.8131821
0
LINE
8
DEFAULT_255_2_778
10
8.9944918
20
84.1864821
11
8.5105918
21
82.7296821
0
LINE
8
DEFAULT_255_2_778
10
8.5105918
20
82.7296821
11
8.3044918
21
82.7296821
0
LINE
8
DEFAULT_255_2_778
10
8.3044918
20
82.7296821
11
8.7881918
21
84.1864821
0
LINE
8
DEFAULT_255_2_778
10
8.7881918
20
84.1864821
11
8.9944918
21
84.1864821
0
LINE
8
DEFAULT_255_2_778
10
10.3581918
20
82.7590821
11
10.3581918
21
82.7590821
0
LINE
8
DEFAULT_255_2_778
10
11.1979918
20
83.4826821
11
11.1979918
21
83.4826821
0
ARC
8
DEFAULT_255_2_778
10
9.6479426
20
83.7448111
40
0.1472377
50
358.5694686
51
84.4320148
0
ARC
8
DEFAULT_255_2_778
10
9.5561523
20
83.406125
40
0.4966885
50
77.6685311
51
90.8601529
0
ARC
8
DEFAULT_255_2_778
10
9.5504866
20
83.0102677
40
0.8924917
50
90.1149452
51
94.0311031
0
ARC
8
DEFAULT_255_2_778
10
9.564261
20
82.7885023
40
1.1146783
50
93.9360485
51
95.0606811
0
LINE
8
DEFAULT_255_2_778
10
9.4659344
20
83.8988353
11
9.4659344
21
83.5837353
0
ARC
8
DEFAULT_255_2_778
10
9.5693679
20
84.5418396
40
0.9636713
50
263.8384183
51
267.7605794
0
ARC
8
DEFAULT_255_2_778
10
9.5595859
20
84.3212741
40
0.7428929
50
267.8497265
51
269.9694734
0
ARC
8
DEFAULT_255_2_778
10
9.5694721
20
83.9889803
40
0.4107276
50
268.5655311
51
286.7737482
0
ARC
8
DEFAULT_255_2_778
10
9.653468
20
83.7333576
40
0.1418965
50
284.087155
51
3.2634431
0
ARC
8
DEFAULT_255_2_778
10
9.494763
20
82.6421408
40
0.6706074
50
90.0283069
51
92.0106633
0
ARC
8
DEFAULT_255_2_778
10
9.5054283
20
82.9707119
40
0.3422129
50
71.4627747
51
91.8414443
0
ARC
8
DEFAULT_255_2_778
10
9.5780165
20
83.1840952
40
0.1168274
50
29.9583484
51
71.9449537
0
ARC
8
DEFAULT_255_2_778
10
9.8163769
20
83.2789109
40
0.1851921
50
25.5676088
51
69.2018287
0
ARC
8
DEFAULT_255_2_778
10
9.8133611
20
83.7482572
40
0.3041006
50
283.0706922
51
356.5435247
0
ARC
8
DEFAULT_255_2_778
10
9.5687658
20
83.7939659
40
0.5518713
50
353.3359853
51
0.1539898
0
ARC
8
DEFAULT_255_2_778
10
9.4699055
20
83.7953934
40
0.6507296
50
0.0049047
51
1.0074969
0
ARC
8
DEFAULT_255_2_778
10
9.7688569
20
83.8049849
40
0.3516824
50
0.3014671
51
38.2096653
0
ARC
8
DEFAULT_255_2_778
10
9.7718835
20
83.7808471
40
0.3648302
50
41.4840774
51
76.4089008
0
ARC
8
DEFAULT_255_2_778
10
9.653252
20
83.3610679
40
0.8009052
50
75.2166119
51
89.6994059
0
ARC
8
DEFAULT_255_2_778
10
9.6336788
20
82.9594598
40
1.2027373
50
88.8673384
51
90.006576
0
ARC
8
DEFAULT_255_2_778
10
9.6337678
20
82.8567591
40
1.305438
50
90.0099639
51
91.3490151
0
LINE
8
DEFAULT_255_2_778
10
9.6030344
20
84.1618353
11
9.1413344
21
84.1618353
0
LINE
8
DEFAULT_255_2_778
10
7.1196344
20
82.7590353
11
7.5564344
21
82.7590353
0
ARC
8
DEFAULT_255_2_778
10
7.5692147
20
83.728551
40
0.9695999
50
269.2447609
51
284.5391257
0
ARC
8
DEFAULT_255_2_778
10
7.6939907
20
83.2925404
40
0.5163522
50
283.2825236
51
344.8890025
0
ARC
8
DEFAULT_255_2_778
10
7.3216828
20
83.4132013
40
0.9074499
50
343.6619928
51
357.4504766
0
ARC
8
DEFAULT_255_2_778
10
6.7260925
20
83.4983371
40
1.5073755
50
355.2241114
51
358.0896001
0
ARC
8
DEFAULT_255_2_778
10
6.9060738
20
83.4917756
40
1.3272756
50
358.1136831
51
359.9849863
0
ARC
8
DEFAULT_255_2_778
10
7.2940662
20
83.5030164
40
0.9393547
50
359.293138
51
14.3694927
0
ARC
8
DEFAULT_255_2_778
10
7.6960405
20
83.6161158
40
0.5219798
50
13.2935531
51
73.2312379
0
ARC
8
DEFAULT_255_2_778
10
7.5595995
20
83.2220614
40
0.9387953
50
72.1966723
51
87.410303
0
ARC
8
DEFAULT_255_2_778
10
7.5234199
20
82.7804448
40
1.3816906
50
86.7389678
51
90.0242798
0
LINE
8
DEFAULT_255_2_778
10
7.5228344
20
84.1621353
11
7.1196344
21
84.1621353
0
LINE
8
DEFAULT_255_2_778
10
7.1196344
20
84.1621353
11
7.1196344
21
82.7590353
0
ARC
8
DEFAULT_255_2_778
10
7.3387383
20
83.491559
40
0.6207603
50
359.1763256
51
17.961602
0
ARC
8
DEFAULT_255_2_778
10
7.5849952
20
83.5678269
40
0.3630014
50
18.4966341
51
82.6126932
0
ARC
8
DEFAULT_255_2_778
10
7.4935739
20
83.1888438
40
0.751764
50
79.4149978
51
90.4364513
0
ARC
8
DEFAULT_255_2_778
10
7.4890301
20
82.8722442
40
1.0683424
50
90.0634332
51
93.6766753
0
ARC
8
DEFAULT_255_2_778
10
7.4990326
20
82.7001104
40
1.2407639
50
93.6278913
51
95.1139686
0
LINE
8
DEFAULT_255_2_778
10
7.3884344
20
83.9359353
11
7.3884344
21
82.9638353
0
ARC
8
DEFAULT_255_2_778
10
7.4498201
20
84.2006836
40
1.2383707
50
267.158699
51
269.6000043
0
ARC
8
DEFAULT_255_2_778
10
7.4485456
20
84.1036699
40
1.1413506
50
269.6299833
51
269.9977747
0
ARC
8
DEFAULT_255_2_778
10
7.4596157
20
83.7635179
40
0.8012755
50
269.2052311
51
284.0792257
0
ARC
8
DEFAULT_255_2_778
10
7.5654423
20
83.3731129
40
0.3969287
50
282.9710946
51
320.3033815
0
ARC
8
DEFAULT_255_2_778
10
7.5305786
20
83.3772296
40
0.4268112
50
322.8683405
51
353.8190097
0
ARC
8
DEFAULT_255_2_778
10
7.2391101
20
83.4271001
40
0.7221841
50
352.375062
51
0.2094593
0
ARC
8
DEFAULT_255_2_778
10
7.0405242
20
83.4290947
40
0.9207653
50
0.0401712
51
3.1222967
0
ARC
8
DEFAULT_255_2_778
10
6.9512271
20
83.4249305
40
1.0101569
50
3.0822621
51
3.2747812
0
LINE
8
DEFAULT_255_2_778
10
9.7951344
20
83.7414353
11
9.7951344
21
83.7411353
0
LINE
8
DEFAULT_255_2_778
10
9.1415344
20
84.1618353
11
9.1415344
21
82.7537353
0
LINE
8
DEFAULT_255_2_778
10
9.1415344
20
82.7537353
11
9.4712344
21
82.7537353
0
LINE
8
DEFAULT_255_2_778
10
9.4712344
20
82.7537353
11
9.4712344
21
83.3123353
0
LINE
8
DEFAULT_255_2_778
10
9.6792344
20
83.2424353
11
9.8363344
21
82.7595353
0
LINE
8
DEFAULT_255_2_778
10
9.8363344
20
82.7595353
11
10.1763344
21
82.7537353
0
LINE
8
DEFAULT_255_2_778
10
10.1763344
20
82.7537353
11
9.9834344
21
83.3588353
0
LINE
8
DEFAULT_255_2_778
10
9.1413344
20
84.1618353
11
9.1415344
21
84.1618353
0
LINE
8
DEFAULT_255_2_778
10
7.1196344
20
82.7590353
11
7.1196344
21
82.7590353
0
LINE
8
DEFAULT_255_2_778
10
7.9597344
20
83.4826353
11
7.9594344
21
83.4826353
0
ARC
8
DEFAULT_255_2_778
10
2.4303989
20
83.5000829
40
0.6116278
50
171.3077741
51
179.7656578
0
ARC
8
DEFAULT_255_2_778
10
2.563372
20
83.4808916
40
0.745975
50
162.404617
51
171.3941729
0
ARC
8
DEFAULT_255_2_778
10
2.5882787
20
83.4738809
40
0.7718362
50
158.2507726
51
162.4674519
0
ARC
8
DEFAULT_255_2_778
10
2.5240876
20
83.5045577
40
0.7008632
50
134.6828778
51
158.6356059
0
ARC
8
DEFAULT_255_2_778
10
2.4569269
20
83.566525
40
0.6095921
50
111.2874935
51
134.2902162
0
ARC
8
DEFAULT_255_2_778
10
2.4852454
20
83.4872293
40
0.6937625
50
94.7915896
51
111.08914
0
ARC
8
DEFAULT_255_2_778
10
2.5015434
20
83.3432826
40
0.8385781
50
89.9490296
51
95.0797155
0
ARC
8
DEFAULT_255_2_778
10
2.5008288
20
83.2127907
40
0.9690706
50
83.8618556
51
89.9136421
0
ARC
8
DEFAULT_255_2_778
10
2.4807625
20
83.0250168
40
1.1579137
50
78.5656714
51
83.8681224
0
ARC
8
DEFAULT_255_2_778
10
2.4348965
20
82.7968234
40
1.3906707
50
74.059142
51
78.5773087
0
ARC
8
DEFAULT_255_2_778
10
2.3672766
20
82.5571125
40
1.6397354
50
70.8686091
51
74.0876454
0
ARC
8
DEFAULT_255_2_778
10
2.5473652
20
83.3126587
40
0.590458
50
56.0197711
51
82.367365
0
ARC
8
DEFAULT_255_2_778
10
2.5609649
20
83.3934943
40
0.5085396
50
82.6763643
51
89.9391878
0
ARC
8
DEFAULT_255_2_778
10
2.54724
20
83.5333056
40
0.3690037
50
87.7845605
51
148.6652425
0
ARC
8
DEFAULT_255_2_778
10
2.6463063
20
83.4816555
40
0.4805374
50
149.5477808
51
168.8703491
0
ARC
8
DEFAULT_255_2_778
10
2.8708441
20
83.4318828
40
0.7104811
50
168.4272781
51
177.821964
0
ARC
8
DEFAULT_255_2_778
10
2.4501841
20
83.4213203
40
0.635702
50
173.3366308
51
179.6547546
0
ARC
8
DEFAULT_255_2_778
10
2.4942921
20
83.4203715
40
0.6798152
50
179.5971887
51
180.0002687
0
ARC
8
DEFAULT_255_2_778
10
2.5347082
20
83.4215283
40
0.7202325
50
180.0922788
51
189.7216543
0
ARC
8
DEFAULT_255_2_778
10
2.5673205
20
83.4262395
40
0.7531725
50
189.6559712
51
192.8261464
0
ARC
8
DEFAULT_255_2_778
10
2.5205434
20
83.4090728
40
0.7037805
50
192.3088428
51
226.5756628
0
ARC
8
DEFAULT_255_2_778
10
2.4608134
20
83.3578157
40
0.6255483
50
227.3218826
51
251.9392394
0
ARC
8
DEFAULT_255_2_778
10
2.4968425
20
83.4729478
40
0.7461789
50
252.0498125
51
268.2266273
0
ARC
8
DEFAULT_255_2_778
10
2.506606
20
83.6092859
40
0.8827713
50
267.867075
51
270.0089389
0
ARC
8
DEFAULT_255_2_778
10
2.5052207
20
83.7097184
40
0.9832049
50
270.088753
51
276.4107408
0
ARC
8
DEFAULT_255_2_778
10
2.4854122
20
83.8893656
40
1.1639407
50
276.392334
51
281.5449396
0
ARC
8
DEFAULT_255_2_778
10
2.4419881
20
84.1023227
40
1.38128
50
281.5418327
51
286.2028968
0
ARC
8
DEFAULT_255_2_778
10
2.3807234
20
84.3168676
40
1.6043988
50
286.1659251
51
289.1100076
0
ARC
8
DEFAULT_255_2_778
10
2.548751
20
83.5943884
40
0.590309
50
277.6261657
51
303.9799286
0
ARC
8
DEFAULT_255_2_778
10
2.5623185
20
83.513713
40
0.508554
50
270.0606049
51
277.3173392
0
ARC
8
DEFAULT_255_2_778
10
2.5485931
20
83.3739634
40
0.3690798
50
211.3414515
51
272.2147787
0
ARC
8
DEFAULT_255_2_778
10
2.6475231
20
83.4255346
40
0.4804555
50
191.1326335
51
210.4576278
0
ARC
8
DEFAULT_255_2_778
10
2.8719139
20
83.4752846
40
0.710251
50
182.1786217
51
191.5753764
0
LINE
8
DEFAULT_255_2_778
10
2.9046762
20
84.1062845
11
2.8773762
21
83.8022845
0
LINE
8
DEFAULT_255_2_778
10
2.9059762
20
82.8008845
11
2.8786762
21
83.1048845
0
LINE
8
DEFAULT_255_2_778
10
3.8649333
20
84.1820041
11
4.1295333
21
84.1820041
0
LINE
8
DEFAULT_255_2_778
10
4.1295333
20
84.1820041
11
4.1295333
21
82.7268041
0
LINE
8
DEFAULT_255_2_778
10
4.1295333
20
82.7268041
11
3.8649333
21
82.7268041
0
LINE
8
DEFAULT_255_2_778
10
3.8649333
20
82.7268041
11
3.8649333
21
83.3647041
0
LINE
8
DEFAULT_255_2_778
10
3.8649333
20
83.3647041
11
3.3358333
21
83.3647041
0
LINE
8
DEFAULT_255_2_778
10
3.3358333
20
83.3647041
11
3.3358333
21
82.7268041
0
LINE
8
DEFAULT_255_2_778
10
3.3358333
20
82.7268041
11
3.0712333
21
82.7268041
0
LINE
8
DEFAULT_255_2_778
10
3.0712333
20
82.7268041
11
3.0712333
21
84.1820041
0
LINE
8
DEFAULT_255_2_778
10
3.0712333
20
84.1820041
11
3.3358333
21
84.1820041
0
LINE
8
DEFAULT_255_2_778
10
3.3358333
20
84.1820041
11
3.3358333
21
83.5941041
0
LINE
8
DEFAULT_255_2_778
10
3.3358333
20
83.5941041
11
3.8649333
21
83.5941041
0
LINE
8
DEFAULT_255_2_778
10
3.8649333
20
83.5941041
11
3.8649333
21
84.1820041
0
ARC
8
DEFAULT_255_2_778
10
4.6613535
20
83.1338334
40
0.7775493
50
89.1032729
51
103.6984708
0
ARC
8
DEFAULT_255_2_778
10
4.5728884
20
83.5040805
40
0.3968878
50
103.9482589
51
121.7191363
0
ARC
8
DEFAULT_255_2_778
10
5.9704056
20
84.079388
40
1.6236768
50
181.3203389
51
188.4181564
0
ARC
8
DEFAULT_255_2_778
10
6.9457857
20
84.1188881
40
2.5997638
50
179.969161
51
181.695325
0
ARC
8
DEFAULT_255_2_778
10
4.6881546
20
83.209262
40
0.9731505
50
91.836426
51
110.5834831
0
ARC
8
DEFAULT_255_2_778
10
4.677203
20
83.3347105
40
0.8474436
50
90.001167
51
91.3681699
0
ARC
8
DEFAULT_255_2_778
10
4.6776482
20
83.3575004
40
0.8246539
50
78.849715
51
90.0321285
0
ARC
8
DEFAULT_255_2_778
10
4.731733
20
83.775922
40
0.4046311
50
47.5595502
51
74.9027729
0
ARC
8
DEFAULT_255_2_778
10
4.776353
20
83.8459626
40
0.3231503
50
359.7009102
51
45.0168157
0
ARC
8
DEFAULT_255_2_778
10
4.5938451
20
83.8248913
40
0.5060251
50
359.9851378
51
2.1953735
0
ARC
8
DEFAULT_255_2_778
10
4.4888879
20
83.8267206
40
0.6109854
50
352.6375653
51
359.816149
0
ARC
8
DEFAULT_255_2_778
10
4.358111
20
83.8414666
40
0.7425769
50
351.037923
51
352.8022273
0
ARC
8
DEFAULT_255_2_778
10
4.7082595
20
83.7800245
40
0.3871805
50
328.6627178
51
351.9474015
0
ARC
8
DEFAULT_255_2_778
10
4.8826297
20
83.6758379
40
0.1840702
50
278.4953676
51
328.1342648
0
ARC
8
DEFAULT_255_2_778
10
4.7422833
20
83.1234071
40
0.4065106
50
40.0040408
51
65.6607017
0
ARC
8
DEFAULT_255_2_778
10
4.8051626
20
83.1886208
40
0.3165667
50
358.4758724
51
38.2785391
0
ARC
8
DEFAULT_255_2_778
10
4.6072718
20
83.1838483
40
0.5143585
50
347.801898
51
359.5936882
0
ARC
8
DEFAULT_255_2_778
10
4.4005891
20
83.2250396
40
0.7250865
50
342.4490836
51
348.0712911
0
ARC
8
DEFAULT_255_2_778
10
4.717227
20
83.1289032
40
0.3942166
50
281.7038529
51
341.8935785
0
ARC
8
DEFAULT_255_2_778
10
4.6542177
20
83.3783109
40
0.6513153
50
269.4956886
51
282.680893
0
ARC
8
DEFAULT_255_2_778
10
4.652453
20
83.7227371
40
0.9957243
50
262.5355511
51
269.7716754
0
ARC
8
DEFAULT_255_2_778
10
4.7061894
20
84.143813
40
1.4202135
50
257.2135519
51
262.592894
0
ARC
8
DEFAULT_255_2_778
10
4.7893627
20
84.5276421
40
1.812936
50
255.2577337
51
257.3348301
0
LINE
8
DEFAULT_255_2_778
10
4.3280223
20
82.7743874
11
4.3280223
21
83.0759874
0
ARC
8
DEFAULT_255_2_778
10
4.7918942
20
84.3090055
40
1.3173879
50
249.3832733
51
254.806448
0
ARC
8
DEFAULT_255_2_778
10
4.6502863
20
83.7812021
40
0.7709225
50
254.6824191
51
262.7260238
0
ARC
8
DEFAULT_255_2_778
10
4.611591
20
83.4913719
40
0.4785284
50
262.9280396
51
269.7807309
0
ARC
8
DEFAULT_255_2_778
10
4.6176786
20
83.268017
40
0.2552928
50
268.222478
51
294.7545391
0
ARC
8
DEFAULT_255_2_778
10
4.6415109
20
83.1952684
40
0.1794666
50
297.5714375
51
351.0653117
0
ARC
8
DEFAULT_255_2_778
10
4.526196
20
83.2314124
40
0.2995248
50
347.6591172
51
347.9510506
0
ARC
8
DEFAULT_255_2_778
10
4.6045166
20
83.1619974
40
0.2147163
50
1.8388771
51
35.5815325
0
ARC
8
DEFAULT_255_2_778
10
4.6497035
20
83.177173
40
0.1697105
50
40.296617
51
90.5183351
0
ARC
8
DEFAULT_255_2_778
10
4.6297248
20
83.0271319
40
0.3202762
50
86.698736
51
90.0418045
0
ARC
8
DEFAULT_255_2_778
10
4.6327073
20
82.9004269
40
0.4469928
50
90.4122525
51
99.5776163
0
ARC
8
DEFAULT_255_2_778
10
4.6669698
20
82.6785597
40
0.6714754
50
99.3105318
51
103.5346377
0
LINE
8
DEFAULT_255_2_778
10
4.5098223
20
83.3313874
11
4.5098223
21
83.5866874
0
ARC
8
DEFAULT_255_2_778
10
4.6028781
20
84.08533
40
0.5072512
50
259.4291558
51
267.3344095
0
ARC
8
DEFAULT_255_2_778
10
4.5958024
20
83.9714136
40
0.393133
50
267.592404
51
269.9788367
0
ARC
8
DEFAULT_255_2_778
10
4.6073527
20
83.8048548
40
0.2268757
50
267.0450768
51
308.7488662
0
ARC
8
DEFAULT_255_2_778
10
4.5914063
20
83.7995272
40
0.2332355
50
312.6261049
51
347.5104619
0
ARC
8
DEFAULT_255_2_778
10
4.6367556
20
83.7615953
40
0.1827952
50
356.0764398
51
35.2384793
0
ARC
8
DEFAULT_255_2_778
10
4.6846762
20
83.7753039
40
0.1367393
50
42.1491593
51
94.6788659
0
LINE
8
DEFAULT_255_2_778
10
4.6735223
20
83.9115874
11
4.6735223
21
83.9112874
0
LINE
8
DEFAULT_255_2_778
10
40.0862448
20
61.1375927
11
40.6238448
21
61.1375927
0
LINE
8
DEFAULT_255_2_778
10
40.6238448
20
61.1375927
11
40.6238448
21
59.6471927
0
ARC
8
DEFAULT_255_2_778
10
41.579781
20
59.634925
40
0.9560149
50
179.2647554
51
191.6790585
0
ARC
8
DEFAULT_255_2_778
10
41.0536057
20
59.5192636
40
0.4173744
50
190.7519144
51
217.1500506
0
ARC
8
DEFAULT_255_2_778
10
40.9431284
20
59.452829
40
0.289525
50
219.8752272
51
273.3297655
0
ARC
8
DEFAULT_255_2_778
10
40.9780886
20
59.4519066
40
0.2886846
50
266.3965861
51
341.6394928
0
ARC
8
DEFAULT_255_2_778
10
40.6228581
20
59.5932478
40
0.6707225
50
339.738444
51
356.4303453
0
ARC
8
DEFAULT_255_2_778
10
40.1094377
20
59.6447116
40
1.1865097
50
355.4936179
51
0.1198118
0
LINE
8
DEFAULT_255_2_778
10
41.2959448
20
59.6471927
11
41.2959448
21
61.1375927
0
LINE
8
DEFAULT_255_2_778
10
41.2959448
20
61.1375927
11
41.8671448
21
61.1375927
0
LINE
8
DEFAULT_255_2_778
10
41.8671448
20
61.1375927
11
41.8671448
21
59.5262927
0
ARC
8
DEFAULT_255_2_778
10
40.5774085
20
59.5134985
40
1.2897998
50
347.7039518
51
0.5683566
0
ARC
8
DEFAULT_255_2_778
10
41.113048
20
59.3906775
40
0.7403151
50
323.5046085
51
348.1630609
0
ARC
8
DEFAULT_255_2_778
10
41.1986237
20
59.3495265
40
0.6472907
50
285.2232879
51
321.9274656
0
ARC
8
DEFAULT_255_2_778
10
41.0569759
20
59.8101236
40
1.1290291
50
271.4982607
51
286.0217332
0
ARC
8
DEFAULT_255_2_778
10
41.0278648
20
60.2609048
40
1.5805122
50
269.9811502
51
272.1259589
0
ARC
8
DEFAULT_255_2_778
10
41.0145173
20
60.1744143
40
1.4940766
50
258.7776711
51
270.4919221
0
ARC
8
DEFAULT_255_2_778
10
40.8889659
20
59.5700147
40
0.8768167
50
238.2011953
51
259.1386832
0
ARC
8
DEFAULT_255_2_778
10
40.8067408
20
59.4101688
40
0.6977831
50
194.9349036
51
237.0231891
0
ARC
8
DEFAULT_255_2_778
10
41.2929236
20
59.5613675
40
1.2066886
50
181.6656521
51
195.9221627
0
LINE
8
DEFAULT_255_2_778
10
40.0867448
20
59.5262927
11
40.0867448
21
61.1375927
0
LINE
8
DEFAULT_255_2_778
10
40.0867448
20
61.1375927
11
40.0862448
21
61.1375927
0
LINE
8
DEFAULT_255_2_778
10
43.9514448
20
59.0865156
11
43.9514448
21
58.7031156
0
LINE
8
DEFAULT_255_2_778
10
43.9514448
20
58.7031156
11
42.5182448
21
58.7031156
0
LINE
8
DEFAULT_255_2_778
10
42.5182448
20
58.7031156
11
42.5182448
21
61.1375156
0
LINE
8
DEFAULT_255_2_778
10
42.5182448
20
61.1375156
11
43.0058448
21
61.1375156
0
LINE
8
DEFAULT_255_2_778
10
43.0058448
20
61.1375156
11
43.0058448
21
59.0865156
0
LINE
8
DEFAULT_255_2_778
10
43.0058448
20
59.0865156
11
43.9517448
21
59.0865156
0
LINE
8
DEFAULT_255_2_778
10
45.6958448
20
59.0865156
11
45.6958448
21
58.7031156
0
LINE
8
DEFAULT_255_2_778
10
45.6958448
20
58.7031156
11
44.2618448
21
58.7031156
0
LINE
8
DEFAULT_255_2_778
10
44.2618448
20
58.7031156
11
44.2618448
21
61.1375156
0
LINE
8
DEFAULT_255_2_778
10
44.2618448
20
61.1375156
11
44.7502448
21
61.1375156
0
LINE
8
DEFAULT_255_2_778
10
44.7502448
20
61.1375156
11
44.7502448
21
59.0865156
0
LINE
8
DEFAULT_255_2_778
10
44.7502448
20
59.0865156
11
45.6961448
21
59.0865156
0
ARC
8
DEFAULT_255_2_778
10
38.7524286
20
58.1807924
40
2.9567851
50
86.0482839
51
90.2564211
0
ARC
8
DEFAULT_255_2_778
10
38.8023049
20
59.0438692
40
2.0923456
50
85.3790801
51
85.7820632
0
ARC
8
DEFAULT_255_2_778
10
38.9315455
20
60.069597
40
1.0605461
50
59.596821
51
87.875
0
ARC
8
DEFAULT_255_2_778
10
39.1478019
20
60.4906835
40
0.5885224
50
24.5868953
51
57.0076401
0
ARC
8
DEFAULT_255_2_778
10
38.9719178
20
60.412752
40
0.7808881
50
8.2494405
51
24.4170405
0
ARC
8
DEFAULT_255_2_778
10
38.712532
20
60.3656814
40
1.0443858
50
4.9032075
51
8.7632756
0
ARC
8
DEFAULT_255_2_778
10
38.9326894
20
60.3544984
40
0.8204246
50
332.9578188
51
359.6193518
0
ARC
8
DEFAULT_255_2_778
10
39.1374736
20
60.2681055
40
0.5989687
50
295.9760426
51
331.4121251
0
ARC
8
DEFAULT_255_2_778
10
39.0000151
20
60.5413608
40
0.9048335
50
280.3623034
51
296.2222128
0
ARC
8
DEFAULT_255_2_778
10
38.8909259
20
61.1068628
40
1.4807448
50
270.4926485
51
280.5786804
0
ARC
8
DEFAULT_255_2_778
10
38.8738027
20
61.5619828
40
1.9360404
50
269.9958923
51
270.8835714
0
ARC
8
DEFAULT_255_2_778
10
38.8739122
20
61.6836943
40
2.0577521
50
268.7985147
51
269.9930873
0
ARC
8
DEFAULT_255_2_778
10
38.8758145
20
61.7864497
40
2.1605247
50
268.4187509
51
268.8052173
0
ARC
8
DEFAULT_255_2_778
10
38.7849076
20
61.2651599
40
1.2547172
50
269.8350718
51
273.2055591
0
ARC
8
DEFAULT_255_2_778
10
38.8715979
20
60.3985832
40
0.386531
50
267.5492149
51
324.5948529
0
ARC
8
DEFAULT_255_2_778
10
38.8098506
20
60.4021057
40
0.440132
50
328.8820529
51
349.5595636
0
ARC
8
DEFAULT_255_2_778
10
38.9081538
20
60.4063523
40
0.3352936
50
2.973931
51
73.5981495
0
ARC
8
DEFAULT_255_2_778
10
38.8255897
20
60.1536584
40
0.6010691
50
72.84981
51
90.9152323
0
ARC
8
DEFAULT_255_2_778
10
38.8162965
20
59.8830681
40
0.8715827
50
90.020233
51
92.3014807
0
LINE
8
DEFAULT_255_2_778
10
39.7530959
20
60.4549479
11
39.7543959
21
60.4014479
0
LINE
8
DEFAULT_255_2_778
10
39.7543959
20
60.4014479
11
39.7530959
21
60.3490479
0
LINE
8
DEFAULT_255_2_778
10
38.8161959
20
59.6267479
11
38.6097959
21
59.6267479
0
LINE
8
DEFAULT_255_2_778
10
38.6097959
20
59.6267479
11
38.6097959
21
58.7028479
0
LINE
8
DEFAULT_255_2_778
10
38.6097959
20
58.7028479
11
38.1213959
21
58.7028479
0
LINE
8
DEFAULT_255_2_778
10
38.1213959
20
58.7028479
11
38.1213959
21
61.1372479
0
LINE
8
DEFAULT_255_2_778
10
38.1213959
20
61.1372479
11
38.7391959
21
61.1375479
0
LINE
8
DEFAULT_255_2_778
10
39.2426959
20
60.3223479
11
39.2452959
21
60.3729479
0
LINE
8
DEFAULT_255_2_778
10
39.2452959
20
60.3729479
11
39.2429959
21
60.4237479
0
LINE
8
DEFAULT_255_2_778
10
38.7812959
20
60.7539479
11
38.6100959
21
60.7539479
0
LINE
8
DEFAULT_255_2_778
10
38.6100959
20
60.7539479
11
38.6100959
21
60.0104479
0
LINE
8
DEFAULT_255_2_778
10
38.6100959
20
60.0104479
11
38.7812959
21
60.0104479
0
ARC
8
DEFAULT_255_2_778
10
2.171913
20
47.8875901
40
0.4999264
50
90.001087
51
156.4273434
0
ARC
8
DEFAULT_255_2_778
10
5.6716066
20
48.5875196
40
0.5000969
50
359.9996485
51
90.0003515
0
ARC
8
DEFAULT_255_2_778
10
5.6716279
20
48.5875921
40
0.5000757
50
269.9972098
51
359.9913379
0
ARC
8
DEFAULT_255_2_778
10
3.3934458
20
47.8842582
40
0.8672191
50
25.4203048
51
35.4725463
0
ARC
8
DEFAULT_255_2_778
10
3.2600671
20
47.7693861
40
1.2435209
50
23.0624858
51
29.8229873
0
LINE
8
DEFAULT_255_2_778
10
1.6716035
20
48.0875165
11
1.6716035
21
48.3875165
0
LINE
8
DEFAULT_255_2_778
10
1.6716035
20
48.3875165
11
6.1240035
21
48.3875165
0
LINE
8
DEFAULT_255_2_778
10
5.2718035
20
48.0875165
11
5.2718035
21
48.3875165
0
LINE
8
DEFAULT_255_2_778
10
5.6517035
20
48.0875165
11
5.6517035
21
48.3875165
0
LINE
8
DEFAULT_255_2_778
10
2.8718035
20
48.3875165
11
3.1718035
21
48.0875165
0
LINE
8
DEFAULT_255_2_778
10
5.5218035
20
48.3875165
11
5.5218035
21
48.0875165
0
LINE
8
DEFAULT_255_2_778
10
0.1717035
20
49.0876165
11
5.6716035
21
49.0876165
0
LINE
8
DEFAULT_255_2_778
10
5.6716035
20
48.0875165
11
0.1717035
21
48.0875165
0
LINE
8
DEFAULT_255_2_778
10
4.1767035
20
48.2565165
11
4.4042035
21
48.2565165
0
LINE
8
DEFAULT_255_2_778
10
3.6716035
20
48.3872165
11
3.6716035
21
49.0873165
0
LINE
8
DEFAULT_255_2_778
10
29.7632035
20
37.3994165
11
28.5133035
21
39.5645165
0
LINE
8
DEFAULT_255_2_778
10
28.5133035
20
39.5645165
11
27.2634035
21
37.3994165
0
LINE
8
DEFAULT_255_2_778
10
27.2634035
20
37.3994165
11
29.7635035
21
37.3994165
0
ARC
8
DEFAULT_255_2_778
10
9.253997
20
17.6057911
40
0.611926
50
171.3123782
51
179.7660989
0
ARC
8
DEFAULT_255_2_778
10
9.386877
20
17.5866198
40
0.7461779
50
162.4122365
51
171.3983625
0
ARC
8
DEFAULT_255_2_778
10
9.4116588
20
17.5796517
40
0.7719073
50
158.2594119
51
162.4750226
0
ARC
8
DEFAULT_255_2_778
10
9.3474693
20
17.6103247
40
0.700938
50
134.6903933
51
158.6448372
0
ARC
8
DEFAULT_255_2_778
10
9.2802318
20
17.6723503
40
0.6095706
50
111.2911644
51
134.2975688
0
ARC
8
DEFAULT_255_2_778
10
9.308547
20
17.5930732
40
0.6937224
50
94.7923306
51
111.0926538
0
ARC
8
DEFAULT_255_2_778
10
9.3248482
20
17.4490918
40
0.838573
50
89.9490118
51
95.0803473
0
ARC
8
DEFAULT_255_2_778
10
9.324134
20
17.3186181
40
0.9690473
50
83.8617829
51
89.9136497
0
ARC
8
DEFAULT_255_2_778
10
9.3040676
20
17.1308457
40
1.1578889
50
78.5655491
51
83.8680501
0
ARC
8
DEFAULT_255_2_778
10
9.2582009
20
16.9026343
40
1.3906637
50
74.0591926
51
78.5773233
0
ARC
8
DEFAULT_255_2_778
10
9.1905914
20
16.6629607
40
1.6396895
50
70.8685995
51
74.0876808
0
ARC
8
DEFAULT_255_2_778
10
9.370751
20
17.4185853
40
0.590309
50
56.0200714
51
82.3738343
0
ARC
8
DEFAULT_255_2_778
10
9.3843185
20
17.4992606
40
0.508554
50
82.6826608
51
89.9393951
0
ARC
8
DEFAULT_255_2_778
10
9.3705931
20
17.6390103
40
0.3690798
50
87.7852213
51
148.6585485
0
ARC
8
DEFAULT_255_2_778
10
9.4695231
20
17.5874391
40
0.4804555
50
149.5423722
51
168.8673665
0
ARC
8
DEFAULT_255_2_778
10
9.6939139
20
17.537689
40
0.710251
50
168.4246236
51
177.8213783
0
ARC
8
DEFAULT_255_2_778
10
9.2734841
20
17.527125
40
0.635702
50
173.3366308
51
179.6547546
0
ARC
8
DEFAULT_255_2_778
10
9.3175921
20
17.5261762
40
0.6798152
50
179.5971887
51
180.0002687
0
ARC
8
DEFAULT_255_2_778
10
9.3580082
20
17.527333
40
0.7202325
50
180.0922788
51
189.7216543
0
ARC
8
DEFAULT_255_2_778
10
9.3906205
20
17.5320442
40
0.7531725
50
189.6559712
51
192.8261464
0
ARC
8
DEFAULT_255_2_778
10
9.3438434
20
17.5148776
40
0.7037805
50
192.3088428
51
226.5756628
0
ARC
8
DEFAULT_255_2_778
10
9.2841134
20
17.4636204
40
0.6255483
50
227.3218826
51
251.9392394
0
ARC
8
DEFAULT_255_2_778
10
9.3201425
20
17.5787525
40
0.7461789
50
252.0498125
51
268.2266273
0
ARC
8
DEFAULT_255_2_778
10
9.329906
20
17.7150906
40
0.8827713
50
267.867075
51
270.0089389
0
ARC
8
DEFAULT_255_2_778
10
9.3285207
20
17.8155231
40
0.9832049
50
270.088753
51
276.4107408
0
ARC
8
DEFAULT_255_2_778
10
9.3087122
20
17.9951703
40
1.1639407
50
276.392334
51
281.5449396
0
ARC
8
DEFAULT_255_2_778
10
9.2652881
20
18.2081274
40
1.38128
50
281.5418327
51
286.2028968
0
ARC
8
DEFAULT_255_2_778
10
9.2040234
20
18.4226723
40
1.6043988
50
286.1659251
51
289.1100076
0
ARC
8
DEFAULT_255_2_778
10
9.372051
20
17.7001931
40
0.590309
50
277.6261657
51
303.9799286
0
ARC
8
DEFAULT_255_2_778
10
9.3856185
20
17.6195178
40
0.508554
50
270.0606049
51
277.3173392
0
ARC
8
DEFAULT_255_2_778
10
9.3718931
20
17.4797681
40
0.3690798
50
211.3414515
51
272.2147787
0
ARC
8
DEFAULT_255_2_778
10
9.4708231
20
17.5313394
40
0.4804555
50
191.1326335
51
210.4576278
0
ARC
8
DEFAULT_255_2_778
10
9.6952139
20
17.5810894
40
0.710251
50
182.1786217
51
191.5753764
0
LINE
8
DEFAULT_255_2_778
10
9.7279762
20
18.2120892
11
9.7006762
21
17.9080892
0
LINE
8
DEFAULT_255_2_778
10
9.7292762
20
16.9066892
11
9.7019762
21
17.2106892
0
LINE
8
DEFAULT_255_2_778
10
10.6883333
20
18.2878041
11
10.9529333
21
18.2878041
0
LINE
8
DEFAULT_255_2_778
10
10.9529333
20
18.2878041
11
10.9529333
21
16.8326041
0
LINE
8
DEFAULT_255_2_778
10
10.9529333
20
16.8326041
11
10.6883333
21
16.8326041
0
LINE
8
DEFAULT_255_2_778
10
10.6883333
20
16.8326041
11
10.6883333
21
17.4705041
0
LINE
8
DEFAULT_255_2_778
10
10.6883333
20
17.4705041
11
10.1592333
21
17.4705041
0
LINE
8
DEFAULT_255_2_778
10
10.1592333
20
17.4705041
11
10.1592333
21
16.8326041
0
LINE
8
DEFAULT_255_2_778
10
10.1592333
20
16.8326041
11
9.8946333
21
16.8326041
0
LINE
8
DEFAULT_255_2_778
10
9.8946333
20
16.8326041
11
9.8946333
21
18.2878041
0
LINE
8
DEFAULT_255_2_778
10
9.8946333
20
18.2878041
11
10.1592333
21
18.2878041
0
LINE
8
DEFAULT_255_2_778
10
10.1592333
20
18.2878041
11
10.1592333
21
17.6999041
0
LINE
8
DEFAULT_255_2_778
10
10.1592333
20
17.6999041
11
10.6883333
21
17.6999041
0
LINE
8
DEFAULT_255_2_778
10
10.6883333
20
17.6999041
11
10.6883333
21
18.2878041
0
LINE
8
DEFAULT_255_2_778
10
11.2609167
20
17.7041041
11
11.1514167
21
17.9669041
0
LINE
8
DEFAULT_255_2_778
10
11.1514167
20
17.9669041
11
11.4641167
21
18.2878041
0
LINE
8
DEFAULT_255_2_778
10
11.4641167
20
18.2878041
11
11.6806167
21
18.2878041
0
LINE
8
DEFAULT_255_2_778
10
11.6806167
20
18.2878041
11
11.6806167
21
16.8326041
0
LINE
8
DEFAULT_255_2_778
10
11.6806167
20
16.8326041
11
11.4353167
21
16.8326041
0
LINE
8
DEFAULT_255_2_778
10
11.4353167
20
16.8326041
11
11.4353167
21
17.8999041
0
LINE
8
DEFAULT_255_2_778
10
11.4353167
20
17.8999041
11
11.2609167
21
17.7041041
0
ARC
8
DEFAULT_255_2_778
10
71.7879838
20
31.8556911
40
0.611926
50
171.3123782
51
179.7660989
0
ARC
8
DEFAULT_255_2_778
10
71.9208638
20
31.8365198
40
0.7461779
50
162.4122365
51
171.3983625
0
ARC
8
DEFAULT_255_2_778
10
71.9456456
20
31.8295517
40
0.7719073
50
158.2594119
51
162.4750226
0
ARC
8
DEFAULT_255_2_778
10
71.8814561
20
31.8602247
40
0.700938
50
134.6903933
51
158.6448372
0
ARC
8
DEFAULT_255_2_778
10
71.8142186
20
31.9222503
40
0.6095706
50
111.2911644
51
134.2975688
0
ARC
8
DEFAULT_255_2_778
10
71.8425338
20
31.8429732
40
0.6937224
50
94.7923306
51
111.0926538
0
ARC
8
DEFAULT_255_2_778
10
71.858835
20
31.6989918
40
0.838573
50
89.9490118
51
95.0803473
0
ARC
8
DEFAULT_255_2_778
10
71.8581208
20
31.5685181
40
0.9690473
50
83.8617829
51
89.9136497
0
ARC
8
DEFAULT_255_2_778
10
71.8380544
20
31.3807457
40
1.1578889
50
78.5655491
51
83.8680501
0
ARC
8
DEFAULT_255_2_778
10
71.7921877
20
31.1525343
40
1.3906637
50
74.0591926
51
78.5773233
0
ARC
8
DEFAULT_255_2_778
10
71.7245781
20
30.9128607
40
1.6396895
50
70.8685995
51
74.0876808
0
ARC
8
DEFAULT_255_2_778
10
71.9047378
20
31.6684853
40
0.590309
50
56.0200714
51
82.3738343
0
ARC
8
DEFAULT_255_2_778
10
71.9183053
20
31.7491606
40
0.508554
50
82.6826608
51
89.9393951
0
ARC
8
DEFAULT_255_2_778
10
71.9045799
20
31.8889103
40
0.3690798
50
87.7852213
51
148.6585485
0
ARC
8
DEFAULT_255_2_778
10
72.0035098
20
31.8373391
40
0.4804555
50
149.5423722
51
168.8673665
0
ARC
8
DEFAULT_255_2_778
10
72.2279007
20
31.787589
40
0.710251
50
168.4246236
51
177.8213783
0
ARC
8
DEFAULT_255_2_778
10
71.8074708
20
31.777025
40
0.635702
50
173.3366308
51
179.6547546
0
ARC
8
DEFAULT_255_2_778
10
71.8515788
20
31.7760762
40
0.6798152
50
179.5971887
51
180.0002687
0
ARC
8
DEFAULT_255_2_778
10
71.891995
20
31.777233
40
0.7202325
50
180.0922788
51
189.7216543
0
ARC
8
DEFAULT_255_2_778
10
71.9246072
20
31.7819442
40
0.7531725
50
189.6559712
51
192.8261464
0
ARC
8
DEFAULT_255_2_778
10
71.8778302
20
31.7647776
40
0.7037805
50
192.3088428
51
226.5756628
0
ARC
8
DEFAULT_255_2_778
10
71.8181002
20
31.7135204
40
0.6255483
50
227.3218826
51
251.9392394
0
ARC
8
DEFAULT_255_2_778
10
71.8541293
20
31.8286525
40
0.7461789
50
252.0498125
51
268.2266273
0
ARC
8
DEFAULT_255_2_778
10
71.8638928
20
31.9649906
40
0.8827713
50
267.867075
51
270.0089389
0
ARC
8
DEFAULT_255_2_778
10
71.8625075
20
32.0654231
40
0.9832049
50
270.088753
51
276.4107408
0
ARC
8
DEFAULT_255_2_778
10
71.842699
20
32.2450703
40
1.1639407
50
276.392334
51
281.5449396
0
ARC
8
DEFAULT_255_2_778
10
71.7992749
20
32.4580274
40
1.38128
50
281.5418327
51
286.2028968
0
ARC
8
DEFAULT_255_2_778
10
71.7380102
20
32.6725723
40
1.6043988
50
286.1659251
51
289.1100076
0
ARC
8
DEFAULT_255_2_778
10
71.9060378
20
31.9500931
40
0.590309
50
277.6261657
51
303.9799286
0
ARC
8
DEFAULT_255_2_778
10
71.9196053
20
31.8694178
40
0.508554
50
270.0606049
51
277.3173392
0
ARC
8
DEFAULT_255_2_778
10
71.9058799
20
31.7296681
40
0.3690798
50
211.3414515
51
272.2147787
0
ARC
8
DEFAULT_255_2_778
10
72.0048098
20
31.7812394
40
0.4804555
50
191.1326335
51
210.4576278
0
ARC
8
DEFAULT_255_2_778
10
72.2292007
20
31.8309894
40
0.710251
50
182.1786217
51
191.5753764
0
LINE
8
DEFAULT_255_2_778
10
72.2619629
20
32.4619892
11
72.2346629
21
32.1579892
0
LINE
8
DEFAULT_255_2_778
10
72.2632629
20
31.1565892
11
72.2359629
21
31.4605892
0
LINE
8
DEFAULT_255_2_778
10
73.2223333
20
32.5377041
11
73.4869333
21
32.5377041
0
LINE
8
DEFAULT_255_2_778
10
73.4869333
20
32.5377041
11
73.4869333
21
31.0825041
0
LINE
8
DEFAULT_255_2_778
10
73.4869333
20
31.0825041
11
73.2223333
21
31.0825041
0
LINE
8
DEFAULT_255_2_778
10
73.2223333
20
31.0825041
11
73.2223333
21
31.7204041
0
LINE
8
DEFAULT_255_2_778
10
73.2223333
20
31.7204041
11
72.6932333
21
31.7204041
0
LINE
8
DEFAULT_255_2_778
10
72.6932333
20
31.7204041
11
72.6932333
21
31.0825041
0
LINE
8
DEFAULT_255_2_778
10
72.6932333
20
31.0825041
11
72.4286333
21
31.0825041
0
LINE
8
DEFAULT_255_2_778
10
72.4286333
20
31.0825041
11
72.4286333
21
32.5377041
0
LINE
8
DEFAULT_255_2_778
10
72.4286333
20
32.5377041
11
72.6932333
21
32.5377041
0
LINE
8
DEFAULT_255_2_778
10
72.6932333
20
32.5377041
11
72.6932333
21
31.9498041
0
LINE
8
DEFAULT_255_2_778
10
72.6932333
20
31.9498041
11
73.2223333
21
31.9498041
0
LINE
8
DEFAULT_255_2_778
10
73.2223333
20
31.9498041
11
73.2223333
21
32.5377041
0
LINE
8
DEFAULT_255_2_778
10
73.7949167
20
31.9540041
11
73.6854167
21
32.2168041
0
LINE
8
DEFAULT_255_2_778
10
73.6854167
20
32.2168041
11
73.9981167
21
32.5377041
0
LINE
8
DEFAULT_255_2_778
10
73.9981167
20
32.5377041
11
74.2146167
21
32.5377041
0
LINE
8
DEFAULT_255_2_778
10
74.2146167
20
32.5377041
11
74.2146167
21
31.0825041
0
LINE
8
DEFAULT_255_2_778
10
74.2146167
20
31.0825041
11
73.9693167
21
31.0825041
0
LINE
8
DEFAULT_255_2_778
10
73.9693167
20
31.0825041
11
73.9693167
21
32.1498041
0
LINE
8
DEFAULT_255_2_778
10
73.9693167
20
32.1498041
11
73.7949167
21
31.9540041
0
ARC
8
DEFAULT_255_2_778
10
71.7876857
20
17.5558829
40
0.6116278
50
171.3077741
51
179.7656578
0
ARC
8
DEFAULT_255_2_778
10
71.9206587
20
17.5366916
40
0.745975
50
162.404617
51
171.3941729
0
ARC
8
DEFAULT_255_2_778
10
71.9455655
20
17.5296809
40
0.7718362
50
158.2507726
51
162.4674519
0
ARC
8
DEFAULT_255_2_778
10
71.8813744
20
17.5603577
40
0.7008632
50
134.6828778
51
158.6356059
0
ARC
8
DEFAULT_255_2_778
10
71.8142136
20
17.622325
40
0.6095921
50
111.2874935
51
134.2902162
0
ARC
8
DEFAULT_255_2_778
10
71.8425321
20
17.5430293
40
0.6937625
50
94.7915896
51
111.08914
0
ARC
8
DEFAULT_255_2_778
10
71.8588302
20
17.3990826
40
0.8385781
50
89.9490296
51
95.0797155
0
ARC
8
DEFAULT_255_2_778
10
71.8581156
20
17.2685907
40
0.9690706
50
83.8618556
51
89.9136421
0
ARC
8
DEFAULT_255_2_778
10
71.8380493
20
17.0808168
40
1.1579137
50
78.5656714
51
83.8681224
0
ARC
8
DEFAULT_255_2_778
10
71.7921833
20
16.8526234
40
1.3906707
50
74.059142
51
78.5773087
0
ARC
8
DEFAULT_255_2_778
10
71.7245633
20
16.6129125
40
1.6397354
50
70.8686091
51
74.0876454
0
ARC
8
DEFAULT_255_2_778
10
71.9046519
20
17.3684587
40
0.590458
50
56.0197711
51
82.367365
0
ARC
8
DEFAULT_255_2_778
10
71.9182517
20
17.4492943
40
0.5085396
50
82.6763643
51
89.9391878
0
ARC
8
DEFAULT_255_2_778
10
71.9045268
20
17.5891056
40
0.3690037
50
87.7845605
51
148.6652425
0
ARC
8
DEFAULT_255_2_778
10
72.003593
20
17.5374555
40
0.4805374
50
149.5477808
51
168.8703491
0
ARC
8
DEFAULT_255_2_778
10
72.2281308
20
17.4876828
40
0.7104811
50
168.4272781
51
177.821964
0
ARC
8
DEFAULT_255_2_778
10
71.8074708
20
17.4771203
40
0.635702
50
173.3366308
51
179.6547546
0
ARC
8
DEFAULT_255_2_778
10
71.8515788
20
17.4761715
40
0.6798152
50
179.5971887
51
180.0002687
0
ARC
8
DEFAULT_255_2_778
10
71.891995
20
17.4773283
40
0.7202325
50
180.0922788
51
189.7216543
0
ARC
8
DEFAULT_255_2_778
10
71.9246072
20
17.4820395
40
0.7531725
50
189.6559712
51
192.8261464
0
ARC
8
DEFAULT_255_2_778
10
71.8778302
20
17.4648728
40
0.7037805
50
192.3088428
51
226.5756628
0
ARC
8
DEFAULT_255_2_778
10
71.8181002
20
17.4136157
40
0.6255483
50
227.3218826
51
251.9392394
0
ARC
8
DEFAULT_255_2_778
10
71.8541293
20
17.5287478
40
0.7461789
50
252.0498125
51
268.2266273
0
ARC
8
DEFAULT_255_2_778
10
71.8638928
20
17.6650859
40
0.8827713
50
267.867075
51
270.0089389
0
ARC
8
DEFAULT_255_2_778
10
71.8625075
20
17.7655184
40
0.9832049
50
270.088753
51
276.4107408
0
ARC
8
DEFAULT_255_2_778
10
71.842699
20
17.9451656
40
1.1639407
50
276.392334
51
281.5449396
0
ARC
8
DEFAULT_255_2_778
10
71.7992749
20
18.1581227
40
1.38128
50
281.5418327
51
286.2028968
0
ARC
8
DEFAULT_255_2_778
10
71.7380102
20
18.3726676
40
1.6043988
50
286.1659251
51
289.1100076
0
ARC
8
DEFAULT_255_2_778
10
71.9060378
20
17.6501884
40
0.590309
50
277.6261657
51
303.9799286
0
ARC
8
DEFAULT_255_2_778
10
71.9196053
20
17.569513
40
0.508554
50
270.0606049
51
277.3173392
0
ARC
8
DEFAULT_255_2_778
10
71.9058799
20
17.4297634
40
0.3690798
50
211.3414515
51
272.2147787
0
ARC
8
DEFAULT_255_2_778
10
72.0048098
20
17.4813346
40
0.4804555
50
191.1326335
51
210.4576278
0
ARC
8
DEFAULT_255_2_778
10
72.2292007
20
17.5310846
40
0.710251
50
182.1786217
51
191.5753764
0
LINE
8
DEFAULT_255_2_778
10
72.2619629
20
18.1620845
11
72.2346629
21
17.8580845
0
LINE
8
DEFAULT_255_2_778
10
72.2632629
20
16.8566845
11
72.2359629
21
17.1606845
0
LINE
8
DEFAULT_255_2_778
10
73.2223333
20
18.2377041
11
73.4869333
21
18.2377041
0
LINE
8
DEFAULT_255_2_778
10
73.4869333
20
18.2377041
11
73.4869333
21
16.7825041
0
LINE
8
DEFAULT_255_2_778
10
73.4869333
20
16.7825041
11
73.2223333
21
16.7825041
0
LINE
8
DEFAULT_255_2_778
10
73.2223333
20
16.7825041
11
73.2223333
21
17.4204041
0
LINE
8
DEFAULT_255_2_778
10
73.2223333
20
17.4204041
11
72.6932333
21
17.4204041
0
LINE
8
DEFAULT_255_2_778
10
72.6932333
20
17.4204041
11
72.6932333
21
16.7825041
0
LINE
8
DEFAULT_255_2_778
10
72.6932333
20
16.7825041
11
72.4286333
21
16.7825041
0
LINE
8
DEFAULT_255_2_778
10
72.4286333
20
16.7825041
11
72.4286333
21
18.2377041
0
LINE
8
DEFAULT_255_2_778
10
72.4286333
20
18.2377041
11
72.6932333
21
18.2377041
0
LINE
8
DEFAULT_255_2_778
10
72.6932333
20
18.2377041
11
72.6932333
21
17.6498041
0
LINE
8
DEFAULT_255_2_778
10
72.6932333
20
17.6498041
11
73.2223333
21
17.6498041
0
LINE
8
DEFAULT_255_2_778
10
73.2223333
20
17.6498041
11
73.2223333
21
18.2377041
0
ARC
8
DEFAULT_255_2_778
10
72.4485075
20
18.6918523
40
2.2834854
50
314.1528102
51
320.9705582
0
ARC
8
DEFAULT_255_2_778
10
73.1180612
20
18.1528089
40
1.4239178
50
320.8542674
51
330.6947393
0
ARC
8
DEFAULT_255_2_778
10
73.6115702
20
17.8800065
40
0.8600471
50
330.4506573
51
346.4888591
0
ARC
8
DEFAULT_255_2_778
10
73.8512818
20
17.8175392
40
0.6123935
50
346.9317465
51
359.8110432
0
ARC
8
DEFAULT_255_2_778
10
73.9150589
20
17.8159163
40
0.5486133
50
359.9585602
51
21.7474999
0
ARC
8
DEFAULT_255_2_778
10
74.0478678
20
17.8261123
40
0.4233483
50
27.133505
51
54.7545946
0
ARC
8
DEFAULT_255_2_778
10
74.0738106
20
17.8416083
40
0.3959112
50
56.5269216
51
90.0880707
0
ARC
8
DEFAULT_255_2_778
10
74.0606541
20
17.6931673
40
0.5444963
50
88.6795036
51
90.0034868
0
ARC
8
DEFAULT_255_2_778
10
74.0654177
20
17.5552986
40
0.6823818
50
90.402755
51
101.5121457
0
ARC
8
DEFAULT_255_2_778
10
74.1349461
20
17.2033164
40
1.0411615
50
101.3956232
51
109.0490604
0
ARC
8
DEFAULT_255_2_778
10
74.2610989
20
16.8243767
40
1.4405305
50
108.8727472
51
112.5691862
0
ARC
8
DEFAULT_255_2_778
10
74.3881864
20
16.4568758
40
1.5430117
50
111.5098676
51
115.5937412
0
ARC
8
DEFAULT_255_2_778
10
74.1543698
20
17.0544506
40
0.9013252
50
105.5404063
51
111.6100127
0
ARC
8
DEFAULT_255_2_778
10
74.0408078
20
17.470215
40
0.4703393
50
95.7225219
51
105.7816406
0
ARC
8
DEFAULT_255_2_778
10
74.0197002
20
17.6542033
40
0.2851757
50
90.1173435
51
95.1887418
0
ARC
8
DEFAULT_255_2_778
10
74.025241
20
17.7886339
40
0.1508688
50
61.2284551
51
92.3266862
0
ARC
8
DEFAULT_255_2_778
10
74.0359061
20
17.8248651
40
0.1142638
50
5.7022982
51
57.1683164
0
ARC
8
DEFAULT_255_2_778
10
73.907807
20
17.7975943
40
0.2448628
50
359.6563349
51
9.0755962
0
ARC
8
DEFAULT_255_2_778
10
73.7627523
20
17.7981751
40
0.3899186
50
352.3829645
51
359.6988391
0
ARC
8
DEFAULT_255_2_778
10
73.5433509
20
17.8266616
40
0.6111607
50
347.2115249
51
352.4623472
0
ARC
8
DEFAULT_255_2_778
10
73.3514759
20
17.8676884
40
0.8073611
50
347.2486079
51
347.3863033
0
ARC
8
DEFAULT_255_2_778
10
72.7399154
20
18.2417499
40
1.5040686
50
322.0164013
51
338.4582281
0
ARC
8
DEFAULT_255_2_778
10
72.1999379
20
18.6519294
40
2.1821297
50
312.9023572
51
322.2533271
0
LINE
8
DEFAULT_255_2_778
10
73.685425
20
17.0534868
11
73.685425
21
16.7824868
0
LINE
8
DEFAULT_255_2_778
10
73.685425
20
16.7824868
11
74.479125
21
16.7824868
0
ARC
8
DEFAULT_255_2_778
10
74.527905
20
16.7966089
40
0.0507831
50
176.8219209
51
196.1460565
0
ARC
8
DEFAULT_255_2_778
10
76.4022177
20
16.877974
40
1.9266197
50
180.5651624
51
182.3366376
0
ARC
8
DEFAULT_255_2_778
10
83.5052302
20
16.9796553
40
9.0303449
50
180.2430907
51
180.765746
0
ARC
8
DEFAULT_255_2_778
10
97.3510603
20
17.0466979
40
22.8763362
50
179.9829967
51
180.263874
0
LINE
8
DEFAULT_255_2_778
10
74.474725
20
17.0534868
11
74.039125
21
17.0534868
0
LINE
8
DEFAULT_255_2_778
10
73.708225
20
18.1545868
11
73.721625
21
17.8484868
0
LINE
8
DEFAULT_255_2_778
10
74.039125
20
17.0534868
11
74.039125
21
17.0534868
0
ARC
8
DEFAULT_255_2_778
10
69.6719268
20
9.5625825
40
0.5000757
50
269.9972237
51
359.991324
0
ARC
8
DEFAULT_255_2_778
10
69.671991
20
39.8975952
40
0.5000116
50
0.0013268
51
90.0101312
0
ARC
8
DEFAULT_255_2_778
10
56.0320928
20
39.8976165
40
0.4999902
50
89.9988811
51
180.0011246
0
ARC
8
DEFAULT_255_2_778
10
56.0321571
20
9.5625612
40
0.5000545
50
180.0062408
51
269.9937535
0
ARC
8
DEFAULT_255_2_778
10
71.6806029
20
41.6857696
40
0.9944729
50
66.4777228
51
74.4477713
0
ARC
8
DEFAULT_255_2_778
10
71.7894147
20
42.0848229
40
0.5808601
50
74.2342155
51
86.8465978
0
ARC
8
DEFAULT_255_2_778
10
71.8024439
20
42.2419431
40
0.4232836
50
87.4376416
51
89.9821447
0
ARC
8
DEFAULT_255_2_778
10
71.7941504
20
42.3745113
40
0.2908373
50
88.3399222
51
123.3595645
0
ARC
8
DEFAULT_255_2_778
10
71.7890042
20
42.3927502
40
0.272834
50
124.5632191
51
140.0322694
0
ARC
8
DEFAULT_255_2_778
10
71.8020516
20
42.4517694
40
0.2507215
50
152.3796155
51
167.8929003
0
ARC
8
DEFAULT_255_2_778
10
71.7212526
20
42.4706957
40
0.1677574
50
168.4252295
51
179.7857267
0
ARC
8
DEFAULT_255_2_778
10
71.7108442
20
42.4760899
40
0.1574201
50
181.7352224
51
238.968261
0
ARC
8
DEFAULT_255_2_778
10
71.8829332
20
42.714551
40
0.4511345
50
235.8513037
51
251.8367082
0
ARC
8
DEFAULT_255_2_778
10
72.0124467
20
43.061185
40
0.8210062
50
250.7894796
51
254.3522331
0
ARC
8
DEFAULT_255_2_778
10
71.4917188
20
41.3562466
40
0.9620942
50
60.0957211
51
71.8759517
0
ARC
8
DEFAULT_255_2_778
10
71.7222172
20
41.7481458
40
0.5074764
50
38.6317221
51
60.5955915
0
ARC
8
DEFAULT_255_2_778
10
71.8397337
20
41.8487968
40
0.3528771
50
359.217751
51
37.7778025
0
ARC
8
DEFAULT_255_2_778
10
71.6983155
20
41.8470598
40
0.4942721
50
347.0542084
51
359.6428856
0
ARC
8
DEFAULT_255_2_778
10
71.5041932
20
41.889764
40
0.6930298
50
339.3981871
51
347.2088347
0
ARC
8
DEFAULT_255_2_778
10
71.5961907
20
41.945939
40
0.6324141
50
313.0575275
51
331.6781612
0
ARC
8
DEFAULT_255_2_778
10
71.7077744
20
41.835149
40
0.475318
50
268.552134
51
312.3474215
0
ARC
8
DEFAULT_255_2_778
10
71.7008343
20
42.1089355
40
0.7489701
50
257.7493722
51
269.612146
0
ARC
8
DEFAULT_255_2_778
10
71.7726611
20
42.4522003
40
1.0996622
50
250.0927059
51
257.8872163
0
ARC
8
DEFAULT_255_2_778
10
71.9146295
20
42.8530209
40
1.5248747
50
245.3317617
51
250.2052068
0
ARC
8
DEFAULT_255_2_778
10
52.9346477
20
43.7852351
40
18.489424
50
352.79816
51
353.5877387
0
ARC
8
DEFAULT_255_2_778
10
71.7782877
20
42.6986044
40
1.0852918
50
244.344612
51
252.2826122
0
ARC
8
DEFAULT_255_2_778
10
71.6472431
20
42.2807409
40
0.6473725
50
252.0758591
51
264.620286
0
ARC
8
DEFAULT_255_2_778
10
71.6256998
20
42.0968595
40
0.4623003
50
265.1418642
51
269.9411547
0
ARC
8
DEFAULT_255_2_778
10
71.6352472
20
41.9500437
40
0.3156434
50
268.1804658
51
317.0821624
0
ARC
8
DEFAULT_255_2_778
10
71.6839453
20
41.8381949
40
0.2095658
50
330.533588
51
348.4241808
0
ARC
8
DEFAULT_255_2_778
10
71.7461957
20
41.8236064
40
0.1456654
50
349.1323577
51
359.8555045
0
ARC
8
DEFAULT_255_2_778
10
71.738588
20
41.8171657
40
0.1533929
50
2.2691242
51
55.5055569
0
ARC
8
DEFAULT_255_2_778
10
71.5528676
20
41.5873466
40
0.4485696
50
52.5773998
51
68.4941721
0
ARC
8
DEFAULT_255_2_778
10
71.3744258
20
41.1750772
40
0.8976764
50
67.5442314
51
72.7781731
0
ARC
8
DEFAULT_255_2_778
10
71.7984385
20
42.7278193
40
0.7130906
50
239.7471325
51
257.1792556
0
ARC
8
DEFAULT_255_2_778
10
71.6155352
20
42.4264908
40
0.3607031
50
183.4942261
51
240.728734
0
ARC
8
DEFAULT_255_2_778
10
72.1022527
20
42.4253383
40
0.8470063
50
180.0072587
51
181.4092948
0
ARC
8
DEFAULT_255_2_778
10
71.8437009
20
42.4351035
40
0.5885373
50
162.3123237
51
180.9611576
0
ARC
8
DEFAULT_255_2_778
10
71.6370946
20
42.4966646
40
0.3730166
50
103.2241197
51
161.6791915
0
ARC
8
DEFAULT_255_2_778
10
71.756829
20
42.1145385
40
0.7729499
50
91.1058725
51
105.3849534
0
ARC
8
DEFAULT_255_2_778
10
71.7771819
20
41.7689714
40
1.1189292
50
89.9843126
51
91.8063733
0
ARC
8
DEFAULT_255_2_778
10
71.7746029
20
41.5162259
40
1.3716776
50
85.208508
51
89.8794766
0
ARC
8
DEFAULT_255_2_778
10
71.7388734
20
41.0757369
40
1.813612
50
81.7904887
51
85.2460816
0
ARC
8
DEFAULT_255_2_778
10
71.6651417
20
40.561555
40
2.3330534
50
78.8800565
51
81.8014316
0
LINE
8
DEFAULT_255_2_778
10
70.1720026
20
9.5625067
11
70.1720026
21
39.8976067
0
LINE
8
DEFAULT_255_2_778
10
69.6719026
20
19.6276067
11
70.1720026
21
19.6276067
0
LINE
8
DEFAULT_255_2_778
10
69.6719026
20
20.6277067
11
70.1720026
21
20.6277067
0
LINE
8
DEFAULT_255_2_778
10
69.6719026
20
29.8778067
11
70.1720026
21
29.8778067
0
LINE
8
DEFAULT_255_2_778
10
56.0319026
20
23.4278067
11
55.5318026
21
23.4278067
0
LINE
8
DEFAULT_255_2_778
10
56.0319026
20
26.0278067
11
55.5318026
21
26.0278067
0
LINE
8
DEFAULT_255_2_778
10
55.5318026
20
10.8677067
11
56.0319026
21
10.8677067
0
LINE
8
DEFAULT_255_2_778
10
56.0319026
20
11.2876067
11
55.5318026
21
11.2876067
0
LINE
8
DEFAULT_255_2_778
10
56.0319026
20
11.3278067
11
55.5318026
21
11.3278067
0
LINE
8
DEFAULT_255_2_778
10
56.0319026
20
12.3280067
11
55.5318026
21
12.3280067
0
LINE
8
DEFAULT_255_2_778
10
56.0319026
20
12.3393067
11
55.5318026
21
12.3393067
0
LINE
8
DEFAULT_255_2_778
10
56.0319026
20
13.3395067
11
55.5318026
21
13.3395067
0
LINE
8
DEFAULT_255_2_778
10
56.0319026
20
13.8935067
11
55.5318026
21
13.8935067
0
LINE
8
DEFAULT_255_2_778
10
56.7539026
20
39.8928067
11
56.7539026
21
40.3979067
0
LINE
8
DEFAULT_255_2_778
10
57.1720026
20
39.8928067
11
57.1720026
21
40.3979067
0
LINE
8
DEFAULT_255_2_778
10
59.1719026
20
40.3979067
11
59.1719026
21
39.8928067
0
LINE
8
DEFAULT_255_2_778
10
59.7321026
20
39.8928067
11
59.7321026
21
40.3979067
0
LINE
8
DEFAULT_255_2_778
10
62.3321026
20
39.8928067
11
62.3321026
21
40.3979067
0
LINE
8
DEFAULT_255_2_778
10
57.1722026
20
9.0630067
11
57.1722026
21
9.5631067
0
LINE
8
DEFAULT_255_2_778
10
59.1722026
20
9.5631067
11
59.1722026
21
9.0630067
0
LINE
8
DEFAULT_255_2_778
10
59.6723026
20
9.5631067
11
59.6723026
21
9.0630067
0
LINE
8
DEFAULT_255_2_778
10
59.7323026
20
9.5631067
11
59.7323026
21
9.0630067
0
LINE
8
DEFAULT_255_2_778
10
62.3324026
20
9.5631067
11
62.3324026
21
9.0630067
0
LINE
8
DEFAULT_255_2_778
10
70.1725026
20
39.8780067
11
69.6725026
21
39.8780067
0
LINE
8
DEFAULT_255_2_778
10
69.6725026
20
30.8779067
11
70.1725026
21
30.8779067
0
LINE
8
DEFAULT_255_2_778
10
56.0324026
20
17.9430067
11
55.5323026
21
17.9430067
0
LINE
8
DEFAULT_255_2_778
10
70.1723026
20
10.6280067
11
69.6722026
21
10.6280067
0
LINE
8
DEFAULT_255_2_778
10
67.6722026
20
23.5630067
11
59.0322026
21
23.5630067
0
LINE
8
DEFAULT_255_2_778
10
59.0322026
20
23.5630067
11
59.0322026
21
19.5630067
0
LINE
8
DEFAULT_255_2_778
10
59.0322026
20
19.5630067
11
56.5322026
21
19.5630067
0
LINE
8
DEFAULT_255_2_778
10
56.5322026
20
19.5630067
11
56.5322026
21
15.5630067
0
LINE
8
DEFAULT_255_2_778
10
56.5322026
20
15.5630067
11
59.0322026
21
15.5630067
0
LINE
8
DEFAULT_255_2_778
10
59.0322026
20
15.5630067
11
59.0322026
21
11.5631067
0
LINE
8
DEFAULT_255_2_778
10
59.0322026
20
11.5631067
11
67.6722026
21
11.5631067
0
LINE
8
DEFAULT_255_2_778
10
67.6722026
20
11.5631067
11
67.6722026
21
23.5630067
0
LINE
8
DEFAULT_255_2_778
10
67.6722026
20
37.8931067
11
59.0322026
21
37.8931067
0
LINE
8
DEFAULT_255_2_778
10
59.0322026
20
37.8931067
11
59.0322026
21
33.8931067
0
LINE
8
DEFAULT_255_2_778
10
59.0322026
20
33.8931067
11
56.5322026
21
33.8931067
0
LINE
8
DEFAULT_255_2_778
10
56.5322026
20
33.8931067
11
56.5322026
21
29.8931067
0
LINE
8
DEFAULT_255_2_778
10
56.5322026
20
29.8931067
11
59.0322026
21
29.8931067
0
LINE
8
DEFAULT_255_2_778
10
59.0322026
20
29.8931067
11
59.0322026
21
25.8932067
0
LINE
8
DEFAULT_255_2_778
10
59.0322026
20
25.8932067
11
67.6722026
21
25.8932067
0
LINE
8
DEFAULT_255_2_778
10
67.6722026
20
25.8932067
11
67.6722026
21
37.8931067
0
LINE
8
DEFAULT_255_2_778
10
58.6322026
20
14.5632067
11
57.0323026
21
14.5632067
0
LINE
8
DEFAULT_255_2_778
10
57.0323026
20
14.5632067
11
57.0323026
21
11.5631067
0
LINE
8
DEFAULT_255_2_778
10
57.0323026
20
11.5631067
11
58.6322026
21
11.5631067
0
LINE
8
DEFAULT_255_2_778
10
58.6322026
20
11.5631067
11
58.6322026
21
14.5632067
0
LINE
8
DEFAULT_255_2_778
10
58.6322026
20
23.5632067
11
57.0323026
21
23.5632067
0
LINE
8
DEFAULT_255_2_778
10
57.0323026
20
23.5632067
11
57.0323026
21
20.5631067
0
LINE
8
DEFAULT_255_2_778
10
57.0323026
20
20.5631067
11
58.6322026
21
20.5631067
0
LINE
8
DEFAULT_255_2_778
10
58.6322026
20
20.5631067
11
58.6322026
21
23.5632067
0
LINE
8
DEFAULT_255_2_778
10
58.6322026
20
28.8933067
11
57.0323026
21
28.8933067
0
LINE
8
DEFAULT_255_2_778
10
57.0323026
20
28.8933067
11
57.0323026
21
25.8932067
0
LINE
8
DEFAULT_255_2_778
10
57.0323026
20
25.8932067
11
58.6322026
21
25.8932067
0
LINE
8
DEFAULT_255_2_778
10
58.6322026
20
25.8932067
11
58.6322026
21
28.8933067
0
LINE
8
DEFAULT_255_2_778
10
58.6322026
20
37.8933067
11
57.0323026
21
37.8933067
0
LINE
8
DEFAULT_255_2_778
10
57.0323026
20
37.8933067
11
57.0323026
21
34.8932067
0
LINE
8
DEFAULT_255_2_778
10
57.0323026
20
34.8932067
11
58.6322026
21
34.8932067
0
LINE
8
DEFAULT_255_2_778
10
58.6322026
20
34.8932067
11
58.6322026
21
37.8933067
0
LINE
8
DEFAULT_255_2_778
10
69.6722026
20
9.5633067
11
56.0321026
21
9.5633067
0
LINE
8
DEFAULT_255_2_778
10
56.0321026
20
9.5633067
11
56.0321026
21
39.8925067
0
LINE
8
DEFAULT_255_2_778
10
56.0321026
20
39.8925067
11
69.6722026
21
39.8925067
0
LINE
8
DEFAULT_255_2_778
10
55.5321026
20
39.8976067
11
55.5321026
21
9.5625067
0
LINE
8
DEFAULT_255_2_778
10
56.0321026
20
9.0625067
11
69.6722026
21
9.0625067
0
LINE
8
DEFAULT_255_2_778
10
69.6722026
20
9.0625067
11
69.6722026
21
40.3976067
0
LINE
8
DEFAULT_255_2_778
10
69.6722026
20
40.3976067
11
56.0321026
21
40.3976067
0
LINE
8
DEFAULT_255_2_778
10
72.1151026
20
42.8508067
11
72.0849026
21
42.6053067
0
LINE
8
DEFAULT_255_2_778
10
62.6310667
20
41.3704896
11
63.1536667
21
42.8632896
0
LINE
8
DEFAULT_255_2_778
10
63.1536667
20
42.8632896
11
63.3761667
21
42.8632896
0
LINE
8
DEFAULT_255_2_778
10
63.3761667
20
42.8632896
11
62.8538667
21
41.3704896
0
LINE
8
DEFAULT_255_2_778
10
62.8538667
20
41.3704896
11
62.6310667
21
41.3704896
0
LINE
8
DEFAULT_255_2_778
10
75.4748177
20
42.8876927
11
75.4748177
21
42.6524927
0
LINE
8
DEFAULT_255_2_778
10
75.4748177
20
42.6524927
11
75.0467177
21
42.6524927
0
LINE
8
DEFAULT_255_2_778
10
75.0467177
20
42.6524927
11
75.0467177
21
41.3956927
0
LINE
8
DEFAULT_255_2_778
10
75.0467177
20
41.3956927
11
74.7469177
21
41.3956927
0
LINE
8
DEFAULT_255_2_778
10
74.7469177
20
41.3956927
11
74.7469177
21
42.6524927
0
LINE
8
DEFAULT_255_2_778
10
74.7469177
20
42.6524927
11
74.3188177
21
42.6524927
0
LINE
8
DEFAULT_255_2_778
10
74.3188177
20
42.6524927
11
74.3188177
21
42.8876927
0
LINE
8
DEFAULT_255_2_778
10
74.3188177
20
42.8876927
11
75.4745177
21
42.8876927
0
LINE
8
DEFAULT_255_2_778
10
74.2587701
20
42.2304385
11
74.2587701
21
42.0031385
0
LINE
8
DEFAULT_255_2_778
10
74.2587701
20
42.0031385
11
73.6956701
21
42.0031385
0
LINE
8
DEFAULT_255_2_778
10
73.6956701
20
42.0031385
11
73.6956701
21
42.2304385
0
LINE
8
DEFAULT_255_2_778
10
73.6956701
20
42.2304385
11
74.2587701
21
42.2304385
0
LINE
8
DEFAULT_255_2_778
10
73.4247552
20
41.630625
11
73.4247552
21
41.395725
0
LINE
8
DEFAULT_255_2_778
10
73.4247552
20
41.395725
11
72.5386552
21
41.395725
0
LINE
8
DEFAULT_255_2_778
10
72.5386552
20
41.395725
11
72.5386552
21
42.887925
0
LINE
8
DEFAULT_255_2_778
10
72.5386552
20
42.887925
11
73.4205552
21
42.887925
0
LINE
8
DEFAULT_255_2_778
10
73.4205552
20
42.887925
11
73.4205552
21
42.652725
0
LINE
8
DEFAULT_255_2_778
10
73.4205552
20
42.652725
11
72.8384552
21
42.652725
0
LINE
8
DEFAULT_255_2_778
10
72.8384552
20
42.652725
11
72.8384552
21
42.285225
0
LINE
8
DEFAULT_255_2_778
10
72.8384552
20
42.285225
11
73.3712552
21
42.285225
0
LINE
8
DEFAULT_255_2_778
10
73.3712552
20
42.285225
11
73.3712552
21
42.050025
0
LINE
8
DEFAULT_255_2_778
10
73.3712552
20
42.050025
11
72.8384552
21
42.050025
0
LINE
8
DEFAULT_255_2_778
10
72.8384552
20
42.050025
11
72.8384552
21
41.630925
0
LINE
8
DEFAULT_255_2_778
10
72.8384552
20
41.630925
11
73.4247552
21
41.630925
0
LINE
8
DEFAULT_255_2_778
10
49.9517302
20
42.4992187
11
50.3885302
21
42.8384187
0
LINE
8
DEFAULT_255_2_778
10
50.3885302
20
42.8384187
11
50.6536302
21
42.8384187
0
LINE
8
DEFAULT_255_2_778
10
50.6536302
20
42.8384187
11
50.6536302
21
41.3954187
0
LINE
8
DEFAULT_255_2_778
10
50.6536302
20
41.3954187
11
50.3541302
21
41.3954187
0
LINE
8
DEFAULT_255_2_778
10
50.3541302
20
41.3954187
11
50.3541302
21
42.5095187
0
LINE
8
DEFAULT_255_2_778
10
50.3541302
20
42.5095187
11
50.1015302
21
42.3111187
0
LINE
8
DEFAULT_255_2_778
10
50.1015302
20
42.3111187
11
49.9517302
21
42.4992187
0
ARC
8
DEFAULT_255_2_778
10
57.052555
20
41.6554011
40
1.0035813
50
66.7997707
51
74.6786071
0
ARC
8
DEFAULT_255_2_778
10
57.1603518
20
42.0573656
40
0.5874237
50
74.4594678
51
87.0230589
0
ARC
8
DEFAULT_255_2_778
10
57.1730163
20
42.2155975
40
0.4287704
50
87.6150092
51
89.9850156
0
ARC
8
DEFAULT_255_2_778
10
57.1649328
20
42.3481372
40
0.2963441
50
88.4152259
51
121.7655605
0
ARC
8
DEFAULT_255_2_778
10
57.1563489
20
42.3730236
40
0.2707285
50
122.9938303
51
139.5893338
0
ARC
8
DEFAULT_255_2_778
10
57.1662363
20
42.433842
40
0.2445799
50
152.0368087
51
167.7185866
0
ARC
8
DEFAULT_255_2_778
10
57.0867702
20
42.4527281
40
0.1629225
50
168.2638207
51
179.7815005
0
ARC
8
DEFAULT_255_2_778
10
57.0776324
20
42.4582051
40
0.1538602
50
181.808482
51
239.0457986
0
ARC
8
DEFAULT_255_2_778
10
57.2499828
20
42.6980529
40
0.4488631
50
235.9248814
51
252.0834634
0
ARC
8
DEFAULT_255_2_778
10
57.3814666
20
43.0539532
40
0.8281
50
251.0025529
51
254.5893652
0
ARC
8
DEFAULT_255_2_778
10
56.8609929
20
41.3242869
40
0.9785933
50
60.8877227
51
72.1220633
0
ARC
8
DEFAULT_255_2_778
10
57.0892245
20
41.7248439
40
0.5176194
50
40.4099717
51
61.3879009
0
ARC
8
DEFAULT_255_2_778
10
57.2188082
20
41.8401769
40
0.3442073
50
359.2593429
51
39.7750019
0
ARC
8
DEFAULT_255_2_778
10
57.0835953
20
41.8387798
40
0.4794012
50
346.8540221
51
359.6351955
0
ARC
8
DEFAULT_255_2_778
10
56.8932524
20
41.8813261
40
0.674435
50
339.0997314
51
347.011944
0
ARC
8
DEFAULT_255_2_778
10
56.9769982
20
41.9400843
40
0.6229552
50
312.4644696
51
331.2790244
0
ARC
8
DEFAULT_255_2_778
10
57.0786764
20
41.8389305
40
0.4797351
50
268.5135813
51
311.6624095
0
ARC
8
DEFAULT_255_2_778
10
57.0712816
20
42.1197659
40
0.7604257
50
257.9368016
51
269.6195301
0
ARC
8
DEFAULT_255_2_778
10
57.1452893
20
42.4763226
40
1.1245777
50
249.9815088
51
258.0460113
0
ARC
8
DEFAULT_255_2_778
10
57.2886513
20
42.8817684
40
1.5546089
50
245.6880271
51
250.1323659
0
ARC
8
DEFAULT_255_2_778
10
38.6062096
20
43.7821251
40
18.1905802
50
352.6818372
51
353.4709406
0
ARC
8
DEFAULT_255_2_778
10
57.1468978
20
42.7045061
40
1.0957869
50
244.7119597
51
252.5556513
0
ARC
8
DEFAULT_255_2_778
10
57.0174657
20
42.2849027
40
0.6566846
50
252.3541783
51
264.7107425
0
ARC
8
DEFAULT_255_2_778
10
56.9960778
20
42.099258
40
0.4698773
50
265.2208576
51
269.9422093
0
ARC
8
DEFAULT_255_2_778
10
57.0060394
20
41.9474197
40
0.3182099
50
268.1206784
51
316.4871101
0
ARC
8
DEFAULT_255_2_778
10
57.0600982
20
41.8300179
40
0.203884
50
330.0813026
51
348.2156282
0
ARC
8
DEFAULT_255_2_778
10
57.1213178
20
41.8154101
40
0.140983
50
348.9460047
51
359.852231
0
ARC
8
DEFAULT_255_2_778
10
57.1128331
20
41.8089183
40
0.1495927
50
2.347839
51
55.5895305
0
ARC
8
DEFAULT_255_2_778
10
56.9271175
20
41.5781919
40
0.4454807
50
52.6519786
51
68.7045575
0
ARC
8
DEFAULT_255_2_778
10
56.7457794
20
41.1554237
40
0.9053716
50
67.7288826
51
72.9982144
0
ARC
8
DEFAULT_255_2_778
10
57.1680588
20
42.7242252
40
0.7204362
50
240.1554508
51
257.3682854
0
ARC
8
DEFAULT_255_2_778
10
56.9794339
20
42.4102126
40
0.3542755
50
183.7362786
51
241.3428355
0
ARC
8
DEFAULT_255_2_778
10
57.4459888
20
42.4076275
40
0.8203336
50
180.0073785
51
181.4320235
0
ARC
8
DEFAULT_255_2_778
10
57.1933582
20
42.4174824
40
0.5677904
50
161.6813608
51
181.0051761
0
ARC
8
DEFAULT_255_2_778
10
57.0025831
20
42.4748877
40
0.368681
50
103.9360827
51
160.832077
0
ARC
8
DEFAULT_255_2_778
10
57.1228236
20
42.1054769
40
0.7566853
50
91.8252219
51
106.0364445
0
ARC
8
DEFAULT_255_2_778
10
57.1472931
20
41.7486358
40
1.1142015
50
89.9699891
51
92.4984442
0
ARC
8
DEFAULT_255_2_778
10
57.1449935
20
41.4692686
40
1.3935715
50
85.2837999
51
89.8814586
0
ARC
8
DEFAULT_255_2_778
10
57.1093254
20
41.0224647
40
1.8417957
50
81.9185619
51
85.3207875
0
ARC
8
DEFAULT_255_2_778
10
57.0358453
20
40.5017923
40
2.3676275
50
79.0517277
51
81.9293541
0
LINE
8
DEFAULT_255_2_778
10
57.4855114
20
42.8263266
11
57.4553114
21
42.5847266
0
LINE
8
DEFAULT_255_2_778
10
60.9923209
20
41.395425
11
61.4826209
21
42.171425
0
LINE
8
DEFAULT_255_2_778
10
61.4826209
20
42.171425
11
61.0375209
21
42.887625
0
LINE
8
DEFAULT_255_2_778
10
61.0375209
20
42.887625
11
61.3844209
21
42.887625
0
LINE
8
DEFAULT_255_2_778
10
61.3844209
20
42.887625
11
61.6969209
21
42.355325
0
LINE
8
DEFAULT_255_2_778
10
61.6969209
20
42.355325
11
62.0160209
21
42.887625
0
LINE
8
DEFAULT_255_2_778
10
62.0160209
20
42.887625
11
62.3372209
21
42.887625
0
LINE
8
DEFAULT_255_2_778
10
62.3372209
20
42.887625
11
61.8874209
21
42.171425
0
LINE
8
DEFAULT_255_2_778
10
61.8874209
20
42.171425
11
62.3777209
21
41.395425
0
LINE
8
DEFAULT_255_2_778
10
62.3777209
20
41.395425
11
62.0244209
21
41.395425
0
LINE
8
DEFAULT_255_2_778
10
62.0244209
20
41.395425
11
61.6800209
21
41.976625
0
LINE
8
DEFAULT_255_2_778
10
61.6800209
20
41.976625
11
61.3307209
21
41.395425
0
LINE
8
DEFAULT_255_2_778
10
61.3307209
20
41.395425
11
60.9923209
21
41.395425
0
LINE
8
DEFAULT_255_2_778
10
60.8456854
20
42.887625
11
60.8456854
21
42.652425
0
LINE
8
DEFAULT_255_2_778
10
60.8456854
20
42.652425
11
60.4175854
21
42.652425
0
LINE
8
DEFAULT_255_2_778
10
60.4175854
20
42.652425
11
60.4175854
21
41.395425
0
LINE
8
DEFAULT_255_2_778
10
60.4175854
20
41.395425
11
60.1178854
21
41.395425
0
LINE
8
DEFAULT_255_2_778
10
60.1178854
20
41.395425
11
60.1178854
21
42.652425
0
LINE
8
DEFAULT_255_2_778
10
60.1178854
20
42.652425
11
59.6894854
21
42.652425
0
LINE
8
DEFAULT_255_2_778
10
59.6894854
20
42.652425
11
59.6894854
21
42.887625
0
LINE
8
DEFAULT_255_2_778
10
59.6894854
20
42.887625
11
60.8454854
21
42.887625
0
LINE
8
DEFAULT_255_2_778
10
59.6292156
20
42.2304385
11
59.6292156
21
42.0031385
0
LINE
8
DEFAULT_255_2_778
10
59.6292156
20
42.0031385
11
59.0664156
21
42.0031385
0
LINE
8
DEFAULT_255_2_778
10
59.0664156
20
42.0031385
11
59.0664156
21
42.2304385
0
LINE
8
DEFAULT_255_2_778
10
59.0664156
20
42.2304385
11
59.6292156
21
42.2304385
0
LINE
8
DEFAULT_255_2_778
10
58.7954552
20
41.630325
11
58.7954552
21
41.395425
0
LINE
8
DEFAULT_255_2_778
10
58.7954552
20
41.395425
11
57.9093552
21
41.395425
0
LINE
8
DEFAULT_255_2_778
10
57.9093552
20
41.395425
11
57.9093552
21
42.887625
0
LINE
8
DEFAULT_255_2_778
10
57.9093552
20
42.887625
11
58.7914552
21
42.887625
0
LINE
8
DEFAULT_255_2_778
10
58.7914552
20
42.887625
11
58.7914552
21
42.652425
0
LINE
8
DEFAULT_255_2_778
10
58.7914552
20
42.652425
11
58.2088552
21
42.652425
0
LINE
8
DEFAULT_255_2_778
10
58.2088552
20
42.652425
11
58.2088552
21
42.284925
0
LINE
8
DEFAULT_255_2_778
10
58.2088552
20
42.284925
11
58.7419552
21
42.284925
0
LINE
8
DEFAULT_255_2_778
10
58.7419552
20
42.284925
11
58.7419552
21
42.049725
0
LINE
8
DEFAULT_255_2_778
10
58.7419552
20
42.049725
11
58.2088552
21
42.049725
0
LINE
8
DEFAULT_255_2_778
10
58.2088552
20
42.049725
11
58.2088552
21
41.630625
0
LINE
8
DEFAULT_255_2_778
10
58.2088552
20
41.630625
11
58.7954552
21
41.630625
0
ARC
8
DEFAULT_255_2_778
10
63.9331105
20
42.1417401
40
1.6197761
50
359.5782336
51
8.7215257
0
ARC
8
DEFAULT_255_2_778
10
64.6836255
20
42.2625372
40
0.8596409
50
8.3484013
51
24.306643
0
ARC
8
DEFAULT_255_2_778
10
65.0589262
20
42.4420977
40
0.4437925
50
23.1236764
51
87.9772613
0
ARC
8
DEFAULT_255_2_778
10
65.0220041
20
42.1964989
40
0.6911181
50
85.6362189
51
90.0548274
0
ARC
8
DEFAULT_255_2_778
10
65.008292
20
42.272706
40
0.6150492
50
88.7841538
51
111.9181795
0
ARC
8
DEFAULT_255_2_778
10
64.9637436
20
42.4207921
40
0.4612487
50
113.6512428
51
161.4516452
0
ARC
8
DEFAULT_255_2_778
10
65.394529
20
42.250657
40
0.9240965
50
159.9471424
51
175.1082244
0
ARC
8
DEFAULT_255_2_778
10
65.994906
20
42.182718
40
1.5281691
50
174.4897633
51
180.1575219
0
ARC
8
DEFAULT_255_2_778
10
66.2903171
20
42.1660982
40
1.8236167
50
179.6098242
51
188.2201639
0
ARC
8
DEFAULT_255_2_778
10
65.460275
20
42.0410089
40
0.9842307
50
187.9217051
51
202.2637519
0
ARC
8
DEFAULT_255_2_778
10
65.0213842
20
41.8532843
40
0.5069908
50
201.4221416
51
233.83207
0
ARC
8
DEFAULT_255_2_778
10
64.9995772
20
41.8585458
40
0.498799
50
236.2116302
51
269.9669718
0
ARC
8
DEFAULT_255_2_778
10
65.0212336
20
42.0882789
40
0.7288623
50
268.2747305
51
270.008579
0
ARC
8
DEFAULT_255_2_778
10
65.0353425
20
41.8729185
40
0.5136927
50
268.4383114
51
298.0338721
0
ARC
8
DEFAULT_255_2_778
10
65.0419619
20
41.8193702
40
0.463719
50
300.4222522
51
338.234002
0
ARC
8
DEFAULT_255_2_778
10
64.6334691
20
42.0008189
40
0.9105324
50
337.1619088
51
352.0342148
0
ARC
8
DEFAULT_255_2_778
10
63.8659385
20
42.1181338
40
1.6869433
50
351.7007799
51
0.3900103
0
ARC
8
DEFAULT_255_2_778
10
65.0157817
20
42.4846921
40
0.1342516
50
92.4927235
51
159.341541
0
ARC
8
DEFAULT_255_2_778
10
65.3431769
20
42.3154067
40
0.5021542
50
154.4410759
51
170.4821581
0
ARC
8
DEFAULT_255_2_778
10
66.1460715
20
42.1634281
40
1.3192378
50
169.738426
51
177.4150684
0
ARC
8
DEFAULT_255_2_778
10
67.258239
20
42.0974512
40
2.4333002
50
177.0441894
51
180.102063
0
ARC
8
DEFAULT_255_2_778
10
66.516488
20
42.0816283
40
1.6915843
50
179.6108736
51
186.1402759
0
ARC
8
DEFAULT_255_2_778
10
65.5211877
20
41.9685152
40
0.6899213
50
185.6416743
51
198.2378022
0
ARC
8
DEFAULT_255_2_778
10
65.0690146
20
41.8116875
40
0.2115124
50
196.2228657
51
229.396829
0
ARC
8
DEFAULT_255_2_778
10
64.9994445
20
41.7404138
40
0.1123058
50
232.6810863
51
270.7419372
0
ARC
8
DEFAULT_255_2_778
10
65.0008408
20
41.766615
40
0.1384978
50
270.0239825
51
273.7681369
0
ARC
8
DEFAULT_255_2_778
10
65.0053257
20
41.7704146
40
0.142073
50
271.8623031
51
340.8590851
0
ARC
8
DEFAULT_255_2_778
10
64.669355
20
41.9335188
40
0.5148275
50
335.9647079
51
352.051181
0
ARC
8
DEFAULT_255_2_778
10
63.8619379
20
42.0629826
40
1.3324933
50
351.3389503
51
359.1780455
0
ARC
8
DEFAULT_255_2_778
10
63.0451793
20
42.0924435
40
2.1496636
50
358.7051768
51
0.0179406
0
ARC
8
DEFAULT_255_2_778
10
62.6001787
20
42.151591
40
2.5953228
50
358.7089783
51
359.8991761
0
ARC
8
DEFAULT_255_2_778
10
63.0163126
20
42.1503924
40
2.1791874
50
359.9114368
51
0.0032012
0
ARC
8
DEFAULT_255_2_778
10
63.5678886
20
42.1620699
40
1.6276524
50
359.5932166
51
6.4284706
0
ARC
8
DEFAULT_255_2_778
10
64.5168491
20
42.2746738
40
0.6720748
50
5.9469903
51
18.866585
0
ARC
8
DEFAULT_255_2_778
10
64.9476161
20
42.4295822
40
0.2144832
50
16.9186413
51
50.6119137
0
ARC
8
DEFAULT_255_2_778
10
65.0117154
20
42.4966843
40
0.1221454
50
53.8781245
51
90.8315719
0
LINE
8
DEFAULT_255_2_778
10
65.5528427
20
42.1296166
11
65.5528427
21
42.1298166
0
LINE
8
DEFAULT_255_2_778
10
65.0099427
20
42.6188166
11
65.0099427
21
42.6188166
0
ARC
8
DEFAULT_255_2_778
10
68.6123099
20
41.7973265
40
0.7125033
50
351.1537268
51
357.1758458
0
ARC
8
DEFAULT_255_2_778
10
68.7373398
20
41.7899211
40
0.5872617
50
357.2964471
51
359.9760112
0
ARC
8
DEFAULT_255_2_778
10
68.948855
20
41.801734
40
0.3759399
50
358.1618359
51
29.9465003
0
ARC
8
DEFAULT_255_2_778
10
68.986206
20
41.8035669
40
0.3430849
50
32.7962381
51
71.6128451
0
ARC
8
DEFAULT_255_2_778
10
68.880727
20
41.5496887
40
0.6175982
50
69.7560099
51
79.1542593
0
ARC
8
DEFAULT_255_2_778
10
68.9605648
20
42.4695769
40
0.315426
50
276.6216854
51
349.6266353
0
ARC
8
DEFAULT_255_2_778
10
68.705929
20
42.5559024
40
0.5827548
50
345.7829873
51
351.0811664
0
ARC
8
DEFAULT_255_2_778
10
68.5447418
20
42.4804836
40
0.737047
50
358.8394112
51
359.9947424
0
ARC
8
DEFAULT_255_2_778
10
68.8019709
20
42.4929172
40
0.4799808
50
358.5075507
51
22.8765959
0
ARC
8
DEFAULT_255_2_778
10
68.9409799
20
42.5378951
40
0.3346579
50
25.0342054
51
77.934185
0
ARC
8
DEFAULT_255_2_778
10
68.8302341
20
42.1500715
40
0.7375662
50
75.8183806
51
90.8336181
0
ARC
8
DEFAULT_255_2_778
10
68.8196213
20
41.8022288
40
1.0853309
50
90.0062264
51
91.1131024
0
ARC
8
DEFAULT_255_2_778
10
68.8015676
20
42.2147394
40
0.8551013
50
270.359815
51
285.3354237
0
ARC
8
DEFAULT_255_2_778
10
68.943628
20
41.7600005
40
0.3793525
50
282.8066125
51
349.0212858
0
ARC
8
DEFAULT_255_2_778
10
68.8003821
20
41.9421309
40
0.3454059
50
269.2461344
51
294.1401405
0
ARC
8
DEFAULT_255_2_778
10
68.8608599
20
41.7876811
40
0.1799063
50
296.6812884
51
5.157953
0
ARC
8
DEFAULT_255_2_778
10
68.7626486
20
41.8166029
40
0.2776818
50
357.3687241
51
29.5587525
0
ARC
8
DEFAULT_255_2_778
10
68.8367132
20
41.8392014
40
0.202812
50
34.3329626
51
88.8036953
0
ARC
8
DEFAULT_255_2_778
10
68.8012165
20
41.6245351
40
0.4193207
50
84.5630185
51
90.120097
0
LINE
8
DEFAULT_255_2_778
10
68.8003376
20
42.043855
11
68.6170376
21
42.043855
0
LINE
8
DEFAULT_255_2_778
10
68.6170376
20
42.043855
11
68.6170376
21
41.596755
0
ARC
8
DEFAULT_255_2_778
10
68.6994133
20
42.8062132
40
1.2122603
50
266.1036263
51
270.1051291
0
ARC
8
DEFAULT_255_2_778
10
68.6991619
20
43.2563244
40
1.6623713
50
270.0853278
51
273.3270288
0
ARC
8
DEFAULT_255_2_778
10
68.7820062
20
42.6000411
40
0.3313234
50
269.1407518
51
293.4359631
0
ARC
8
DEFAULT_255_2_778
10
68.8487198
20
42.4347455
40
0.1531971
50
295.1311371
51
4.5336883
0
ARC
8
DEFAULT_255_2_778
10
68.7901495
20
42.4601517
40
0.211706
50
356.3990349
51
37.9799065
0
ARC
8
DEFAULT_255_2_778
10
68.8127363
20
42.4508467
40
0.2007549
50
44.0514684
51
89.1096873
0
ARC
8
DEFAULT_255_2_778
10
68.7820309
20
42.2371842
40
0.4157714
50
85.3335833
51
90.0955369
0
LINE
8
DEFAULT_255_2_778
10
68.7813376
20
42.652955
11
68.6130376
21
42.652955
0
LINE
8
DEFAULT_255_2_778
10
68.6130376
20
42.652955
11
68.6130376
21
42.268755
0
ARC
8
DEFAULT_255_2_778
10
68.6886253
20
43.4569813
40
1.1906281
50
266.360095
51
270.0992406
0
ARC
8
DEFAULT_255_2_778
10
68.6883996
20
43.9032734
40
1.6369201
50
270.0800837
51
273.1040405
0
LINE
8
DEFAULT_255_2_778
10
68.7985376
20
42.887355
11
68.3410376
21
42.887355
0
LINE
8
DEFAULT_255_2_778
10
68.3410376
20
42.887355
11
68.3410376
21
41.359655
0
LINE
8
DEFAULT_255_2_778
10
68.3410376
20
41.359655
11
68.8069376
21
41.359655
0
LINE
8
DEFAULT_255_2_778
10
69.3160376
20
41.687755
11
69.3163376
21
41.687755
0
LINE
8
DEFAULT_255_2_778
10
68.7956376
20
41.596755
11
68.7958376
21
41.596755
0
LINE
8
DEFAULT_255_2_778
10
68.7770376
20
42.268755
11
68.7770376
21
42.268755
0
LINE
8
DEFAULT_255_2_778
10
69.5393667
20
41.395425
11
70.1216667
21
42.887625
0
LINE
8
DEFAULT_255_2_778
10
70.1216667
20
42.887625
11
70.4598667
21
42.887625
0
LINE
8
DEFAULT_255_2_778
10
70.4598667
20
42.887625
11
71.0464667
21
41.395425
0
LINE
8
DEFAULT_255_2_778
10
71.0464667
20
41.395425
11
70.7146667
21
41.395425
0
LINE
8
DEFAULT_255_2_778
10
70.7146667
20
41.395425
11
70.5860667
21
41.737525
0
LINE
8
DEFAULT_255_2_778
10
70.5860667
20
41.737525
11
69.9801667
21
41.737525
0
LINE
8
DEFAULT_255_2_778
10
69.9801667
20
41.737525
11
69.8494667
21
41.395425
0
LINE
8
DEFAULT_255_2_778
10
69.8494667
20
41.395425
11
69.5393667
21
41.395425
0
LINE
8
DEFAULT_255_2_778
10
70.2820667
20
42.588125
11
70.0658667
21
41.972425
0
LINE
8
DEFAULT_255_2_778
10
70.0658667
20
41.972425
11
70.5026667
21
41.972425
0
LINE
8
DEFAULT_255_2_778
10
70.5026667
20
41.972425
11
70.2865667
21
42.588125
0
LINE
8
DEFAULT_255_2_778
10
70.2865667
20
42.588125
11
70.2820667
21
42.588125
0
ARC
8
DEFAULT_255_2_778
10
50.5798904
20
42.129135
40
1.5697961
50
359.5721763
51
8.8595207
0
ARC
8
DEFAULT_255_2_778
10
51.3058707
20
42.2479545
40
0.8341966
50
8.4754396
51
24.7919161
0
ARC
8
DEFAULT_255_2_778
10
51.657061
20
42.4174412
40
0.4443525
50
23.9403943
51
88.7776474
0
ARC
8
DEFAULT_255_2_778
10
51.6186902
20
42.1562711
40
0.7070425
50
86.1194711
51
90.0443628
0
ARC
8
DEFAULT_255_2_778
10
51.6050082
20
42.2395418
40
0.62391
50
88.7937234
51
111.5828554
0
ARC
8
DEFAULT_255_2_778
10
51.5570546
20
42.397332
40
0.4597402
50
113.2594684
51
162.0950761
0
ARC
8
DEFAULT_255_2_778
10
51.9924438
20
42.2299928
40
0.925837
50
160.5242709
51
175.6350458
0
ARC
8
DEFAULT_255_2_778
10
52.5681191
20
42.1690046
40
1.5045803
50
174.9877657
51
180.1291361
0
ARC
8
DEFAULT_255_2_778
10
52.8211772
20
42.1530394
40
1.7576794
50
179.5901113
51
188.5074051
0
ARC
8
DEFAULT_255_2_778
10
52.0192169
20
42.0282142
40
0.9460894
50
188.2159896
51
202.9245576
0
ARC
8
DEFAULT_255_2_778
10
51.580369
20
41.8254075
40
0.4631767
50
200.9636057
51
265.131537
0
ARC
8
DEFAULT_255_2_778
10
51.6168245
20
42.0468258
40
0.6871135
50
263.6694072
51
270.1099244
0
ARC
8
DEFAULT_255_2_778
10
51.6318339
20
41.8831017
40
0.5235672
50
268.5015526
51
296.9434045
0
ARC
8
DEFAULT_255_2_778
10
51.6440188
20
41.8176856
40
0.460114
50
299.2824346
51
338.6733352
0
ARC
8
DEFAULT_255_2_778
10
51.2287405
20
41.9991804
40
0.9131401
50
337.5415788
51
352.6462834
0
ARC
8
DEFAULT_255_2_778
10
50.4840511
20
42.1075597
40
1.6656207
50
352.2275843
51
0.338965
0
ARC
8
DEFAULT_255_2_778
10
51.6125924
20
42.4631429
40
0.1356967
50
92.4706904
51
159.781116
0
ARC
8
DEFAULT_255_2_778
10
51.9396229
20
42.295617
40
0.5024196
50
154.7364785
51
170.4719738
0
ARC
8
DEFAULT_255_2_778
10
52.742656
20
42.1455363
40
1.319304
50
169.8168699
51
177.7287321
0
ARC
8
DEFAULT_255_2_778
10
53.8249441
20
42.0850288
40
2.4032039
50
177.3098794
51
180.0838081
0
ARC
8
DEFAULT_255_2_778
10
53.0593186
20
42.0702142
40
1.6376149
50
179.6046642
51
186.2407877
0
ARC
8
DEFAULT_255_2_778
10
52.0932845
20
41.9583792
40
0.6651769
50
185.7103905
51
198.7033862
0
ARC
8
DEFAULT_255_2_778
10
51.6565565
20
41.8024303
40
0.20165
50
196.5240246
51
231.6949732
0
ARC
8
DEFAULT_255_2_778
10
51.5961933
20
41.7375815
40
0.1135725
50
235.3155425
51
270.7612017
0
ARC
8
DEFAULT_255_2_778
10
51.5976413
20
41.7648447
40
0.1408256
50
270.02473
51
273.7055389
0
ARC
8
DEFAULT_255_2_778
10
51.6022308
20
41.7675379
40
0.1432954
50
271.804369
51
341.2393022
0
ARC
8
DEFAULT_255_2_778
10
51.2598648
20
41.9310942
40
0.5219961
50
336.3207073
51
352.4684292
0
ARC
8
DEFAULT_255_2_778
10
50.4273175
20
42.058195
40
1.3641248
50
351.7594077
51
359.6681935
0
ARC
8
DEFAULT_255_2_778
10
49.6463291
20
42.0812419
40
2.1453136
50
359.1734683
51
0.0072553
0
ARC
8
DEFAULT_255_2_778
10
49.280229
20
42.1390423
40
2.5120725
50
358.6877588
51
359.8975216
0
ARC
8
DEFAULT_255_2_778
10
49.6832811
20
42.1378631
40
2.1090188
50
359.9099723
51
0.0032566
0
ARC
8
DEFAULT_255_2_778
10
50.2166273
20
42.1493462
40
1.5757136
50
359.586809
51
6.5336586
0
ARC
8
DEFAULT_255_2_778
10
51.1336199
20
42.259923
40
0.6521179
50
6.0489357
51
19.1594671
0
ARC
8
DEFAULT_255_2_778
10
51.5503447
20
42.4125919
40
0.2085033
50
17.1134725
51
52.0099765
0
ARC
8
DEFAULT_255_2_778
10
51.6085665
20
42.4751126
40
0.1236145
50
55.4431767
51
90.8453578
0
LINE
8
DEFAULT_255_2_778
10
52.1496427
20
42.1174135
11
52.1496427
21
42.1174135
0
LINE
8
DEFAULT_255_2_778
10
51.6067427
20
42.5987135
11
51.6067427
21
42.5987135
0
ARC
8
DEFAULT_255_2_778
10
51.8670904
20
42.129135
40
1.5697961
50
359.5721763
51
8.8595207
0
ARC
8
DEFAULT_255_2_778
10
52.5930707
20
42.2479545
40
0.8341966
50
8.4754396
51
24.7919161
0
ARC
8
DEFAULT_255_2_778
10
52.944261
20
42.4174412
40
0.4443525
50
23.9403943
51
88.7776474
0
ARC
8
DEFAULT_255_2_778
10
52.9058902
20
42.1562711
40
0.7070425
50
86.1194711
51
90.0443628
0
ARC
8
DEFAULT_255_2_778
10
52.8922082
20
42.2395418
40
0.62391
50
88.7937234
51
111.5828554
0
ARC
8
DEFAULT_255_2_778
10
52.8442546
20
42.397332
40
0.4597402
50
113.2594684
51
162.0950761
0
ARC
8
DEFAULT_255_2_778
10
53.2796438
20
42.2299928
40
0.925837
50
160.5242709
51
175.6350458
0
ARC
8
DEFAULT_255_2_778
10
53.8553191
20
42.1690046
40
1.5045803
50
174.9877657
51
180.1291361
0
ARC
8
DEFAULT_255_2_778
10
54.1083772
20
42.1530394
40
1.7576794
50
179.5901113
51
188.5074051
0
ARC
8
DEFAULT_255_2_778
10
53.3064169
20
42.0282142
40
0.9460894
50
188.2159896
51
202.9245576
0
ARC
8
DEFAULT_255_2_778
10
52.867569
20
41.8254075
40
0.4631767
50
200.9636057
51
265.131537
0
ARC
8
DEFAULT_255_2_778
10
52.9040245
20
42.0468258
40
0.6871135
50
263.6694072
51
270.1099244
0
ARC
8
DEFAULT_255_2_778
10
52.9190339
20
41.8831017
40
0.5235672
50
268.5015526
51
296.9434045
0
ARC
8
DEFAULT_255_2_778
10
52.9312188
20
41.8176856
40
0.460114
50
299.2824346
51
338.6733352
0
ARC
8
DEFAULT_255_2_778
10
52.5159405
20
41.9991804
40
0.9131401
50
337.5415788
51
352.6462834
0
ARC
8
DEFAULT_255_2_778
10
51.7712511
20
42.1075597
40
1.6656207
50
352.2275843
51
0.338965
0
ARC
8
DEFAULT_255_2_778
10
52.8997924
20
42.4631429
40
0.1356967
50
92.4706904
51
159.781116
0
ARC
8
DEFAULT_255_2_778
10
53.2268229
20
42.295617
40
0.5024196
50
154.7364785
51
170.4719738
0
ARC
8
DEFAULT_255_2_778
10
54.029856
20
42.1455363
40
1.319304
50
169.8168699
51
177.7287321
0
ARC
8
DEFAULT_255_2_778
10
55.1121441
20
42.0850288
40
2.4032039
50
177.3098794
51
180.0838081
0
ARC
8
DEFAULT_255_2_778
10
54.3465186
20
42.0702142
40
1.6376149
50
179.6046642
51
186.2407877
0
ARC
8
DEFAULT_255_2_778
10
53.3804845
20
41.9583792
40
0.6651769
50
185.7103905
51
198.7033862
0
ARC
8
DEFAULT_255_2_778
10
52.9437565
20
41.8024303
40
0.20165
50
196.5240246
51
231.6949732
0
ARC
8
DEFAULT_255_2_778
10
52.8833933
20
41.7375815
40
0.1135725
50
235.3155425
51
270.7612017
0
ARC
8
DEFAULT_255_2_778
10
52.8848413
20
41.7648447
40
0.1408256
50
270.02473
51
273.7055389
0
ARC
8
DEFAULT_255_2_778
10
52.8894308
20
41.7675379
40
0.1432954
50
271.804369
51
341.2393022
0
ARC
8
DEFAULT_255_2_778
10
52.5470648
20
41.9310942
40
0.5219961
50
336.3207073
51
352.4684292
0
ARC
8
DEFAULT_255_2_778
10
51.7145175
20
42.058195
40
1.3641248
50
351.7594077
51
359.6681935
0
ARC
8
DEFAULT_255_2_778
10
50.9335291
20
42.0812419
40
2.1453136
50
359.1734683
51
0.0072553
0
ARC
8
DEFAULT_255_2_778
10
50.567429
20
42.1390423
40
2.5120725
50
358.6877588
51
359.8975216
0
ARC
8
DEFAULT_255_2_778
10
50.9704811
20
42.1378631
40
2.1090188
50
359.9099723
51
0.0032566
0
ARC
8
DEFAULT_255_2_778
10
51.5038273
20
42.1493462
40
1.5757136
50
359.586809
51
6.5336586
0
ARC
8
DEFAULT_255_2_778
10
52.4208199
20
42.259923
40
0.6521179
50
6.0489357
51
19.1594671
0
ARC
8
DEFAULT_255_2_778
10
52.8375447
20
42.4125919
40
0.2085033
50
17.1134725
51
52.0099765
0
ARC
8
DEFAULT_255_2_778
10
52.8957665
20
42.4751126
40
0.1236145
50
55.4431767
51
90.8453578
0
LINE
8
DEFAULT_255_2_778
10
53.4368427
20
42.1174135
11
53.4368427
21
42.1174135
0
LINE
8
DEFAULT_255_2_778
10
52.8939427
20
42.5987135
11
52.8939427
21
42.5987135
0
ARC
8
DEFAULT_255_2_778
10
53.9833099
20
41.7973265
40
0.7125033
50
351.1537268
51
357.1758458
0
ARC
8
DEFAULT_255_2_778
10
54.1083398
20
41.7899211
40
0.5872617
50
357.2964471
51
359.9760112
0
ARC
8
DEFAULT_255_2_778
10
54.319855
20
41.801734
40
0.3759399
50
358.1618359
51
29.9465003
0
ARC
8
DEFAULT_255_2_778
10
54.357206
20
41.8035669
40
0.3430849
50
32.7962381
51
71.6128451
0
ARC
8
DEFAULT_255_2_778
10
54.251727
20
41.5496887
40
0.6175982
50
69.7560099
51
79.1542593
0
ARC
8
DEFAULT_255_2_778
10
54.3315648
20
42.4695769
40
0.315426
50
276.6216854
51
349.6266353
0
ARC
8
DEFAULT_255_2_778
10
54.076929
20
42.5559024
40
0.5827548
50
345.7829873
51
351.0811664
0
ARC
8
DEFAULT_255_2_778
10
53.9157418
20
42.4804836
40
0.737047
50
358.8394112
51
359.9947424
0
ARC
8
DEFAULT_255_2_778
10
54.1729709
20
42.4929172
40
0.4799808
50
358.5075507
51
22.8765959
0
ARC
8
DEFAULT_255_2_778
10
54.3119799
20
42.5378951
40
0.3346579
50
25.0342054
51
77.934185
0
ARC
8
DEFAULT_255_2_778
10
54.2012341
20
42.1500715
40
0.7375662
50
75.8183806
51
90.8336181
0
ARC
8
DEFAULT_255_2_778
10
54.1906213
20
41.8022288
40
1.0853309
50
90.0062264
51
91.1131024
0
ARC
8
DEFAULT_255_2_778
10
54.1725676
20
42.2147394
40
0.8551013
50
270.359815
51
285.3354237
0
ARC
8
DEFAULT_255_2_778
10
54.314628
20
41.7600005
40
0.3793525
50
282.8066125
51
349.0212858
0
ARC
8
DEFAULT_255_2_778
10
54.1713821
20
41.9421309
40
0.3454059
50
269.2461344
51
294.1401405
0
ARC
8
DEFAULT_255_2_778
10
54.2318599
20
41.7876811
40
0.1799063
50
296.6812884
51
5.157953
0
ARC
8
DEFAULT_255_2_778
10
54.1336486
20
41.8166029
40
0.2776818
50
357.3687241
51
29.5587525
0
ARC
8
DEFAULT_255_2_778
10
54.2077132
20
41.8392014
40
0.202812
50
34.3329626
51
88.8036953
0
ARC
8
DEFAULT_255_2_778
10
54.1722165
20
41.6245351
40
0.4193207
50
84.5630185
51
90.120097
0
LINE
8
DEFAULT_255_2_778
10
54.1713376
20
42.043855
11
53.9882376
21
42.043855
0
LINE
8
DEFAULT_255_2_778
10
53.9882376
20
42.043855
11
53.9882376
21
41.596755
0
ARC
8
DEFAULT_255_2_778
10
54.0706133
20
42.8062132
40
1.2122603
50
266.1036263
51
270.1051291
0
ARC
8
DEFAULT_255_2_778
10
54.0703619
20
43.2563244
40
1.6623713
50
270.0853278
51
273.3270288
0
ARC
8
DEFAULT_255_2_778
10
54.1528022
20
42.5997667
40
0.331049
50
269.1407287
51
293.4458057
0
ARC
8
DEFAULT_255_2_778
10
54.2194111
20
42.4347336
40
0.1532067
50
295.1492111
51
4.537856
0
ARC
8
DEFAULT_255_2_778
10
54.1608495
20
42.4601517
40
0.211706
50
356.3990349
51
37.9799065
0
ARC
8
DEFAULT_255_2_778
10
54.1834363
20
42.4508467
40
0.2007549
50
44.0514684
51
89.1096873
0
ARC
8
DEFAULT_255_2_778
10
54.1527309
20
42.2371842
40
0.4157714
50
85.3335833
51
90.0955369
0
LINE
8
DEFAULT_255_2_778
10
54.1520376
20
42.652955
11
53.9837376
21
42.652955
0
LINE
8
DEFAULT_255_2_778
10
53.9837376
20
42.652955
11
53.9837376
21
42.268755
0
ARC
8
DEFAULT_255_2_778
10
54.059339
20
43.4574032
40
1.19105
50
266.3607292
51
270.0997524
0
ARC
8
DEFAULT_255_2_778
10
54.0591114
20
43.9065222
40
1.6401688
50
270.0803883
51
273.1009739
0
LINE
8
DEFAULT_255_2_778
10
54.1695376
20
42.887355
11
53.7120376
21
42.887355
0
LINE
8
DEFAULT_255_2_778
10
53.7120376
20
42.887355
11
53.7120376
21
41.359655
0
LINE
8
DEFAULT_255_2_778
10
53.7120376
20
41.359655
11
54.1779376
21
41.359655
0
LINE
8
DEFAULT_255_2_778
10
54.6870376
20
41.687755
11
54.6873376
21
41.687755
0
LINE
8
DEFAULT_255_2_778
10
54.1668376
20
41.596755
11
54.1668376
21
41.596755
0
LINE
8
DEFAULT_255_2_778
10
54.1478376
20
42.268755
11
54.1478376
21
42.268755
0
LINE
8
DEFAULT_255_2_778
10
54.9097667
20
41.395425
11
55.4920667
21
42.887625
0
LINE
8
DEFAULT_255_2_778
10
55.4920667
20
42.887625
11
55.8302667
21
42.887625
0
LINE
8
DEFAULT_255_2_778
10
55.8302667
20
42.887625
11
56.4168667
21
41.395425
0
LINE
8
DEFAULT_255_2_778
10
56.4168667
20
41.395425
11
56.0850667
21
41.395425
0
LINE
8
DEFAULT_255_2_778
10
56.0850667
20
41.395425
11
55.9564667
21
41.737525
0
LINE
8
DEFAULT_255_2_778
10
55.9564667
20
41.737525
11
55.3505667
21
41.737525
0
LINE
8
DEFAULT_255_2_778
10
55.3505667
20
41.737525
11
55.2201667
21
41.395425
0
LINE
8
DEFAULT_255_2_778
10
55.2201667
20
41.395425
11
54.9097667
21
41.395425
0
LINE
8
DEFAULT_255_2_778
10
55.6526667
20
42.588125
11
55.4365667
21
41.972425
0
LINE
8
DEFAULT_255_2_778
10
55.4365667
20
41.972425
11
55.8733667
21
41.972425
0
LINE
8
DEFAULT_255_2_778
10
55.8733667
20
41.972425
11
55.6571667
21
42.588125
0
LINE
8
DEFAULT_255_2_778
10
55.6571667
20
42.588125
11
55.6526667
21
42.588125
0
LINE
8
DEFAULT_255_2_778
10
63.6736229
20
42.2748844
11
63.5532229
21
42.5505844
0
LINE
8
DEFAULT_255_2_778
10
63.5532229
20
42.5505844
11
63.8969229
21
42.8876844
0
LINE
8
DEFAULT_255_2_778
10
63.8969229
20
42.8876844
11
64.1348229
21
42.8876844
0
LINE
8
DEFAULT_255_2_778
10
64.1348229
20
42.8876844
11
64.1348229
21
41.3596844
0
LINE
8
DEFAULT_255_2_778
10
64.1348229
20
41.3596844
11
63.8651229
21
41.3596844
0
LINE
8
DEFAULT_255_2_778
10
63.8651229
20
41.3596844
11
63.8651229
21
42.4804844
0
LINE
8
DEFAULT_255_2_778
10
63.8651229
20
42.4804844
11
63.6736229
21
42.2748844
0
ARC
8
DEFAULT_255_2_778
10
66.5639105
20
42.1417401
40
1.6197761
50
359.5782336
51
8.7215257
0
ARC
8
DEFAULT_255_2_778
10
67.3144255
20
42.2625372
40
0.8596409
50
8.3484013
51
24.306643
0
ARC
8
DEFAULT_255_2_778
10
67.6897262
20
42.4420977
40
0.4437925
50
23.1236764
51
87.9772613
0
ARC
8
DEFAULT_255_2_778
10
67.6528041
20
42.1964989
40
0.6911181
50
85.6362189
51
90.0548274
0
ARC
8
DEFAULT_255_2_778
10
67.639092
20
42.272706
40
0.6150492
50
88.7841538
51
111.9181795
0
ARC
8
DEFAULT_255_2_778
10
67.5945436
20
42.4207921
40
0.4612487
50
113.6512428
51
161.4516452
0
ARC
8
DEFAULT_255_2_778
10
68.025329
20
42.250657
40
0.9240965
50
159.9471424
51
175.1082244
0
ARC
8
DEFAULT_255_2_778
10
68.625706
20
42.182718
40
1.5281691
50
174.4897633
51
180.1575219
0
ARC
8
DEFAULT_255_2_778
10
68.9211171
20
42.1660982
40
1.8236167
50
179.6098242
51
188.2201639
0
ARC
8
DEFAULT_255_2_778
10
68.091075
20
42.0410089
40
0.9842307
50
187.9217051
51
202.2637519
0
ARC
8
DEFAULT_255_2_778
10
67.6521842
20
41.8532843
40
0.5069908
50
201.4221416
51
233.83207
0
ARC
8
DEFAULT_255_2_778
10
67.6303772
20
41.8585458
40
0.498799
50
236.2116302
51
269.9669718
0
ARC
8
DEFAULT_255_2_778
10
67.6520336
20
42.0882789
40
0.7288623
50
268.2747305
51
270.008579
0
ARC
8
DEFAULT_255_2_778
10
67.6661425
20
41.8729185
40
0.5136927
50
268.4383114
51
298.0338721
0
ARC
8
DEFAULT_255_2_778
10
67.6727619
20
41.8193702
40
0.463719
50
300.4222522
51
338.234002
0
ARC
8
DEFAULT_255_2_778
10
67.2642691
20
42.0008189
40
0.9105324
50
337.1619088
51
352.0342148
0
ARC
8
DEFAULT_255_2_778
10
66.4967385
20
42.1181338
40
1.6869433
50
351.7007799
51
0.3900103
0
ARC
8
DEFAULT_255_2_778
10
67.6462989
20
42.484762
40
0.1341825
50
92.5013855
51
159.3623132
0
ARC
8
DEFAULT_255_2_778
10
67.9739764
20
42.315417
40
0.5023616
50
154.453692
51
170.4873165
0
ARC
8
DEFAULT_255_2_778
10
68.7773918
20
42.1634253
40
1.3199594
50
169.7439702
51
177.4163581
0
ARC
8
DEFAULT_255_2_778
10
69.8900606
20
42.0974582
40
2.4345216
50
177.0458394
51
180.1021773
0
ARC
8
DEFAULT_255_2_778
10
69.1479938
20
42.0816265
40
1.6924901
50
179.6110234
51
186.1369187
0
ARC
8
DEFAULT_255_2_778
10
68.1520952
20
41.968507
40
0.6902317
50
185.6384422
51
198.2285889
0
ARC
8
DEFAULT_255_2_778
10
67.6996123
20
41.8116523
40
0.2115216
50
196.2122008
51
229.3792626
0
ARC
8
DEFAULT_255_2_778
10
67.6299528
20
41.7403124
40
0.1122045
50
232.6635694
51
270.7408594
0
ARC
8
DEFAULT_255_2_778
10
67.6313458
20
41.7664587
40
0.1383415
50
270.0239446
51
273.7703057
0
ARC
8
DEFAULT_255_2_778
10
67.6358453
20
41.7704865
40
0.1421442
50
271.8534571
51
340.8383989
0
ARC
8
DEFAULT_255_2_778
10
67.3001473
20
41.9335339
40
0.5146308
50
335.9530974
51
352.0464244
0
ARC
8
DEFAULT_255_2_778
10
66.4932021
20
42.062987
40
1.3318289
50
351.3344071
51
359.177448
0
ARC
8
DEFAULT_255_2_778
10
65.6773232
20
42.0924351
40
2.1481197
50
358.7044723
51
0.0181798
0
ARC
8
DEFAULT_255_2_778
10
65.2289302
20
42.1511076
40
2.59716
50
358.720558
51
359.900571
0
ARC
8
DEFAULT_255_2_778
10
65.3221825
20
42.1500674
40
2.5039064
50
359.9206706
51
359.9999267
0
ARC
8
DEFAULT_255_2_778
10
66.1961282
20
42.1616314
40
1.6300019
50
359.5934017
51
6.4253481
0
ARC
8
DEFAULT_255_2_778
10
67.1465071
20
42.2743489
40
0.6730024
50
5.9439977
51
18.8578723
0
ARC
8
DEFAULT_255_2_778
10
67.5778793
20
42.4293831
40
0.2147978
50
16.9146461
51
50.5615582
0
ARC
8
DEFAULT_255_2_778
10
67.6422154
20
42.4966682
40
0.1221612
50
53.8203804
51
90.8314312
0
LINE
8
DEFAULT_255_2_778
10
68.1836427
20
42.1296166
11
68.1836427
21
42.1298166
0
LINE
8
DEFAULT_255_2_778
10
67.6404427
20
42.6188166
11
67.6404427
21
42.6188166
0
ARC
8
DEFAULT_255_2_778
10
65.2410105
20
42.1417401
40
1.6197761
50
359.5782336
51
8.7215257
0
ARC
8
DEFAULT_255_2_778
10
65.9915255
20
42.2625372
40
0.8596409
50
8.3484013
51
24.306643
0
ARC
8
DEFAULT_255_2_778
10
66.3668262
20
42.4420977
40
0.4437925
50
23.1236764
51
87.9772613
0
ARC
8
DEFAULT_255_2_778
10
66.3299041
20
42.1964989
40
0.6911181
50
85.6362189
51
90.0548274
0
ARC
8
DEFAULT_255_2_778
10
66.316192
20
42.272706
40
0.6150492
50
88.7841538
51
111.9181795
0
ARC
8
DEFAULT_255_2_778
10
66.2716436
20
42.4207921
40
0.4612487
50
113.6512428
51
161.4516452
0
ARC
8
DEFAULT_255_2_778
10
66.702429
20
42.250657
40
0.9240965
50
159.9471424
51
175.1082244
0
ARC
8
DEFAULT_255_2_778
10
67.302806
20
42.182718
40
1.5281691
50
174.4897633
51
180.1575219
0
ARC
8
DEFAULT_255_2_778
10
67.5982171
20
42.1660982
40
1.8236167
50
179.6098242
51
188.2201639
0
ARC
8
DEFAULT_255_2_778
10
66.768175
20
42.0410089
40
0.9842307
50
187.9217051
51
202.2637519
0
ARC
8
DEFAULT_255_2_778
10
66.3292842
20
41.8532843
40
0.5069908
50
201.4221416
51
233.83207
0
ARC
8
DEFAULT_255_2_778
10
66.3074772
20
41.8585458
40
0.498799
50
236.2116302
51
269.9669718
0
ARC
8
DEFAULT_255_2_778
10
66.3291336
20
42.0882789
40
0.7288623
50
268.2747305
51
270.008579
0
ARC
8
DEFAULT_255_2_778
10
66.3432425
20
41.8729185
40
0.5136927
50
268.4383114
51
298.0338721
0
ARC
8
DEFAULT_255_2_778
10
66.3498619
20
41.8193702
40
0.463719
50
300.4222522
51
338.234002
0
ARC
8
DEFAULT_255_2_778
10
65.9413691
20
42.0008189
40
0.9105324
50
337.1619088
51
352.0342148
0
ARC
8
DEFAULT_255_2_778
10
65.1738385
20
42.1181338
40
1.6869433
50
351.7007799
51
0.3900103
0
ARC
8
DEFAULT_255_2_778
10
66.3233989
20
42.484762
40
0.1341825
50
92.5013855
51
159.3623132
0
ARC
8
DEFAULT_255_2_778
10
66.6510764
20
42.315417
40
0.5023616
50
154.453692
51
170.4873165
0
ARC
8
DEFAULT_255_2_778
10
67.4544918
20
42.1634253
40
1.3199594
50
169.7439702
51
177.4163581
0
ARC
8
DEFAULT_255_2_778
10
68.5671606
20
42.0974582
40
2.4345216
50
177.0458394
51
180.1021773
0
ARC
8
DEFAULT_255_2_778
10
67.8250938
20
42.0816265
40
1.6924901
50
179.6110234
51
186.1369187
0
ARC
8
DEFAULT_255_2_778
10
66.8291952
20
41.968507
40
0.6902317
50
185.6384422
51
198.2285889
0
ARC
8
DEFAULT_255_2_778
10
66.3767123
20
41.8116523
40
0.2115216
50
196.2122008
51
229.3792626
0
ARC
8
DEFAULT_255_2_778
10
66.3070528
20
41.7403124
40
0.1122045
50
232.6635694
51
270.7408594
0
ARC
8
DEFAULT_255_2_778
10
66.3084458
20
41.7664587
40
0.1383415
50
270.0239446
51
273.7703057
0
ARC
8
DEFAULT_255_2_778
10
66.3129453
20
41.7704865
40
0.1421442
50
271.8534571
51
340.8383989
0
ARC
8
DEFAULT_255_2_778
10
65.9772473
20
41.9335339
40
0.5146308
50
335.9530974
51
352.0464244
0
ARC
8
DEFAULT_255_2_778
10
65.1703021
20
42.062987
40
1.3318289
50
351.3344071
51
359.177448
0
ARC
8
DEFAULT_255_2_778
10
64.3544232
20
42.0924351
40
2.1481197
50
358.7044723
51
0.0181798
0
ARC
8
DEFAULT_255_2_778
10
63.9060302
20
42.1511076
40
2.59716
50
358.720558
51
359.900571
0
ARC
8
DEFAULT_255_2_778
10
63.9992825
20
42.1500674
40
2.5039064
50
359.9206706
51
359.9999267
0
ARC
8
DEFAULT_255_2_778
10
64.8732282
20
42.1616314
40
1.6300019
50
359.5934017
51
6.4253481
0
ARC
8
DEFAULT_255_2_778
10
65.8236071
20
42.2743489
40
0.6730024
50
5.9439977
51
18.8578723
0
ARC
8
DEFAULT_255_2_778
10
66.2549793
20
42.4293831
40
0.2147978
50
16.9146461
51
50.5615582
0
ARC
8
DEFAULT_255_2_778
10
66.3193154
20
42.4966682
40
0.1221612
50
53.8203804
51
90.8314312
0
LINE
8
DEFAULT_255_2_778
10
66.8607427
20
42.1296166
11
66.8607427
21
42.1298166
0
LINE
8
DEFAULT_255_2_778
10
66.3175427
20
42.6188166
11
66.3175427
21
42.6188166
0
ARC
8
DEFAULT_255_2_778
10
4.5331094
20
72.286769
40
0.9284544
50
220.2346311
51
229.6050479
0
ARC
8
DEFAULT_255_2_778
10
4.5933908
20
72.3604277
40
1.0236196
50
229.70718
51
252.0263063
0
ARC
8
DEFAULT_255_2_778
10
4.7514559
20
72.6026801
40
0.9853998
50
275.2072994
51
291.6447944
0
ARC
8
DEFAULT_255_2_778
10
4.6854264
20
73.1490714
40
1.535614
50
269.854321
51
275.8105176
0
ARC
8
DEFAULT_255_2_778
10
4.6686112
20
72.7147937
40
1.1014069
50
254.2613458
51
270.6716386
0
ARC
8
DEFAULT_255_2_778
10
4.6037667
20
72.4524579
40
0.8313633
50
247.0744601
51
253.6586441
0
ARC
8
DEFAULT_255_2_778
10
4.7595204
20
72.4457168
40
1.1231037
50
289.4892778
51
297.1388292
0
ARC
8
DEFAULT_255_2_778
10
5.6715756
20
71.1874669
40
0.5000956
50
44.9958871
51
89.9946851
0
ARC
8
DEFAULT_255_2_778
10
5.6719745
20
71.1875604
40
0.4997474
50
359.9887792
51
45.0206486
0
ARC
8
DEFAULT_255_2_778
10
5.6716263
20
71.1875089
40
0.5000956
50
314.9958871
51
359.9946851
0
ARC
8
DEFAULT_255_2_778
10
5.6715414
20
71.1878827
40
0.5004201
50
270.0092202
51
314.9724963
0
LINE
8
DEFAULT_255_2_778
10
5.271822
20
71.3875625
11
5.271822
21
71.6875625
0
LINE
8
DEFAULT_255_2_778
10
5.651722
20
71.3875625
11
5.651722
21
71.6875625
0
LINE
8
DEFAULT_255_2_778
10
6.124022
20
71.3875625
11
1.671622
21
71.3875625
0
LINE
8
DEFAULT_255_2_778
10
1.671622
20
71.3875625
11
1.671622
21
71.6875625
0
LINE
8
DEFAULT_255_2_778
10
5.521622
20
71.6875625
11
5.521622
21
71.3875625
0
LINE
8
DEFAULT_255_2_778
10
0.171722
20
71.6875625
11
5.671622
21
71.6875625
0
LINE
8
DEFAULT_255_2_778
10
5.671622
20
70.6874625
11
0.171722
21
70.6874625
0
LINE
8
DEFAULT_255_2_778
10
3.671622
20
70.6874625
11
3.671622
21
71.3875625
0
ARC
8
DEFAULT_255_2_778
10
20.2413072
20
3.6055915
40
0.6121275
50
171.315301
51
179.7662155
0
ARC
8
DEFAULT_255_2_778
10
20.3741214
20
3.5864377
40
0.7463119
50
162.4169306
51
171.4013053
0
ARC
8
DEFAULT_255_2_778
10
20.3988371
20
3.5794903
40
0.7719719
50
158.2644024
51
162.4795362
0
ARC
8
DEFAULT_255_2_778
10
20.3345355
20
3.6102054
40
0.7008833
50
134.6952686
51
158.650168
0
ARC
8
DEFAULT_255_2_778
10
20.2672423
20
3.6722731
40
0.6094467
50
111.2930589
51
134.3021599
0
ARC
8
DEFAULT_255_2_778
10
20.2955613
20
3.5929899
40
0.6936055
50
94.7925164
51
111.0943937
0
ARC
8
DEFAULT_255_2_778
10
20.3118657
20
3.4489854
40
0.8384793
50
89.9489923
51
95.0806228
0
ARC
8
DEFAULT_255_2_778
10
20.3111513
20
3.3184901
40
0.9689753
50
83.8615506
51
89.9136181
0
ARC
8
DEFAULT_255_2_778
10
20.2910815
20
3.1306901
40
1.1578446
50
78.5652729
51
83.8678341
0
ARC
8
DEFAULT_255_2_778
10
20.245214
20
2.9024685
40
1.3906297
50
74.0589684
51
78.5771461
0
ARC
8
DEFAULT_255_2_778
10
20.1775781
20
2.6627014
40
1.6397527
50
70.8685559
51
74.0874999
0
ARC
8
DEFAULT_255_2_778
10
20.3578561
20
3.4183603
40
0.5903317
50
56.0211384
51
82.3779896
0
ARC
8
DEFAULT_255_2_778
10
20.3714034
20
3.4989718
40
0.5086429
50
82.6861363
51
89.939424
0
ARC
8
DEFAULT_255_2_778
10
20.3576616
20
3.6388103
40
0.3690804
50
87.7827043
51
148.6586053
0
ARC
8
DEFAULT_255_2_778
10
20.4564705
20
3.5873454
40
0.4802978
50
149.546027
51
168.876595
0
ARC
8
DEFAULT_255_2_778
10
20.6807895
20
3.537646
40
0.7100123
50
168.433607
51
177.8333208
0
ARC
8
DEFAULT_255_2_778
10
20.2614062
20
3.5271549
40
0.6364835
50
173.3656757
51
179.6561885
0
ARC
8
DEFAULT_255_2_778
10
20.3004142
20
3.52621
40
0.675497
50
179.5959032
51
180.0002701
0
ARC
8
DEFAULT_255_2_778
10
20.3459379
20
3.5273684
40
0.7210216
50
180.0922999
51
189.7249788
0
ARC
8
DEFAULT_255_2_778
10
20.3785011
20
3.5320729
40
0.7539121
50
189.6593441
51
192.8311702
0
ARC
8
DEFAULT_255_2_778
10
20.3311539
20
3.514711
40
0.7039209
50
192.3091365
51
226.602577
0
ARC
8
DEFAULT_255_2_778
10
20.2711738
20
3.4632085
40
0.625343
50
227.3536171
51
251.9542188
0
ARC
8
DEFAULT_255_2_778
10
20.3075925
20
3.5801693
40
0.7478337
50
252.0771501
51
268.5134949
0
ARC
8
DEFAULT_255_2_778
10
20.3169696
20
3.7174651
40
0.8853456
50
268.1373447
51
270.0069789
0
ARC
8
DEFAULT_255_2_778
10
20.3155535
20
3.8151254
40
0.9830072
50
270.0888249
51
276.4113871
0
ARC
8
DEFAULT_255_2_778
10
20.2957296
20
3.9948872
40
1.1638585
50
276.3930035
51
281.5455958
0
ARC
8
DEFAULT_255_2_778
10
20.2522817
20
4.2079468
40
1.3813031
50
281.5425
51
286.203307
0
ARC
8
DEFAULT_255_2_778
10
20.1910078
20
4.4225302
40
1.6044613
50
286.166211
51
289.1101473
0
ARC
8
DEFAULT_255_2_778
10
20.3591561
20
3.7000181
40
0.5903317
50
277.6220104
51
303.9788616
0
ARC
8
DEFAULT_255_2_778
10
20.3727034
20
3.6194066
40
0.5086429
50
270.060576
51
277.3138637
0
ARC
8
DEFAULT_255_2_778
10
20.3589616
20
3.4795681
40
0.3690804
50
211.3413947
51
272.2172957
0
ARC
8
DEFAULT_255_2_778
10
20.4577705
20
3.531033
40
0.4802978
50
191.123405
51
210.453973
0
ARC
8
DEFAULT_255_2_778
10
20.6820895
20
3.5807324
40
0.7100123
50
182.1666792
51
191.566393
0
LINE
8
DEFAULT_255_2_778
10
20.7149848
20
4.2118892
11
20.6877848
21
3.9078892
0
LINE
8
DEFAULT_255_2_778
10
20.7162848
20
2.9064892
11
20.6890848
21
3.2104892
0
LINE
8
DEFAULT_255_2_778
10
21.6754333
20
4.2876041
11
21.9400333
21
4.2876041
0
LINE
8
DEFAULT_255_2_778
10
21.9400333
20
4.2876041
11
21.9400333
21
2.8324041
0
LINE
8
DEFAULT_255_2_778
10
21.9400333
20
2.8324041
11
21.6754333
21
2.8324041
0
LINE
8
DEFAULT_255_2_778
10
21.6754333
20
2.8324041
11
21.6754333
21
3.4703041
0
LINE
8
DEFAULT_255_2_778
10
21.6754333
20
3.4703041
11
21.1463333
21
3.4703041
0
LINE
8
DEFAULT_255_2_778
10
21.1463333
20
3.4703041
11
21.1463333
21
2.8324041
0
LINE
8
DEFAULT_255_2_778
10
21.1463333
20
2.8324041
11
20.8817333
21
2.8324041
0
LINE
8
DEFAULT_255_2_778
10
20.8817333
20
2.8324041
11
20.8817333
21
4.2876041
0
LINE
8
DEFAULT_255_2_778
10
20.8817333
20
4.2876041
11
21.1463333
21
4.2876041
0
LINE
8
DEFAULT_255_2_778
10
21.1463333
20
4.2876041
11
21.1463333
21
3.6997041
0
LINE
8
DEFAULT_255_2_778
10
21.1463333
20
3.6997041
11
21.6754333
21
3.6997041
0
LINE
8
DEFAULT_255_2_778
10
21.6754333
20
3.6997041
11
21.6754333
21
4.2876041
0
ARC
8
DEFAULT_255_2_778
10
22.4718212
20
3.2394334
40
0.7775493
50
89.1032729
51
103.6984708
0
ARC
8
DEFAULT_255_2_778
10
22.3833561
20
3.6096805
40
0.3968878
50
103.9482589
51
121.7191363
0
ARC
8
DEFAULT_255_2_778
10
23.7808733
20
4.184988
40
1.6236768
50
181.3203389
51
188.4181564
0
ARC
8
DEFAULT_255_2_778
10
24.7562534
20
4.2244881
40
2.5997638
50
179.969161
51
181.695325
0
ARC
8
DEFAULT_255_2_778
10
22.4986223
20
3.314862
40
0.9731505
50
91.836426
51
110.5834831
0
ARC
8
DEFAULT_255_2_778
10
22.4876707
20
3.4403105
40
0.8474436
50
90.001167
51
91.3681699
0
ARC
8
DEFAULT_255_2_778
10
22.4881159
20
3.4631004
40
0.8246539
50
78.849715
51
90.0321285
0
ARC
8
DEFAULT_255_2_778
10
22.5421523
20
3.8813485
40
0.4048113
50
47.5470697
51
74.9025551
0
ARC
8
DEFAULT_255_2_778
10
22.5865473
20
3.9511814
40
0.3236401
50
359.6968649
51
45.0004527
0
ARC
8
DEFAULT_255_2_778
10
22.403134
20
3.9300476
40
0.5074206
50
359.9862958
51
2.1935365
0
ARC
8
DEFAULT_255_2_778
10
22.2970028
20
3.9319496
40
0.6135551
50
352.5438459
51
359.8110462
0
ARC
8
DEFAULT_255_2_778
10
22.1659349
20
3.9468637
40
0.7454534
50
351.0885714
51
352.7145053
0
ARC
8
DEFAULT_255_2_778
10
22.5178602
20
3.8863755
40
0.3884416
50
328.6462906
51
351.8618231
0
ARC
8
DEFAULT_255_2_778
10
22.6932477
20
3.7813939
40
0.1840488
50
278.5434923
51
328.1462271
0
ARC
8
DEFAULT_255_2_778
10
22.5533582
20
3.2296233
40
0.4058226
50
39.866657
51
65.6643606
0
ARC
8
DEFAULT_255_2_778
10
22.6157071
20
3.2942365
40
0.3166965
50
358.4808215
51
38.1246675
0
ARC
8
DEFAULT_255_2_778
10
22.4178556
20
3.2894877
40
0.5144498
50
347.8015037
51
359.5937847
0
ARC
8
DEFAULT_255_2_778
10
22.2111087
20
3.3306893
40
0.7252427
50
342.4488644
51
348.0712251
0
ARC
8
DEFAULT_255_2_778
10
22.527982
20
3.2344079
40
0.3941039
50
281.6930105
51
341.9028014
0
ARC
8
DEFAULT_255_2_778
10
22.4648317
20
3.4843162
40
0.6517206
50
269.4955354
51
282.6769476
0
ARC
8
DEFAULT_255_2_778
10
22.463065
20
3.8291725
40
0.9965596
50
262.5386849
51
269.771677
0
ARC
8
DEFAULT_255_2_778
10
22.5168418
20
4.2507431
40
1.4215446
50
257.2193552
51
262.5960116
0
ARC
8
DEFAULT_255_2_778
10
22.6000766
20
4.6350335
40
1.814731
50
255.2646107
51
257.3405882
0
LINE
8
DEFAULT_255_2_778
10
22.13849
20
2.8799874
11
22.13849
21
3.1815874
0
ARC
8
DEFAULT_255_2_778
10
22.6023619
20
4.4146055
40
1.3173879
50
249.3832733
51
254.806448
0
ARC
8
DEFAULT_255_2_778
10
22.460754
20
3.8868021
40
0.7709225
50
254.6824191
51
262.7260238
0
ARC
8
DEFAULT_255_2_778
10
22.4220587
20
3.5969719
40
0.4785284
50
262.9280396
51
269.7807309
0
ARC
8
DEFAULT_255_2_778
10
22.4281463
20
3.373617
40
0.2552928
50
268.222478
51
294.7545391
0
ARC
8
DEFAULT_255_2_778
10
22.4519786
20
3.3008684
40
0.1794666
50
297.5714375
51
351.0653117
0
ARC
8
DEFAULT_255_2_778
10
22.3366637
20
3.3370124
40
0.2995248
50
347.6591172
51
347.9510506
0
ARC
8
DEFAULT_255_2_778
10
22.4149843
20
3.2675974
40
0.2147163
50
1.8388771
51
35.5815325
0
ARC
8
DEFAULT_255_2_778
10
22.4601712
20
3.282773
40
0.1697105
50
40.296617
51
90.5183351
0
ARC
8
DEFAULT_255_2_778
10
22.4401925
20
3.1327319
40
0.3202762
50
86.698736
51
90.0418045
0
ARC
8
DEFAULT_255_2_778
10
22.443175
20
3.0060269
40
0.4469928
50
90.4122525
51
99.5776163
0
ARC
8
DEFAULT_255_2_778
10
22.4774375
20
2.7841597
40
0.6714754
50
99.3105318
51
103.5346377
0
LINE
8
DEFAULT_255_2_778
10
22.32029
20
3.4369874
11
22.32029
21
3.6922874
0
ARC
8
DEFAULT_255_2_778
10
22.4134552
20
4.1920893
40
0.5084109
50
259.441004
51
267.3365293
0
ARC
8
DEFAULT_255_2_778
10
22.4063597
20
4.0777497
40
0.3938691
50
267.594676
51
269.9788165
0
ARC
8
DEFAULT_255_2_778
10
22.4179287
20
3.9105907
40
0.2270124
50
267.0420123
51
308.6644888
0
ARC
8
DEFAULT_255_2_778
10
22.4024707
20
3.9046166
40
0.2325427
50
312.5609862
51
347.6014898
0
ARC
8
DEFAULT_255_2_778
10
22.4472233
20
3.8671953
40
0.1827952
50
356.0764398
51
35.2384793
0
ARC
8
DEFAULT_255_2_778
10
22.495144
20
3.8809039
40
0.1367393
50
42.1491593
51
94.6788659
0
LINE
8
DEFAULT_255_2_778
10
22.48399
20
4.0171874
11
22.48399
21
4.0168874
0
ARC
8
DEFAULT_255_2_778
10
15.1811572
20
6.4759721
40
1.0792256
50
65.9176343
51
73.722488
0
ARC
8
DEFAULT_255_2_778
10
15.301351
20
6.8942552
40
0.6440229
50
73.5565904
51
85.3520934
0
ARC
8
DEFAULT_255_2_778
10
15.3199678
20
7.0739852
40
0.4633924
50
85.8456483
51
89.9529664
0
ARC
8
DEFAULT_255_2_778
10
15.3079911
20
7.237808
40
0.2998242
50
87.637917
51
140.7121658
0
ARC
8
DEFAULT_255_2_778
10
15.3356598
20
7.2960307
40
0.2911766
50
153.1236905
51
167.431917
0
ARC
8
DEFAULT_255_2_778
10
15.243078
20
7.31805
40
0.1960264
50
167.8253167
51
179.7546604
0
ARC
8
DEFAULT_255_2_778
10
15.2249259
20
7.3232396
40
0.1779257
50
181.4010122
51
237.5431885
0
ARC
8
DEFAULT_255_2_778
10
15.40481
20
7.562767
40
0.4771415
50
234.7514051
51
250.7242897
0
ARC
8
DEFAULT_255_2_778
10
15.5469428
20
7.9249382
40
0.8660531
50
249.7578784
51
253.9455199
0
ARC
8
DEFAULT_255_2_778
10
14.9714545
20
6.0945566
40
1.0531365
50
59.9491513
51
71.3958351
0
ARC
8
DEFAULT_255_2_778
10
15.2131107
20
6.5037429
40
0.5779546
50
39.7064486
51
60.3720202
0
ARC
8
DEFAULT_255_2_778
10
15.3437466
20
6.6185061
40
0.4041647
50
359.1549198
51
39.0212702
0
ARC
8
DEFAULT_255_2_778
10
15.1826162
20
6.6155801
40
0.5652593
50
348.0282811
51
359.6923628
0
ARC
8
DEFAULT_255_2_778
10
14.9648644
20
6.6606191
40
0.7876183
50
339.8624471
51
348.1089244
0
ARC
8
DEFAULT_255_2_778
10
15.0628295
20
6.7273505
40
0.7250502
50
315.6157118
51
332.2236641
0
ARC
8
DEFAULT_255_2_778
10
15.2157764
20
6.5806866
40
0.5131625
50
268.6135785
51
315.3738866
0
ARC
8
DEFAULT_255_2_778
10
15.208278
20
6.8588479
40
0.791189
50
258.091005
51
269.643871
0
ARC
8
DEFAULT_255_2_778
10
15.2798375
20
7.2082914
40
1.1478799
50
250.2174143
51
258.1953792
0
ARC
8
DEFAULT_255_2_778
10
15.4379725
20
7.6547199
40
1.6214846
50
244.7084557
51
250.2984066
0
ARC
8
DEFAULT_255_2_778
10
-4.0436566
20
8.5107726
40
18.9318418
50
352.9545663
51
353.8219663
0
ARC
8
DEFAULT_255_2_778
10
15.3014022
20
7.5366394
40
1.1850163
50
243.8013003
51
251.5216913
0
ARC
8
DEFAULT_255_2_778
10
15.155804
20
7.0941055
40
0.7191545
50
251.3490102
51
263.1702479
0
ARC
8
DEFAULT_255_2_778
10
15.1267071
20
6.8825829
40
0.5056866
50
263.5935761
51
269.8982957
0
ARC
8
DEFAULT_255_2_778
10
15.1360937
20
6.7185845
40
0.3418422
50
268.2760205
51
318.0257604
0
ARC
8
DEFAULT_255_2_778
10
15.1771083
20
6.6069479
40
0.2431226
50
331.2373837
51
347.8403114
0
ARC
8
DEFAULT_255_2_778
10
15.2485403
20
6.5898388
40
0.1696977
50
348.407219
51
359.8296238
0
ARC
8
DEFAULT_255_2_778
10
15.2452542
20
6.5834976
40
0.1730815
50
1.9324842
51
53.958923
0
ARC
8
DEFAULT_255_2_778
10
15.0518903
20
6.3544991
40
0.472512
50
51.3366038
51
67.2280744
0
ARC
8
DEFAULT_255_2_778
10
14.8560951
20
5.9238989
40
0.9454351
50
66.387864
51
72.3765667
0
ARC
8
DEFAULT_255_2_778
10
15.3216852
20
7.5849463
40
0.7808605
50
239.759803
51
256.72158
0
ARC
8
DEFAULT_255_2_778
10
15.1280942
20
7.2662507
40
0.4080907
50
183.1871727
51
240.7067108
0
ARC
8
DEFAULT_255_2_778
10
15.6991368
20
7.2672053
40
0.9787877
50
180.0077397
51
181.3841716
0
ARC
8
DEFAULT_255_2_778
10
15.4127534
20
7.2769453
40
0.6924747
50
164.0995805
51
180.8168592
0
ARC
8
DEFAULT_255_2_778
10
15.1454668
20
7.3539932
40
0.4143072
50
103.4617917
51
164.2202436
0
ARC
8
DEFAULT_255_2_778
10
15.268323
20
6.9676018
40
0.8192156
50
91.8419971
51
105.5275651
0
ARC
8
DEFAULT_255_2_778
10
15.2922567
20
6.6110055
40
1.1764629
50
89.97235
51
92.4487896
0
ARC
8
DEFAULT_255_2_778
10
15.289926
20
6.3311123
40
1.4563586
50
85.2780994
51
89.8859671
0
ARC
8
DEFAULT_255_2_778
10
15.2524125
20
5.8669195
40
1.9220642
50
81.6473464
51
85.3027189
0
ARC
8
DEFAULT_255_2_778
10
15.1701152
20
5.3027543
40
2.4922003
50
78.5855098
51
81.6595184
0
ARC
8
DEFAULT_255_2_778
10
28.1506018
20
6.4407735
40
1.0905235
50
66.2656011
51
73.9738995
0
ARC
8
DEFAULT_255_2_778
10
28.2702208
20
6.8647397
40
0.6500136
50
73.7908686
51
85.6832929
0
ARC
8
DEFAULT_255_2_778
10
28.2880509
20
7.0452557
40
0.4686863
50
86.1957815
51
89.9600485
0
ARC
8
DEFAULT_255_2_778
10
28.2801546
20
7.1926723
40
0.3213748
50
88.5337994
51
120.8629768
0
ARC
8
DEFAULT_255_2_778
10
28.2731046
20
7.2166086
40
0.2972767
50
122.0632919
51
140.4345576
0
ARC
8
DEFAULT_255_2_778
10
28.2960967
20
7.276054
40
0.2836577
50
152.7435823
51
167.2253661
0
ARC
8
DEFAULT_255_2_778
10
28.204963
20
7.2980922
40
0.1899114
50
167.6300861
51
179.7484885
0
ARC
8
DEFAULT_255_2_778
10
28.1881738
20
7.3033159
40
0.1731761
50
181.4526199
51
237.5159376
0
ARC
8
DEFAULT_255_2_778
10
28.3667822
20
7.5414003
40
0.4704868
50
234.7386855
51
250.8851207
0
ARC
8
DEFAULT_255_2_778
10
28.5113546
20
7.9128143
40
0.8688939
50
249.8974841
51
254.2454139
0
ARC
8
DEFAULT_255_2_778
10
27.9407984
20
6.0664755
40
1.064075
50
60.452806
51
71.6702333
0
ARC
8
DEFAULT_255_2_778
10
28.1827791
20
6.4847672
40
0.5808672
50
40.7369419
51
60.8705008
0
ARC
8
DEFAULT_255_2_778
10
28.3220556
20
6.6096591
40
0.3938503
50
359.1986117
51
40.1925314
0
ARC
8
DEFAULT_255_2_778
10
28.1683342
20
6.6071531
40
0.5475414
50
347.8353534
51
359.6858052
0
ARC
8
DEFAULT_255_2_778
10
27.955213
20
6.6519723
40
0.7653225
50
339.5568131
51
347.9174315
0
ARC
8
DEFAULT_255_2_778
10
28.0434722
20
6.7216231
40
0.7134501
50
315.0672206
51
331.816399
0
ARC
8
DEFAULT_255_2_778
10
28.1843371
20
6.5856407
40
0.5176956
50
268.5559178
51
314.7105411
0
ARC
8
DEFAULT_255_2_778
10
28.176185
20
6.872092
40
0.8039974
50
258.2866954
51
269.6511988
0
ARC
8
DEFAULT_255_2_778
10
28.2469851
20
7.2238217
40
1.162778
50
250.5245107
51
258.3892135
0
ARC
8
DEFAULT_255_2_778
10
28.4028509
20
7.6713378
40
1.636657
50
245.0797375
51
250.6034771
0
ARC
8
DEFAULT_255_2_778
10
10.3224314
20
8.3834907
40
17.5289572
50
352.8017523
51
353.7240022
0
ARC
8
DEFAULT_255_2_778
10
28.2672603
20
7.5430063
40
1.1952363
50
244.1615739
51
251.7956764
0
ARC
8
DEFAULT_255_2_778
10
28.1235392
20
7.0991299
40
0.7286804
50
251.6272294
51
263.2806202
0
ARC
8
DEFAULT_255_2_778
10
28.0946866
20
6.8859154
40
0.5135679
50
263.6941855
51
269.8999623
0
ARC
8
DEFAULT_255_2_778
10
28.1045276
20
6.7166136
40
0.3444326
50
268.2135069
51
317.4420892
0
ARC
8
DEFAULT_255_2_778
10
28.1507288
20
6.5994041
40
0.2376026
50
330.8481456
51
347.4127405
0
ARC
8
DEFAULT_255_2_778
10
28.2215306
20
6.5819544
40
0.1647075
50
347.969602
51
359.8157291
0
ARC
8
DEFAULT_255_2_778
10
28.2182306
20
6.5756679
40
0.1681052
50
1.9624825
51
53.906782
0
ARC
8
DEFAULT_255_2_778
10
28.0266709
20
6.3484414
40
0.4650373
50
51.3268953
51
67.4546337
0
ARC
8
DEFAULT_255_2_778
10
27.8280912
20
5.9074954
40
0.9485313
50
66.588506
51
72.6889861
0
ARC
8
DEFAULT_255_2_778
10
28.289574
20
7.5839389
40
0.7914407
50
240.4003991
51
256.9105354
0
ARC
8
DEFAULT_255_2_778
10
28.089432
20
7.2490866
40
0.4015227
50
183.4446062
51
241.6316251
0
ARC
8
DEFAULT_255_2_778
10
28.6363952
20
7.2482311
40
0.9480461
50
180.007869
51
181.4064392
0
ARC
8
DEFAULT_255_2_778
10
28.3570319
20
7.2580163
40
0.6687564
50
163.5927638
51
180.8495397
0
ARC
8
DEFAULT_255_2_778
10
28.10999
20
7.329281
40
0.4116473
50
102.9244818
51
163.3954823
0
ARC
8
DEFAULT_255_2_778
10
28.2366018
20
6.9265747
40
0.8331374
50
91.8049999
51
105.2173911
0
ARC
8
DEFAULT_255_2_778
10
28.260462
20
6.5639431
40
1.196405
50
89.9729873
51
92.4000982
0
ARC
8
DEFAULT_255_2_778
10
28.2581312
20
6.2800601
40
1.4802907
50
85.3569429
51
89.8879544
0
ARC
8
DEFAULT_255_2_778
10
28.2207542
20
5.8096516
40
1.9521813
50
81.7849048
51
85.3811335
0
ARC
8
DEFAULT_255_2_778
10
28.1388693
20
5.2388303
40
2.5288459
50
78.770512
51
81.7966827
0
ARC
8
DEFAULT_255_2_778
10
9.329362
20
6.9471729
40
1.8945134
50
359.6246448
51
8.0894639
0
ARC
8
DEFAULT_255_2_778
10
10.1776633
20
7.0729307
40
1.0369691
50
7.8057813
51
21.802828
0
ARC
8
DEFAULT_255_2_778
10
10.6333152
20
7.262705
40
0.5434709
50
21.0686317
51
51.2120864
0
ARC
8
DEFAULT_255_2_778
10
10.669381
20
7.2757828
40
0.5110725
50
53.4458424
51
88.6603666
0
ARC
8
DEFAULT_255_2_778
10
10.6415773
20
7.0322214
40
0.7555405
50
86.9840509
51
90.0259826
0
ARC
8
DEFAULT_255_2_778
10
10.6279028
20
7.1221346
40
0.6657606
50
88.8525717
51
111.5558287
0
ARC
8
DEFAULT_255_2_778
10
10.5817329
20
7.2773478
40
0.5046364
50
113.1553105
51
159.7648918
0
ARC
8
DEFAULT_255_2_778
10
11.0165692
20
7.0919771
40
0.9770336
50
158.3848038
51
173.3574339
0
ARC
8
DEFAULT_255_2_778
10
11.7117978
20
6.997472
40
1.6785808
50
172.8983332
51
180.2631813
0
ARC
8
DEFAULT_255_2_778
10
12.1782798
20
6.9774043
40
2.1450807
50
179.6699272
51
187.4270283
0
ARC
8
DEFAULT_255_2_778
10
11.2447962
20
6.8507387
40
1.2030657
50
187.1918752
51
199.6527793
0
ARC
8
DEFAULT_255_2_778
10
10.7171666
20
6.6559996
40
0.6407045
50
199.1212903
51
222.9562906
0
ARC
8
DEFAULT_255_2_778
10
10.6083118
20
6.5756743
40
0.5065336
50
224.6973857
51
268.5966341
0
ARC
8
DEFAULT_255_2_778
10
10.6408198
20
6.8263473
40
0.7583857
50
266.6048163
51
270.0313476
0
ARC
8
DEFAULT_255_2_778
10
10.6552088
20
6.6261649
40
0.5583781
50
268.5659579
51
297.1068772
0
ARC
8
DEFAULT_255_2_778
10
10.6640527
20
6.567148
40
0.5021741
50
299.277336
51
336.4552197
0
ARC
8
DEFAULT_255_2_778
10
10.2527525
20
6.7638447
40
0.9579403
50
335.4969327
51
350.4451308
0
ARC
8
DEFAULT_255_2_778
10
9.4624679
20
6.9064039
40
1.7609501
50
350.1392654
51
359.0766353
0
ARC
8
DEFAULT_255_2_778
10
8.7704489
20
6.9342989
40
2.4533859
50
358.6857037
51
0.0108083
0
ARC
8
DEFAULT_255_2_778
10
10.6344643
20
7.3417931
40
0.1433913
50
92.3699842
51
157.9212216
0
ARC
8
DEFAULT_255_2_778
10
10.9627218
20
7.1636985
40
0.5162023
50
153.2933996
51
169.3413446
0
ARC
8
DEFAULT_255_2_778
10
11.7756017
20
6.9941439
40
1.3465159
50
168.6485529
51
176.5695718
0
ARC
8
DEFAULT_255_2_778
10
13.082821
20
6.9011482
40
2.6569975
50
176.2545256
51
180.1657517
0
ARC
8
DEFAULT_255_2_778
10
12.4330309
20
6.8821111
40
2.0072283
50
179.6759981
51
185.5030999
0
ARC
8
DEFAULT_255_2_778
10
11.3080735
20
6.7678846
40
0.8765208
50
185.1228524
51
195.8714157
0
ARC
8
DEFAULT_255_2_778
10
10.7511784
20
6.6023605
40
0.2956691
50
194.5313607
51
219.6822926
0
ARC
8
DEFAULT_255_2_778
10
10.6177238
20
6.4942808
40
0.1239676
50
220.6237787
51
270.357683
0
ARC
8
DEFAULT_255_2_778
10
10.6184258
20
6.5180707
40
0.147755
50
270.0278842
51
273.923066
0
ARC
8
DEFAULT_255_2_778
10
10.6237313
20
6.5231151
40
0.152529
50
271.8046624
51
339.5558126
0
ARC
8
DEFAULT_255_2_778
10
10.2813343
20
6.6971283
40
0.5359062
50
334.904751
51
351.0109917
0
ARC
8
DEFAULT_255_2_778
10
9.4552175
20
6.8443958
40
1.3749842
50
350.3283245
51
358.3150054
0
ARC
8
DEFAULT_255_2_778
10
8.4808228
20
6.8914489
40
2.3504129
50
357.8669255
51
0.0490666
0
ARC
8
DEFAULT_255_2_778
10
7.8150038
20
6.9589137
40
3.016941
50
358.7568813
51
359.8250255
0
ARC
8
DEFAULT_255_2_778
10
8.0011524
20
6.9575924
40
2.8307894
50
359.8402624
51
359.9982343
0
ARC
8
DEFAULT_255_2_778
10
8.8978468
20
6.9689363
40
1.9341288
50
359.6613654
51
5.7605331
0
ARC
8
DEFAULT_255_2_778
10
9.9720855
20
7.0827875
40
0.853905
50
5.3945869
51
16.4152718
0
ARC
8
DEFAULT_255_2_778
10
10.5020805
20
7.2457493
40
0.2995323
50
15.163377
51
40.3376131
0
ARC
8
DEFAULT_255_2_778
10
10.6298459
20
7.3510856
40
0.1339824
50
41.3679971
51
90.5607399
0
LINE
8
DEFAULT_255_2_778
10
15.6633347
20
7.7456617
11
15.6302347
21
7.4694617
0
LINE
8
DEFAULT_255_2_778
10
19.3336347
20
6.0801617
11
19.9064347
21
7.7602617
0
LINE
8
DEFAULT_255_2_778
10
19.9064347
20
7.7602617
11
20.1503347
21
7.7602617
0
LINE
8
DEFAULT_255_2_778
10
20.1503347
20
7.7602617
11
19.5778347
21
6.0801617
0
LINE
8
DEFAULT_255_2_778
10
19.5778347
20
6.0801617
11
19.3336347
21
6.0801617
0
LINE
8
DEFAULT_255_2_778
10
19.3463347
20
7.7877617
11
19.3463347
21
7.5229617
0
LINE
8
DEFAULT_255_2_778
10
19.3463347
20
7.5229617
11
18.8772347
21
7.5229617
0
LINE
8
DEFAULT_255_2_778
10
18.8772347
20
7.5229617
11
18.8772347
21
6.1081617
0
LINE
8
DEFAULT_255_2_778
10
18.8772347
20
6.1081617
11
18.5485347
21
6.1081617
0
LINE
8
DEFAULT_255_2_778
10
18.5485347
20
6.1081617
11
18.5485347
21
7.5229617
0
LINE
8
DEFAULT_255_2_778
10
18.5485347
20
7.5229617
11
18.0794347
21
7.5229617
0
LINE
8
DEFAULT_255_2_778
10
18.0794347
20
7.5229617
11
18.0794347
21
7.7877617
0
LINE
8
DEFAULT_255_2_778
10
18.0794347
20
7.7877617
11
19.3465347
21
7.7877617
0
LINE
8
DEFAULT_255_2_778
10
18.0128347
20
7.0482617
11
18.0128347
21
6.7923617
0
LINE
8
DEFAULT_255_2_778
10
18.0128347
20
6.7923617
11
17.3955347
21
6.7923617
0
LINE
8
DEFAULT_255_2_778
10
17.3955347
20
6.7923617
11
17.3955347
21
7.0482617
0
LINE
8
DEFAULT_255_2_778
10
17.3955347
20
7.0482617
11
18.0128347
21
7.0482617
0
LINE
8
DEFAULT_255_2_778
10
17.0986347
20
6.3727617
11
17.0986347
21
6.1081617
0
LINE
8
DEFAULT_255_2_778
10
17.0986347
20
6.1081617
11
16.1271347
21
6.1081617
0
LINE
8
DEFAULT_255_2_778
10
16.1271347
20
6.1081617
11
16.1271347
21
7.7877617
0
LINE
8
DEFAULT_255_2_778
10
16.1271347
20
7.7877617
11
17.0939347
21
7.7877617
0
LINE
8
DEFAULT_255_2_778
10
17.0939347
20
7.7877617
11
17.0939347
21
7.5229617
0
LINE
8
DEFAULT_255_2_778
10
17.0939347
20
7.5229617
11
16.4560347
21
7.5229617
0
LINE
8
DEFAULT_255_2_778
10
16.4560347
20
7.5229617
11
16.4560347
21
7.1093617
0
LINE
8
DEFAULT_255_2_778
10
16.4560347
20
7.1093617
11
17.0402347
21
7.1093617
0
LINE
8
DEFAULT_255_2_778
10
17.0402347
20
7.1093617
11
17.0402347
21
6.8445617
0
LINE
8
DEFAULT_255_2_778
10
17.0402347
20
6.8445617
11
16.4560347
21
6.8445617
0
LINE
8
DEFAULT_255_2_778
10
16.4560347
20
6.8445617
11
16.4560347
21
6.3730617
0
LINE
8
DEFAULT_255_2_778
10
16.4560347
20
6.3730617
11
17.0989347
21
6.3730617
0
LINE
8
DEFAULT_255_2_778
10
20.3715347
20
7.3503617
11
20.8504347
21
7.7321617
0
LINE
8
DEFAULT_255_2_778
10
20.8504347
20
7.7321617
11
21.1412347
21
7.7321617
0
LINE
8
DEFAULT_255_2_778
10
21.1412347
20
7.7321617
11
21.1412347
21
6.1081617
0
LINE
8
DEFAULT_255_2_778
10
21.1412347
20
6.1081617
11
20.8129347
21
6.1081617
0
LINE
8
DEFAULT_255_2_778
10
20.8129347
20
6.1081617
11
20.8129347
21
7.3623617
0
LINE
8
DEFAULT_255_2_778
10
20.8129347
20
7.3623617
11
20.5358347
21
7.1389617
0
LINE
8
DEFAULT_255_2_778
10
20.5358347
20
7.1389617
11
20.3715347
21
7.3506617
0
LINE
8
DEFAULT_255_2_778
10
28.6313347
20
7.7192617
11
28.5982347
21
7.4474617
0
LINE
8
DEFAULT_255_2_778
10
32.4754347
20
6.1081617
11
33.0128347
21
6.9815617
0
LINE
8
DEFAULT_255_2_778
10
33.0128347
20
6.9815617
11
32.5249347
21
7.7877617
0
LINE
8
DEFAULT_255_2_778
10
32.5249347
20
7.7877617
11
32.9054347
21
7.7877617
0
LINE
8
DEFAULT_255_2_778
10
32.9054347
20
7.7877617
11
33.2477347
21
7.1884617
0
LINE
8
DEFAULT_255_2_778
10
33.2477347
20
7.1884617
11
33.5975347
21
7.7877617
0
LINE
8
DEFAULT_255_2_778
10
33.5975347
20
7.7877617
11
33.9497347
21
7.7877617
0
LINE
8
DEFAULT_255_2_778
10
33.9497347
20
7.7877617
11
33.4568347
21
6.9815617
0
LINE
8
DEFAULT_255_2_778
10
33.4568347
20
6.9815617
11
33.9941347
21
6.1081617
0
LINE
8
DEFAULT_255_2_778
10
33.9941347
20
6.1081617
11
33.6068347
21
6.1081617
0
LINE
8
DEFAULT_255_2_778
10
33.6068347
20
6.1081617
11
33.2292347
21
6.7624617
0
LINE
8
DEFAULT_255_2_778
10
33.2292347
20
6.7624617
11
32.8464347
21
6.1081617
0
LINE
8
DEFAULT_255_2_778
10
32.8464347
20
6.1081617
11
32.4754347
21
6.1081617
0
LINE
8
DEFAULT_255_2_778
10
32.3148347
20
7.7877617
11
32.3148347
21
7.5229617
0
LINE
8
DEFAULT_255_2_778
10
32.3148347
20
7.5229617
11
31.8457347
21
7.5229617
0
LINE
8
DEFAULT_255_2_778
10
31.8457347
20
7.5229617
11
31.8457347
21
6.1081617
0
LINE
8
DEFAULT_255_2_778
10
31.8457347
20
6.1081617
11
31.5171347
21
6.1081617
0
LINE
8
DEFAULT_255_2_778
10
31.5171347
20
6.1081617
11
31.5171347
21
7.5229617
0
LINE
8
DEFAULT_255_2_778
10
31.5171347
20
7.5229617
11
31.0475347
21
7.5229617
0
LINE
8
DEFAULT_255_2_778
10
31.0475347
20
7.5229617
11
31.0475347
21
7.7877617
0
LINE
8
DEFAULT_255_2_778
10
31.0475347
20
7.7877617
11
32.3148347
21
7.7877617
0
LINE
8
DEFAULT_255_2_778
10
30.9811347
20
7.0482617
11
30.9811347
21
6.7923617
0
LINE
8
DEFAULT_255_2_778
10
30.9811347
20
6.7923617
11
30.3640347
21
6.7923617
0
LINE
8
DEFAULT_255_2_778
10
30.3640347
20
6.7923617
11
30.3640347
21
7.0482617
0
LINE
8
DEFAULT_255_2_778
10
30.3640347
20
7.0482617
11
30.9811347
21
7.0482617
0
LINE
8
DEFAULT_255_2_778
10
30.0669347
20
6.3727617
11
30.0669347
21
6.1081617
0
LINE
8
DEFAULT_255_2_778
10
30.0669347
20
6.1081617
11
29.0954347
21
6.1081617
0
LINE
8
DEFAULT_255_2_778
10
29.0954347
20
6.1081617
11
29.0954347
21
7.7877617
0
LINE
8
DEFAULT_255_2_778
10
29.0954347
20
7.7877617
11
30.0624347
21
7.7877617
0
LINE
8
DEFAULT_255_2_778
10
30.0624347
20
7.7877617
11
30.0624347
21
7.5229617
0
LINE
8
DEFAULT_255_2_778
10
30.0624347
20
7.5229617
11
29.4237347
21
7.5229617
0
LINE
8
DEFAULT_255_2_778
10
29.4237347
20
7.5229617
11
29.4237347
21
7.1093617
0
LINE
8
DEFAULT_255_2_778
10
29.4237347
20
7.1093617
11
30.0084347
21
7.1093617
0
LINE
8
DEFAULT_255_2_778
10
30.0084347
20
7.1093617
11
30.0084347
21
6.8445617
0
LINE
8
DEFAULT_255_2_778
10
30.0084347
20
6.8445617
11
29.4237347
21
6.8445617
0
LINE
8
DEFAULT_255_2_778
10
29.4237347
20
6.8445617
11
29.4237347
21
6.3730617
0
LINE
8
DEFAULT_255_2_778
10
29.4237347
20
6.3730617
11
30.0669347
21
6.3730617
0
LINE
8
DEFAULT_255_2_778
10
11.2238347
20
6.9347617
11
11.2238347
21
6.9347617
0
LINE
8
DEFAULT_255_2_778
10
10.6285347
20
7.4850617
11
10.6285347
21
7.4850617
0
ARC
8
DEFAULT_255_2_778
10
11.7764491
20
6.5613973
40
0.8275735
50
351.3802517
51
356.9788468
0
ARC
8
DEFAULT_255_2_778
10
11.9214416
20
6.5525659
40
0.6823182
50
357.0777143
51
359.9711528
0
ARC
8
DEFAULT_255_2_778
10
12.1580666
20
6.5639222
40
0.4458467
50
358.4962796
51
25.8273212
0
ARC
8
DEFAULT_255_2_778
10
12.2335865
20
6.5838343
40
0.3694993
50
28.1504827
51
70.3695764
0
ARC
8
DEFAULT_255_2_778
10
12.1182527
20
6.3217714
40
0.655401
50
68.569286
51
78.8783294
0
ARC
8
DEFAULT_255_2_778
10
12.2021507
20
7.3079457
40
0.3457072
50
277.0656631
51
347.878979
0
ARC
8
DEFAULT_255_2_778
10
11.9151378
20
7.410522
40
0.6490954
50
344.3438684
51
351.3646889
0
ARC
8
DEFAULT_255_2_778
10
11.7055538
20
7.3298056
40
0.8514859
50
358.8733829
51
359.9942255
0
ARC
8
DEFAULT_255_2_778
10
11.9890383
20
7.342146
40
0.5681372
50
358.7467377
51
20.3293125
0
ARC
8
DEFAULT_255_2_778
10
12.1780294
20
7.40222
40
0.3701649
50
21.7730478
51
78.477158
0
ARC
8
DEFAULT_255_2_778
10
12.0607854
20
6.9866466
40
0.8014168
50
76.1983074
51
90.7728568
0
ARC
8
DEFAULT_255_2_778
10
12.0500923
20
6.6290383
40
1.158952
50
90.0057771
51
91.1330484
0
ARC
8
DEFAULT_255_2_778
10
12.0291077
20
6.9974394
40
0.9292064
50
270.4666168
51
285.0363752
0
ARC
8
DEFAULT_255_2_778
10
12.157929
20
6.5476313
40
0.4614433
50
284.0782686
51
318.0332609
0
ARC
8
DEFAULT_255_2_778
10
12.1656784
20
6.5192634
40
0.4370016
50
320.1197616
51
349.2248717
0
ARC
8
DEFAULT_255_2_778
10
12.0276685
20
6.7140027
40
0.3791569
50
269.4418649
51
293.3279398
0
ARC
8
DEFAULT_255_2_778
10
12.089546
20
6.5488256
40
0.2031611
50
295.7511538
51
5.4903853
0
ARC
8
DEFAULT_255_2_778
10
11.9596442
20
6.5809062
40
0.3323714
50
357.8201115
51
25.9250055
0
ARC
8
DEFAULT_255_2_778
10
12.0692848
20
6.6185248
40
0.2177747
50
29.6376167
51
88.6198219
0
ARC
8
DEFAULT_255_2_778
10
12.0299842
20
6.3921388
40
0.4463261
50
84.2720057
51
90.1295538
0
LINE
8
DEFAULT_255_2_778
10
12.028975
20
6.8384638
11
11.828175
21
6.8384638
0
LINE
8
DEFAULT_255_2_778
10
11.828175
20
6.8384638
11
11.828175
21
6.3351638
0
ARC
8
DEFAULT_255_2_778
10
11.9184818
20
7.6695967
40
1.3374851
50
266.1284533
51
270.1046644
0
ARC
8
DEFAULT_255_2_778
10
11.9182164
20
8.1661466
40
1.8340348
50
270.0846189
51
273.3057649
0
ARC
8
DEFAULT_255_2_778
10
12.007762
20
7.4541421
40
0.3628049
50
269.3071818
51
292.8106271
0
ARC
8
DEFAULT_255_2_778
10
12.076862
20
7.2773628
40
0.1731298
50
294.4123089
51
4.837804
0
ARC
8
DEFAULT_255_2_778
10
11.9949129
20
7.3049404
40
0.2547928
50
357.0806506
51
32.4454424
0
ARC
8
DEFAULT_255_2_778
10
12.0470258
20
7.315894
40
0.2057906
50
37.6631454
51
87.7912111
0
ARC
8
DEFAULT_255_2_778
10
12.0092464
20
7.0934511
40
0.4305143
50
83.9050025
51
90.1558907
0
LINE
8
DEFAULT_255_2_778
10
12.008075
20
7.5239638
11
11.823675
21
7.5239638
0
LINE
8
DEFAULT_255_2_778
10
11.823675
20
7.5239638
11
11.823675
21
7.0913638
0
ARC
8
DEFAULT_255_2_778
10
11.9066331
20
8.3876114
40
1.2988995
50
266.3381439
51
270.0977922
0
ARC
8
DEFAULT_255_2_778
10
11.906392
20
8.8635567
40
1.7748446
50
270.0793493
51
273.1323785
0
LINE
8
DEFAULT_255_2_778
10
12.027175
20
7.7877638
11
11.525775
21
7.7877638
0
LINE
8
DEFAULT_255_2_778
10
11.525775
20
7.7877638
11
11.525775
21
6.0682638
0
LINE
8
DEFAULT_255_2_778
10
11.525775
20
6.0682638
11
12.036675
21
6.0682638
0
LINE
8
DEFAULT_255_2_778
10
12.594975
20
6.4375638
11
12.594675
21
6.4373638
0
LINE
8
DEFAULT_255_2_778
10
12.023975
20
6.3351638
11
12.023975
21
6.3348638
0
LINE
8
DEFAULT_255_2_778
10
12.003375
20
7.0913638
11
12.003375
21
7.0913638
0
LINE
8
DEFAULT_255_2_778
10
12.838875
20
6.1081638
11
13.477375
21
7.7877638
0
LINE
8
DEFAULT_255_2_778
10
13.477375
20
7.7877638
11
13.847975
21
7.7877638
0
LINE
8
DEFAULT_255_2_778
10
13.847975
20
7.7877638
11
14.491175
21
6.1081638
0
LINE
8
DEFAULT_255_2_778
10
14.491175
20
6.1081638
11
14.127375
21
6.1081638
0
LINE
8
DEFAULT_255_2_778
10
14.127375
20
6.1081638
11
13.986375
21
6.4931638
0
LINE
8
DEFAULT_255_2_778
10
13.986375
20
6.4931638
11
13.322275
21
6.4931638
0
LINE
8
DEFAULT_255_2_778
10
13.322275
20
6.4931638
11
13.178875
21
6.1081638
0
LINE
8
DEFAULT_255_2_778
10
13.178875
20
6.1081638
11
12.838875
21
6.1081638
0
LINE
8
DEFAULT_255_2_778
10
13.652975
20
7.4506638
11
13.415975
21
6.7577638
0
LINE
8
DEFAULT_255_2_778
10
13.415975
20
6.7577638
11
13.894875
21
6.7577638
0
LINE
8
DEFAULT_255_2_778
10
13.894875
20
6.7577638
11
13.657775
21
7.4506638
0
LINE
8
DEFAULT_255_2_778
10
13.657775
20
7.4506638
11
13.652975
21
7.4506638
0
ARC
8
DEFAULT_255_2_778
10
20.9462763
20
6.9331353
40
1.8346517
50
359.619061
51
8.2205792
0
ARC
8
DEFAULT_255_2_778
10
21.7644856
20
7.056363
40
1.0072421
50
7.9378486
51
22.1360041
0
ARC
8
DEFAULT_255_2_778
10
22.2045512
20
7.2435408
40
0.5291371
50
21.3171797
51
53.4652632
0
ARC
8
DEFAULT_255_2_778
10
22.2250389
20
7.2362616
40
0.5232027
50
55.7431285
51
88.8806042
0
ARC
8
DEFAULT_255_2_778
10
22.1985833
20
6.9894122
40
0.7708254
50
87.2727681
51
90.021989
0
ARC
8
DEFAULT_255_2_778
10
22.1851427
20
7.0826975
40
0.6776675
50
88.8885585
51
110.9302709
0
ARC
8
DEFAULT_255_2_778
10
22.1350104
20
7.2505654
40
0.5031391
50
112.4271556
51
160.4565489
0
ARC
8
DEFAULT_255_2_778
10
22.5702525
20
7.0690999
40
0.9743417
50
158.9619758
51
173.6257245
0
ARC
8
DEFAULT_255_2_778
10
23.2338518
20
6.9818332
40
1.6435789
50
173.1707012
51
180.2403877
0
ARC
8
DEFAULT_255_2_778
10
23.6674887
20
6.9627908
40
2.0772367
50
179.6649602
51
187.5474945
0
ARC
8
DEFAULT_255_2_778
10
22.7667409
20
6.8386188
40
1.1679928
50
187.312776
51
199.9537012
0
ARC
8
DEFAULT_255_2_778
10
22.2569314
20
6.6468133
40
0.623364
50
199.3734225
51
224.2963696
0
ARC
8
DEFAULT_255_2_778
10
22.1639045
20
6.5791654
40
0.5098069
50
226.1565962
51
268.0468926
0
ARC
8
DEFAULT_255_2_778
10
22.1977393
20
6.8323787
40
0.7644413
50
266.1588876
51
270.0410868
0
ARC
8
DEFAULT_255_2_778
10
22.212084
20
6.6357415
40
0.5679716
50
268.6081049
51
296.2550152
0
ARC
8
DEFAULT_255_2_778
10
22.2256479
20
6.565992
40
0.4997674
50
298.3982676
51
336.9680176
0
ARC
8
DEFAULT_255_2_778
10
21.8086476
20
6.7620723
40
0.9603985
50
335.9358196
51
350.9383561
0
ARC
8
DEFAULT_255_2_778
10
21.0231269
20
6.8976239
40
1.7574938
50
350.6076938
51
359.3718403
0
ARC
8
DEFAULT_255_2_778
10
20.3769779
20
6.9206575
40
2.4039095
50
358.9917186
51
0.0066723
0
ARC
8
DEFAULT_255_2_778
10
22.1913874
20
7.3180395
40
0.1446143
50
92.2984999
51
158.1139243
0
ARC
8
DEFAULT_255_2_778
10
22.5165538
20
7.1422627
40
0.5135799
50
153.4344825
51
169.29362
0
ARC
8
DEFAULT_255_2_778
10
23.3038599
20
6.9778499
40
1.3178134
50
168.6289109
51
176.5438155
0
ARC
8
DEFAULT_255_2_778
10
24.5612276
20
6.8879584
40
2.5783508
50
176.2343233
51
180.1649069
0
ARC
8
DEFAULT_255_2_778
10
23.9018088
20
6.8686043
40
1.9189583
50
179.6437004
51
185.829
0
ARC
8
DEFAULT_255_2_778
10
22.8066393
20
6.7510624
40
0.8175338
50
185.4288913
51
196.8079935
0
ARC
8
DEFAULT_255_2_778
10
22.2850695
20
6.5862057
40
0.2706654
50
195.3273152
51
222.5972814
0
ARC
8
DEFAULT_255_2_778
10
22.1742218
20
6.4893567
40
0.1235721
50
224.3283734
51
270.5769582
0
ARC
8
DEFAULT_255_2_778
10
22.1753962
20
6.5158722
40
0.1500811
50
270.026699
51
273.893689
0
ARC
8
DEFAULT_255_2_778
10
22.1810151
20
6.519628
40
0.1535586
50
271.7063147
51
339.7039114
0
ARC
8
DEFAULT_255_2_778
10
21.8420886
20
6.6911669
40
0.5327087
50
335.0389659
51
351.0252282
0
ARC
8
DEFAULT_255_2_778
10
21.0302022
20
6.8349283
40
1.3571688
50
350.3772889
51
358.4515791
0
ARC
8
DEFAULT_255_2_778
10
20.0907834
20
6.8788105
40
2.2975048
50
357.99068
51
0.0430675
0
ARC
8
DEFAULT_255_2_778
10
19.4691518
20
6.9449275
40
2.9198458
50
358.7363801
51
359.8221377
0
ARC
8
DEFAULT_255_2_778
10
19.6492886
20
6.9436275
40
2.7397059
50
359.8376295
51
359.9982047
0
ARC
8
DEFAULT_255_2_778
10
20.5168984
20
6.9547823
40
1.87213
50
359.6559818
51
5.8552115
0
ARC
8
DEFAULT_255_2_778
10
21.5588699
20
7.0672341
40
0.8241417
50
5.4680838
51
16.8042615
0
ARC
8
DEFAULT_255_2_778
10
22.0711639
20
7.2288915
40
0.2870651
50
15.4771378
51
41.7786184
0
ARC
8
DEFAULT_255_2_778
10
22.1872087
20
7.3280242
40
0.134523
50
43.2224702
51
90.6904961
0
LINE
8
DEFAULT_255_2_778
10
22.7808875
20
6.9209375
11
22.7808875
21
6.9209375
0
LINE
8
DEFAULT_255_2_778
10
22.1855875
20
7.4625375
11
22.1855875
21
7.4625375
0
ARC
8
DEFAULT_255_2_778
10
22.3575763
20
6.9331353
40
1.8346517
50
359.619061
51
8.2205792
0
ARC
8
DEFAULT_255_2_778
10
23.1757856
20
7.056363
40
1.0072421
50
7.9378486
51
22.1360041
0
ARC
8
DEFAULT_255_2_778
10
23.6158512
20
7.2435408
40
0.5291371
50
21.3171797
51
53.4652632
0
ARC
8
DEFAULT_255_2_778
10
23.6363389
20
7.2362616
40
0.5232027
50
55.7431285
51
88.8806042
0
ARC
8
DEFAULT_255_2_778
10
23.6098833
20
6.9894122
40
0.7708254
50
87.2727681
51
90.021989
0
ARC
8
DEFAULT_255_2_778
10
23.5964427
20
7.0826975
40
0.6776675
50
88.8885585
51
110.9302709
0
ARC
8
DEFAULT_255_2_778
10
23.5463104
20
7.2505654
40
0.5031391
50
112.4271556
51
160.4565489
0
ARC
8
DEFAULT_255_2_778
10
23.9815525
20
7.0690999
40
0.9743417
50
158.9619758
51
173.6257245
0
ARC
8
DEFAULT_255_2_778
10
24.6451518
20
6.9818332
40
1.6435789
50
173.1707012
51
180.2403877
0
ARC
8
DEFAULT_255_2_778
10
25.0787887
20
6.9627908
40
2.0772367
50
179.6649602
51
187.5474945
0
ARC
8
DEFAULT_255_2_778
10
24.1780409
20
6.8386188
40
1.1679928
50
187.312776
51
199.9537012
0
ARC
8
DEFAULT_255_2_778
10
23.6682314
20
6.6468133
40
0.623364
50
199.3734225
51
224.2963696
0
ARC
8
DEFAULT_255_2_778
10
23.5752045
20
6.5791654
40
0.5098069
50
226.1565962
51
268.0468926
0
ARC
8
DEFAULT_255_2_778
10
23.6090393
20
6.8323787
40
0.7644413
50
266.1588876
51
270.0410868
0
ARC
8
DEFAULT_255_2_778
10
23.623384
20
6.6357415
40
0.5679716
50
268.6081049
51
296.2550152
0
ARC
8
DEFAULT_255_2_778
10
23.6369479
20
6.565992
40
0.4997674
50
298.3982676
51
336.9680176
0
ARC
8
DEFAULT_255_2_778
10
23.2199476
20
6.7620723
40
0.9603985
50
335.9358196
51
350.9383561
0
ARC
8
DEFAULT_255_2_778
10
22.4344269
20
6.8976239
40
1.7574938
50
350.6076938
51
359.3718403
0
ARC
8
DEFAULT_255_2_778
10
21.7882779
20
6.9206575
40
2.4039095
50
358.9917186
51
0.0066723
0
ARC
8
DEFAULT_255_2_778
10
23.6026874
20
7.3180395
40
0.1446143
50
92.2984999
51
158.1139243
0
ARC
8
DEFAULT_255_2_778
10
23.9278538
20
7.1422627
40
0.5135799
50
153.4344825
51
169.29362
0
ARC
8
DEFAULT_255_2_778
10
24.7151599
20
6.9778499
40
1.3178134
50
168.6289109
51
176.5438155
0
ARC
8
DEFAULT_255_2_778
10
25.9725276
20
6.8879584
40
2.5783508
50
176.2343233
51
180.1649069
0
ARC
8
DEFAULT_255_2_778
10
25.3131088
20
6.8686043
40
1.9189583
50
179.6437004
51
185.829
0
ARC
8
DEFAULT_255_2_778
10
24.2179393
20
6.7510624
40
0.8175338
50
185.4288913
51
196.8079935
0
ARC
8
DEFAULT_255_2_778
10
23.6963695
20
6.5862057
40
0.2706654
50
195.3273152
51
222.5972814
0
ARC
8
DEFAULT_255_2_778
10
23.5855218
20
6.4893567
40
0.1235721
50
224.3283734
51
270.5769582
0
ARC
8
DEFAULT_255_2_778
10
23.5866962
20
6.5158722
40
0.1500811
50
270.026699
51
273.893689
0
ARC
8
DEFAULT_255_2_778
10
23.5923151
20
6.519628
40
0.1535586
50
271.7063147
51
339.7039114
0
ARC
8
DEFAULT_255_2_778
10
23.2533886
20
6.6911669
40
0.5327087
50
335.0389659
51
351.0252282
0
ARC
8
DEFAULT_255_2_778
10
22.4415022
20
6.8349283
40
1.3571688
50
350.3772889
51
358.4515791
0
ARC
8
DEFAULT_255_2_778
10
21.5020834
20
6.8788105
40
2.2975048
50
357.99068
51
0.0430675
0
ARC
8
DEFAULT_255_2_778
10
20.8804518
20
6.9449275
40
2.9198458
50
358.7363801
51
359.8221377
0
ARC
8
DEFAULT_255_2_778
10
21.0605886
20
6.9436275
40
2.7397059
50
359.8376295
51
359.9982047
0
ARC
8
DEFAULT_255_2_778
10
21.9281984
20
6.9547823
40
1.87213
50
359.6559818
51
5.8552115
0
ARC
8
DEFAULT_255_2_778
10
22.9701699
20
7.0672341
40
0.8241417
50
5.4680838
51
16.8042615
0
ARC
8
DEFAULT_255_2_778
10
23.4824639
20
7.2288915
40
0.2870651
50
15.4771378
51
41.7786184
0
ARC
8
DEFAULT_255_2_778
10
23.5985087
20
7.3280242
40
0.134523
50
43.2224702
51
90.6904961
0
LINE
8
DEFAULT_255_2_778
10
24.1921875
20
6.9209375
11
24.1921875
21
6.9209375
0
LINE
8
DEFAULT_255_2_778
10
23.5968875
20
7.4625375
11
23.5968875
21
7.4625375
0
ARC
8
DEFAULT_255_2_778
10
24.7446055
20
6.5612831
40
0.827766
50
351.3934523
51
356.9836418
0
ARC
8
DEFAULT_255_2_778
10
24.889565
20
6.5524694
40
0.6825446
50
357.0821548
51
359.9712486
0
ARC
8
DEFAULT_255_2_778
10
25.1261992
20
6.5638331
40
0.4460638
50
358.4962056
51
25.8236125
0
ARC
8
DEFAULT_255_2_778
10
25.2018449
20
6.5838044
40
0.3695759
50
28.1457529
51
70.3671965
0
ARC
8
DEFAULT_255_2_778
10
25.0865191
20
6.3217718
40
0.6554469
50
68.5678261
51
78.8783284
0
ARC
8
DEFAULT_255_2_778
10
25.1706166
20
7.3077216
40
0.3454162
50
277.0397753
51
347.7352111
0
ARC
8
DEFAULT_255_2_778
10
24.8851502
20
7.4100335
40
0.6472978
50
344.2512932
51
351.3883334
0
ARC
8
DEFAULT_255_2_778
10
24.6751452
20
7.3300101
40
0.8501731
50
358.8609323
51
359.994803
0
ARC
8
DEFAULT_255_2_778
10
24.9577108
20
7.3423532
40
0.5677432
50
358.7464676
51
20.3364217
0
ARC
8
DEFAULT_255_2_778
10
25.1463708
20
7.402299
40
0.370128
50
21.7849014
51
78.4858306
0
ARC
8
DEFAULT_255_2_778
10
25.029066
20
6.9864141
40
0.8016946
50
76.2032971
51
90.7726757
0
ARC
8
DEFAULT_255_2_778
10
25.0183719
20
6.6286397
40
1.1593962
50
90.0057829
51
91.1328291
0
ARC
8
DEFAULT_255_2_778
10
24.9974879
20
6.9973911
40
0.9291125
50
270.466354
51
285.0371323
0
ARC
8
DEFAULT_255_2_778
10
25.126313
20
6.5475661
40
0.461332
50
284.0796531
51
318.0248429
0
ARC
8
DEFAULT_255_2_778
10
25.1341055
20
6.5191478
40
0.4368224
50
320.1128549
51
349.2419051
0
ARC
8
DEFAULT_255_2_778
10
24.9962437
20
6.7140483
40
0.3791569
50
269.4418649
51
293.3279398
0
ARC
8
DEFAULT_255_2_778
10
25.0581213
20
6.5488711
40
0.2031611
50
295.7511538
51
5.4903853
0
ARC
8
DEFAULT_255_2_778
10
24.9281119
20
6.5809534
40
0.3324789
50
357.8205323
51
25.9156981
0
ARC
8
DEFAULT_255_2_778
10
25.037907
20
6.6186426
40
0.2177091
50
29.6255604
51
88.6298049
0
ARC
8
DEFAULT_255_2_778
10
24.9986519
20
6.3923648
40
0.4461457
50
84.2806491
51
90.1286385
0
LINE
8
DEFAULT_255_2_778
10
24.9976503
20
6.8385093
11
24.7967503
21
6.8385093
0
LINE
8
DEFAULT_255_2_778
10
24.7967503
20
6.8385093
11
24.7967503
21
6.3352093
0
ARC
8
DEFAULT_255_2_778
10
24.8870666
20
7.6698903
40
1.3377333
50
266.1287613
51
270.1042347
0
ARC
8
DEFAULT_255_2_778
10
24.8867918
20
8.1661849
40
1.8340276
50
270.0846141
51
273.3057728
0
ARC
8
DEFAULT_255_2_778
10
24.9763372
20
7.4541877
40
0.3628049
50
269.3071818
51
292.8106271
0
ARC
8
DEFAULT_255_2_778
10
25.0454372
20
7.2774084
40
0.1731298
50
294.4123089
51
4.837804
0
ARC
8
DEFAULT_255_2_778
10
24.9634881
20
7.304986
40
0.2547928
50
357.0806506
51
32.4454424
0
ARC
8
DEFAULT_255_2_778
10
25.015601
20
7.3159395
40
0.2057906
50
37.6631454
51
87.7912111
0
ARC
8
DEFAULT_255_2_778
10
24.9778216
20
7.0934966
40
0.4305143
50
83.9050025
51
90.1558907
0
LINE
8
DEFAULT_255_2_778
10
24.9766503
20
7.5240093
11
24.7922503
21
7.5240093
0
LINE
8
DEFAULT_255_2_778
10
24.7922503
20
7.5240093
11
24.7922503
21
7.0914093
0
ARC
8
DEFAULT_255_2_778
10
24.8752141
20
8.3878427
40
1.2990852
50
266.3384104
51
270.0975211
0
ARC
8
DEFAULT_255_2_778
10
24.8749594
20
8.863884
40
1.7751264
50
270.0795901
51
273.1321346
0
LINE
8
DEFAULT_255_2_778
10
24.9954503
20
7.7878093
11
24.4940503
21
7.7878093
0
LINE
8
DEFAULT_255_2_778
10
24.4940503
20
7.7878093
11
24.4940503
21
6.0683093
0
LINE
8
DEFAULT_255_2_778
10
24.4940503
20
6.0683093
11
25.0050503
21
6.0683093
0
LINE
8
DEFAULT_255_2_778
10
25.5632503
20
6.4376093
11
25.5630503
21
6.4374093
0
LINE
8
DEFAULT_255_2_778
10
24.9925503
20
6.3352093
11
24.9925503
21
6.3349093
0
LINE
8
DEFAULT_255_2_778
10
24.9719503
20
7.0914093
11
24.9719503
21
7.0914093
0
LINE
8
DEFAULT_255_2_778
10
25.8072503
20
6.1082093
11
26.4456503
21
7.7878093
0
LINE
8
DEFAULT_255_2_778
10
26.4456503
20
7.7878093
11
26.8163503
21
7.7878093
0
LINE
8
DEFAULT_255_2_778
10
26.8163503
20
7.7878093
11
27.4595503
21
6.1082093
0
LINE
8
DEFAULT_255_2_778
10
27.4595503
20
6.1082093
11
27.0957503
21
6.1082093
0
LINE
8
DEFAULT_255_2_778
10
27.0957503
20
6.1082093
11
26.9547503
21
6.4932093
0
LINE
8
DEFAULT_255_2_778
10
26.9547503
20
6.4932093
11
26.2906503
21
6.4932093
0
LINE
8
DEFAULT_255_2_778
10
26.2906503
20
6.4932093
11
26.1477503
21
6.1082093
0
LINE
8
DEFAULT_255_2_778
10
26.1477503
20
6.1082093
11
25.8072503
21
6.1082093
0
LINE
8
DEFAULT_255_2_778
10
26.6216503
20
7.4507093
11
26.3845503
21
6.7578093
0
LINE
8
DEFAULT_255_2_778
10
26.3845503
20
6.7578093
11
26.8634503
21
6.7578093
0
LINE
8
DEFAULT_255_2_778
10
26.8634503
20
6.7578093
11
26.6263503
21
7.4507093
0
LINE
8
DEFAULT_255_2_778
10
26.6263503
20
7.4507093
11
26.6216503
21
7.4507093
0
LINE
8
DEFAULT_255_2_778
10
9.1638503
20
7.0980093
11
9.0318503
21
7.4084093
0
LINE
8
DEFAULT_255_2_778
10
9.0318503
20
7.4084093
11
9.4086503
21
7.7878093
0
LINE
8
DEFAULT_255_2_778
10
9.4086503
20
7.7878093
11
9.6694503
21
7.7878093
0
LINE
8
DEFAULT_255_2_778
10
9.6694503
20
7.7878093
11
9.6694503
21
6.0680093
0
LINE
8
DEFAULT_255_2_778
10
9.6694503
20
6.0680093
11
9.3739503
21
6.0680093
0
LINE
8
DEFAULT_255_2_778
10
9.3739503
20
6.0680093
11
9.3739503
21
7.3295093
0
LINE
8
DEFAULT_255_2_778
10
9.3739503
20
7.3295093
11
9.1638503
21
7.0980093
0
ARC
8
DEFAULT_255_2_778
10
19.3864078
20
37.6329166
40
3.023156
50
270.3987957
51
273.0730217
0
ARC
8
DEFAULT_255_2_778
10
19.4005128
20
36.6833534
40
2.0735313
50
270.003369
51
270.1916806
0
ARC
8
DEFAULT_255_2_778
10
19.3788256
20
35.6256327
40
1.0160447
50
258.2775124
51
271.2299354
0
ARC
8
DEFAULT_255_2_778
10
19.2205466
20
34.8856376
40
0.2593671
50
229.812913
51
259.3007596
0
ARC
8
DEFAULT_255_2_778
10
19.148305
20
34.78711
40
0.1377371
50
222.6969378
51
226.3206492
0
ARC
8
DEFAULT_255_2_778
10
19.1961497
20
34.8264054
40
0.1995794
50
211.2352554
51
221.6736418
0
ARC
8
DEFAULT_255_2_778
10
19.3106047
20
34.9008447
40
0.3360717
50
210.9574579
51
211.9680206
0
ARC
8
DEFAULT_255_2_778
10
19.6925402
20
35.1099194
40
0.7713398
50
201.0525777
51
209.6814828
0
ARC
8
DEFAULT_255_2_778
10
20.872358
20
35.5913815
40
2.0455181
50
199.5368469
51
201.7670171
0
ARC
8
DEFAULT_255_2_778
10
22.5550999
20
36.1917359
40
3.8321465
50
198.5042605
51
199.5825871
0
ARC
8
DEFAULT_255_2_778
10
15.0817194
20
33.6895105
40
4.0490049
50
18.5183412
51
20.9971755
0
ARC
8
DEFAULT_255_2_778
10
17.4852647
20
34.6144355
40
1.4736403
50
20.9091032
51
27.9533312
0
ARC
8
DEFAULT_255_2_778
10
16.8671329
20
36.3515784
40
1.5007082
50
329.778593
51
332.7060448
0
ARC
8
DEFAULT_255_2_778
10
11.0092011
20
39.3064336
40
8.0616423
50
333.1346881
51
334.2232981
0
ARC
8
DEFAULT_255_2_778
10
20.4065142
20
35.0196168
40
2.2760623
50
159.7871305
51
159.92948
0
ARC
8
DEFAULT_255_2_778
10
19.1521035
20
35.5037019
40
0.9318817
50
150.0798089
51
161.0699628
0
ARC
8
DEFAULT_255_2_778
10
18.6148072
20
35.8065637
40
0.3151783
50
136.5026083
51
149.0793773
0
ARC
8
DEFAULT_255_2_778
10
18.6697602
20
35.7768787
40
0.3758276
50
105.8125581
51
138.9870788
0
ARC
8
DEFAULT_255_2_778
10
18.8315369
20
35.267508
40
0.9101616
50
95.8458798
51
106.8737136
0
ARC
8
DEFAULT_255_2_778
10
18.9866095
20
33.9082762
40
2.2781743
50
91.1618166
51
96.2438653
0
ARC
8
DEFAULT_255_2_778
10
19.0487113
20
31.9970156
40
4.1903663
50
90.3409609
51
91.4808975
0
ARC
8
DEFAULT_255_2_778
10
19.4591172
20
36.2976536
40
0.4491091
50
194.2231659
51
269.0377548
0
ARC
8
DEFAULT_255_2_778
10
19.4415366
20
36.3044917
40
0.4559944
50
271.261438
51
354.0367367
0
ARC
8
DEFAULT_255_2_778
10
19.3493883
20
36.3348727
40
0.5511869
50
351.8903649
51
0.0348256
0
ARC
8
DEFAULT_255_2_778
10
19.394742
20
36.3420461
40
0.5058793
50
359.2254664
51
42.6651217
0
ARC
8
DEFAULT_255_2_778
10
19.4519534
20
36.3915207
40
0.4302872
50
42.9837466
51
90.0503814
0
ARC
8
DEFAULT_255_2_778
10
19.4581466
20
36.3747474
40
0.4471087
50
90.8421479
51
166.2910301
0
ARC
8
DEFAULT_255_2_778
10
19.0361161
20
33.4402958
40
3.040437
50
90.2325616
51
95.5905028
0
ARC
8
DEFAULT_255_2_778
10
18.8449984
20
35.2963844
40
1.1745961
50
95.132348
51
108.7620825
0
ARC
8
DEFAULT_255_2_778
10
18.6720133
20
35.8101661
40
0.6324785
50
108.8942743
51
138.6149544
0
ARC
8
DEFAULT_255_2_778
10
19.1240776
20
35.5054319
40
1.1752198
50
142.0409272
51
158.9104254
0
ARC
8
DEFAULT_255_2_778
10
15.3711888
20
37.0909147
40
2.8996626
50
334.3558638
51
336.3626945
0
ARC
8
DEFAULT_255_2_778
10
16.6715093
20
36.4692185
40
1.4583682
50
332.1086981
51
334.2657233
0
ARC
8
DEFAULT_255_2_778
10
17.4198051
20
36.0596371
40
0.6055146
50
320.1056906
51
333.2398552
0
ARC
8
DEFAULT_255_2_778
10
17.7367142
20
35.7848734
40
0.1862997
50
271.0951947
51
322.4281631
0
ARC
8
DEFAULT_255_2_778
10
16.7094331
20
35.4820598
40
0.5055594
50
13.3284303
51
87.9888612
0
ARC
8
DEFAULT_255_2_778
10
16.7472803
20
35.4791629
40
0.5085424
50
92.265775
51
168.323473
0
ARC
8
DEFAULT_255_2_778
10
16.7953576
20
35.4532715
40
0.5610826
50
166.7276527
51
180.0167208
0
ARC
8
DEFAULT_255_2_778
10
16.7852886
20
35.4507744
40
0.5510185
50
179.7573716
51
231.978691
0
ARC
8
DEFAULT_255_2_778
10
16.7300462
20
35.3806399
40
0.4617411
50
232.0183066
51
269.6437246
0
ARC
8
DEFAULT_255_2_778
10
16.7077564
20
35.4262013
40
0.5076651
50
272.192154
51
346.4905409
0
ARC
8
DEFAULT_255_2_778
10
18.3709686
20
35.1379924
40
0.1697601
50
33.7270174
51
87.6345602
0
ARC
8
DEFAULT_255_2_778
10
18.021114
20
34.8591093
40
0.6167305
50
24.7452301
51
37.2309575
0
ARC
8
DEFAULT_255_2_778
10
17.3773728
20
34.5346332
40
1.3374205
50
24.1873623
51
25.825824
0
ARC
8
DEFAULT_255_2_778
10
16.4149881
20
34.1098598
40
2.3893667
50
21.4515584
51
24.0236503
0
ARC
8
DEFAULT_255_2_778
10
11.7512259
20
32.2698757
40
7.4029686
50
20.570728
51
21.5050986
0
ARC
8
DEFAULT_255_2_778
10
-64.4064062
20
5.780717
40
88.0338421
50
19.2379112
51
19.2957514
0
ARC
8
DEFAULT_255_2_778
10
19.8583077
20
35.1508707
40
1.2031158
50
197.5984978
51
209.3870384
0
ARC
8
DEFAULT_255_2_778
10
19.161011
20
34.7709827
40
0.4092826
50
210.9498358
51
224.8553737
0
ARC
8
DEFAULT_255_2_778
10
19.2651297
20
34.910797
40
0.5822712
50
227.3827235
51
267.9057448
0
ARC
8
DEFAULT_255_2_778
10
19.3857486
20
35.7974059
40
1.4753309
50
264.4807661
51
269.1854591
0
ARC
8
DEFAULT_255_2_778
10
19.4014145
20
36.4456276
40
2.1237196
50
269.0114655
51
270.0156171
0
ARC
8
DEFAULT_255_2_778
10
19.3842733
20
38.3161465
40
3.9942777
50
270.2541856
51
272.4120427
0
LINE
8
DEFAULT_255_2_778
10
16.8216751
20
39.1096078
11
17.2274751
21
39.1096078
0
LINE
8
DEFAULT_255_2_778
10
17.2274751
20
39.1096078
11
17.2274751
21
38.0936078
0
ARC
8
DEFAULT_255_2_778
10
17.7665384
20
38.0813852
40
0.5392018
50
178.701119
51
196.8316495
0
ARC
8
DEFAULT_255_2_778
10
17.4629034
20
37.9838364
40
0.2203957
50
195.414915
51
274.78159
0
ARC
8
DEFAULT_255_2_778
10
17.4992406
20
37.9853214
40
0.2218423
50
265.3549144
51
347.6779564
0
ARC
8
DEFAULT_255_2_778
10
17.1727024
20
38.0832879
40
0.5623675
50
345.0255679
51
1.0514798
0
LINE
8
DEFAULT_255_2_778
10
17.7349751
20
38.0936078
11
17.7349751
21
39.1096078
0
LINE
8
DEFAULT_255_2_778
10
17.7349751
20
39.1096078
11
18.1662751
21
39.1096078
0
LINE
8
DEFAULT_255_2_778
10
18.1662751
20
39.1096078
11
18.1662751
21
38.0111078
0
ARC
8
DEFAULT_255_2_778
10
17.4186317
20
37.9983411
40
0.7477523
50
342.4139882
51
0.9782806
0
ARC
8
DEFAULT_255_2_778
10
17.6917083
20
37.9166842
40
0.4627901
50
281.588533
51
341.8363052
0
ARC
8
DEFAULT_255_2_778
10
17.5472447
20
38.4203663
40
0.9860504
50
269.6333506
51
283.9330902
0
ARC
8
DEFAULT_255_2_778
10
17.5321216
20
38.8114383
40
1.3771304
50
269.9980654
51
270.3666773
0
ARC
8
DEFAULT_255_2_778
10
17.5193877
20
38.6321592
40
1.1979187
50
258.1098174
51
270.6068432
0
ARC
8
DEFAULT_255_2_778
10
17.3977291
20
38.0836049
40
0.6360966
50
234.6226151
51
258.6526223
0
ARC
8
DEFAULT_255_2_778
10
17.3338573
20
37.9668256
40
0.50414
50
189.1750682
51
232.857094
0
ARC
8
DEFAULT_255_2_778
10
17.6519061
20
38.0444439
40
0.8309001
50
182.2993518
51
190.9621366
0
LINE
8
DEFAULT_255_2_778
10
16.8216751
20
38.0111078
11
16.8216751
21
39.1096078
0
ARC
8
DEFAULT_255_2_778
10
18.9608404
20
37.7397265
40
1.1678919
50
66.9412058
51
74.1394581
0
ARC
8
DEFAULT_255_2_778
10
19.0831347
20
38.1775597
40
0.7133072
50
73.977206
51
84.9442433
0
ARC
8
DEFAULT_255_2_778
10
19.1048465
20
38.3797504
40
0.510004
50
85.3721944
51
89.9387727
0
ARC
8
DEFAULT_255_2_778
10
19.0975036
20
38.5430648
40
0.3467789
50
88.6966305
51
117.5542125
0
ARC
8
DEFAULT_255_2_778
10
19.0825492
20
38.5849949
40
0.3027492
50
118.7159529
51
139.5763741
0
ARC
8
DEFAULT_255_2_778
10
19.1008819
20
38.6490198
40
0.2817888
50
152.0008971
51
166.3902328
0
ARC
8
DEFAULT_255_2_778
10
19.0084626
20
38.6726218
40
0.1864148
50
166.7567056
51
179.7142601
0
ARC
8
DEFAULT_255_2_778
10
18.9928188
20
38.6781782
40
0.1708314
50
181.5519446
51
237.318134
0
ARC
8
DEFAULT_255_2_778
10
19.1720888
20
38.9151531
40
0.4676523
50
234.5079167
51
250.5952189
0
ARC
8
DEFAULT_255_2_778
10
19.3278581
20
39.3134017
40
0.8951502
50
249.6602392
51
254.7413335
0
ARC
8
DEFAULT_255_2_778
10
18.7432073
20
37.366957
40
1.1377232
50
61.7668466
51
72.1327542
0
ARC
8
DEFAULT_255_2_778
10
18.9883387
20
37.8148616
40
0.6271572
50
44.0117082
51
62.1397769
0
ARC
8
DEFAULT_255_2_778
10
19.1579932
20
37.9785961
40
0.3913785
50
359.3417434
51
44.0291767
0
ARC
8
DEFAULT_255_2_778
10
19.0140294
20
37.9771446
40
0.5353253
50
347.4804714
51
359.6741107
0
ARC
8
DEFAULT_255_2_778
10
18.802797
20
38.0228627
40
0.7514463
50
339.0579554
51
347.5687932
0
ARC
8
DEFAULT_255_2_778
10
18.9630765
20
37.9588445
40
0.5788783
50
339.2134433
51
339.3055576
0
ARC
8
DEFAULT_255_2_778
10
18.8788315
20
38.0989358
40
0.7145414
50
313.3558566
51
331.0814208
0
ARC
8
DEFAULT_255_2_778
10
18.9986087
20
37.9812623
40
0.5467864
50
268.4800586
51
312.6952322
0
ARC
8
DEFAULT_255_2_778
10
18.9891344
20
38.2935416
40
0.8588881
50
258.6309985
51
269.6645098
0
ARC
8
DEFAULT_255_2_778
10
19.0612464
20
38.6629879
40
1.2353022
50
251.0658617
51
258.7298291
0
ARC
8
DEFAULT_255_2_778
10
19.2188459
20
39.1293792
40
1.7275976
50
245.7349442
51
251.1409155
0
ARC
8
DEFAULT_255_2_778
10
-1.3430629
20
40.1207809
40
20.0171355
50
352.6339012
51
353.4465022
0
ARC
8
DEFAULT_255_2_778
10
19.0793872
20
38.9773307
40
1.2607846
50
244.8353466
51
252.3082038
0
ARC
8
DEFAULT_255_2_778
10
18.9350243
20
38.518521
40
0.7798052
50
252.1689346
51
263.2147836
0
ARC
8
DEFAULT_255_2_778
10
18.9046296
20
38.2926139
40
0.5519003
50
263.5772455
51
269.8930122
0
ARC
8
DEFAULT_255_2_778
10
18.9155775
20
38.1037223
40
0.3632053
50
268.1100418
51
316.3256231
0
ARC
8
DEFAULT_255_2_778
10
18.97351
20
37.9704921
40
0.2361246
50
330.1338258
51
346.5786542
0
ARC
8
DEFAULT_255_2_778
10
19.0455633
20
37.951768
40
0.1616999
50
347.1060515
51
359.789385
0
ARC
8
DEFAULT_255_2_778
10
19.0415108
20
37.9451989
40
0.1658591
50
2.0644211
51
54.0077277
0
ARC
8
DEFAULT_255_2_778
10
18.8489321
20
37.7166501
40
0.4644489
50
51.3542292
51
67.3796376
0
ARC
8
DEFAULT_255_2_778
10
18.6383278
20
37.2468341
40
0.9792228
50
66.5779392
51
73.229288
0
ARC
8
DEFAULT_255_2_778
10
19.1066884
20
39.0076281
40
0.8439303
50
241.6300293
51
257.2806197
0
ARC
8
DEFAULT_255_2_778
10
18.8863081
20
38.6263867
40
0.403962
50
183.8862611
51
243.4401731
0
ARC
8
DEFAULT_255_2_778
10
19.408057
20
38.6222573
40
0.9250741
50
180.0075146
51
181.4401446
0
ARC
8
DEFAULT_255_2_778
10
19.1370693
20
38.6320995
40
0.6541623
50
163.0441237
51
180.8727015
0
ARC
8
DEFAULT_255_2_778
10
18.9091676
20
38.6982917
40
0.4168754
50
104.5123771
51
162.6112822
0
ARC
8
DEFAULT_255_2_778
10
19.042802
20
38.3035899
40
0.8330282
50
92.8657659
51
106.6080644
0
ARC
8
DEFAULT_255_2_778
10
19.0757508
20
37.8990083
40
1.2388161
50
89.9425937
51
93.4522321
0
ARC
8
DEFAULT_255_2_778
10
19.0745239
20
37.5764624
40
1.5613633
50
85.874066
51
89.909433
0
ARC
8
DEFAULT_255_2_778
10
19.0404209
20
37.1022896
40
2.0367609
50
82.2750456
51
85.8769232
0
ARC
8
DEFAULT_255_2_778
10
18.9623209
20
36.519471
40
2.6247886
50
79.4628884
51
82.2957828
0
ARC
8
DEFAULT_255_2_778
10
18.8949179
20
36.1416436
40
3.008572
50
79.1475136
51
79.516742
0
ARC
8
DEFAULT_255_2_778
10
20.2859991
20
37.9378543
40
0.7109795
50
350.3773307
51
356.61954
0
ARC
8
DEFAULT_255_2_778
10
20.412813
20
37.9292049
40
0.5838775
50
356.7330374
51
359.9675291
0
ARC
8
DEFAULT_255_2_778
10
20.6206056
20
37.9415467
40
0.3762982
50
358.0700685
51
33.4103382
0
ARC
8
DEFAULT_255_2_778
10
20.6243945
20
37.9222001
40
0.3842213
50
36.1307253
51
69.6762406
0
ARC
8
DEFAULT_255_2_778
10
20.490207
20
37.6073542
40
0.7262601
50
68.3760036
51
80.1958632
0
ARC
8
DEFAULT_255_2_778
10
20.5746634
20
38.7034041
40
0.382412
50
275.8853272
51
313.8360269
0
ARC
8
DEFAULT_255_2_778
10
20.5444325
20
38.7036584
40
0.4041125
50
316.9042584
51
350.5692426
0
ARC
8
DEFAULT_255_2_778
10
20.3286098
20
38.7615815
40
0.6268877
50
348.5785343
51
350.2675618
0
ARC
8
DEFAULT_255_2_778
10
20.217104
20
38.6715589
40
0.7295454
50
358.747158
51
359.9943479
0
ARC
8
DEFAULT_255_2_778
10
20.4639149
20
38.6842039
40
0.4829021
50
358.490975
51
24.3461205
0
ARC
8
DEFAULT_255_2_778
10
20.5746685
20
38.7179774
40
0.3683754
50
26.6623401
51
74.1026228
0
ARC
8
DEFAULT_255_2_778
10
20.4390799
20
38.3222447
40
0.7864206
50
72.4991644
51
88.1380705
0
ARC
8
DEFAULT_255_2_778
10
20.406685
20
37.8824447
40
1.2271745
50
87.2935146
51
90.037875
0
ARC
8
DEFAULT_255_2_778
10
20.4060174
20
37.7284022
40
1.3812166
50
90.0059579
51
91.0015269
0
ARC
8
DEFAULT_255_2_778
10
20.3825437
20
38.5843115
40
1.1180435
50
270.4833329
51
282.6928971
0
ARC
8
DEFAULT_255_2_778
10
20.5115907
20
38.0397865
40
0.5585058
50
282.0519676
51
306.1083037
0
ARC
8
DEFAULT_255_2_778
10
20.601241
20
37.9016119
40
0.3941446
50
307.4166299
51
347.9320967
0
ARC
8
DEFAULT_255_2_778
10
20.3818799
20
38.1792849
40
0.4581863
50
269.6367489
51
289.6022035
0
ARC
8
DEFAULT_255_2_778
10
20.4728709
20
37.9292885
40
0.192161
50
289.0515419
51
4.363161
0
ARC
8
DEFAULT_255_2_778
10
20.3837894
20
37.9568964
40
0.2809861
50
357.3505433
51
31.4658265
0
ARC
8
DEFAULT_255_2_778
10
20.4390841
20
37.9692087
40
0.2281357
50
36.0822802
51
84.8164959
0
ARC
8
DEFAULT_255_2_778
10
20.3872086
20
37.7129358
40
0.4888792
50
81.4732518
51
90.3086411
0
LINE
8
DEFAULT_255_2_778
10
20.3845751
20
38.2018078
11
20.1704751
21
38.2018078
0
LINE
8
DEFAULT_255_2_778
10
20.1704751
20
38.2018078
11
20.1704751
21
37.7208078
0
ARC
8
DEFAULT_255_2_778
10
20.2667236
20
39.3154164
40
1.5975108
50
266.5458903
51
270.0924061
0
ARC
8
DEFAULT_255_2_778
10
20.2664514
20
39.9009911
40
2.1830852
50
270.0747651
51
272.9545302
0
ARC
8
DEFAULT_255_2_778
10
20.3605242
20
38.8827392
40
0.4388458
50
269.5366211
51
289.2083937
0
ARC
8
DEFAULT_255_2_778
10
20.4545538
20
38.6253831
40
0.1649326
50
287.7758453
51
3.519409
0
ARC
8
DEFAULT_255_2_778
10
20.4057711
20
38.6495139
40
0.2138631
50
356.2449556
51
42.0606529
0
ARC
8
DEFAULT_255_2_778
10
20.4054689
20
38.6186416
40
0.2358659
50
47.587856
51
86.6204584
0
ARC
8
DEFAULT_255_2_778
10
20.3637388
20
38.3585427
40
0.4986679
50
83.594406
51
90.1911622
0
LINE
8
DEFAULT_255_2_778
10
20.3620751
20
38.8572078
11
20.1654751
21
38.8572078
0
LINE
8
DEFAULT_255_2_778
10
20.1654751
20
38.8572078
11
20.1654751
21
38.4439078
0
ARC
8
DEFAULT_255_2_778
10
20.2538109
20
40.002158
40
1.5607521
50
266.7554266
51
270.0877083
0
ARC
8
DEFAULT_255_2_778
10
20.2535641
20
40.5800342
40
2.1386281
50
270.0706196
51
272.7715537
0
LINE
8
DEFAULT_255_2_778
10
20.3559751
20
34.0434078
11
20.3559751
21
34.9186078
0
LINE
8
DEFAULT_255_2_778
10
20.3559751
20
34.9186078
11
19.5484751
21
34.9186078
0
LINE
8
DEFAULT_255_2_778
10
19.5484751
20
34.9186078
11
19.5484751
21
34.6141078
0
LINE
8
DEFAULT_255_2_778
10
18.7869751
20
35.3052078
11
20.8046751
21
35.3052078
0
LINE
8
DEFAULT_255_2_778
10
20.8046751
20
35.3052078
11
20.8046751
21
34.8186078
0
LINE
8
DEFAULT_255_2_778
10
20.8046751
20
34.8186078
11
21.7904751
21
35.4121078
0
LINE
8
DEFAULT_255_2_778
10
21.7904751
20
35.4121078
11
20.8046751
21
36.0828078
0
LINE
8
DEFAULT_255_2_778
10
20.8046751
20
36.0828078
11
20.8046751
21
35.5962078
0
LINE
8
DEFAULT_255_2_778
10
20.8046751
20
35.5962078
11
18.1638751
21
35.5962078
0
LINE
8
DEFAULT_255_2_778
10
17.7402751
20
35.5986078
11
17.2013751
21
35.5986078
0
LINE
8
DEFAULT_255_2_778
10
17.2013751
20
35.3076078
11
18.3779751
21
35.3076078
0
LINE
8
DEFAULT_255_2_778
10
19.5523751
20
34.3254078
11
19.5523751
21
34.0458078
0
LINE
8
DEFAULT_255_2_778
10
19.5523751
20
34.0458078
11
20.3556751
21
34.0458078
0
LINE
8
DEFAULT_255_2_778
10
20.3556751
20
34.0458078
11
20.3559751
21
34.0434078
0
LINE
8
DEFAULT_255_2_778
10
16.8216751
20
39.1096078
11
16.8216751
21
39.1096078
0
LINE
8
DEFAULT_255_2_778
10
19.4613751
20
39.0964078
11
19.4269751
21
38.8228078
0
LINE
8
DEFAULT_255_2_778
10
20.3818751
20
39.1094078
11
19.8476751
21
39.1094078
0
LINE
8
DEFAULT_255_2_778
10
19.8476751
20
39.1094078
11
19.8476751
21
37.4663078
0
LINE
8
DEFAULT_255_2_778
10
19.8476751
20
37.4663078
11
20.3919751
21
37.4663078
0
LINE
8
DEFAULT_255_2_778
10
20.9866751
20
37.8192078
11
20.9869751
21
37.8190078
0
LINE
8
DEFAULT_255_2_778
10
20.3789751
20
37.7208078
11
20.3789751
21
37.7211078
0
LINE
8
DEFAULT_255_2_778
10
20.3569751
20
38.4439078
11
20.3569751
21
38.4439078
0
ARC
8
DEFAULT_255_2_778
10
2.1802002
20
95.7192814
40
0.7413361
50
295.4151805
51
346.9957236
0
ARC
8
DEFAULT_255_2_778
10
1.6189507
20
95.883812
40
1.3256512
50
345.5253396
51
358.9828911
0
ARC
8
DEFAULT_255_2_778
10
1.1534388
20
95.9092673
40
1.7916239
50
358.4332139
51
0.0103375
0
ARC
8
DEFAULT_255_2_778
10
1.6889636
20
95.9224662
40
1.2561652
50
359.4127099
51
12.8333656
0
ARC
8
DEFAULT_255_2_778
10
2.2020876
20
96.0460949
40
0.7284285
50
12.3168048
51
39.567251
0
ARC
8
DEFAULT_255_2_778
10
2.2475506
20
96.0581728
40
0.6859702
50
41.2086284
51
73.5990166
0
ARC
8
DEFAULT_255_2_778
10
2.0973151
20
95.5957411
40
1.1720836
50
72.9365796
51
86.9475988
0
ARC
8
DEFAULT_255_2_778
10
2.0537135
20
95.0800883
40
1.6894032
50
86.4021834
51
90.055983
0
ARC
8
DEFAULT_255_2_778
10
2.0392419
20
95.5566688
40
1.2128895
50
89.3943424
51
103.3187313
0
ARC
8
DEFAULT_255_2_778
10
1.9157361
20
96.0463784
40
0.7079379
50
102.7221961
51
133.2297905
0
ARC
8
DEFAULT_255_2_778
10
1.9396156
20
96.0511725
40
0.7210973
50
134.8733701
51
163.5139081
0
ARC
8
DEFAULT_255_2_778
10
2.4217149
20
95.8960651
40
1.2274515
50
162.9575236
51
176.4697833
0
ARC
8
DEFAULT_255_2_778
10
2.9825229
20
95.8457589
40
1.7903616
50
175.9680111
51
180.0725915
0
ARC
8
DEFAULT_255_2_778
10
2.5366391
20
95.8815177
40
1.345014
50
181.6201204
51
194.4589764
0
ARC
8
DEFAULT_255_2_778
10
2.0043914
20
95.7379798
40
0.7938084
50
194.0189439
51
218.7959803
0
ARC
8
DEFAULT_255_2_778
10
1.9293602
20
95.7014636
40
0.7126927
50
220.2874993
51
254.958503
0
ARC
8
DEFAULT_255_2_778
10
2.0720516
20
96.175497
40
1.2076063
50
254.2571376
51
268.4833217
0
ARC
8
DEFAULT_255_2_778
10
2.1012422
20
96.632699
40
1.6655085
50
267.8957651
51
270.0179088
0
ARC
8
DEFAULT_255_2_778
10
2.0488443
20
96.1028363
40
0.3365093
50
86.7089377
51
157.9946259
0
ARC
8
DEFAULT_255_2_778
10
2.393191
20
95.9445366
40
0.7153037
50
156.5732816
51
173.133348
0
ARC
8
DEFAULT_255_2_778
10
3.0433926
20
95.8514234
40
1.3720528
50
172.5191456
51
180.3312678
0
ARC
8
DEFAULT_255_2_778
10
2.8152082
20
95.9025509
40
1.1453692
50
182.9557358
51
194.0496599
0
ARC
8
DEFAULT_255_2_778
10
2.2201016
20
95.7471848
40
0.5303844
50
193.3746124
51
215.1294235
0
ARC
8
DEFAULT_255_2_778
10
2.0380703
20
95.6255536
40
0.3115641
50
216.098403
51
272.518824
0
ARC
8
DEFAULT_255_2_778
10
2.0498392
20
95.7081039
40
0.393818
50
270.2798623
51
310.1147987
0
ARC
8
DEFAULT_255_2_778
10
2.0037075
20
95.7290546
40
0.4401031
50
312.9514925
51
344.0387184
0
ARC
8
DEFAULT_255_2_778
10
1.5460603
20
95.8758912
40
0.9206129
50
343.0846895
51
356.9426983
0
ARC
8
DEFAULT_255_2_778
10
1.2501969
20
95.8390815
40
1.215228
50
359.4204986
51
10.52224
0
ARC
8
DEFAULT_255_2_778
10
1.858561
20
95.9581108
40
0.5953868
50
9.9515629
51
30.9603871
0
ARC
8
DEFAULT_255_2_778
10
2.0548371
20
96.0682901
40
0.3704511
50
31.9645269
51
87.8921104
0
LINE
8
DEFAULT_255_2_778
10
17.4177628
20
95.9468906
11
18.1318628
21
95.9468906
0
LINE
8
DEFAULT_255_2_778
10
18.1318628
20
95.9468906
11
18.1318628
21
95.6838906
0
LINE
8
DEFAULT_255_2_778
10
18.1318628
20
95.6838906
11
17.4177628
21
95.6838906
0
LINE
8
DEFAULT_255_2_778
10
17.4177628
20
95.6838906
11
17.4177628
21
95.9466906
0
LINE
8
DEFAULT_255_2_778
10
18.3895628
20
96.7800906
11
18.7184628
21
96.7800906
0
LINE
8
DEFAULT_255_2_778
10
18.7184628
20
96.7800906
11
18.7184628
21
95.1991906
0
LINE
8
DEFAULT_255_2_778
10
18.7184628
20
95.1991906
11
19.6738628
21
95.1991906
0
LINE
8
DEFAULT_255_2_778
10
19.6738628
20
95.1991906
11
19.6738628
21
94.9173906
0
LINE
8
DEFAULT_255_2_778
10
19.6738628
20
94.9173906
11
18.3892628
21
94.9173906
0
LINE
8
DEFAULT_255_2_778
10
18.3892628
20
94.9173906
11
18.3892628
21
96.7800906
0
LINE
8
DEFAULT_255_2_778
10
2.1012628
20
94.9671906
11
2.3825628
21
94.6694906
0
LINE
8
DEFAULT_255_2_778
10
2.3825628
20
94.6694906
11
2.9116628
21
94.6694906
0
LINE
8
DEFAULT_255_2_778
10
2.9116628
20
94.6694906
11
2.4983628
21
95.0496906
0
LINE
8
DEFAULT_255_2_778
10
2.1017628
20
94.9671906
11
2.1012628
21
94.9671906
0
LINE
8
DEFAULT_255_2_778
10
2.0684628
20
96.4384906
11
2.0681628
21
96.4387906
0
ARC
8
DEFAULT_255_2_778
10
1.7336015
20
98.1739348
40
3.6281326
50
306.6269546
51
311.426212
0
ARC
8
DEFAULT_255_2_778
10
2.56831
20
97.2322044
40
2.3697278
50
311.3592174
51
317.9497355
0
ARC
8
DEFAULT_255_2_778
10
3.2316507
20
96.637941
40
1.4791352
50
317.8327877
51
327.3820452
0
ARC
8
DEFAULT_255_2_778
10
3.730539
20
96.3230673
40
0.8892098
50
327.1432975
51
342.6043778
0
ARC
8
DEFAULT_255_2_778
10
4.0002659
20
96.235482
40
0.6056413
50
342.8824895
51
359.690929
0
ARC
8
DEFAULT_255_2_778
10
4.0528226
20
96.2308118
40
0.5530775
50
0.1453642
51
26.2808611
0
ARC
8
DEFAULT_255_2_778
10
3.9728921
20
96.1971168
40
0.6396861
50
25.816997
51
27.3923633
0
ARC
8
DEFAULT_255_2_778
10
4.0229
20
96.1272073
40
0.6331911
50
35.1142655
51
79.6260686
0
ARC
8
DEFAULT_255_2_778
10
3.9404482
20
95.7778631
40
0.9918388
50
78.5748156
51
90.3753221
0
ARC
8
DEFAULT_255_2_778
10
3.9390441
20
95.3417575
40
1.4279322
50
90.2043564
51
97.4158901
0
ARC
8
DEFAULT_255_2_778
10
4.0072637
20
94.8037892
40
1.9702066
50
97.3639243
51
102.7545623
0
ARC
8
DEFAULT_255_2_778
10
4.1606625
20
94.1211618
40
2.6698569
50
102.731097
51
107.0960779
0
ARC
8
DEFAULT_255_2_778
10
4.2996153
20
93.6500744
40
3.1609821
50
106.9932143
51
107.5500905
0
ARC
8
DEFAULT_255_2_778
10
4.4438481
20
93.3264818
40
3.1375051
50
107.2161004
51
110.0292236
0
ARC
8
DEFAULT_255_2_778
10
4.1334249
20
94.3315709
40
2.0855709
50
103.6306845
51
107.2426945
0
ARC
8
DEFAULT_255_2_778
10
3.9535095
20
95.0796361
40
1.3161765
50
98.6296432
51
103.6934949
0
ARC
8
DEFAULT_255_2_778
10
3.8729095
20
95.6222739
40
0.7675901
50
91.1123222
51
98.7590489
0
ARC
8
DEFAULT_255_2_778
10
3.8650048
20
95.831027
40
0.5587361
50
90.0044342
51
90.7174363
0
ARC
8
DEFAULT_255_2_778
10
3.8708278
20
96.0178123
40
0.3719969
50
75.7603588
51
90.903576
0
ARC
8
DEFAULT_255_2_778
10
3.9253924
20
96.2166416
40
0.1659026
50
38.2202129
51
77.1351718
0
ARC
8
DEFAULT_255_2_778
10
3.9118902
20
96.2189881
40
0.1753554
50
0.4314871
51
34.8865269
0
ARC
8
DEFAULT_255_2_778
10
3.8049798
20
96.2077461
40
0.2825403
50
359.9766859
51
2.5483818
0
ARC
8
DEFAULT_255_2_778
10
3.7184813
20
96.2096675
40
0.3690444
50
351.1421623
51
359.6838409
0
ARC
8
DEFAULT_255_2_778
10
3.5298454
20
96.2382659
40
0.5598348
50
345.0507785
51
351.2229548
0
ARC
8
DEFAULT_255_2_778
10
3.3651201
20
96.2798961
40
0.7297275
50
343.4330193
51
345.2291544
0
ARC
8
DEFAULT_255_2_778
10
2.545388
20
96.8530089
40
1.7082493
50
319.1563041
51
332.7869074
0
ARC
8
DEFAULT_255_2_778
10
1.9196685
20
97.3840745
40
2.5289308
50
310.7049812
51
319.3255425
0
ARC
8
DEFAULT_255_2_778
10
1.2493326
20
98.1511631
40
3.5476214
50
305.4842829
51
310.8325511
0
LINE
8
DEFAULT_255_2_778
10
3.3086545
20
95.2624245
11
3.3086545
21
94.9177245
0
LINE
8
DEFAULT_255_2_778
10
3.3086545
20
94.9177245
11
4.6315545
21
94.9177245
0
ARC
8
DEFAULT_255_2_778
10
4.6765473
20
94.9357948
40
0.048486
50
175.8919547
51
201.8817132
0
ARC
8
DEFAULT_255_2_778
10
5.8595832
20
95.0140417
40
1.2336656
50
181.4092141
51
183.4748726
0
ARC
8
DEFAULT_255_2_778
10
10.4363084
20
95.1342406
40
5.8119675
50
180.4003904
51
181.4842101
0
ARC
8
DEFAULT_255_2_778
10
23.6341555
20
95.2483041
40
19.010302
50
179.9759067
51
180.4661941
0
ARC
8
DEFAULT_255_2_778
10
51.2291299
20
95.2639256
40
46.6052755
50
180.0018455
51
180.0093772
0
LINE
8
DEFAULT_255_2_778
10
4.6238545
20
95.2624245
11
3.8981545
21
95.2624245
0
ARC
8
DEFAULT_255_2_778
10
6.7430006
20
95.8394554
40
0.8684553
50
0.8754531
51
14.9765018
0
ARC
8
DEFAULT_255_2_778
10
7.1507473
20
95.9553597
40
0.4446556
50
14.1265253
51
47.7545278
0
ARC
8
DEFAULT_255_2_778
10
7.1394367
20
95.9129725
40
0.4840564
50
50.1372543
51
80.4125806
0
ARC
8
DEFAULT_255_2_778
10
7.0437174
20
95.4580418
40
0.9487579
50
79.288486
51
90.5265962
0
ARC
8
DEFAULT_255_2_778
10
7.0363308
20
94.985819
40
1.4209411
50
90.0537583
51
93.0485135
0
ARC
8
DEFAULT_255_2_778
10
7.0477639
20
94.748216
40
1.6588163
50
93.0064032
51
94.2249615
0
ARC
8
DEFAULT_255_2_778
10
7.0582914
20
96.6325262
40
1.3533269
50
264.3712715
51
267.0486174
0
ARC
8
DEFAULT_255_2_778
10
7.0487222
20
96.4461125
40
1.1666679
50
267.0465677
51
269.9636717
0
ARC
8
DEFAULT_255_2_778
10
7.0568395
20
96.1011272
40
0.8217301
50
269.3824249
51
283.3577093
0
ARC
8
DEFAULT_255_2_778
10
7.1368843
20
95.7771602
40
0.4880441
50
283.0016125
51
308.0837381
0
ARC
8
DEFAULT_255_2_778
10
7.0833675
20
95.7852606
40
0.5287349
50
312.1102902
51
3.067464
0
ARC
8
DEFAULT_255_2_778
10
6.6622515
20
95.8294319
40
0.9492262
50
359.0415706
51
0.0035944
0
ARC
8
DEFAULT_255_2_778
10
6.6245273
20
95.8294306
40
0.9869504
50
0.0035328
51
0.905318
0
ARC
8
DEFAULT_255_2_778
10
7.1124813
20
96.2188215
40
1.3024618
50
268.0364651
51
294.1483049
0
ARC
8
DEFAULT_255_2_778
10
7.33927
20
95.6625528
40
0.7023961
50
295.8311412
51
333.2711427
0
ARC
8
DEFAULT_255_2_778
10
7.1430749
20
95.7560686
40
0.9196994
50
333.5651515
51
350.2923816
0
ARC
8
DEFAULT_255_2_778
10
6.6624668
20
95.8437154
40
1.4082148
50
350.0746464
51
0.3543464
0
ARC
8
DEFAULT_255_2_778
10
6.4045104
20
95.8712898
40
1.6662509
50
359.3512827
51
359.9991164
0
ARC
8
DEFAULT_255_2_778
10
6.7651815
20
95.8810751
40
1.3056167
50
359.5694484
51
11.1849436
0
ARC
8
DEFAULT_255_2_778
10
7.2175353
20
95.9731966
40
0.8439896
50
11.0066908
51
29.2433355
0
ARC
8
DEFAULT_255_2_778
10
7.2982644
20
95.9831499
40
0.7693019
50
31.5343545
51
83.7417548
0
ARC
8
DEFAULT_255_2_778
10
7.1230331
20
95.1777067
40
1.5913936
50
80.6300336
51
90.3309785
0
ARC
8
DEFAULT_255_2_778
10
7.1140104
20
94.7398011
40
2.0292728
50
90.0048064
51
91.0632618
0
ARC
8
DEFAULT_255_2_778
10
10.8646789
20
95.9022841
40
0.6710293
50
171.265026
51
179.7830866
0
ARC
8
DEFAULT_255_2_778
10
11.0184735
20
95.8796192
40
0.8264826
50
162.880807
51
171.3311522
0
ARC
8
DEFAULT_255_2_778
10
11.0876295
20
95.8593186
40
0.8985508
50
155.4806995
51
162.9417413
0
ARC
8
DEFAULT_255_2_778
10
11.0890053
20
95.8597853
40
0.8996095
50
138.2631306
51
155.5441083
0
ARC
8
DEFAULT_255_2_778
10
11.0704836
20
95.8748843
40
0.8757376
50
120.7291883
51
138.193578
0
ARC
8
DEFAULT_255_2_778
10
11.1072349
20
95.8099973
40
0.9502943
50
106.5195062
51
120.6348398
0
ARC
8
DEFAULT_255_2_778
10
11.1615062
20
95.6261265
40
1.1420071
50
95.2339053
51
106.5069122
0
ARC
8
DEFAULT_255_2_778
10
11.18644
20
95.3926137
40
1.3768255
50
89.9340119
51
95.3807355
0
ARC
8
DEFAULT_255_2_778
10
11.1864284
20
95.1756951
40
1.593744
50
85.2512621
51
89.9425775
0
ARC
8
DEFAULT_255_2_778
10
11.1654968
20
94.9212138
40
1.8490847
50
81.1284256
51
85.2576993
0
ARC
8
DEFAULT_255_2_778
10
11.1198749
20
94.6274892
40
2.1463311
50
77.4829456
51
81.1343563
0
ARC
8
DEFAULT_255_2_778
10
11.0461353
20
94.2942779
40
2.4876041
50
74.2431633
51
77.4882439
0
ARC
8
DEFAULT_255_2_778
10
10.9771166
20
94.0435649
40
2.7476388
50
73.1633388
51
74.2777217
0
ARC
8
DEFAULT_255_2_778
10
11.2618031
20
95.4784212
40
0.9356381
50
59.7215524
51
83.5312088
0
ARC
8
DEFAULT_255_2_778
10
11.2734562
20
95.5693433
40
0.843983
50
83.6218641
51
89.9497096
0
ARC
8
DEFAULT_255_2_778
10
11.2460282
20
95.8483821
40
0.5656456
50
87.145533
51
140.9140732
0
ARC
8
DEFAULT_255_2_778
10
11.249115
20
95.8776424
40
0.5501462
50
143.4829802
51
165.2431818
0
ARC
8
DEFAULT_255_2_778
10
11.468472
20
95.8166753
40
0.7778032
50
165.0161385
51
177.5942383
0
ARC
8
DEFAULT_255_2_778
10
10.8954554
20
95.8021831
40
0.7079942
50
172.4159485
51
179.125201
0
ARC
8
DEFAULT_255_2_778
10
10.9380305
20
95.8007897
40
0.750586
50
179.0684663
51
180.0012715
0
ARC
8
DEFAULT_255_2_778
10
10.986419
20
95.8019255
40
0.7989755
50
180.0826485
51
189.2592944
0
ARC
8
DEFAULT_255_2_778
10
11.0366565
20
95.8093005
40
0.8497453
50
189.2050517
51
194.5778045
0
ARC
8
DEFAULT_255_2_778
10
11.0626438
20
95.8163748
40
0.8766767
50
194.5977822
51
217.9486817
0
ARC
8
DEFAULT_255_2_778
10
11.0622015
20
95.8173255
40
0.8769132
50
218.0154377
51
238.7058162
0
ARC
8
DEFAULT_255_2_778
10
11.1128533
20
95.9033896
40
0.9767673
50
238.7892258
51
254.2863271
0
ARC
8
DEFAULT_255_2_778
10
11.1724966
20
96.1141307
40
1.1957856
50
254.2700741
51
265.9949395
0
ARC
8
DEFAULT_255_2_778
10
11.1932146
20
96.3417791
40
1.424333
50
265.8031637
51
270.0384885
0
ARC
8
DEFAULT_255_2_778
10
11.1926514
20
96.5287199
40
1.6112744
50
270.0540514
51
274.7463068
0
ARC
8
DEFAULT_255_2_778
10
11.1730902
20
96.7669842
40
1.8503402
50
274.7394672
51
278.8444918
0
ARC
8
DEFAULT_255_2_778
10
11.1311009
20
97.0379097
40
2.1245002
50
278.8400252
51
282.5217397
0
ARC
8
DEFAULT_255_2_778
10
11.0633283
20
97.3438752
40
2.4378818
50
282.5176069
51
285.8231085
0
ARC
8
DEFAULT_255_2_778
10
11.0014387
20
97.567977
40
2.6703677
50
285.7896158
51
286.8402262
0
ARC
8
DEFAULT_255_2_778
10
11.2635987
20
96.2082483
40
0.936673
50
276.5077122
51
300.2630545
0
ARC
8
DEFAULT_255_2_778
10
11.2754127
20
96.1166098
40
0.8442871
50
270.0509742
51
276.4159689
0
ARC
8
DEFAULT_255_2_778
10
11.2480498
20
95.8372795
40
0.5656555
50
219.1757657
51
272.8488698
0
ARC
8
DEFAULT_255_2_778
10
11.2508497
20
95.8077658
40
0.5497349
50
194.7848051
51
216.6059802
0
ARC
8
DEFAULT_255_2_778
10
11.4705412
20
95.8689449
40
0.7777711
50
182.4037409
51
195.0124772
0
ARC
8
DEFAULT_255_2_778
10
12.7284145
20
95.9022903
40
0.6826647
50
171.4155647
51
179.7873029
0
ARC
8
DEFAULT_255_2_778
10
12.8830513
20
95.8799221
40
0.8389084
50
163.1636326
51
171.4814395
0
ARC
8
DEFAULT_255_2_778
10
12.9499329
20
95.8606804
40
0.9084969
50
155.8606406
51
163.2238405
0
ARC
8
DEFAULT_255_2_778
10
12.9433565
20
95.8650678
40
0.9007023
50
138.2848407
51
155.9442422
0
ARC
8
DEFAULT_255_2_778
10
12.9154197
20
95.888341
40
0.8643627
50
120.1386395
51
138.2041453
0
ARC
8
DEFAULT_255_2_778
10
12.9499392
20
95.8252482
40
0.9362601
50
105.4814816
51
120.0269213
0
ARC
8
DEFAULT_255_2_778
10
13.0012367
20
95.6404356
40
1.1280599
50
94.4437271
51
105.486807
0
ARC
8
DEFAULT_255_2_778
10
13.0217001
20
95.4250673
40
1.3443714
50
89.9522402
51
94.602064
0
ARC
8
DEFAULT_255_2_778
10
13.021216
20
95.2295206
40
1.5399185
50
85.1303719
51
89.9402919
0
ARC
8
DEFAULT_255_2_778
10
13.0003337
20
94.981738
40
1.7885794
50
80.9507109
51
85.137643
0
ARC
8
DEFAULT_255_2_778
10
12.9548241
20
94.6948969
40
2.0790082
50
77.2230389
51
80.9554631
0
ARC
8
DEFAULT_255_2_778
10
12.8806917
20
94.3670065
40
2.4151744
50
73.9160003
51
77.2282159
0
ARC
8
DEFAULT_255_2_778
10
12.8120021
20
94.1226983
40
2.6689504
50
72.8826292
51
73.9521483
0
ARC
8
DEFAULT_255_2_778
10
13.0940084
20
95.505099
40
0.9090464
50
59.2604953
51
83.3628492
0
ARC
8
DEFAULT_255_2_778
10
13.1065177
20
95.5983406
40
0.8149855
50
83.4787378
51
89.9481417
0
ARC
8
DEFAULT_255_2_778
10
13.0788427
20
95.8679918
40
0.5460738
50
87.017516
51
144.4567568
0
ARC
8
DEFAULT_255_2_778
10
13.1112272
20
95.872808
40
0.5700784
50
146.7432979
51
166.4968261
0
ARC
8
DEFAULT_255_2_778
10
13.3357102
20
95.8153704
40
0.8017751
50
166.2514828
51
177.5728762
0
ARC
8
DEFAULT_255_2_778
10
12.7591646
20
95.8020786
40
0.719517
50
172.529714
51
179.0879483
0
ARC
8
DEFAULT_255_2_778
10
12.8022519
20
95.8006501
40
0.762622
50
179.0321643
51
180.0013862
0
ARC
8
DEFAULT_255_2_778
10
12.8519318
20
95.801773
40
0.8123027
50
180.0805032
51
189.0991067
0
ARC
8
DEFAULT_255_2_778
10
12.9015676
20
95.8089107
40
0.8624431
50
189.0458513
51
194.3318038
0
ARC
8
DEFAULT_255_2_778
10
12.9210096
20
95.8137091
40
0.8824678
50
194.3211826
51
218.3112024
0
ARC
8
DEFAULT_255_2_778
10
12.9090935
20
95.8060007
40
0.8683402
50
218.3995377
51
239.4596185
0
ARC
8
DEFAULT_255_2_778
10
12.9562564
20
95.8893357
40
0.9640814
50
239.5622113
51
255.3809686
0
ARC
8
DEFAULT_255_2_778
10
13.0126179
20
96.1038169
40
1.1858439
50
255.3614631
51
267.1700316
0
ARC
8
DEFAULT_255_2_778
10
13.0282646
20
96.3134075
40
1.3959614
50
266.9533314
51
270.0199815
0
ARC
8
DEFAULT_255_2_778
10
13.0272561
20
96.4725204
40
1.5550749
50
270.0550928
51
274.8313572
0
ARC
8
DEFAULT_255_2_778
10
13.0079539
20
96.7034201
40
1.7867799
50
274.8245128
51
279.0015161
0
ARC
8
DEFAULT_255_2_778
10
12.966367
20
96.9669756
40
2.0535962
50
278.9970153
51
282.7407581
0
ARC
8
DEFAULT_255_2_778
10
12.8990599
20
97.2654365
40
2.3595523
50
282.7365621
51
286.0948858
0
ARC
8
DEFAULT_255_2_778
10
12.8373184
20
97.4850045
40
2.5876312
50
286.0605849
51
287.1270638
0
ARC
8
DEFAULT_255_2_778
10
13.0958124
20
96.180544
40
0.9090394
50
276.6307439
51
300.7394828
0
ARC
8
DEFAULT_255_2_778
10
13.1083096
20
96.0873285
40
0.8150059
50
270.0518195
51
276.5147418
0
ARC
8
DEFAULT_255_2_778
10
13.08065
20
95.8178541
40
0.5462696
50
215.5539542
51
272.97975
0
ARC
8
DEFAULT_255_2_778
10
13.1130243
20
95.8130565
40
0.5702718
50
193.5207783
51
213.2698534
0
ARC
8
DEFAULT_255_2_778
10
13.3374402
20
95.8705467
40
0.8019163
50
182.4458737
51
193.7657739
0
ARC
8
DEFAULT_255_2_778
10
14.5743148
20
96.1602819
40
0.2428087
50
357.8622233
51
77.579371
0
ARC
8
DEFAULT_255_2_778
10
14.4226123
20
95.7243863
40
0.7032382
50
73.143031
51
88.0708817
0
ARC
8
DEFAULT_255_2_778
10
14.3862787
20
95.2270038
40
1.2017212
50
87.1378022
51
90.0536007
0
LINE
8
DEFAULT_255_2_778
10
14.3851545
20
96.4287245
11
14.3851545
21
95.9043245
0
ARC
8
DEFAULT_255_2_778
10
14.3969696
20
96.9237531
40
1.0194971
50
269.3359739
51
280.0036273
0
ARC
8
DEFAULT_255_2_778
10
14.5093651
20
96.3246339
40
0.4100154
50
279.0794215
51
301.6371084
0
ARC
8
DEFAULT_255_2_778
10
14.6187569
20
96.1434083
40
0.1983517
50
302.1931248
51
2.2583635
0
ARC
8
DEFAULT_255_2_778
10
14.5364038
20
97.8703887
40
2.341155
50
266.2958498
51
268.0600575
0
ARC
8
DEFAULT_255_2_778
10
14.5269893
20
97.5911751
40
2.0617827
50
268.0588697
51
269.9790568
0
ARC
8
DEFAULT_255_2_778
10
14.5374936
20
97.0006179
40
1.4712685
50
269.5615742
51
279.6080934
0
ARC
8
DEFAULT_255_2_778
10
14.6489387
20
96.3686245
40
0.8295509
50
279.3043987
51
296.1252102
0
ARC
8
DEFAULT_255_2_778
10
14.7826812
20
96.0928543
40
0.5230653
50
296.2733696
51
355.0533951
0
ARC
8
DEFAULT_255_2_778
10
14.4148537
20
96.1644531
40
0.8965724
50
352.5209346
51
0.1794967
0
ARC
8
DEFAULT_255_2_778
10
14.2186365
20
96.1668559
40
1.0927854
50
0.0212862
51
2.4108885
0
ARC
8
DEFAULT_255_2_778
10
14.7804917
20
96.2261087
40
0.5301293
50
358.5641019
51
27.3024995
0
ARC
8
DEFAULT_255_2_778
10
14.8328758
20
96.2325652
40
0.4809671
50
29.4819379
51
66.3596469
0
ARC
8
DEFAULT_255_2_778
10
14.6457351
20
95.844254
40
0.9118695
50
65.3715202
51
80.0107551
0
ARC
8
DEFAULT_255_2_778
10
14.5073546
20
95.1036684
40
1.6652505
50
79.7417538
51
88.7556672
0
ARC
8
DEFAULT_255_2_778
10
14.4764779
20
94.4182043
40
2.3512777
50
88.3661684
51
90.0168999
0
ARC
8
DEFAULT_255_2_778
10
14.4764551
20
94.1140712
40
2.6554107
50
90.0144726
51
91.4718273
0
ARC
8
DEFAULT_255_2_778
10
14.4814808
20
93.8947739
40
2.8747648
50
91.4596956
51
91.9201999
0
LINE
8
DEFAULT_255_2_778
10
14.3851545
20
96.7679245
11
13.8917545
21
96.7679245
0
LINE
8
DEFAULT_255_2_778
10
15.4792545
20
96.7695245
11
15.9649545
21
96.7695245
0
LINE
8
DEFAULT_255_2_778
10
15.9649545
20
96.7695245
11
15.9649545
21
95.6461245
0
ARC
8
DEFAULT_255_2_778
10
16.5291718
20
95.6336982
40
0.5643541
50
178.7383205
51
197.296755
0
ARC
8
DEFAULT_255_2_778
10
16.2404697
20
95.5424916
40
0.2615931
50
197.0240986
51
274.6845614
0
ARC
8
DEFAULT_255_2_778
10
16.2687491
20
95.781934
40
0.5002095
50
269.2078929
51
270.0006187
0
ARC
8
DEFAULT_255_2_778
10
16.2823092
20
95.5931051
40
0.3116755
50
267.5074244
51
302.6652447
0
ARC
8
DEFAULT_255_2_778
10
16.2843356
20
95.5533569
40
0.277823
50
306.7412157
51
349.9210362
0
ARC
8
DEFAULT_255_2_778
10
15.9432961
20
95.6386828
40
0.6290024
50
347.7046893
51
0.6778795
0
LINE
8
DEFAULT_255_2_778
10
16.5722545
20
95.6461245
11
16.5722545
21
96.7695245
0
LINE
8
DEFAULT_255_2_778
10
16.5722545
20
96.7695245
11
17.0884545
21
96.7695245
0
LINE
8
DEFAULT_255_2_778
10
17.0884545
20
96.7695245
11
17.0884545
21
95.5551245
0
ARC
8
DEFAULT_255_2_778
10
16.3120645
20
95.5421181
40
0.7764989
50
341.7463823
51
0.9597531
0
ARC
8
DEFAULT_255_2_778
10
16.5589676
20
95.4688185
40
0.5191184
50
286.0591194
51
340.8937518
0
ARC
8
DEFAULT_255_2_778
10
16.3834888
20
95.9564532
40
1.0368157
50
273.520674
51
287.9238036
0
ARC
8
DEFAULT_255_2_778
10
16.3317105
20
96.5170251
40
1.5996022
50
269.915609
51
274.1387963
0
ARC
8
DEFAULT_255_2_778
10
16.3170326
20
96.5189335
40
1.6015564
50
260.3917549
51
270.4408197
0
ARC
8
DEFAULT_255_2_778
10
16.1935296
20
95.8218305
40
0.8936349
50
243.3980996
51
260.7390488
0
ARC
8
DEFAULT_255_2_778
10
16.0491792
20
95.5270645
40
0.565442
50
184.4344753
51
243.1018573
0
ARC
8
DEFAULT_255_2_778
10
16.3969626
20
95.5979223
40
0.9187055
50
182.6700873
51
187.1643532
0
LINE
8
DEFAULT_255_2_778
10
15.4792545
20
95.5551245
11
15.4792545
21
96.7695245
0
ARC
8
DEFAULT_255_2_778
10
20.3794568
20
95.1884732
40
1.3309178
50
67.482408
51
74.3836195
0
ARC
8
DEFAULT_255_2_778
10
20.5124326
20
95.6712026
40
0.8302138
50
74.2537856
51
84.4048079
0
ARC
8
DEFAULT_255_2_778
10
20.5392257
20
95.9076169
40
0.5923248
50
84.7545033
51
89.9187568
0
ARC
8
DEFAULT_255_2_778
10
20.5324159
20
96.0950447
40
0.4049685
50
88.9176536
51
113.9491153
0
ARC
8
DEFAULT_255_2_778
10
20.5094011
20
96.1610333
40
0.3353682
50
114.9320373
51
138.8027758
0
ARC
8
DEFAULT_255_2_778
10
20.5256677
20
96.2356051
40
0.3058797
50
151.4219147
51
165.1887511
0
ARC
8
DEFAULT_255_2_778
10
20.4234927
20
96.2635388
40
0.1999607
50
165.4426177
51
179.6526791
0
ARC
8
DEFAULT_255_2_778
10
20.4046661
20
96.2694423
40
0.1811911
50
181.4836664
51
236.1656508
0
ARC
8
DEFAULT_255_2_778
10
20.5902572
20
96.5062886
40
0.4817794
50
233.5142258
51
249.5522342
0
ARC
8
DEFAULT_255_2_778
10
20.7725954
20
96.9569684
40
0.9678556
50
248.7587817
51
255.1996155
0
ARC
8
DEFAULT_255_2_778
10
20.1306568
20
94.7684765
40
1.3134549
50
63.1373746
51
72.5121595
0
ARC
8
DEFAULT_255_2_778
10
20.3925512
20
95.2765079
40
0.7419172
50
47.547562
51
63.4523488
0
ARC
8
DEFAULT_255_2_778
10
20.6116084
20
95.5071327
40
0.4239365
50
359.5894306
51
48.3533763
0
ARC
8
DEFAULT_255_2_778
10
20.4737443
20
95.5070239
40
0.5617974
50
347.841117
51
359.7012713
0
ARC
8
DEFAULT_255_2_778
10
20.2654459
20
95.550821
40
0.7746486
50
339.5459709
51
347.919366
0
ARC
8
DEFAULT_255_2_778
10
20.1138917
20
95.6035603
40
0.9350845
50
338.7088696
51
339.7633235
0
ARC
8
DEFAULT_255_2_778
10
20.3015309
20
95.6528654
40
0.7864722
50
313.37832
51
330.3690438
0
ARC
8
DEFAULT_255_2_778
10
20.4247108
20
95.5312302
40
0.6134913
50
270.380375
51
312.8188106
0
ARC
8
DEFAULT_255_2_778
10
20.4046503
20
95.7264736
40
0.8090812
50
269.9936772
51
271.7092756
0
ARC
8
DEFAULT_255_2_778
10
20.4091854
20
95.8860711
40
0.9686897
50
259.7698896
51
269.7264767
0
ARC
8
DEFAULT_255_2_778
10
20.476822
20
96.2681038
40
1.3566621
50
252.3524041
51
259.8243014
0
ARC
8
DEFAULT_255_2_778
10
20.632672
20
96.7647464
40
1.877181
50
246.9837369
51
252.4148956
0
ARC
8
DEFAULT_255_2_778
10
20.7682794
20
97.0972192
40
2.2362144
50
246.426318
51
247.1165102
0
ARC
8
DEFAULT_255_2_778
10
-5.4853248
20
98.3794424
40
25.5772175
50
352.5150902
51
353.207278
0
ARC
8
DEFAULT_255_2_778
10
20.5127857
20
96.6681089
40
1.4445795
50
245.4401042
51
252.4297132
0
ARC
8
DEFAULT_255_2_778
10
20.3553403
20
96.1647157
40
0.917144
50
252.3133941
51
262.4203211
0
ARC
8
DEFAULT_255_2_778
10
20.3163769
20
95.8944364
40
0.6440935
50
262.6846794
51
269.8556697
0
ARC
8
DEFAULT_255_2_778
10
20.3223974
20
95.6938942
40
0.4436152
50
269.0128136
51
295.1057019
0
ARC
8
DEFAULT_255_2_778
10
20.3371626
20
95.6480934
40
0.395923
50
295.9830631
51
315.8312391
0
ARC
8
DEFAULT_255_2_778
10
20.4002445
20
95.5022265
40
0.2563236
50
329.5238601
51
345.3011003
0
ARC
8
DEFAULT_255_2_778
10
20.4803879
20
95.4798686
40
0.1731348
50
345.7282232
51
359.7380275
0
ARC
8
DEFAULT_255_2_778
10
20.478276
20
95.4730485
40
0.1753486
50
1.9702275
51
52.9833646
0
ARC
8
DEFAULT_255_2_778
10
20.2825311
20
95.2485223
40
0.4729433
50
50.4239652
51
66.1685068
0
ARC
8
DEFAULT_255_2_778
10
20.0404098
20
94.7257976
40
1.0489785
50
65.6074646
51
73.7608069
0
ARC
8
DEFAULT_255_2_778
10
20.5470198
20
96.69312
40
0.9835942
50
243.5704983
51
257.4775331
0
ARC
8
DEFAULT_255_2_778
10
20.324757
20
96.2622552
40
0.4988867
50
213.7030281
51
244.4038704
0
ARC
8
DEFAULT_255_2_778
10
20.2751245
20
96.2136325
40
0.4308093
50
183.9808366
51
211.9858054
0
ARC
8
DEFAULT_255_2_778
10
20.8256757
20
96.2091404
40
0.9806507
50
180.0087545
51
181.4851233
0
ARC
8
DEFAULT_255_2_778
10
20.5474257
20
96.2189322
40
0.7024711
50
163.4639028
51
180.8109023
0
ARC
8
DEFAULT_255_2_778
10
20.3093792
20
96.2866719
40
0.4549985
50
106.0590793
51
163.1094634
0
ARC
8
DEFAULT_255_2_778
10
20.4576113
20
95.8812263
40
0.8861456
50
94.3748844
51
108.0179246
0
ARC
8
DEFAULT_255_2_778
10
20.5059117
20
95.4062238
40
1.3635008
50
89.8848495
51
94.8760142
0
ARC
8
DEFAULT_255_2_778
10
20.5059071
20
94.9780645
40
1.7916594
50
85.9897845
51
89.9122192
0
ARC
8
DEFAULT_255_2_778
10
20.4707062
20
94.4661268
40
2.3048056
50
82.8152827
51
86.0068725
0
ARC
8
DEFAULT_255_2_778
10
20.3958248
20
93.8670882
40
2.908506
50
80.1922639
51
82.8276431
0
ARC
8
DEFAULT_255_2_778
10
20.3199894
20
93.4136091
40
3.3682765
50
79.4386574
51
80.2351252
0
LINE
8
DEFAULT_255_2_778
10
3.3464545
20
96.6639245
11
3.3692545
21
96.2742245
0
LINE
8
DEFAULT_255_2_778
10
3.8981545
20
95.2624245
11
3.8981545
21
95.2622245
0
LINE
8
DEFAULT_255_2_778
10
6.0621545
20
95.5961245
11
6.0621545
21
96.7695245
0
LINE
8
DEFAULT_255_2_778
10
6.0621545
20
96.7695245
11
5.5115545
21
96.7695245
0
LINE
8
DEFAULT_255_2_778
10
5.5115545
20
96.7695245
11
4.7635545
21
95.6548245
0
LINE
8
DEFAULT_255_2_778
10
4.7635545
20
95.6548245
11
4.7635545
21
95.2592245
0
LINE
8
DEFAULT_255_2_778
10
4.7635545
20
95.2592245
11
5.5970545
21
95.2592245
0
LINE
8
DEFAULT_255_2_778
10
5.5970545
20
95.2592245
11
5.5970545
21
94.9036245
0
LINE
8
DEFAULT_255_2_778
10
5.5970545
20
94.9036245
11
6.0621545
21
94.9036245
0
LINE
8
DEFAULT_255_2_778
10
6.0621545
20
94.9036245
11
6.0621545
21
95.2592245
0
LINE
8
DEFAULT_255_2_778
10
6.0621545
20
95.2592245
11
6.3272545
21
95.2592245
0
LINE
8
DEFAULT_255_2_778
10
6.3272545
20
95.2592245
11
6.3272545
21
95.5961245
0
LINE
8
DEFAULT_255_2_778
10
6.3272545
20
95.5961245
11
6.0621545
21
95.5961245
0
LINE
8
DEFAULT_255_2_778
10
5.6859545
20
96.3845245
11
5.6909545
21
95.5961245
0
LINE
8
DEFAULT_255_2_778
10
5.6909545
20
95.5961245
11
5.1776545
21
95.5961245
0
LINE
8
DEFAULT_255_2_778
10
5.1776545
20
95.5961245
11
5.6859545
21
96.3845245
0
LINE
8
DEFAULT_255_2_778
10
6.9255545
20
96.4025245
11
6.9255545
21
95.2857245
0
LINE
8
DEFAULT_255_2_778
10
7.0763545
20
96.7687245
11
6.4831545
21
96.7687245
0
LINE
8
DEFAULT_255_2_778
10
6.4831545
20
96.7687245
11
6.4831545
21
94.9169245
0
LINE
8
DEFAULT_255_2_778
10
6.4831545
20
94.9169245
11
7.0678545
21
94.9171245
0
LINE
8
DEFAULT_255_2_778
10
9.4501545
20
96.7695245
11
9.8216545
21
96.7695245
0
LINE
8
DEFAULT_255_2_778
10
9.8216545
20
96.7695245
11
9.8216545
21
94.9174245
0
LINE
8
DEFAULT_255_2_778
10
9.8216545
20
94.9174245
11
9.4501545
21
94.9174245
0
LINE
8
DEFAULT_255_2_778
10
9.4501545
20
94.9174245
11
9.4501545
21
95.7294245
0
LINE
8
DEFAULT_255_2_778
10
9.4501545
20
95.7294245
11
8.7069545
21
95.7294245
0
LINE
8
DEFAULT_255_2_778
10
8.7069545
20
95.7294245
11
8.7069545
21
94.9174245
0
LINE
8
DEFAULT_255_2_778
10
8.7069545
20
94.9174245
11
8.3354545
21
94.9174245
0
LINE
8
DEFAULT_255_2_778
10
8.3354545
20
94.9174245
11
8.3354545
21
96.7695245
0
LINE
8
DEFAULT_255_2_778
10
8.3354545
20
96.7695245
11
8.7069545
21
96.7695245
0
LINE
8
DEFAULT_255_2_778
10
8.7069545
20
96.7695245
11
8.7069545
21
96.0212245
0
LINE
8
DEFAULT_255_2_778
10
8.7069545
20
96.0212245
11
9.4501545
21
96.0212245
0
LINE
8
DEFAULT_255_2_778
10
9.4501545
20
96.0212245
11
9.4501545
21
96.7695245
0
LINE
8
DEFAULT_255_2_778
10
11.7729545
20
96.6734245
11
11.7335545
21
96.2864245
0
LINE
8
DEFAULT_255_2_778
10
11.7750545
20
95.0121245
11
11.7356545
21
95.3992245
0
LINE
8
DEFAULT_255_2_778
10
13.5975545
20
96.6734245
11
13.5586545
21
96.2864245
0
LINE
8
DEFAULT_255_2_778
10
13.5993545
20
95.0121245
11
13.5604545
21
95.3992245
0
LINE
8
DEFAULT_255_2_778
10
14.8169545
20
96.1512245
11
14.8169545
21
96.1512245
0
LINE
8
DEFAULT_255_2_778
10
13.8917545
20
96.7679245
11
13.8917545
21
94.9174245
0
LINE
8
DEFAULT_255_2_778
10
13.8917545
20
94.9174245
11
14.3851545
21
94.9174245
0
LINE
8
DEFAULT_255_2_778
10
14.3851545
20
94.9174245
11
14.3851545
21
95.5341245
0
LINE
8
DEFAULT_255_2_778
10
13.8917545
20
96.7679245
11
13.8917545
21
96.7679245
0
LINE
8
DEFAULT_255_2_778
10
15.4792545
20
96.7695245
11
15.4792545
21
96.7695245
0
LINE
8
DEFAULT_255_2_778
10
20.9373545
20
96.7248245
11
20.8989545
21
96.4274245
0
ENDSEC
0
EOF