0
SECTION
2
HEADER
9
$MEASUREMENT
70
1
0
ENDSEC
0
SECTION
2
TABLES
0
TABLE
2
LTYPE
0
LTYPE
72
65
70
64
2
CONTINUOUS
3
______
73
0
40
0
0
ENDTAB
0
TABLE
2
LAYER
0
LAYER
2
DEFAULT_255_2_778
70
0
62
255
6
CONTINUOUS
0
LAYER
2
DEFAULT_255_1_234
70
0
62
255
6
CONTINUOUS
0
ENDTAB
0
ENDSEC
0
SECTION
2
ENTITIES
0
ARC
8
DEFAULT_255_2_778
10
3.5700693
20
28.1802037
40
0.7914215
50
129.1312896
51
180.1450914
0
ARC
8
DEFAULT_255_2_778
10
3.5703345
20
28.1806908
40
0.7912112
50
89.854026
51
129.1684493
0
ARC
8
DEFAULT_255_2_778
10
25.7993937
20
28.1803773
40
0.7915249
50
39.4792447
51
90.147911
0
ARC
8
DEFAULT_255_2_778
10
25.7999935
20
28.180224
40
0.7911595
50
359.8533901
51
39.5154338
0
ARC
8
DEFAULT_255_2_778
10
25.7996693
20
-1.9863486
40
0.7914836
50
309.4761667
51
0.1482649
0
ARC
8
DEFAULT_255_2_778
10
25.799398
20
-1.9867797
40
0.7913235
50
269.8517415
51
309.511178
0
ARC
8
DEFAULT_255_2_778
10
3.570342
20
-1.9867215
40
0.7913815
50
219.1282118
51
270.1454017
0
ARC
8
DEFAULT_255_2_778
10
3.5700247
20
-1.986339
40
0.7913769
50
179.8524075
51
219.1641908
0
LINE
8
DEFAULT_255_2_778
10
3.5723503
20
28.9718996
11
25.7973503
21
28.9718996
0
LINE
8
DEFAULT_255_2_778
10
26.5911503
20
28.1781996
11
26.5911503
21
-1.9843004
0
LINE
8
DEFAULT_255_2_778
10
25.7973503
20
-2.7781004
11
3.5723503
21
-2.7781004
0
LINE
8
DEFAULT_255_2_778
10
2.7786503
20
-1.9843004
11
2.7786503
21
28.1781996
0
LINE
8
DEFAULT_255_1_234
10
10.5268657
20
-0.0296435
11
10.5268657
21
-0.1043386
0
LINE
8
DEFAULT_255_1_234
10
10.3220563
20
-0.5878493
11
10.5308815
21
-0.7516967
0
LINE
8
DEFAULT_255_1_234
10
10.5308815
20
-0.7516967
11
10.4256658
21
-0.8488808
0
LINE
8
DEFAULT_255_1_234
10
10.4256658
20
-0.8488808
11
10.1790914
21
-0.6529063
0
LINE
8
DEFAULT_255_1_234
10
9.5855459
20
-0.1147799
11
9.5855459
21
-0.0304466
0
LINE
8
DEFAULT_255_1_234
10
10.3726563
20
-0.1155831
11
10.3726563
21
-0.0288403
0
LINE
8
DEFAULT_255_1_234
10
9.7397553
20
-0.018399
11
9.7397553
21
-0.1043386
0
ARC
8
DEFAULT_255_1_234
10
9.6314909
20
-0.1082293
40
0.8953833
50
351.453011
51
0.2489685
0
ARC
8
DEFAULT_255_1_234
10
9.8899709
20
-0.1482067
40
0.6338333
50
338.6861641
51
351.5540711
0
ARC
8
DEFAULT_255_1_234
10
9.9833593
20
-0.1812172
40
0.5348431
50
336.2887631
51
338.3442418
0
ARC
8
DEFAULT_255_1_234
10
10.0173215
20
-0.1998302
40
0.4962747
50
321.1170344
51
336.6795229
0
ARC
8
DEFAULT_255_1_234
10
10.0805044
20
-0.2484794
40
0.4165565
50
305.4419708
51
320.8705636
0
ARC
8
DEFAULT_255_1_234
10
10.0608514
20
-0.1737293
40
0.4935497
50
271.6373023
51
283.8611969
0
ARC
8
DEFAULT_255_1_234
10
10.0570767
20
-0.1081428
40
0.5592206
50
269.9930596
51
271.8318864
0
ARC
8
DEFAULT_255_1_234
10
10.053321
20
-0.1889319
40
0.4784458
50
252.5219675
51
270.4416499
0
ARC
8
DEFAULT_255_1_234
10
10.0389469
20
-0.2428408
40
0.422716
50
237.5352116
51
252.1857531
0
ARC
8
DEFAULT_255_1_234
10
10.0478665
20
-0.2314637
40
0.4371052
50
209.063312
51
237.3492538
0
ARC
8
DEFAULT_255_1_234
10
10.1348513
20
-0.1768315
40
0.5397041
50
205.1183774
51
209.6470015
0
ARC
8
DEFAULT_255_1_234
10
10.214555
20
-0.143017
40
0.6262326
50
188.7215458
51
204.8240747
0
ARC
8
DEFAULT_255_1_234
10
10.4143078
20
-0.1093933
40
0.8287794
50
180.3723947
51
188.9252049
0
ARC
8
DEFAULT_255_1_234
10
10.411583
20
-0.0264598
40
0.8260467
50
169.5253763
51
180.2765336
0
ARC
8
DEFAULT_255_1_234
10
10.2213279
20
0.0085309
40
0.6326007
50
155.8315255
51
169.5089989
0
ARC
8
DEFAULT_255_1_234
10
10.093278
20
0.0679348
40
0.4914567
50
139.6258461
51
156.0379525
0
ARC
8
DEFAULT_255_1_234
10
10.0343113
20
0.1153799
40
0.4158054
50
122.6416387
51
139.3430715
0
ARC
8
DEFAULT_255_1_234
10
10.0443733
20
0.0970451
40
0.4366739
50
93.0223692
51
122.455762
0
ARC
8
DEFAULT_255_1_234
10
10.055173
20
0.0005709
40
0.5336137
50
89.975342
51
93.6341897
0
ARC
8
DEFAULT_255_1_234
10
10.0590616
20
0.0385375
40
0.4956606
50
73.9665422
51
90.4229648
0
ARC
8
DEFAULT_255_1_234
10
10.0774263
20
0.1100451
40
0.4218674
50
57.5178019
51
73.6813337
0
ARC
8
DEFAULT_255_1_234
10
10.0730046
20
0.1064462
40
0.4272816
50
28.7261108
51
57.2767933
0
ARC
8
DEFAULT_255_1_234
10
9.9819378
20
0.0501688
40
0.534218
50
24.2448911
51
29.3248482
0
ARC
8
DEFAULT_255_1_234
10
9.8893479
20
0.0118819
40
0.6343711
50
9.064382
51
23.9639114
0
ARC
8
DEFAULT_255_1_234
10
9.6637807
20
-0.0260075
40
0.8630926
50
359.7586264
51
9.1891435
0
ARC
8
DEFAULT_255_1_234
10
9.5383287
20
-0.0246657
40
0.834338
50
359.7133237
51
7.96545
0
ARC
8
DEFAULT_255_1_234
10
9.8345504
20
0.0180681
40
0.5350538
50
7.8291991
51
20.0421623
0
ARC
8
DEFAULT_255_1_234
10
9.9970067
20
0.0771606
40
0.3621841
50
20.0677553
51
35.9161685
0
ARC
8
DEFAULT_255_1_234
10
10.0745105
20
0.134767
40
0.2656263
50
35.6594382
51
85.1578074
0
ARC
8
DEFAULT_255_1_234
10
10.0560361
20
0.0232378
40
0.3784238
50
83.7959068
51
90.095906
0
ARC
8
DEFAULT_255_1_234
10
10.0517295
20
0.0965601
40
0.3051229
50
89.3102392
51
109.9889877
0
ARC
8
DEFAULT_255_1_234
10
10.0434778
20
0.1321433
40
0.2688988
50
110.9285147
51
143.9411762
0
ARC
8
DEFAULT_255_1_234
10
10.1365724
20
0.0609236
40
0.3860887
50
143.5289163
51
163.2980757
0
ARC
8
DEFAULT_255_1_234
10
10.3273545
20
0.0009433
40
0.5860659
50
163.0418846
51
174.3140048
0
ARC
8
DEFAULT_255_1_234
10
10.5677657
20
-0.0268146
40
0.8280531
50
174.0509143
51
179.4176892
0
ARC
8
DEFAULT_255_1_234
10
10.5163992
20
-0.1086366
40
0.7766558
50
179.6829237
51
188.9631324
0
ARC
8
DEFAULT_255_1_234
10
10.2493553
20
-0.1521248
40
0.5060992
50
188.8100743
51
202.9300012
0
ARC
8
DEFAULT_255_1_234
10
10.1277182
20
-0.2016145
40
0.3747967
50
203.2069261
51
215.7876482
0
ARC
8
DEFAULT_255_1_234
10
10.0428579
20
-0.2687329
40
0.2667526
50
214.7521006
51
264.2834488
0
ARC
8
DEFAULT_255_1_234
10
10.0564234
20
-0.183222
40
0.3532247
50
263.4755397
51
270.0949833
0
ARC
8
DEFAULT_255_1_234
10
10.0606345
20
-0.2093626
40
0.3271036
50
269.3649385
51
287.5152008
0
ARC
8
DEFAULT_255_1_234
10
10.0784503
20
-0.2740762
40
0.2600406
50
288.0630309
51
323.8113348
0
ARC
8
DEFAULT_255_1_234
10
9.9913345
20
-0.2090951
40
0.3687189
50
323.6547608
51
342.6590488
0
ARC
8
DEFAULT_255_1_234
10
9.788196
20
-0.1430048
40
0.5823286
50
342.4091907
51
353.6451149
0
ARC
8
DEFAULT_255_1_234
10
9.5050471
20
-0.107781
40
0.8676442
50
353.4029884
51
359.4847795
0
LINE
8
DEFAULT_255_1_234
10
11.4593505
20
0.0402327
11
11.4593505
21
-0.1525291
0
LINE
8
DEFAULT_255_1_234
10
10.7212337
20
-0.1726084
11
10.7212337
21
0.0257755
0
LINE
8
DEFAULT_255_1_234
10
11.3107633
20
-0.1926877
11
11.3107633
21
0.0506739
0
LINE
8
DEFAULT_255_1_234
10
10.8698209
20
0.0619184
11
10.8698209
21
-0.1758211
0
ARC
8
DEFAULT_255_1_234
10
10.2346394
20
-0.1574195
40
1.2247208
50
353.8441951
51
0.2287902
0
ARC
8
DEFAULT_255_1_234
10
10.6985898
20
-0.2092194
40
0.7578929
50
344.4934747
51
353.9765454
0
ARC
8
DEFAULT_255_1_234
10
10.9978488
20
-0.2943019
40
0.4467846
50
329.2803592
51
344.7472793
0
ARC
8
DEFAULT_255_1_234
10
11.0971313
20
-0.3487982
40
0.3336173
50
324.9352394
51
328.6160465
0
ARC
8
DEFAULT_255_1_234
10
11.1348422
20
-0.3751573
40
0.2876076
50
280.580143
51
324.9173126
0
ARC
8
DEFAULT_255_1_234
10
11.0947214
20
-0.2080901
40
0.4592847
50
269.5977311
51
281.6734359
0
ARC
8
DEFAULT_255_1_234
10
11.087512
20
-0.2200827
40
0.4472986
50
256.6228859
51
270.51044
0
ARC
8
DEFAULT_255_1_234
10
11.0473098
20
-0.3749123
40
0.2873874
50
215.8618325
51
257.2788573
0
ARC
8
DEFAULT_255_1_234
10
11.149413
20
-0.3064023
40
0.4102928
50
197.9693508
51
215.2623606
0
ARC
8
DEFAULT_255_1_234
10
11.3979245
20
-0.2225291
40
0.6725652
50
187.8816417
51
198.2346507
0
ARC
8
DEFAULT_255_1_234
10
11.7937453
20
-0.1653921
40
1.0724845
50
180.8976217
51
188.0055519
0
ARC
8
DEFAULT_255_1_234
10
12.0737642
20
-0.1550223
40
1.3526448
50
180.7449369
51
181.1510016
0
ARC
8
DEFAULT_255_1_234
10
11.9160371
20
0.0306042
40
1.1948131
50
173.7675579
51
180.231553
0
ARC
8
DEFAULT_255_1_234
10
11.4642517
20
0.0816666
40
0.7401564
50
164.3058563
51
173.9002247
0
ARC
8
DEFAULT_255_1_234
10
11.1730586
20
0.1655656
40
0.4371288
50
148.7922025
51
164.568378
0
ARC
8
DEFAULT_255_1_234
10
11.0779038
20
0.2186929
40
0.3282386
50
144.5883898
51
148.1176286
0
ARC
8
DEFAULT_255_1_234
10
11.0435936
20
0.2426315
40
0.2864044
50
101.6440918
51
144.514236
0
ARC
8
DEFAULT_255_1_234
10
11.0861003
20
0.0737069
40
0.4604934
50
89.5284041
51
102.5819763
0
ARC
8
DEFAULT_255_1_234
10
11.0940091
20
0.0698018
40
0.464401
50
77.0437873
51
90.5081339
0
ARC
8
DEFAULT_255_1_234
10
11.1342092
20
0.2340615
40
0.2953195
50
48.2778575
51
77.4994676
0
ARC
8
DEFAULT_255_1_234
10
11.1414724
20
0.2469746
40
0.2808655
50
36.3142134
51
47.6305865
0
ARC
8
DEFAULT_255_1_234
10
11.0546031
20
0.1884515
40
0.3855453
50
18.2931786
51
35.6769206
0
ARC
8
DEFAULT_255_1_234
10
10.8002789
20
0.1011593
40
0.654423
50
8.024666
51
18.5605216
0
ARC
8
DEFAULT_255_1_234
10
10.383971
20
0.0396792
40
1.0752407
50
1.1274072
51
8.1718305
0
ARC
8
DEFAULT_255_1_234
10
10.06039
20
0.0269885
40
1.3990231
50
0.5424119
51
1.3863029
0
ARC
8
DEFAULT_255_1_234
10
10.2425278
20
0.0542342
40
1.0682415
50
359.8090433
51
4.9407866
0
ARC
8
DEFAULT_255_1_234
10
10.6635292
20
0.0918113
40
0.6455691
50
4.8362157
51
12.2904523
0
ARC
8
DEFAULT_255_1_234
10
10.9390407
20
0.1531965
40
0.3633074
50
12.0805627
51
23.8173984
0
ARC
8
DEFAULT_255_1_234
10
11.0564112
20
0.2028919
40
0.2358723
50
24.2871213
51
31.3935614
0
ARC
8
DEFAULT_255_1_234
10
11.1088809
20
0.2372233
40
0.1732111
50
30.7407893
51
82.4657128
0
ARC
8
DEFAULT_255_1_234
10
11.0908944
20
0.1488691
40
0.263235
50
81.1060089
51
90.2184952
0
ARC
8
DEFAULT_255_1_234
10
11.0873242
20
0.1746924
40
0.2374236
50
89.3806855
51
105.6762551
0
ARC
8
DEFAULT_255_1_234
10
11.0689873
20
0.2413567
40
0.1682847
50
105.7981136
51
149.7388061
0
ARC
8
DEFAULT_255_1_234
10
11.1753951
20
0.177395
40
0.2924306
50
149.4208916
51
163.6286378
0
ARC
8
DEFAULT_255_1_234
10
11.3844839
20
0.113625
40
0.5110213
50
163.3763315
51
172.1410975
0
ARC
8
DEFAULT_255_1_234
10
11.7145558
20
0.0663518
40
0.8444586
50
172.0259487
51
178.0703232
0
ARC
8
DEFAULT_255_1_234
10
12.0175648
20
0.0519906
40
1.1477868
50
177.8631668
51
179.5044149
0
ARC
8
DEFAULT_255_1_234
10
11.9103052
20
-0.1794611
40
1.0404907
50
179.7995573
51
185.2460446
0
ARC
8
DEFAULT_255_1_234
10
11.5060092
20
-0.2177487
40
0.6343885
50
185.1411642
51
193.0079639
0
ARC
8
DEFAULT_255_1_234
10
11.2416564
20
-0.2802359
40
0.3627568
50
192.7897626
51
205.2507664
0
ARC
8
DEFAULT_255_1_234
10
11.1370111
20
-0.3269585
40
0.2481908
50
205.8005384
51
211.2537509
0
ARC
8
DEFAULT_255_1_234
10
11.0846552
20
-0.362042
40
0.1852521
50
210.3789793
51
238.4008143
0
ARC
8
DEFAULT_255_1_234
10
11.0827074
20
-0.3573624
40
0.1882621
50
239.6520629
51
265.9793761
0
ARC
8
DEFAULT_255_1_234
10
11.0912274
20
-0.2901573
40
0.2559272
50
265.1315437
51
270.060332
0
ARC
8
DEFAULT_255_1_234
10
11.0941053
20
-0.3225466
40
0.2235528
50
269.3314664
51
287.2178029
0
ARC
8
DEFAULT_255_1_234
10
11.1078905
20
-0.3728721
40
0.1714108
50
287.7958004
51
329.080874
0
ARC
8
DEFAULT_255_1_234
10
11.0121361
20
-0.313107
40
0.2842745
50
328.6634704
51
343.3325132
0
ARC
8
DEFAULT_255_1_234
10
10.7948381
20
-0.2454137
40
0.5118644
50
343.0499468
51
351.9393422
0
ARC
8
DEFAULT_255_1_234
10
10.4481681
20
-0.1943051
40
0.8622784
50
351.8069023
51
357.7959224
0
ARC
8
DEFAULT_255_1_234
10
10.1246237
20
-0.1775279
40
1.1862365
50
357.5871873
51
359.2677531
0
LINE
8
DEFAULT_255_1_234
10
12.2063021
20
0.5189243
11
12.2328069
21
0.5189243
0
LINE
8
DEFAULT_255_1_234
10
12.2328069
20
0.5189243
11
12.2328069
21
0.392826
0
LINE
8
DEFAULT_255_1_234
10
12.2328069
20
0.392826
11
12.205499
21
0.392826
0
LINE
8
DEFAULT_255_1_234
10
11.6585376
20
-0.2063417
11
11.6585376
21
-0.1493164
0
LINE
8
DEFAULT_255_1_234
10
11.8079279
20
-0.1685925
11
11.8079279
21
-0.2232083
0
ARC
8
DEFAULT_255_1_234
10
12.2107338
20
-0.1069545
40
0.4998079
50
90.6001036
51
104.514704
0
ARC
8
DEFAULT_255_1_234
10
12.1718853
20
0.0375131
40
0.3502176
50
104.2855254
51
133.862935
0
ARC
8
DEFAULT_255_1_234
10
12.1882611
20
0.026683
40
0.3693984
50
134.5302688
51
161.6210873
0
ARC
8
DEFAULT_255_1_234
10
12.3535799
20
-0.0316105
40
0.5446739
50
161.2849839
51
174.2076652
0
ARC
8
DEFAULT_255_1_234
10
12.4942736
20
-0.0510213
40
0.6866274
50
173.7810589
51
174.9254635
0
ARC
8
DEFAULT_255_1_234
10
12.0392568
20
-0.1893161
40
0.3033419
50
95.8330959
51
138.9954921
0
ARC
8
DEFAULT_255_1_234
10
12.0615924
20
-0.3171625
40
0.4328947
50
89.8753725
51
97.0544009
0
ARC
8
DEFAULT_255_1_234
10
12.066339
20
-0.2336252
40
0.3493769
50
71.6407809
51
90.6240094
0
ARC
8
DEFAULT_255_1_234
10
12.0813964
20
-0.1781918
40
0.2920396
50
39.6367836
51
71.019018
0
ARC
8
DEFAULT_255_1_234
10
12.0177437
20
-0.2332002
40
0.3761538
50
10.658731
51
39.9043955
0
ARC
8
DEFAULT_255_1_234
10
11.862952
20
-0.2668314
40
0.5345136
50
359.682601
51
11.132623
0
ARC
8
DEFAULT_255_1_234
10
11.8589651
20
-0.273899
40
0.5385081
50
347.2486944
51
0.4369317
0
ARC
8
DEFAULT_255_1_234
10
12.0257127
20
-0.3140193
40
0.3670249
50
318.1409698
51
347.6118597
0
ARC
8
DEFAULT_255_1_234
10
12.058212
20
-0.3407298
40
0.3250007
50
275.6342139
51
317.8248465
0
ARC
8
DEFAULT_255_1_234
10
12.0361232
20
-0.2107781
40
0.4565864
50
269.8874292
51
276.7917694
0
ARC
8
DEFAULT_255_1_234
10
12.0306302
20
-0.3133257
40
0.3540676
50
246.9140195
51
270.7437342
0
ARC
8
DEFAULT_255_1_234
10
12.0312693
20
-0.3275616
40
0.3412781
50
218.1665114
51
245.878116
0
ARC
8
DEFAULT_255_1_234
10
12.1192153
20
-0.2539721
40
0.455911
50
191.4115814
51
218.6077802
0
ARC
8
DEFAULT_255_1_234
10
12.3130243
20
-0.2105167
40
0.6545001
50
179.6345085
51
191.7836486
0
ARC
8
DEFAULT_255_1_234
10
12.8712579
20
-0.1426303
40
1.2127388
50
171.4525249
51
180.3158839
0
ARC
8
DEFAULT_255_1_234
10
12.4317455
20
-0.0742392
40
0.7679464
50
157.9802646
51
171.6246686
0
ARC
8
DEFAULT_255_1_234
10
12.2103476
20
0.0140421
40
0.5296008
50
141.4298019
51
157.854097
0
ARC
8
DEFAULT_255_1_234
10
12.1461797
20
0.0594381
40
0.4511509
50
102.8715806
51
140.8564722
0
ARC
8
DEFAULT_255_1_234
10
12.2109412
20
-0.1845448
40
0.7034845
50
90.3778349
51
103.5869322
0
ARC
8
DEFAULT_255_1_234
10
12.0371189
20
-0.245027
40
0.2370698
50
89.8751008
51
126.2071704
0
ARC
8
DEFAULT_255_1_234
10
12.0416978
20
-0.2604697
40
0.2522934
50
124.9745049
51
144.895901
0
ARC
8
DEFAULT_255_1_234
10
12.0241169
20
-0.246144
40
0.2296779
50
145.2974905
51
160.2660252
0
ARC
8
DEFAULT_255_1_234
10
12.3313708
20
-0.2263929
40
0.5234525
50
179.6514266
51
190.2855912
0
ARC
8
DEFAULT_255_1_234
10
12.1619845
20
-0.2583214
40
0.3510893
50
190.0945431
51
207.5098196
0
ARC
8
DEFAULT_255_1_234
10
12.1054115
20
-0.2852377
40
0.288489
50
207.9583163
51
216.3251085
0
ARC
8
DEFAULT_255_1_234
10
12.0714223
20
-0.3131895
40
0.2445587
50
215.7661442
51
232.5456785
0
ARC
8
DEFAULT_255_1_234
10
12.0331205
20
-0.3618518
40
0.1826382
50
232.8005391
51
270.6605633
0
ARC
8
DEFAULT_255_1_234
10
12.0376906
20
-0.3254388
40
0.2190529
50
269.35537
51
288.4744281
0
ARC
8
DEFAULT_255_1_234
10
12.0469803
20
-0.3603882
40
0.1829749
50
289.1833337
51
322.9683818
0
ARC
8
DEFAULT_255_1_234
10
11.9858326
20
-0.3121609
40
0.2608399
50
322.6007884
51
346.5182367
0
ARC
8
DEFAULT_255_1_234
10
11.8700922
20
-0.2826384
40
0.3802777
50
346.2582162
51
358.7741648
0
ARC
8
DEFAULT_255_1_234
10
11.7682591
20
-0.2771035
40
0.4822176
50
358.3755224
51
0.0098023
0
ARC
8
DEFAULT_255_1_234
10
11.8438778
20
-0.2743343
40
0.4066078
50
359.6214041
51
11.2839074
0
ARC
8
DEFAULT_255_1_234
10
11.9715925
20
-0.2476934
40
0.2761514
50
11.0482309
51
31.8146458
0
ARC
8
DEFAULT_255_1_234
10
12.0024967
20
-0.2309416
40
0.2410679
50
32.3035391
51
38.082671
0
ARC
8
DEFAULT_255_1_234
10
12.0445627
20
-0.1928338
40
0.1844966
50
36.825067
51
85.7415724
0
ARC
8
DEFAULT_255_1_234
10
12.0378461
20
-0.2428699
40
0.2349122
50
85.0140713
51
90.0513278
0
LINE
8
DEFAULT_255_1_234
10
13.2801456
20
0.5181211
11
13.4351581
21
0.5181211
0
LINE
8
DEFAULT_255_1_234
10
13.4351581
20
0.5181211
11
13.4351581
21
-0.277021
0
LINE
8
DEFAULT_255_1_234
10
13.051241
20
-0.6657571
11
13.0102792
21
-0.6673635
0
LINE
8
DEFAULT_255_1_234
10
12.5886129
20
-0.2786273
11
12.5886129
21
0.5181211
0
LINE
8
DEFAULT_255_1_234
10
12.5886129
20
0.5181211
11
12.7412159
21
0.5181211
0
LINE
8
DEFAULT_255_1_234
10
12.7412159
20
0.5181211
11
12.7412159
21
-0.2738083
0
LINE
8
DEFAULT_255_1_234
10
13.2801456
20
-0.2746115
11
13.2801456
21
0.5181211
0
ARC
8
DEFAULT_255_1_234
10
12.9998479
20
-0.2790072
40
0.4353147
50
343.0898354
51
0.2614217
0
ARC
8
DEFAULT_255_1_234
10
13.0826881
20
-0.3021163
40
0.3493402
50
315.3345598
51
342.7641223
0
ARC
8
DEFAULT_255_1_234
10
13.060333
20
-0.2789318
40
0.3815385
50
284.6606969
51
315.2182466
0
ARC
8
DEFAULT_255_1_234
10
13.0148042
20
-0.1243245
40
0.5426573
50
273.8500273
51
285.1797701
0
ARC
8
DEFAULT_255_1_234
10
13.0060093
20
-0.0901525
40
0.5772268
50
257.6317484
51
270.4238298
0
ARC
8
DEFAULT_255_1_234
10
12.9635291
20
-0.2722802
40
0.3902347
50
230.6087562
51
257.9964012
0
ARC
8
DEFAULT_255_1_234
10
12.9503293
20
-0.2929198
40
0.3659186
50
227.7440991
51
230.1551448
0
ARC
8
DEFAULT_255_1_234
10
12.9369125
20
-0.3090529
40
0.3449568
50
189.2524587
51
227.5916061
0
ARC
8
DEFAULT_255_1_234
10
13.0890811
20
-0.2762987
40
0.5004737
50
180.2665968
51
190.1525252
0
ARC
8
DEFAULT_255_1_234
10
13.1112831
20
-0.2766082
40
0.3700778
50
179.5665184
51
191.9952995
0
ARC
8
DEFAULT_255_1_234
10
12.9884937
20
-0.3039957
40
0.2442808
50
191.6974072
51
215.1404042
0
ARC
8
DEFAULT_255_1_234
10
12.9646852
20
-0.3181892
40
0.2166522
50
215.6950207
51
224.8513522
0
ARC
8
DEFAULT_255_1_234
10
12.9702596
20
-0.3102303
40
0.2262237
50
225.2846858
51
255.0111758
0
ARC
8
DEFAULT_255_1_234
10
13.0026556
20
-0.1988545
40
0.3421979
50
254.5944985
51
267.9129803
0
ARC
8
DEFAULT_255_1_234
10
13.0101037
20
-0.0904097
40
0.4508556
50
267.4689655
51
270.0223026
0
ARC
8
DEFAULT_255_1_234
10
13.0131182
20
-0.1493151
40
0.3919604
50
269.5849941
51
281.1843768
0
ARC
8
DEFAULT_255_1_234
10
13.0409946
20
-0.2845941
40
0.2538457
50
280.9344262
51
300.9743589
0
ARC
8
DEFAULT_255_1_234
10
13.0622552
20
-0.3237312
40
0.2093566
50
301.4980046
51
315.1466847
0
ARC
8
DEFAULT_255_1_234
10
13.0478091
20
-0.3118764
40
0.2279656
50
315.5952539
51
345.6678731
0
ARC
8
DEFAULT_255_1_234
10
12.9358607
20
-0.2806991
40
0.3441564
50
345.2524969
51
358.6304371
0
ARC
8
DEFAULT_255_1_234
10
12.8340961
20
-0.2747084
40
0.4460494
50
358.1735671
51
0.0124524
0
LINE
8
DEFAULT_255_1_234
10
14.0021988
20
-0.6513
11
13.6785198
21
-0.6513
0
LINE
8
DEFAULT_255_1_234
10
13.6785198
20
-0.6513
11
13.6785198
21
0.5181211
0
LINE
8
DEFAULT_255_1_234
10
13.6785198
20
0.5181211
11
14.0086242
21
0.5181211
0
LINE
8
DEFAULT_255_1_234
10
14.5242618
20
-0.0272339
11
14.5242618
21
-0.1019291
0
LINE
8
DEFAULT_255_1_234
10
14.0126401
20
0.3912196
11
13.8327292
21
0.3912196
0
LINE
8
DEFAULT_255_1_234
10
13.8327292
20
0.3912196
11
13.8327292
21
-0.5252017
0
LINE
8
DEFAULT_255_1_234
10
13.8327292
20
-0.5252017
11
13.9949703
21
-0.5252017
0
LINE
8
DEFAULT_255_1_234
10
14.3716588
20
-0.0987164
11
14.3716588
21
-0.0304466
0
ARC
8
DEFAULT_255_1_234
10
14.0125185
20
-0.0684106
40
0.5865446
50
75.4101064
51
90.3804066
0
ARC
8
DEFAULT_255_1_234
10
14.0354698
20
0.0272492
40
0.4881916
50
60.145586
51
75.1888407
0
ARC
8
DEFAULT_255_1_234
10
14.0513474
20
0.0549199
40
0.4562893
50
26.5253612
51
60.1450928
0
ARC
8
DEFAULT_255_1_234
10
13.9393223
20
-0.0044842
40
0.5830602
50
7.4030428
51
26.8320788
0
ARC
8
DEFAULT_255_1_234
10
13.779898
20
-0.0293196
40
0.7443669
50
0.1605367
51
7.7176192
0
ARC
8
DEFAULT_255_1_234
10
13.7962884
20
-0.1057566
40
0.7279835
50
348.7289388
51
0.3012466
0
ARC
8
DEFAULT_255_1_234
10
13.9619315
20
-0.1386614
40
0.559104
50
333.0706509
51
348.7181832
0
ARC
8
DEFAULT_255_1_234
10
14.0586072
20
-0.1911681
40
0.4491417
50
299.2531685
51
333.4571258
0
ARC
8
DEFAULT_255_1_234
10
14.0225212
20
-0.1226172
40
0.5265881
50
278.107187
51
299.0339503
0
ARC
8
DEFAULT_255_1_234
10
13.9969291
20
0.0281216
40
0.679442
50
270.4443897
51
278.4511052
0
ARC
8
DEFAULT_255_1_234
10
13.9990121
20
-0.0647787
40
0.4604407
50
269.4970433
51
284.0205042
0
ARC
8
DEFAULT_255_1_234
10
14.0345422
20
-0.2013022
40
0.3193797
50
283.7700273
51
318.1555492
0
ARC
8
DEFAULT_255_1_234
10
14.000818
20
-0.1760633
40
0.3613588
50
318.7415601
51
343.6873628
0
ARC
8
DEFAULT_255_1_234
10
13.8204203
20
-0.1197168
40
0.5503313
50
343.3325091
51
355.8548958
0
ARC
8
DEFAULT_255_1_234
10
13.6105888
20
-0.0997681
40
0.7610708
50
355.4988528
51
0.0791727
0
ARC
8
DEFAULT_255_1_234
10
13.688851
20
-0.026222
40
0.6828208
50
359.6455037
51
9.8607896
0
ARC
8
DEFAULT_255_1_234
10
13.9249208
20
0.0164099
40
0.4429406
50
9.6571907
51
26.1932807
0
ARC
8
DEFAULT_255_1_234
10
14.0177197
20
0.0595118
40
0.3406537
50
26.5777228
51
40.1532208
0
ARC
8
DEFAULT_255_1_234
10
14.0432923
20
0.0794619
40
0.308246
50
40.3840491
51
80.1431104
0
ARC
8
DEFAULT_255_1_234
10
14.0106041
20
-0.0654667
40
0.4566909
50
79.2152159
51
89.7445637
0
LINE
8
DEFAULT_255_1_234
10
14.7941282
20
0.5181211
11
15.1266422
21
-0.4464907
0
LINE
8
DEFAULT_255_1_234
10
15.1266422
20
-0.4464907
11
15.4607625
21
0.5181211
0
LINE
8
DEFAULT_255_1_234
10
15.4607625
20
0.5181211
11
15.629429
21
0.5181211
0
LINE
8
DEFAULT_255_1_234
10
15.629429
20
0.5181211
11
15.1957151
21
-0.6513
0
LINE
8
DEFAULT_255_1_234
10
15.1957151
20
-0.6513
11
15.0591756
21
-0.6513
0
LINE
8
DEFAULT_255_1_234
10
15.0591756
20
-0.6513
11
14.6262649
21
0.5181211
0
LINE
8
DEFAULT_255_1_234
10
14.6262649
20
0.5181211
11
14.7941282
21
0.5181211
0
LINE
8
DEFAULT_255_1_234
10
16.4807933
20
-0.2802337
11
16.6358058
21
-0.2802337
0
LINE
8
DEFAULT_255_1_234
10
15.7354479
20
-0.1212053
11
15.7354479
21
-0.0087609
0
LINE
8
DEFAULT_255_1_234
10
16.6358058
20
0.1422357
11
16.4807933
21
0.1422357
0
LINE
8
DEFAULT_255_1_234
10
15.8904605
20
-0.0127768
11
15.8904605
21
-0.1260243
0
ARC
8
DEFAULT_255_1_234
10
16.0877445
20
-0.2205154
40
0.5513052
50
340.1774281
51
353.7814284
0
ARC
8
DEFAULT_255_1_234
10
16.2448797
20
-0.2790418
40
0.3836379
50
311.4558989
51
340.4421614
0
ARC
8
DEFAULT_255_1_234
10
16.2415466
20
-0.2679472
40
0.3941894
50
282.4333181
51
310.7513653
0
ARC
8
DEFAULT_255_1_234
10
16.1976205
20
-0.0864321
40
0.5809175
50
269.9358511
51
282.809604
0
ARC
8
DEFAULT_255_1_234
10
16.1924271
20
0.0593212
40
0.7266847
50
270.0021091
51
270.3581957
0
ARC
8
DEFAULT_255_1_234
10
16.1871688
20
-0.2007415
40
0.4666519
50
250.7884749
51
270.6489167
0
ARC
8
DEFAULT_255_1_234
10
16.1703522
20
-0.2644681
40
0.4009729
50
219.3627325
51
250.0611886
0
ARC
8
DEFAULT_255_1_234
10
16.2532734
20
-0.1939958
40
0.5097822
50
193.5479632
51
219.5756669
0
ARC
8
DEFAULT_255_1_234
10
16.4904354
20
-0.1324081
40
0.7547848
50
181.1218675
51
193.87563
0
ARC
8
DEFAULT_255_1_234
10
16.6974535
20
-0.121342
40
0.9620055
50
179.9918545
51
181.5394234
0
ARC
8
DEFAULT_255_1_234
10
16.5123637
20
-0.0050212
40
0.7769248
50
169.5837241
51
180.2757934
0
ARC
8
DEFAULT_255_1_234
10
16.3286576
20
0.0289229
40
0.590109
50
155.0365899
51
169.6003176
0
ARC
8
DEFAULT_255_1_234
10
16.215104
20
0.0836677
40
0.4640625
50
136.783148
51
155.2472683
0
ARC
8
DEFAULT_255_1_234
10
16.1761516
20
0.1167562
40
0.4130255
50
121.7633186
51
136.428115
0
ARC
8
DEFAULT_255_1_234
10
16.1896479
20
0.0918227
40
0.4413323
50
95.6459699
51
121.5490577
0
ARC
8
DEFAULT_255_1_234
10
16.205376
20
-0.0190051
40
0.55319
50
89.924208
51
96.1377933
0
ARC
8
DEFAULT_255_1_234
10
16.2104193
20
-0.0071458
40
0.5413475
50
76.6779277
51
90.4563316
0
ARC
8
DEFAULT_255_1_234
10
16.2497817
20
0.1519114
40
0.3775041
50
47.485847
51
76.9287264
0
ARC
8
DEFAULT_255_1_234
10
16.2350789
20
0.1419159
40
0.3948286
50
16.5424086
51
46.8933463
0
ARC
8
DEFAULT_255_1_234
10
16.0742946
20
0.0890861
40
0.564021
50
5.4072051
51
17.0365086
0
ARC
8
DEFAULT_255_1_234
10
15.9303964
20
0.0659679
40
0.5556559
50
7.8891745
51
15.9239216
0
ARC
8
DEFAULT_255_1_234
10
16.1290977
20
0.1236631
40
0.3487515
50
15.7653144
51
27.9410532
0
ARC
8
DEFAULT_255_1_234
10
16.2395195
20
0.182779
40
0.2235026
50
27.8166557
51
46.4008329
0
ARC
8
DEFAULT_255_1_234
10
16.2444838
20
0.1822082
40
0.2205286
50
47.4371857
51
75.0698205
0
ARC
8
DEFAULT_255_1_234
10
16.2136232
20
0.0747765
40
0.3322915
50
74.7008593
51
87.8124495
0
ARC
8
DEFAULT_255_1_234
10
16.206292
20
-0.0308156
40
0.4380987
50
87.3814673
51
90.0240855
0
ARC
8
DEFAULT_255_1_234
10
16.2024463
20
0.0869291
40
0.3203749
50
89.3451631
51
108.5745436
0
ARC
8
DEFAULT_255_1_234
10
16.1887568
20
0.1382908
40
0.2673494
50
109.2998449
51
143.3037509
0
ARC
8
DEFAULT_255_1_234
10
16.2649641
20
0.0796881
40
0.3634757
50
143.0753173
51
163.1916937
0
ARC
8
DEFAULT_255_1_234
10
16.4601368
20
0.0180967
40
0.5681262
50
162.9373603
51
174.6208611
0
ARC
8
DEFAULT_255_1_234
10
16.7227411
20
-0.010699
40
0.8322832
50
174.3419979
51
180.1430411
0
ARC
8
DEFAULT_255_1_234
10
16.6296567
20
-0.1301302
40
0.7392076
50
179.6817502
51
189.150529
0
ARC
8
DEFAULT_255_1_234
10
16.3795815
20
-0.171781
40
0.4856932
50
188.9910863
51
203.5773039
0
ARC
8
DEFAULT_255_1_234
10
16.2716148
20
-0.2165789
40
0.3688271
50
203.9077269
51
215.1312379
0
ARC
8
DEFAULT_255_1_234
10
16.1793241
20
-0.2881059
40
0.2522457
50
213.9071664
51
263.8849284
0
ARC
8
DEFAULT_255_1_234
10
16.1918571
20
-0.2096482
40
0.3316174
50
263.1758525
51
270.1031083
0
ARC
8
DEFAULT_255_1_234
10
16.1950662
20
-0.0849635
40
0.4563091
50
269.6719807
51
279.0609165
0
ARC
8
DEFAULT_255_1_234
10
16.221743
20
-0.2462093
40
0.2928759
50
278.8750225
51
293.6346586
0
ARC
8
DEFAULT_255_1_234
10
16.2537639
20
-0.32141
40
0.2111472
50
293.8553404
51
310.0518804
0
ARC
8
DEFAULT_255_1_234
10
16.2542492
20
-0.3276484
40
0.2060917
50
311.0646779
51
332.0108348
0
ARC
8
DEFAULT_255_1_234
10
16.1350219
20
-0.2619022
40
0.3422352
50
331.6588543
51
343.2878891
0
ARC
8
DEFAULT_255_1_234
10
15.9287734
20
-0.1985202
40
0.5580003
50
343.1446044
51
351.010618
0
ARC
8
DEFAULT_255_1_234
10
15.7746381
20
-0.1704129
40
0.7146438
50
350.7157277
51
351.1602153
0
LINE
8
DEFAULT_255_1_234
10
17.2759354
20
-0.1934909
11
17.0004467
21
-0.1934909
0
LINE
8
DEFAULT_255_1_234
10
17.0004467
20
-0.1934909
11
17.0004467
21
-0.6513
0
LINE
8
DEFAULT_255_1_234
10
17.0004467
20
-0.6513
11
16.8462374
21
-0.6513
0
LINE
8
DEFAULT_255_1_234
10
16.8462374
20
-0.6513
11
16.8462374
21
0.5181211
0
LINE
8
DEFAULT_255_1_234
10
16.8462374
20
0.5181211
11
17.2775417
21
0.5181211
0
LINE
8
DEFAULT_255_1_234
10
17.0004467
20
0.3912196
11
17.0004467
21
-0.0673926
0
LINE
8
DEFAULT_255_1_234
10
17.0004467
20
-0.0673926
11
17.2775417
21
-0.0673926
0
LINE
8
DEFAULT_255_1_234
10
17.2863766
20
0.3912196
11
17.0004467
21
0.3912196
0
ARC
8
DEFAULT_255_1_234
10
17.2817544
20
-0.0877805
40
0.6059162
50
78.8378113
51
90.3983573
0
ARC
8
DEFAULT_255_1_234
10
17.3233557
20
0.1142879
40
0.3996205
50
58.9632738
51
79.0810598
0
ARC
8
DEFAULT_255_1_234
10
17.35351
20
0.1702721
40
0.3361177
50
48.0197965
51
58.447194
0
ARC
8
DEFAULT_255_1_234
10
17.3623961
20
0.1788225
40
0.3238191
50
3.3375044
51
48.1766626
0
ARC
8
DEFAULT_255_1_234
10
17.23938
20
0.1611171
40
0.4477806
50
359.9477528
51
4.6829065
0
ARC
8
DEFAULT_255_1_234
10
17.2517117
20
0.1568628
40
0.4354656
50
346.1877825
51
0.5060252
0
ARC
8
DEFAULT_255_1_234
10
17.3875985
20
0.1215731
40
0.295089
50
310.8831995
51
346.5426355
0
ARC
8
DEFAULT_255_1_234
10
17.3567405
20
0.1632695
40
0.3468331
50
286.6925341
51
310.2288297
0
ARC
8
DEFAULT_255_1_234
10
17.2998235
20
0.3422882
40
0.5346654
50
274.6850312
51
287.0245141
0
ARC
8
DEFAULT_255_1_234
10
17.2772958
20
0.5631932
40
0.7566852
50
269.8969846
51
275.018904
0
ARC
8
DEFAULT_255_1_234
10
17.280055
20
0.3552707
40
0.4226708
50
269.6593078
51
279.4153575
0
ARC
8
DEFAULT_255_1_234
10
17.3057825
20
0.2062133
40
0.2714146
50
279.2049762
51
294.9900808
0
ARC
8
DEFAULT_255_1_234
10
17.3348151
20
0.1414508
40
0.2004525
50
295.2888114
51
311.2911209
0
ARC
8
DEFAULT_255_1_234
10
17.3419045
20
0.130922
40
0.1878703
50
311.7854996
51
347.2861051
0
ARC
8
DEFAULT_255_1_234
10
17.2435204
20
0.1562092
40
0.2894234
50
346.6893224
51
0.1059443
0
ARC
8
DEFAULT_255_1_234
10
17.1680099
20
0.1590685
40
0.3649409
50
359.6350983
51
0.0053152
0
ARC
8
DEFAULT_255_1_234
10
17.2650427
20
0.1615937
40
0.2679199
50
359.4672059
51
15.5933957
0
ARC
8
DEFAULT_255_1_234
10
17.3275316
20
0.1784779
40
0.2031932
50
15.7442113
51
46.6203375
0
ARC
8
DEFAULT_255_1_234
10
17.3127536
20
0.1614484
40
0.2257226
50
46.8628658
51
75.6676503
0
ARC
8
DEFAULT_255_1_234
10
17.2833357
20
0.0555718
40
0.3355939
50
75.276167
51
88.2915297
0
ARC
8
DEFAULT_255_1_234
10
17.2775063
20
-0.0322476
40
0.4235602
50
87.8575022
51
88.8000139
0
LINE
8
DEFAULT_255_1_234
10
18.5521786
20
0.5181211
11
18.7071911
21
0.5181211
0
LINE
8
DEFAULT_255_1_234
10
18.7071911
20
0.5181211
11
18.7071911
21
-0.277021
0
LINE
8
DEFAULT_255_1_234
10
18.323274
20
-0.6657571
11
18.2823122
21
-0.6673635
0
LINE
8
DEFAULT_255_1_234
10
17.8606459
20
-0.2786273
11
17.8606459
21
0.5181211
0
LINE
8
DEFAULT_255_1_234
10
17.8606459
20
0.5181211
11
18.0132489
21
0.5181211
0
LINE
8
DEFAULT_255_1_234
10
18.0132489
20
0.5181211
11
18.0132489
21
-0.2738083
0
LINE
8
DEFAULT_255_1_234
10
18.5521786
20
-0.2746115
11
18.5521786
21
0.5181211
0
ARC
8
DEFAULT_255_1_234
10
18.271881
20
-0.2790072
40
0.4353147
50
343.0898354
51
0.2614217
0
ARC
8
DEFAULT_255_1_234
10
18.3547211
20
-0.3021163
40
0.3493402
50
315.3345598
51
342.7641223
0
ARC
8
DEFAULT_255_1_234
10
18.332366
20
-0.2789318
40
0.3815385
50
284.6606969
51
315.2182466
0
ARC
8
DEFAULT_255_1_234
10
18.2868372
20
-0.1243245
40
0.5426573
50
273.8500273
51
285.1797701
0
ARC
8
DEFAULT_255_1_234
10
18.2780423
20
-0.0901525
40
0.5772268
50
257.6317484
51
270.4238298
0
ARC
8
DEFAULT_255_1_234
10
18.2355621
20
-0.2722802
40
0.3902347
50
230.6087562
51
257.9964012
0
ARC
8
DEFAULT_255_1_234
10
18.2223623
20
-0.2929198
40
0.3659186
50
227.7440991
51
230.1551448
0
ARC
8
DEFAULT_255_1_234
10
18.2089455
20
-0.3090529
40
0.3449568
50
189.2524587
51
227.5916061
0
ARC
8
DEFAULT_255_1_234
10
18.3611141
20
-0.2762987
40
0.5004737
50
180.2665968
51
190.1525252
0
ARC
8
DEFAULT_255_1_234
10
18.3833161
20
-0.2766082
40
0.3700778
50
179.5665184
51
191.9952995
0
ARC
8
DEFAULT_255_1_234
10
18.2605267
20
-0.3039957
40
0.2442808
50
191.6974072
51
215.1404042
0
ARC
8
DEFAULT_255_1_234
10
18.2367182
20
-0.3181892
40
0.2166522
50
215.6950207
51
224.8513522
0
ARC
8
DEFAULT_255_1_234
10
18.2422926
20
-0.3102303
40
0.2262237
50
225.2846858
51
255.0111758
0
ARC
8
DEFAULT_255_1_234
10
18.2746886
20
-0.1988545
40
0.3421979
50
254.5944985
51
267.9129803
0
ARC
8
DEFAULT_255_1_234
10
18.2821367
20
-0.0904097
40
0.4508556
50
267.4689655
51
270.0223026
0
ARC
8
DEFAULT_255_1_234
10
18.2851512
20
-0.1493151
40
0.3919604
50
269.5849941
51
281.1843768
0
ARC
8
DEFAULT_255_1_234
10
18.3130277
20
-0.2845941
40
0.2538457
50
280.9344262
51
300.9743589
0
ARC
8
DEFAULT_255_1_234
10
18.3342882
20
-0.3237312
40
0.2093566
50
301.4980046
51
315.1466847
0
ARC
8
DEFAULT_255_1_234
10
18.3198421
20
-0.3118764
40
0.2279656
50
315.5952539
51
345.6678731
0
ARC
8
DEFAULT_255_1_234
10
18.2078937
20
-0.2806991
40
0.3441564
50
345.2524969
51
358.6304371
0
ARC
8
DEFAULT_255_1_234
10
18.1061291
20
-0.2747084
40
0.4460494
50
358.1735671
51
0.0124524
0
LINE
8
DEFAULT_255_2_778
10
10.5738396
20
25.0243073
11
9.3932396
21
25.0243073
0
LINE
8
DEFAULT_255_2_778
10
9.3932396
20
25.0243073
11
9.9837396
21
26.0469073
0
LINE
8
DEFAULT_255_2_778
10
9.9837396
20
26.0469073
11
11.1643396
21
26.0469073
0
LINE
8
DEFAULT_255_2_778
10
11.1643396
20
26.0469073
11
10.5738396
21
25.0243073
0
LINE
8
DEFAULT_255_2_778
10
10.5738396
20
25.0243073
11
10.5738396
21
25.0243073
0
LINE
8
DEFAULT_255_2_778
10
11.7546396
20
25.0243073
11
12.9354396
21
25.0243073
0
LINE
8
DEFAULT_255_2_778
10
12.9354396
20
25.0243073
11
12.3451396
21
26.0469073
0
LINE
8
DEFAULT_255_2_778
10
12.3451396
20
26.0469073
11
11.1643396
21
26.0469073
0
LINE
8
DEFAULT_255_2_778
10
11.1643396
20
26.0469073
11
11.7546396
21
25.0243073
0
LINE
8
DEFAULT_255_2_778
10
11.7546396
20
25.0243073
11
11.7546396
21
25.0243073
0
LINE
8
DEFAULT_255_2_778
10
11.7545823
20
27.0695146
11
11.1642823
21
28.0921146
0
LINE
8
DEFAULT_255_2_778
10
11.1642823
20
28.0921146
11
10.5737823
21
27.0695146
0
LINE
8
DEFAULT_255_2_778
10
10.5737823
20
27.0695146
11
11.1642823
21
26.0469146
0
LINE
8
DEFAULT_255_2_778
10
11.1642823
20
26.0469146
11
11.7545823
21
27.0695146
0
LINE
8
DEFAULT_255_2_778
10
11.7545823
20
27.0695146
11
11.7545823
21
27.0695146
0
ARC
8
DEFAULT_255_2_778
10
16.5183731
20
26.7157426
40
0.5650491
50
268.7543645
51
289.1417717
0
ARC
8
DEFAULT_255_2_778
10
16.606208
20
26.4605531
40
0.2951681
50
289.2776255
51
3.7648372
0
ARC
8
DEFAULT_255_2_778
10
16.3901618
20
26.4871085
40
0.5106278
50
359.1949826
51
0.0020862
0
ARC
8
DEFAULT_255_2_778
10
16.547449
20
26.4730832
40
0.1541914
50
280.2616216
51
358.5297855
0
ARC
8
DEFAULT_255_2_778
10
16.5080075
20
26.585655
40
0.2726346
50
269.5969454
51
284.2065679
0
ARC
8
DEFAULT_255_2_778
10
16.4981967
20
26.5700316
40
0.2571258
50
246.5290903
51
271.7590909
0
ARC
8
DEFAULT_255_2_778
10
16.4527148
20
26.4620009
40
0.1399248
50
188.1071678
51
245.9934684
0
ARC
8
DEFAULT_255_2_778
10
16.4829007
20
26.4689617
40
0.1708111
50
179.9445314
51
188.990814
0
ARC
8
DEFAULT_255_2_778
10
16.4924507
20
26.4757849
40
0.3763411
50
178.2272621
51
205.8283807
0
ARC
8
DEFAULT_255_2_778
10
16.4132476
20
26.4580833
40
0.2979176
50
209.4028057
51
263.0375728
0
ARC
8
DEFAULT_255_2_778
10
16.5005111
20
26.8327629
40
0.6816586
50
259.5722942
51
270.4689037
0
ARC
8
DEFAULT_255_2_778
10
17.411252
20
26.8889767
40
0.1217154
50
2.0482843
51
87.015299
0
ARC
8
DEFAULT_255_2_778
10
17.4060617
20
26.8933852
40
0.126828
50
353.0600847
51
359.9737428
0
ARC
8
DEFAULT_255_2_778
10
17.4110442
20
26.8902555
40
0.1215295
50
270.5739762
51
354.2410513
0
ARC
8
DEFAULT_255_2_778
10
17.4065059
20
26.9264297
40
0.1578027
50
269.9941256
51
272.0902921
0
ARC
8
DEFAULT_255_2_778
10
17.414084
20
26.4755295
40
0.1400686
50
358.2807293
51
95.6106825
0
ARC
8
DEFAULT_255_2_778
10
17.4103233
20
26.4716963
40
0.1437669
50
266.9962473
51
359.8528392
0
ARC
8
DEFAULT_255_2_778
10
17.4725249
20
26.5119988
40
0.3335288
50
268.2414507
51
302.0223478
0
ARC
8
DEFAULT_255_2_778
10
17.5091261
20
26.436683
40
0.2504234
50
304.0600275
51
2.0468005
0
ARC
8
DEFAULT_255_2_778
10
17.4832788
20
26.4433521
40
0.2761203
50
0.4720601
51
65.8403529
0
ARC
8
DEFAULT_255_2_778
10
17.5191655
20
26.5081061
40
0.2024466
50
67.606893
51
75.8693222
0
ARC
8
DEFAULT_255_2_778
10
17.5042026
20
26.915722
40
0.2208874
50
286.9473417
51
358.0074963
0
ARC
8
DEFAULT_255_2_778
10
17.4710866
20
26.9245045
40
0.2544031
50
356.2897886
51
0.0050857
0
ARC
8
DEFAULT_255_2_778
10
17.497262
20
26.9295946
40
0.2282839
50
358.7280137
51
81.8073164
0
ARC
8
DEFAULT_255_2_778
10
17.4216369
20
26.6781283
40
0.4895182
50
77.2355086
51
90.5088275
0
ARC
8
DEFAULT_255_2_778
10
17.5842747
20
25.7135989
40
0.1302704
50
89.9972707
51
92.6773048
0
ARC
8
DEFAULT_255_2_778
10
17.5844071
20
25.71437
40
0.1294993
50
45.0546048
51
90.0558451
0
ARC
8
DEFAULT_255_2_778
10
17.5844118
20
25.714219
40
0.1296029
50
0.001866
51
45.1031959
0
ARC
8
DEFAULT_255_2_778
10
17.5845123
20
25.7142202
40
0.1295026
50
357.4803735
51
0.0013544
0
ARC
8
DEFAULT_255_2_778
10
17.5901979
20
25.7103512
40
0.1237052
50
339.8672523
51
359.1550732
0
ARC
8
DEFAULT_255_2_778
10
17.5794513
20
25.7075079
40
0.1329691
50
272.0853006
51
342.6124646
0
ARC
8
DEFAULT_255_2_778
10
17.6596145
20
25.7457661
40
0.2575135
50
286.787355
51
290.6121696
0
ARC
8
DEFAULT_255_2_778
10
17.6689461
20
25.7314533
40
0.24086
50
289.7330405
51
342.3216972
0
ARC
8
DEFAULT_255_2_778
10
17.641261
20
25.7362954
40
0.268735
50
343.130572
51
0.3905272
0
ARC
8
DEFAULT_255_2_778
10
17.6578783
20
25.7536767
40
0.2525904
50
356.4706028
51
80.1788963
0
ARC
8
DEFAULT_255_2_778
10
17.5921649
20
25.5267163
40
0.4881286
50
77.1212301
51
90.4900821
0
ARC
8
DEFAULT_255_2_778
10
17.5166337
20
25.229036
40
0.1865405
50
50.1507009
51
92.9634648
0
ARC
8
DEFAULT_255_2_778
10
17.5301354
20
25.2573678
40
0.1563319
50
12.621233
51
47.2950617
0
ARC
8
DEFAULT_255_2_778
10
16.8485884
20
25.1244726
40
0.8506657
50
2.8173892
51
11.3253986
0
ARC
8
DEFAULT_255_2_778
10
-29.2295733
20
21.6281175
40
47.060992
50
4.3048394
51
4.3117143
0
ARC
8
DEFAULT_255_2_778
10
18.5500859
20
25.200584
40
0.8523717
50
182.6850102
51
191.2954256
0
ARC
8
DEFAULT_255_2_778
10
17.9656837
20
25.0942399
40
0.2586603
50
193.5512904
51
195.3825538
0
ARC
8
DEFAULT_255_2_778
10
19.3507425
20
25.3531408
40
1.4700994
50
182.6283124
51
192.8725697
0
ARC
8
DEFAULT_255_2_778
10
17.6207606
20
25.2802215
40
0.261487
50
1.2064311
51
30.4123358
0
ARC
8
DEFAULT_255_2_778
10
17.6663626
20
25.295276
40
0.2147766
50
33.1081154
51
71.7312197
0
LINE
8
DEFAULT_255_2_778
10
13.4657897
20
25.4598271
11
13.9385897
21
25.4598271
0
LINE
8
DEFAULT_255_2_778
10
13.9385897
20
25.4598271
11
13.9385897
21
25.6312271
0
LINE
8
DEFAULT_255_2_778
10
13.9385897
20
25.6312271
11
13.4657897
21
25.6312271
0
LINE
8
DEFAULT_255_2_778
10
13.4657897
20
25.6312271
11
13.4657897
21
25.8421271
0
LINE
8
DEFAULT_255_2_778
10
13.4657897
20
25.8421271
11
13.9977897
21
25.8421271
0
LINE
8
DEFAULT_255_2_778
10
13.9977897
20
25.8421271
11
13.9977897
21
26.0135271
0
LINE
8
DEFAULT_255_2_778
10
13.9977897
20
26.0135271
11
13.4657897
21
26.0135271
0
LINE
8
DEFAULT_255_2_778
10
13.4657897
20
26.0135271
11
13.2651897
21
26.0135271
0
LINE
8
DEFAULT_255_2_778
10
13.2651897
20
26.0135271
11
13.2651897
21
25.8421271
0
LINE
8
DEFAULT_255_2_778
10
13.2651897
20
25.8421271
11
13.2651897
21
25.1957271
0
LINE
8
DEFAULT_255_2_778
10
13.2651897
20
25.1957271
11
13.2651897
21
25.0242271
0
LINE
8
DEFAULT_255_2_778
10
13.2651897
20
25.0242271
11
13.4657897
21
25.0242271
0
LINE
8
DEFAULT_255_2_778
10
13.4657897
20
25.0242271
11
14.0118897
21
25.0242271
0
LINE
8
DEFAULT_255_2_778
10
14.0118897
20
25.0242271
11
14.0118897
21
25.1957271
0
LINE
8
DEFAULT_255_2_778
10
14.0118897
20
25.1957271
11
13.4657897
21
25.1957271
0
LINE
8
DEFAULT_255_2_778
10
13.4657897
20
25.1957271
11
13.4657897
21
25.4595271
0
LINE
8
DEFAULT_255_2_778
10
13.4657897
20
25.4595271
11
13.4657897
21
25.4598271
0
LINE
8
DEFAULT_255_2_778
10
13.4519897
20
26.9139271
11
13.6620897
21
26.1786271
0
LINE
8
DEFAULT_255_2_778
10
13.6620897
20
26.1786271
11
13.6704897
21
26.1786271
0
LINE
8
DEFAULT_255_2_778
10
13.6704897
20
26.1786271
11
13.8464897
21
26.1786271
0
LINE
8
DEFAULT_255_2_778
10
13.8464897
20
26.1786271
11
13.8546897
21
26.1786271
0
LINE
8
DEFAULT_255_2_778
10
13.8546897
20
26.1786271
11
14.0647897
21
26.9139271
0
LINE
8
DEFAULT_255_2_778
10
14.0647897
20
26.9139271
11
14.0647897
21
26.1786271
0
LINE
8
DEFAULT_255_2_778
10
14.0647897
20
26.1786271
11
14.2515897
21
26.1786271
0
LINE
8
DEFAULT_255_2_778
10
14.2515897
20
26.1786271
11
14.2515897
21
27.1679271
0
LINE
8
DEFAULT_255_2_778
10
14.2515897
20
27.1679271
11
14.1496897
21
27.1679271
0
LINE
8
DEFAULT_255_2_778
10
14.1496897
20
27.1679271
11
14.0615897
21
27.1679271
0
LINE
8
DEFAULT_255_2_778
10
14.0615897
20
27.1679271
11
13.9655897
21
27.1679271
0
LINE
8
DEFAULT_255_2_778
10
13.9655897
20
27.1679271
11
13.7583897
21
26.4736271
0
LINE
8
DEFAULT_255_2_778
10
13.7583897
20
26.4736271
11
13.5511897
21
27.1679271
0
LINE
8
DEFAULT_255_2_778
10
13.5511897
20
27.1679271
11
13.4551897
21
27.1679271
0
LINE
8
DEFAULT_255_2_778
10
13.4551897
20
27.1679271
11
13.3670897
21
27.1679271
0
LINE
8
DEFAULT_255_2_778
10
13.3670897
20
27.1679271
11
13.2651897
21
27.1679271
0
LINE
8
DEFAULT_255_2_778
10
13.2651897
20
27.1679271
11
13.2651897
21
26.1786271
0
LINE
8
DEFAULT_255_2_778
10
13.2651897
20
26.1786271
11
13.4519897
21
26.1786271
0
LINE
8
DEFAULT_255_2_778
10
13.4519897
20
26.1786271
11
13.4519897
21
26.9139271
0
LINE
8
DEFAULT_255_2_778
10
13.4519897
20
26.9139271
11
13.4519897
21
26.9139271
0
LINE
8
DEFAULT_255_2_778
10
18.0056897
20
27.1679271
11
17.8064897
21
27.1679271
0
LINE
8
DEFAULT_255_2_778
10
17.8064897
20
27.1679271
11
17.8064897
21
26.1786271
0
LINE
8
DEFAULT_255_2_778
10
17.8064897
20
26.1786271
11
18.0056897
21
26.1786271
0
LINE
8
DEFAULT_255_2_778
10
18.0056897
20
26.1786271
11
18.0056897
21
27.1679271
0
LINE
8
DEFAULT_255_2_778
10
18.0056897
20
27.1679271
11
18.0056897
21
27.1679271
0
LINE
8
DEFAULT_255_2_778
10
18.1681897
20
26.0138271
11
17.9689897
21
26.0138271
0
LINE
8
DEFAULT_255_2_778
10
17.9689897
20
26.0138271
11
17.9689897
21
25.0245271
0
LINE
8
DEFAULT_255_2_778
10
17.9689897
20
25.0245271
11
18.1681897
21
25.0245271
0
LINE
8
DEFAULT_255_2_778
10
18.1681897
20
25.0245271
11
18.1681897
21
26.0138271
0
LINE
8
DEFAULT_255_2_778
10
18.1681897
20
26.0138271
11
18.1681897
21
26.0138271
0
LINE
8
DEFAULT_255_2_778
10
19.9765897
20
27.1679271
11
19.7773897
21
27.1679271
0
LINE
8
DEFAULT_255_2_778
10
19.7773897
20
27.1679271
11
19.7773897
21
26.1786271
0
LINE
8
DEFAULT_255_2_778
10
19.7773897
20
26.1786271
11
19.9765897
21
26.1786271
0
LINE
8
DEFAULT_255_2_778
10
19.9765897
20
26.1786271
11
19.9765897
21
27.1679271
0
LINE
8
DEFAULT_255_2_778
10
19.9765897
20
27.1679271
11
19.9765897
21
27.1679271
0
LINE
8
DEFAULT_255_2_778
10
14.5298897
20
27.1679271
11
14.3306897
21
27.1679271
0
LINE
8
DEFAULT_255_2_778
10
14.3306897
20
27.1679271
11
14.3306897
21
26.1786271
0
LINE
8
DEFAULT_255_2_778
10
14.3306897
20
26.1786271
11
14.5298897
21
26.1786271
0
LINE
8
DEFAULT_255_2_778
10
14.5298897
20
26.1786271
11
14.5298897
21
27.1679271
0
LINE
8
DEFAULT_255_2_778
10
14.5298897
20
27.1679271
11
14.5298897
21
27.1679271
0
LINE
8
DEFAULT_255_2_778
10
19.4989897
20
26.7819271
11
19.1029897
21
26.7819271
0
LINE
8
DEFAULT_255_2_778
10
19.1029897
20
26.7819271
11
19.1029897
21
27.1676271
0
LINE
8
DEFAULT_255_2_778
10
19.1029897
20
27.1676271
11
18.9068897
21
27.1676271
0
LINE
8
DEFAULT_255_2_778
10
18.9068897
20
27.1676271
11
18.9068897
21
26.1786271
0
LINE
8
DEFAULT_255_2_778
10
18.9068897
20
26.1786271
11
19.1029897
21
26.1786271
0
LINE
8
DEFAULT_255_2_778
10
19.1029897
20
26.1786271
11
19.1029897
21
26.6104271
0
LINE
8
DEFAULT_255_2_778
10
19.1029897
20
26.6104271
11
19.4989897
21
26.6104271
0
LINE
8
DEFAULT_255_2_778
10
19.4989897
20
26.6104271
11
19.4989897
21
26.1786271
0
LINE
8
DEFAULT_255_2_778
10
19.4989897
20
26.1786271
11
19.6950897
21
26.1786271
0
LINE
8
DEFAULT_255_2_778
10
19.6950897
20
26.1786271
11
19.6950897
21
27.1676271
0
LINE
8
DEFAULT_255_2_778
10
19.6950897
20
27.1676271
11
19.4989897
21
27.1676271
0
LINE
8
DEFAULT_255_2_778
10
19.4989897
20
27.1676271
11
19.4989897
21
26.7819271
0
LINE
8
DEFAULT_255_2_778
10
19.4989897
20
26.7819271
11
19.4989897
21
26.7819271
0
LINE
8
DEFAULT_255_2_778
10
14.8246897
20
26.1786271
11
15.0280897
21
26.1786271
0
LINE
8
DEFAULT_255_2_778
10
15.0280897
20
26.1786271
11
15.0280897
21
26.9965271
0
LINE
8
DEFAULT_255_2_778
10
15.0280897
20
26.9965271
11
15.2696897
21
26.9965271
0
LINE
8
DEFAULT_255_2_778
10
15.2696897
20
26.9965271
11
15.2696897
21
27.1679271
0
LINE
8
DEFAULT_255_2_778
10
15.2696897
20
27.1679271
11
15.0280897
21
27.1679271
0
LINE
8
DEFAULT_255_2_778
10
15.0280897
20
27.1679271
11
14.8246897
21
27.1679271
0
LINE
8
DEFAULT_255_2_778
10
14.8246897
20
27.1679271
11
14.5830897
21
27.1679271
0
LINE
8
DEFAULT_255_2_778
10
14.5830897
20
27.1679271
11
14.5830897
21
26.9965271
0
LINE
8
DEFAULT_255_2_778
10
14.5830897
20
26.9965271
11
14.8246897
21
26.9965271
0
LINE
8
DEFAULT_255_2_778
10
14.8246897
20
26.9965271
11
14.8246897
21
26.1786271
0
LINE
8
DEFAULT_255_2_778
10
14.8246897
20
26.1786271
11
14.8246897
21
26.1786271
0
LINE
8
DEFAULT_255_2_778
10
16.6422897
20
25.0245271
11
16.8454897
21
25.0245271
0
LINE
8
DEFAULT_255_2_778
10
16.8454897
20
25.0245271
11
16.8454897
21
25.8423271
0
LINE
8
DEFAULT_255_2_778
10
16.8454897
20
25.8423271
11
17.0873897
21
25.8423271
0
LINE
8
DEFAULT_255_2_778
10
17.0873897
20
25.8423271
11
17.0873897
21
26.0141271
0
LINE
8
DEFAULT_255_2_778
10
17.0873897
20
26.0141271
11
16.8454897
21
26.0141271
0
LINE
8
DEFAULT_255_2_778
10
16.8454897
20
26.0141271
11
16.6422897
21
26.0141271
0
LINE
8
DEFAULT_255_2_778
10
16.6422897
20
26.0141271
11
16.4004897
21
26.0141271
0
LINE
8
DEFAULT_255_2_778
10
16.4004897
20
26.0141271
11
16.4004897
21
25.8423271
0
LINE
8
DEFAULT_255_2_778
10
16.4004897
20
25.8423271
11
16.6422897
21
25.8423271
0
LINE
8
DEFAULT_255_2_778
10
16.6422897
20
25.8423271
11
16.6422897
21
25.0245271
0
LINE
8
DEFAULT_255_2_778
10
16.6422897
20
25.0245271
11
16.6422897
21
25.0245271
0
LINE
8
DEFAULT_255_2_778
10
16.9007897
20
26.4871271
11
16.9007897
21
27.1676271
0
LINE
8
DEFAULT_255_2_778
10
16.9007897
20
27.1676271
11
16.7015897
21
27.1676271
0
LINE
8
DEFAULT_255_2_778
10
16.7015897
20
27.1676271
11
16.7015897
21
26.4691271
0
LINE
8
DEFAULT_255_2_778
10
16.3120897
20
26.4691271
11
16.3120897
21
27.1676271
0
LINE
8
DEFAULT_255_2_778
10
16.3120897
20
27.1676271
11
16.1162897
21
27.1676271
0
LINE
8
DEFAULT_255_2_778
10
16.1162897
20
27.1676271
11
16.1162897
21
26.4874271
0
LINE
8
DEFAULT_255_2_778
10
15.0000897
20
25.4598271
11
15.4730897
21
25.4598271
0
LINE
8
DEFAULT_255_2_778
10
15.4730897
20
25.4598271
11
15.4730897
21
25.6312271
0
LINE
8
DEFAULT_255_2_778
10
15.4730897
20
25.6312271
11
15.0000897
21
25.6312271
0
LINE
8
DEFAULT_255_2_778
10
15.0000897
20
25.6312271
11
15.0000897
21
25.8421271
0
LINE
8
DEFAULT_255_2_778
10
15.0000897
20
25.8421271
11
15.5320897
21
25.8421271
0
LINE
8
DEFAULT_255_2_778
10
15.5320897
20
25.8421271
11
15.5320897
21
26.0135271
0
LINE
8
DEFAULT_255_2_778
10
15.5320897
20
26.0135271
11
15.0000897
21
26.0135271
0
LINE
8
DEFAULT_255_2_778
10
15.0000897
20
26.0135271
11
14.7997897
21
26.0135271
0
LINE
8
DEFAULT_255_2_778
10
14.7997897
20
26.0135271
11
14.7997897
21
25.8421271
0
LINE
8
DEFAULT_255_2_778
10
14.7997897
20
25.8421271
11
14.7997897
21
25.1957271
0
LINE
8
DEFAULT_255_2_778
10
14.7997897
20
25.1957271
11
14.7997897
21
25.0242271
0
LINE
8
DEFAULT_255_2_778
10
14.7997897
20
25.0242271
11
15.0000897
21
25.0242271
0
LINE
8
DEFAULT_255_2_778
10
15.0000897
20
25.0242271
11
15.5461897
21
25.0242271
0
LINE
8
DEFAULT_255_2_778
10
15.5461897
20
25.0242271
11
15.5461897
21
25.1957271
0
LINE
8
DEFAULT_255_2_778
10
15.5461897
20
25.1957271
11
15.0000897
21
25.1957271
0
LINE
8
DEFAULT_255_2_778
10
15.0000897
20
25.1957271
11
15.0000897
21
25.4595271
0
LINE
8
DEFAULT_255_2_778
10
15.0000897
20
25.4595271
11
15.0000897
21
25.4598271
0
LINE
8
DEFAULT_255_2_778
10
17.4064897
20
26.7686271
11
17.1690897
21
26.7686271
0
LINE
8
DEFAULT_255_2_778
10
17.1690897
20
26.7686271
11
17.1690897
21
27.0102271
0
LINE
8
DEFAULT_255_2_778
10
17.1690897
20
27.0102271
11
17.4175897
21
27.0102271
0
LINE
8
DEFAULT_255_2_778
10
17.4175897
20
27.0102271
11
17.4175897
21
27.0105271
0
LINE
8
DEFAULT_255_2_778
10
17.4027897
20
26.3278271
11
17.1690897
21
26.3278271
0
LINE
8
DEFAULT_255_2_778
10
17.1690897
20
26.3278271
11
17.1690897
21
26.6149271
0
LINE
8
DEFAULT_255_2_778
10
17.1690897
20
26.6149271
11
17.4003897
21
26.6149271
0
LINE
8
DEFAULT_255_2_778
10
17.1767897
20
26.1786271
11
17.4622897
21
26.1786271
0
LINE
8
DEFAULT_255_2_778
10
17.4172897
20
27.1676271
11
17.1770897
21
27.1676271
0
LINE
8
DEFAULT_255_2_778
10
17.1770897
20
27.1676271
11
16.9722897
21
27.1676271
0
LINE
8
DEFAULT_255_2_778
10
16.9722897
20
27.1676271
11
16.9711897
21
27.1676271
0
LINE
8
DEFAULT_255_2_778
10
16.9711897
20
27.1676271
11
16.9711897
21
26.1786271
0
LINE
8
DEFAULT_255_2_778
10
16.9711897
20
26.1786271
11
16.9722897
21
26.1786271
0
LINE
8
DEFAULT_255_2_778
10
16.9722897
20
26.1786271
11
17.1770897
21
26.1786271
0
LINE
8
DEFAULT_255_2_778
10
17.1770897
20
26.1786271
11
17.1767897
21
26.1786271
0
LINE
8
DEFAULT_255_2_778
10
17.3368897
20
25.5743271
11
17.3368897
21
25.8437271
0
LINE
8
DEFAULT_255_2_778
10
17.3368897
20
25.8437271
11
17.5781897
21
25.8437271
0
LINE
8
DEFAULT_255_2_778
10
17.5842897
20
25.5746271
11
17.3370897
21
25.5746271
0
LINE
8
DEFAULT_255_2_778
10
17.3370897
20
25.5746271
11
17.3368897
21
25.5743271
0
LINE
8
DEFAULT_255_2_778
10
17.5879897
20
26.0148271
11
17.3368897
21
26.0148271
0
LINE
8
DEFAULT_255_2_778
10
17.3368897
20
26.0148271
11
17.1383897
21
26.0148271
0
LINE
8
DEFAULT_255_2_778
10
17.1383897
20
26.0148271
11
17.1362897
21
26.0148271
0
LINE
8
DEFAULT_255_2_778
10
17.1362897
20
26.0148271
11
17.1362897
21
25.0256271
0
LINE
8
DEFAULT_255_2_778
10
17.1362897
20
25.0256271
11
17.3368897
21
25.0256271
0
LINE
8
DEFAULT_255_2_778
10
17.3368897
20
25.0256271
11
17.3368897
21
25.4153271
0
LINE
8
DEFAULT_255_2_778
10
17.3368897
20
25.4153271
11
17.5069897
21
25.4153271
0
LINE
8
DEFAULT_255_2_778
10
17.7162897
20
25.0256271
11
17.9175897
21
25.0256271
0
LINE
8
DEFAULT_255_2_778
10
14.2763897
20
26.0138271
11
14.0760897
21
26.0138271
0
LINE
8
DEFAULT_255_2_778
10
14.0760897
20
26.0138271
11
14.0760897
21
25.1960271
0
LINE
8
DEFAULT_255_2_778
10
14.0760897
20
25.1960271
11
14.0760897
21
25.0245271
0
LINE
8
DEFAULT_255_2_778
10
14.0760897
20
25.0245271
11
14.2763897
21
25.0245271
0
LINE
8
DEFAULT_255_2_778
10
14.2763897
20
25.0245271
11
14.7428897
21
25.0245271
0
LINE
8
DEFAULT_255_2_778
10
14.7428897
20
25.0245271
11
14.7428897
21
25.1960271
0
LINE
8
DEFAULT_255_2_778
10
14.7428897
20
25.1960271
11
14.2763897
21
25.1960271
0
LINE
8
DEFAULT_255_2_778
10
14.2763897
20
25.1960271
11
14.2763897
21
26.0138271
0
LINE
8
DEFAULT_255_2_778
10
14.2763897
20
26.0138271
11
14.2763897
21
26.0138271
0
ARC
8
DEFAULT_255_2_778
10
15.4584271
20
25.6396969
40
0.9681224
50
72.4822103
51
81.3184214
0
ARC
8
DEFAULT_255_2_778
10
15.7160297
20
26.4163918
40
0.1503783
50
28.8883513
51
77.0092434
0
ARC
8
DEFAULT_255_2_778
10
15.7432379
20
26.4453196
40
0.113238
50
358.9917455
51
22.7117017
0
ARC
8
DEFAULT_255_2_778
10
15.7394861
20
26.4494918
40
0.1171346
50
289.2958104
51
356.9831562
0
ARC
8
DEFAULT_255_2_778
10
15.6668261
20
26.6069882
40
0.2902651
50
268.4665462
51
292.5613311
0
ARC
8
DEFAULT_255_2_778
10
15.6496856
20
26.5479179
40
0.2312808
50
236.4956947
51
272.3225735
0
ARC
8
DEFAULT_255_2_778
10
15.6106646
20
26.4796839
40
0.1529307
50
178.9722202
51
234.5742435
0
ARC
8
DEFAULT_255_2_778
10
15.5656113
20
26.4701079
40
0.3002058
50
177.6481608
51
245.5596397
0
ARC
8
DEFAULT_255_2_778
10
15.6409971
20
26.6423561
40
0.488217
50
245.8690375
51
267.169035
0
ARC
8
DEFAULT_255_2_778
10
15.6671503
20
26.8933916
40
0.7403648
50
266.1069867
51
270.0547972
0
ARC
8
DEFAULT_255_2_778
10
15.6772894
20
26.7246135
40
0.5716642
50
269.0547216
51
287.7147747
0
ARC
8
DEFAULT_255_2_778
10
15.7598889
20
26.4789091
40
0.3125017
50
286.995984
51
325.1221533
0
ARC
8
DEFAULT_255_2_778
10
15.7678294
20
26.462361
40
0.2966627
50
326.8673922
51
0.8625726
0
ARC
8
DEFAULT_255_2_778
10
15.7898286
20
26.4709409
40
0.2746606
50
359.1417932
51
76.9739731
0
ARC
8
DEFAULT_255_2_778
10
15.6705461
20
26.1900719
40
0.577616
50
71.7185727
51
79.1315439
0
ARC
8
DEFAULT_255_2_778
10
14.2492968
20
18.836467
40
8.0673056
50
79.0662148
51
79.6216572
0
ARC
8
DEFAULT_255_2_778
10
16.4356585
20
30.7141581
40
4.0099443
50
259.1227669
51
259.4665204
0
ARC
8
DEFAULT_255_2_778
10
15.7836732
20
27.4191142
40
0.6513291
50
249.9945768
51
260.7485895
0
ARC
8
DEFAULT_255_2_778
10
15.5880401
20
26.9080999
40
0.1046098
50
178.6705173
51
254.9333545
0
ARC
8
DEFAULT_255_2_778
10
15.6049957
20
26.9046688
40
0.1216785
50
93.288632
51
177.2403935
0
ARC
8
DEFAULT_255_2_778
10
15.6585677
20
26.7176752
40
0.3143588
50
89.6189463
51
101.1057977
0
ARC
8
DEFAULT_255_2_778
10
15.6722733
20
26.829516
40
0.2028439
50
53.5634072
51
93.2825843
0
ARC
8
DEFAULT_255_2_778
10
15.7018505
20
26.8877144
40
0.1388739
50
357.1985816
51
49.1152298
0
ARC
8
DEFAULT_255_2_778
10
15.7254907
20
26.8809274
40
0.3087677
50
359.9999335
51
2.3703878
0
ARC
8
DEFAULT_255_2_778
10
15.7353555
20
26.8824337
40
0.298851
50
2.1600756
51
60.1092229
0
ARC
8
DEFAULT_255_2_778
10
15.6766212
20
26.7758133
40
0.4205645
50
60.4106856
51
86.1444419
0
ARC
8
DEFAULT_255_2_778
10
15.6536151
20
26.5991228
40
0.5985046
50
85.0843314
51
90.0628677
0
ARC
8
DEFAULT_255_2_778
10
15.6529718
20
26.7225466
40
0.4750804
50
90.001616
51
92.2300394
0
ARC
8
DEFAULT_255_2_778
10
15.6281193
20
26.827687
40
0.3696351
50
89.0131319
51
149.6364996
0
ARC
8
DEFAULT_255_2_778
10
15.5505461
20
26.8999055
40
0.2671974
50
154.5962367
51
180.4885883
0
ARC
8
DEFAULT_255_2_778
10
15.5651524
20
26.898384
40
0.281795
50
180.1539064
51
255.1120325
0
ARC
8
DEFAULT_255_2_778
10
15.7094242
20
27.221232
40
0.6333958
50
249.9962237
51
260.4976723
0
ARC
8
DEFAULT_255_2_778
10
18.2470963
20
25.6408351
40
0.967002
50
72.4685023
51
81.3064395
0
ARC
8
DEFAULT_255_2_778
10
18.5045397
20
26.416427
40
0.1503535
50
28.8782248
51
76.9904304
0
ARC
8
DEFAULT_255_2_778
10
18.5317197
20
26.4453189
40
0.1132561
50
358.9922779
51
22.7082666
0
ARC
8
DEFAULT_255_2_778
10
18.5280402
20
26.4494088
40
0.1170763
50
289.2761556
51
357.0223042
0
ARC
8
DEFAULT_255_2_778
10
18.4553612
20
26.6072836
40
0.2905613
50
268.4611814
51
292.5289055
0
ARC
8
DEFAULT_255_2_778
10
18.4381801
20
26.5488175
40
0.2321799
50
236.6698634
51
272.3149402
0
ARC
8
DEFAULT_255_2_778
10
18.39878
20
26.4796762
40
0.1528464
50
178.9687581
51
234.7686008
0
ARC
8
DEFAULT_255_2_778
10
18.3540113
20
26.4701079
40
0.3002058
50
177.6481608
51
245.5596397
0
ARC
8
DEFAULT_255_2_778
10
18.4293971
20
26.6423561
40
0.488217
50
245.8690375
51
267.169035
0
ARC
8
DEFAULT_255_2_778
10
18.4555503
20
26.8933916
40
0.7403648
50
266.1069867
51
270.0547972
0
ARC
8
DEFAULT_255_2_778
10
18.4656836
20
26.7252451
40
0.5722957
50
269.0563423
51
287.7048702
0
ARC
8
DEFAULT_255_2_778
10
18.548344
20
26.4792682
40
0.312856
50
286.9832601
51
325.0871916
0
ARC
8
DEFAULT_255_2_778
10
18.5567708
20
26.4623856
40
0.2964208
50
326.8311942
51
0.8585267
0
ARC
8
DEFAULT_255_2_778
10
18.5785756
20
26.4710282
40
0.2746149
50
359.1234265
51
76.9343785
0
ARC
8
DEFAULT_255_2_778
10
18.4596421
20
26.1911965
40
0.5764934
50
71.6999697
51
79.1198353
0
ARC
8
DEFAULT_255_2_778
10
17.0173657
20
18.7144392
40
8.1910887
50
79.0843627
51
79.6321368
0
ARC
8
DEFAULT_255_2_778
10
19.2200266
20
30.6939177
40
3.9892176
50
259.1314419
51
259.4772924
0
ARC
8
DEFAULT_255_2_778
10
18.5723251
20
27.4185131
40
0.6507003
50
249.9919323
51
260.7592458
0
ARC
8
DEFAULT_255_2_778
10
18.376901
20
26.9080546
40
0.1045718
50
178.6452075
51
254.9151907
0
ARC
8
DEFAULT_255_2_778
10
18.3939581
20
26.9046016
40
0.121744
50
93.2745253
51
177.21023
0
ARC
8
DEFAULT_255_2_778
10
18.4475726
20
26.7175052
40
0.3145287
50
89.6200387
51
101.1027534
0
ARC
8
DEFAULT_255_2_778
10
18.4613489
20
26.8308453
40
0.2015212
50
53.1490002
51
93.3256649
0
ARC
8
DEFAULT_255_2_778
10
18.4902753
20
26.8876519
40
0.1391457
50
357.2298288
51
48.6469881
0
ARC
8
DEFAULT_255_2_778
10
18.5137232
20
26.8809226
40
0.3092351
50
0.0008291
51
2.3676985
0
ARC
8
DEFAULT_255_2_778
10
18.5240744
20
26.8824868
40
0.2988304
50
2.1500394
51
60.0956838
0
ARC
8
DEFAULT_255_2_778
10
18.4654399
20
26.7759909
40
0.4203859
50
60.40452
51
86.1455285
0
ARC
8
DEFAULT_255_2_778
10
18.4424157
20
26.5991686
40
0.5984588
50
85.0841409
51
90.0629301
0
ARC
8
DEFAULT_255_2_778
10
18.4417778
20
26.7221392
40
0.4754878
50
90.0023409
51
92.3231329
0
ARC
8
DEFAULT_255_2_778
10
18.4167555
20
26.8274604
40
0.3698206
50
89.1093915
51
149.6400816
0
ARC
8
DEFAULT_255_2_778
10
18.338761
20
26.8998917
40
0.2669122
50
154.6001925
51
180.486137
0
ARC
8
DEFAULT_255_2_778
10
18.3537607
20
26.8985152
40
0.2819037
50
180.1805176
51
255.132702
0
ARC
8
DEFAULT_255_2_778
10
18.4982264
20
27.2217784
40
0.6339516
50
250.0026216
51
260.4967164
0
ARC
8
DEFAULT_255_2_778
10
16.008917
20
25.4289283
40
0.2519711
50
190.2626864
51
267.3480013
0
ARC
8
DEFAULT_255_2_778
10
16.2443543
20
25.5202548
40
0.5022041
50
179.6723028
51
195.7380858
0
ARC
8
DEFAULT_255_2_778
10
16.1790511
20
25.5357671
40
0.4370755
50
148.7005643
51
181.6572045
0
ARC
8
DEFAULT_255_2_778
10
15.9957576
20
25.6458723
40
0.2232598
50
89.6148479
51
148.4074796
0
ARC
8
DEFAULT_255_2_778
10
16.0060936
20
25.667949
40
0.201372
50
41.9769772
51
92.5146611
0
ARC
8
DEFAULT_255_2_778
10
15.9522078
20
25.6302523
40
0.2667646
50
15.1848537
51
40.2549591
0
ARC
8
DEFAULT_255_2_778
10
16.028123
20
25.6405326
40
0.3935735
50
8.7091682
51
82.0550801
0
ARC
8
DEFAULT_255_2_778
10
15.9931241
20
25.4940871
40
0.543642
50
80.5350289
51
90.1544743
0
ARC
8
DEFAULT_255_2_778
10
15.9818804
20
25.5827192
40
0.4551129
50
88.7689246
51
119.6437418
0
ARC
8
DEFAULT_255_2_778
10
16.0077717
20
25.5864647
40
0.4653013
50
122.644121
51
173.3997839
0
ARC
8
DEFAULT_255_2_778
10
16.2711934
20
25.5221568
40
0.7351371
50
170.7798304
51
180.1348114
0
ARC
8
DEFAULT_255_2_778
10
16.1377257
20
25.5067615
40
0.6018225
50
178.6988735
51
210.5289552
0
ARC
8
DEFAULT_255_2_778
10
15.970325
20
25.4159953
40
0.4115783
50
211.4828222
51
265.8686737
0
ARC
8
DEFAULT_255_2_778
10
15.9909864
20
25.5407011
40
0.5375742
50
264.6297133
51
270.0503073
0
ARC
8
DEFAULT_255_2_778
10
16.0020995
20
25.4725749
40
0.4695684
50
268.7014824
51
300.1403067
0
ARC
8
DEFAULT_255_2_778
10
16.0350333
20
25.3941852
40
0.385394
50
301.7580058
51
353.77968
0
ARC
8
DEFAULT_255_2_778
10
16.0012256
20
25.3885219
40
0.2113379
50
268.8430278
51
350.1661143
0
ARC
8
DEFAULT_255_2_778
10
18.6896799
20
25.4288824
40
0.2519281
50
190.2538303
51
267.3332171
0
ARC
8
DEFAULT_255_2_778
10
18.9252249
20
25.5202581
40
0.5022746
50
179.672724
51
195.7362088
0
ARC
8
DEFAULT_255_2_778
10
18.8600432
20
25.5357917
40
0.4372682
50
148.7196987
51
181.6596982
0
ARC
8
DEFAULT_255_2_778
10
18.676443
20
25.6459906
40
0.2231415
50
89.6108896
51
148.4244661
0
ARC
8
DEFAULT_255_2_778
10
18.686876
20
25.667967
40
0.2013576
50
42.5913083
51
92.5383066
0
ARC
8
DEFAULT_255_2_778
10
18.6345542
20
25.6315973
40
0.2646316
50
15.0085433
51
40.7215892
0
ARC
8
DEFAULT_255_2_778
10
18.708623
20
25.6405326
40
0.3935735
50
8.7091682
51
82.0550801
0
ARC
8
DEFAULT_255_2_778
10
18.6736241
20
25.4940871
40
0.543642
50
80.5350289
51
90.1544743
0
ARC
8
DEFAULT_255_2_778
10
18.6623804
20
25.5827192
40
0.4551129
50
88.7689246
51
119.6437418
0
ARC
8
DEFAULT_255_2_778
10
18.6882717
20
25.5864647
40
0.4653013
50
122.644121
51
173.3997839
0
ARC
8
DEFAULT_255_2_778
10
18.9516934
20
25.5221568
40
0.7351371
50
170.7798304
51
180.1348114
0
ARC
8
DEFAULT_255_2_778
10
18.8177822
20
25.50682
40
0.6013778
50
178.7034849
51
210.5604279
0
ARC
8
DEFAULT_255_2_778
10
18.6511312
20
25.4163377
40
0.4119265
50
211.5090145
51
265.8592607
0
ARC
8
DEFAULT_255_2_778
10
18.6716883
20
25.5404521
40
0.5373252
50
264.628472
51
270.0501277
0
ARC
8
DEFAULT_255_2_778
10
18.682837
20
25.4723685
40
0.4693629
50
268.6963312
51
300.2191972
0
ARC
8
DEFAULT_255_2_778
10
18.7155684
20
25.3944124
40
0.3856821
50
301.8465101
51
353.7503927
0
ARC
8
DEFAULT_255_2_778
10
18.6820648
20
25.3883604
40
0.2111733
50
268.8857714
51
350.2028431
0
LINE
8
DEFAULT_255_2_778
10
15.4577584
20
26.4824271
11
15.2656584
21
26.4824271
0
LINE
8
DEFAULT_255_2_778
10
15.8405584
20
26.8809271
11
16.0342584
21
26.8809271
0
LINE
8
DEFAULT_255_2_778
10
18.2459584
20
26.4824271
11
18.0540584
21
26.4824271
0
LINE
8
DEFAULT_255_2_778
10
18.6292584
20
26.8809271
11
18.8229584
21
26.8809271
0
LINE
8
DEFAULT_255_2_778
10
16.2096584
20
25.7001271
11
16.4171584
21
25.7001271
0
LINE
8
DEFAULT_255_2_778
10
16.4181584
20
25.3524271
11
16.2094584
21
25.3524271
0
LINE
8
DEFAULT_255_2_778
10
18.8901584
20
25.7001271
11
19.0976584
21
25.7001271
0
LINE
8
DEFAULT_255_2_778
10
19.0989584
20
25.3524271
11
18.8901584
21
25.3524271
0
LINE
8
DEFAULT_255_1_234
10
11.7240657
20
23.1213565
11
11.7240657
21
23.0466614
0
LINE
8
DEFAULT_255_1_234
10
11.5192563
20
22.5631507
11
11.7280815
21
22.3993033
0
LINE
8
DEFAULT_255_1_234
10
11.7280815
20
22.3993033
11
11.6228658
21
22.3021192
0
LINE
8
DEFAULT_255_1_234
10
11.6228658
20
22.3021192
11
11.3762914
21
22.4980937
0
LINE
8
DEFAULT_255_1_234
10
10.7827459
20
23.0362201
11
10.7827459
21
23.1205534
0
LINE
8
DEFAULT_255_1_234
10
11.5698563
20
23.0354169
11
11.5698563
21
23.1221597
0
LINE
8
DEFAULT_255_1_234
10
10.9369553
20
23.132601
11
10.9369553
21
23.0466614
0
ARC
8
DEFAULT_255_1_234
10
10.8286909
20
23.0427707
40
0.8953833
50
351.453011
51
0.2489685
0
ARC
8
DEFAULT_255_1_234
10
11.0871709
20
23.0027933
40
0.6338333
50
338.6861641
51
351.5540711
0
ARC
8
DEFAULT_255_1_234
10
11.1805593
20
22.9697828
40
0.5348431
50
336.2887631
51
338.3442418
0
ARC
8
DEFAULT_255_1_234
10
11.2145215
20
22.9511698
40
0.4962747
50
321.1170344
51
336.6795229
0
ARC
8
DEFAULT_255_1_234
10
11.2777044
20
22.9025206
40
0.4165565
50
305.4419708
51
320.8705636
0
ARC
8
DEFAULT_255_1_234
10
11.2580514
20
22.9772707
40
0.4935497
50
271.6373023
51
283.8611969
0
ARC
8
DEFAULT_255_1_234
10
11.2542767
20
23.0428572
40
0.5592206
50
269.9930596
51
271.8318864
0
ARC
8
DEFAULT_255_1_234
10
11.250521
20
22.9620681
40
0.4784458
50
252.5219675
51
270.4416499
0
ARC
8
DEFAULT_255_1_234
10
11.2361469
20
22.9081592
40
0.422716
50
237.5352116
51
252.1857531
0
ARC
8
DEFAULT_255_1_234
10
11.2450665
20
22.9195363
40
0.4371052
50
209.063312
51
237.3492538
0
ARC
8
DEFAULT_255_1_234
10
11.3320513
20
22.9741685
40
0.5397041
50
205.1183774
51
209.6470015
0
ARC
8
DEFAULT_255_1_234
10
11.411755
20
23.007983
40
0.6262326
50
188.7215458
51
204.8240747
0
ARC
8
DEFAULT_255_1_234
10
11.6115078
20
23.0416067
40
0.8287794
50
180.3723947
51
188.9252049
0
ARC
8
DEFAULT_255_1_234
10
11.608783
20
23.1245402
40
0.8260467
50
169.5253763
51
180.2765336
0
ARC
8
DEFAULT_255_1_234
10
11.4185279
20
23.1595309
40
0.6326007
50
155.8315255
51
169.5089989
0
ARC
8
DEFAULT_255_1_234
10
11.290478
20
23.2189348
40
0.4914567
50
139.6258461
51
156.0379525
0
ARC
8
DEFAULT_255_1_234
10
11.2315113
20
23.2663799
40
0.4158054
50
122.6416387
51
139.3430715
0
ARC
8
DEFAULT_255_1_234
10
11.2415733
20
23.2480451
40
0.4366739
50
93.0223692
51
122.455762
0
ARC
8
DEFAULT_255_1_234
10
11.252373
20
23.1515709
40
0.5336137
50
89.975342
51
93.6341897
0
ARC
8
DEFAULT_255_1_234
10
11.2562616
20
23.1895375
40
0.4956606
50
73.9665422
51
90.4229648
0
ARC
8
DEFAULT_255_1_234
10
11.2746263
20
23.2610451
40
0.4218674
50
57.5178019
51
73.6813337
0
ARC
8
DEFAULT_255_1_234
10
11.2702046
20
23.2574462
40
0.4272816
50
28.7261108
51
57.2767933
0
ARC
8
DEFAULT_255_1_234
10
11.1791378
20
23.2011688
40
0.534218
50
24.2448911
51
29.3248482
0
ARC
8
DEFAULT_255_1_234
10
11.0865479
20
23.1628819
40
0.6343711
50
9.064382
51
23.9639114
0
ARC
8
DEFAULT_255_1_234
10
10.8609807
20
23.1249925
40
0.8630926
50
359.7586264
51
9.1891435
0
ARC
8
DEFAULT_255_1_234
10
10.7355287
20
23.1263343
40
0.834338
50
359.7133237
51
7.96545
0
ARC
8
DEFAULT_255_1_234
10
11.0317504
20
23.1690681
40
0.5350538
50
7.8291991
51
20.0421623
0
ARC
8
DEFAULT_255_1_234
10
11.1942067
20
23.2281606
40
0.3621841
50
20.0677553
51
35.9161685
0
ARC
8
DEFAULT_255_1_234
10
11.2717105
20
23.285767
40
0.2656263
50
35.6594382
51
85.1578074
0
ARC
8
DEFAULT_255_1_234
10
11.2532361
20
23.1742378
40
0.3784238
50
83.7959068
51
90.095906
0
ARC
8
DEFAULT_255_1_234
10
11.2489295
20
23.2475601
40
0.3051229
50
89.3102392
51
109.9889877
0
ARC
8
DEFAULT_255_1_234
10
11.2406778
20
23.2831433
40
0.2688988
50
110.9285147
51
143.9411762
0
ARC
8
DEFAULT_255_1_234
10
11.3337724
20
23.2119236
40
0.3860887
50
143.5289163
51
163.2980757
0
ARC
8
DEFAULT_255_1_234
10
11.5245545
20
23.1519433
40
0.5860659
50
163.0418846
51
174.3140048
0
ARC
8
DEFAULT_255_1_234
10
11.7649657
20
23.1241854
40
0.8280531
50
174.0509143
51
179.4176892
0
ARC
8
DEFAULT_255_1_234
10
11.7135992
20
23.0423634
40
0.7766558
50
179.6829237
51
188.9631324
0
ARC
8
DEFAULT_255_1_234
10
11.4465553
20
22.9988752
40
0.5060992
50
188.8100743
51
202.9300012
0
ARC
8
DEFAULT_255_1_234
10
11.3249182
20
22.9493855
40
0.3747967
50
203.2069261
51
215.7876482
0
ARC
8
DEFAULT_255_1_234
10
11.2400579
20
22.8822671
40
0.2667526
50
214.7521006
51
264.2834488
0
ARC
8
DEFAULT_255_1_234
10
11.2536234
20
22.967778
40
0.3532247
50
263.4755397
51
270.0949833
0
ARC
8
DEFAULT_255_1_234
10
11.2578345
20
22.9416374
40
0.3271036
50
269.3649385
51
287.5152008
0
ARC
8
DEFAULT_255_1_234
10
11.2756503
20
22.8769238
40
0.2600406
50
288.0630309
51
323.8113348
0
ARC
8
DEFAULT_255_1_234
10
11.1885345
20
22.9419049
40
0.3687189
50
323.6547608
51
342.6590488
0
ARC
8
DEFAULT_255_1_234
10
10.985396
20
23.0079952
40
0.5823286
50
342.4091907
51
353.6451149
0
ARC
8
DEFAULT_255_1_234
10
10.7022471
20
23.043219
40
0.8676442
50
353.4029884
51
359.4847795
0
LINE
8
DEFAULT_255_1_234
10
12.6549441
20
23.0571026
11
12.6549441
21
22.9358234
0
LINE
8
DEFAULT_255_1_234
10
12.6549441
20
22.9358234
11
12.2629953
21
22.9358234
0
LINE
8
DEFAULT_255_1_234
10
12.2629953
20
22.9358234
11
12.2629953
21
23.0571026
0
LINE
8
DEFAULT_255_1_234
10
12.2629953
20
23.0571026
11
12.6549441
21
23.0571026
0
LINE
8
DEFAULT_255_1_234
10
14.0058825
20
23.3309849
11
13.85087
21
23.3309849
0
LINE
8
DEFAULT_255_1_234
10
13.1585341
20
22.8386394
11
13.3135467
21
22.8386394
0
ARC
8
DEFAULT_255_1_234
10
13.9167513
20
24.2256768
40
1.252368
50
248.9199003
51
254.1439814
0
ARC
8
DEFAULT_255_1_234
10
13.7487007
20
23.7930234
40
0.788226
50
241.633709
51
249.0064503
0
ARC
8
DEFAULT_255_1_234
10
13.5958402
20
23.5129317
40
0.4691427
50
230.498225
51
241.8087113
0
ARC
8
DEFAULT_255_1_234
10
13.5173976
20
23.4129906
40
0.3421437
50
227.4064532
51
229.9881192
0
ARC
8
DEFAULT_255_1_234
10
13.4686497
20
23.3654088
40
0.2741476
50
200.6781896
51
228.1763934
0
ARC
8
DEFAULT_255_1_234
10
13.4758807
20
23.3639077
40
0.2804109
50
179.5061581
51
199.8694617
0
ARC
8
DEFAULT_255_1_234
10
13.4749559
20
23.371321
40
0.2795204
50
132.4834203
51
181.0242172
0
ARC
8
DEFAULT_255_1_234
10
13.5345141
20
23.3150704
40
0.3612768
50
129.2532479
51
133.4242687
0
ARC
8
DEFAULT_255_1_234
10
13.5491591
20
23.2930965
40
0.3875675
50
101.98776
51
128.8742646
0
ARC
8
DEFAULT_255_1_234
10
13.5890202
20
23.1209741
40
0.5642249
50
89.5906553
51
102.3169264
0
ARC
8
DEFAULT_255_1_234
10
13.5960694
20
23.1528148
40
0.5323783
50
77.2360837
51
90.3248275
0
ARC
8
DEFAULT_255_1_234
10
13.6167773
20
23.24954
40
0.4334697
50
63.837784
51
77.0809408
0
ARC
8
DEFAULT_255_1_234
10
13.6445535
20
23.3012911
40
0.3747796
50
45.9864267
51
64.1607727
0
ARC
8
DEFAULT_255_1_234
10
13.6706416
20
23.3310866
40
0.3352302
50
32.2747395
51
45.6547121
0
ARC
8
DEFAULT_255_1_234
10
13.6772857
20
23.332988
40
0.328603
50
359.6507365
51
32.6130309
0
ARC
8
DEFAULT_255_1_234
10
13.5829952
20
23.333466
40
0.2678863
50
359.469343
51
14.9832209
0
ARC
8
DEFAULT_255_1_234
10
13.6535014
20
23.3523539
40
0.1948938
50
14.9781179
51
48.2004265
0
ARC
8
DEFAULT_255_1_234
10
13.6370658
20
23.3316983
40
0.2212521
50
48.5927837
51
74.1241538
0
ARC
8
DEFAULT_255_1_234
10
13.6037148
20
23.2216248
40
0.3362561
50
73.7888341
51
86.6652678
0
ARC
8
DEFAULT_255_1_234
10
13.5934714
20
23.1008881
40
0.4573953
50
86.2640471
51
90.0526343
0
ARC
8
DEFAULT_255_1_234
10
13.5906426
20
23.1404192
40
0.4178709
50
89.6697524
51
99.2309573
0
ARC
8
DEFAULT_255_1_234
10
13.5663877
20
23.2848964
40
0.2713749
50
99.069534
51
113.7658566
0
ARC
8
DEFAULT_255_1_234
10
13.5390068
20
23.3494677
40
0.2012469
50
114.0401004
51
127.9850673
0
ARC
8
DEFAULT_255_1_234
10
13.5149632
20
23.379073
40
0.1631167
50
127.7287463
51
176.7105154
0
ARC
8
DEFAULT_255_1_234
10
13.5828349
20
23.3689693
40
0.2315392
50
175.1779447
51
180.0581938
0
ARC
8
DEFAULT_255_1_234
10
13.4985196
20
23.3677428
40
0.1472271
50
179.6142195
51
228.1246017
0
ARC
8
DEFAULT_255_1_234
10
13.5426865
20
23.4086308
40
0.2072299
50
226.5779593
51
230.8800004
0
ARC
8
DEFAULT_255_1_234
10
13.5897944
20
23.4711636
40
0.2854818
50
231.4635071
51
241.9260842
0
ARC
8
DEFAULT_255_1_234
10
13.7095122
20
23.69148
40
0.53622
50
241.7178533
51
248.3259551
0
ARC
8
DEFAULT_255_1_234
10
13.8480493
20
24.0347064
40
0.9063478
50
248.2007737
51
252.4528373
0
ARC
8
DEFAULT_255_1_234
10
13.9684218
20
24.4068441
40
1.2974635
50
252.3391078
51
254.3469452
0
ARC
8
DEFAULT_255_1_234
10
13.2141921
20
21.7091148
40
1.5037162
50
71.0197183
51
74.4087047
0
ARC
8
DEFAULT_255_1_234
10
13.3836606
20
22.1983111
40
0.9859993
50
66.1847285
51
71.086374
0
ARC
8
DEFAULT_255_1_234
10
13.5392918
20
22.54872
40
0.6025855
50
59.3536294
51
66.2691831
0
ARC
8
DEFAULT_255_1_234
10
13.6281571
20
22.6990609
40
0.4279449
50
49.1020879
51
59.3293958
0
ARC
8
DEFAULT_255_1_234
10
13.7100311
20
22.7923834
40
0.3038015
50
32.7919921
51
49.2505539
0
ARC
8
DEFAULT_255_1_234
10
13.7421401
20
22.8152191
40
0.264448
50
31.1181161
51
32.4005348
0
ARC
8
DEFAULT_255_1_234
10
13.7332938
20
22.8116779
40
0.2738556
50
8.1116974
51
30.7958831
0
ARC
8
DEFAULT_255_1_234
10
13.6522607
20
22.7978753
40
0.3560327
50
359.8389159
51
8.4706516
0
ARC
8
DEFAULT_255_1_234
10
13.7148398
20
22.7930137
40
0.2934776
50
337.4731098
51
0.7537279
0
ARC
8
DEFAULT_255_1_234
10
13.7327093
20
22.7910387
40
0.2762607
50
307.5917067
51
336.4315538
0
ARC
8
DEFAULT_255_1_234
10
13.6866921
20
22.8423102
40
0.3449979
50
307.6551545
51
308.4529766
0
ARC
8
DEFAULT_255_1_234
10
13.663664
20
22.877825
40
0.3871988
50
284.3734338
51
307.1424381
0
ARC
8
DEFAULT_255_1_234
10
13.614147
20
23.0599932
40
0.5759636
50
272.4382747
51
284.646547
0
ARC
8
DEFAULT_255_1_234
10
13.6014679
20
23.2399893
40
0.7563528
50
269.9708387
51
272.8178037
0
ARC
8
DEFAULT_255_1_234
10
13.5971718
20
23.0361716
40
0.5525489
50
248.2707594
51
270.4055579
0
ARC
8
DEFAULT_255_1_234
10
13.5917459
20
23.0171192
40
0.5328452
50
246.1383403
51
248.0542782
0
ARC
8
DEFAULT_255_1_234
10
13.5498838
20
22.9291843
40
0.4355005
50
233.1670131
51
246.4950969
0
ARC
8
DEFAULT_255_1_234
10
13.4944743
20
22.8543812
40
0.3424126
50
215.3403242
51
233.0843104
0
ARC
8
DEFAULT_255_1_234
10
13.4672175
20
22.8345549
40
0.3087104
50
179.2419209
51
215.2648451
0
ARC
8
DEFAULT_255_1_234
10
13.5439768
20
22.8359666
40
0.2304457
50
179.335461
51
199.1045811
0
ARC
8
DEFAULT_255_1_234
10
13.5107445
20
22.8272766
40
0.1962176
50
199.8828939
51
232.7063202
0
ARC
8
DEFAULT_255_1_234
10
13.5579713
20
22.8866788
40
0.2720938
50
232.3738199
51
255.5136649
0
ARC
8
DEFAULT_255_1_234
10
13.592058
20
23.0110835
40
0.4010747
50
255.2446292
51
267.5320849
0
ARC
8
DEFAULT_255_1_234
10
13.6008203
20
23.1343702
40
0.5246356
50
267.1557994
51
270.0286766
0
ARC
8
DEFAULT_255_1_234
10
13.6035976
20
23.089995
40
0.4802668
50
269.7000017
51
278.1660162
0
ARC
8
DEFAULT_255_1_234
10
13.629198
20
22.9169515
40
0.3053425
50
278.0231263
51
290.625471
0
ARC
8
DEFAULT_255_1_234
10
13.6639667
20
22.8242025
40
0.206291
50
290.6619762
51
307.0370976
0
ARC
8
DEFAULT_255_1_234
10
13.6940057
20
22.7873504
40
0.1587906
50
306.3943566
51
355.3030547
0
ARC
8
DEFAULT_255_1_234
10
13.6427988
20
22.7950113
40
0.2104809
50
354.3660432
51
0.0698737
0
ARC
8
DEFAULT_255_1_234
10
13.6570333
20
22.7972617
40
0.1962563
50
359.417946
51
16.1971788
0
ARC
8
DEFAULT_255_1_234
10
13.7025644
20
22.8097418
40
0.149053
50
16.4723299
51
52.6262157
0
ARC
8
DEFAULT_255_1_234
10
13.6204698
20
22.7013433
40
0.2850296
50
52.7386432
51
62.4979148
0
ARC
8
DEFAULT_255_1_234
10
13.4819774
20
22.4407283
40
0.5801521
50
62.2515216
51
68.1220564
0
ARC
8
DEFAULT_255_1_234
10
13.3099685
20
22.0179872
40
1.0365451
50
68.0062803
51
71.8053402
0
ARC
8
DEFAULT_255_1_234
10
13.1304057
20
21.4794758
40
1.6042013
50
71.7183119
51
73.9258742
0
LINE
8
DEFAULT_255_1_234
10
14.1448316
20
22.9101218
11
14.1448316
21
22.9374297
0
LINE
8
DEFAULT_255_1_234
10
14.8821452
20
22.9534932
11
14.8821452
21
22.8916488
0
LINE
8
DEFAULT_255_1_234
10
14.8821452
20
22.8916488
11
14.2934188
21
22.8916488
0
LINE
8
DEFAULT_255_1_234
10
14.7801421
20
22.7221792
11
14.8709007
21
22.6514999
0
LINE
8
DEFAULT_255_1_234
10
14.2982378
20
23.0137313
11
14.733558
21
23.0137313
0
LINE
8
DEFAULT_255_1_234
10
14.733558
20
23.0137313
11
14.733558
21
23.0249757
0
ARC
8
DEFAULT_255_1_234
10
14.5387681
20
22.9212332
40
0.4376191
50
252.3266134
51
270.5810217
0
ARC
8
DEFAULT_255_1_234
10
14.518277
20
22.8471644
40
0.3608374
50
223.3000567
51
251.8561855
0
ARC
8
DEFAULT_255_1_234
10
14.5394131
20
22.8676937
40
0.3902993
50
190.9374509
51
223.3654032
0
ARC
8
DEFAULT_255_1_234
10
14.7119103
20
22.9066885
40
0.5670891
50
179.6531105
51
191.4989439
0
ARC
8
DEFAULT_255_1_234
10
14.7241115
20
22.9406417
40
0.5792888
50
167.4007466
51
180.3176909
0
ARC
8
DEFAULT_255_1_234
10
14.6189177
20
22.9628885
40
0.471777
50
154.1835823
51
167.250763
0
ARC
8
DEFAULT_255_1_234
10
14.5557644
20
22.9961417
40
0.4004528
50
134.3149965
51
154.5315275
0
ARC
8
DEFAULT_255_1_234
10
14.5340139
20
23.0152228
40
0.371612
50
122.8616532
51
133.9707695
0
ARC
8
DEFAULT_255_1_234
10
14.5236714
20
23.0374703
40
0.3473289
50
89.8249009
51
123.4199222
0
ARC
8
DEFAULT_255_1_234
10
14.5286755
20
22.9727967
40
0.4120197
50
74.7876118
51
90.5482747
0
ARC
8
DEFAULT_255_1_234
10
14.5580498
20
23.081303
40
0.2996077
50
39.8178249
51
74.7633718
0
ARC
8
DEFAULT_255_1_234
10
14.5067818
20
23.0413351
40
0.3645855
50
16.8990863
51
39.4829761
0
ARC
8
DEFAULT_255_1_234
10
14.3173114
20
22.9806526
40
0.5635218
50
4.9636328
51
17.2026414
0
ARC
8
DEFAULT_255_1_234
10
14.0755185
20
22.955134
40
0.8066286
50
359.8834553
51
5.2834307
0
ARC
8
DEFAULT_255_1_234
10
14.6792709
20
22.8982803
40
0.3859091
50
180.9846213
51
194.9401313
0
ARC
8
DEFAULT_255_1_234
10
14.5742987
20
22.8695849
40
0.2770883
50
194.80314
51
222.0412631
0
ARC
8
DEFAULT_255_1_234
10
14.5438869
20
22.8394116
40
0.2343055
50
221.5417084
51
268.8614402
0
ARC
8
DEFAULT_255_1_234
10
14.5511863
20
22.9070686
40
0.3021528
50
267.732405
51
270.0097136
0
ARC
8
DEFAULT_255_1_234
10
14.5529673
20
22.9272105
40
0.3222994
50
269.6924892
51
280.4117579
0
ARC
8
DEFAULT_255_1_234
10
14.570608
20
22.8353193
40
0.2287344
50
280.2255091
51
298.6338936
0
ARC
8
DEFAULT_255_1_234
10
14.5822872
20
22.8109223
40
0.2017294
50
299.0430333
51
300.4643464
0
ARC
8
DEFAULT_255_1_234
10
14.5142878
20
22.9243038
40
0.3339357
50
300.6577328
51
322.0378878
0
ARC
8
DEFAULT_255_1_234
10
14.4792417
20
22.9547021
40
0.3802736
50
321.6750233
51
322.3046845
0
ARC
8
DEFAULT_255_1_234
10
14.5723378
20
22.838037
40
0.3520454
50
276.9728461
51
328.0035423
0
ARC
8
DEFAULT_255_1_234
10
14.5446431
20
22.9860841
40
0.5024498
50
269.8361028
51
278.0581756
0
ARC
8
DEFAULT_255_1_234
10
14.5219168
20
23.0605757
40
0.202159
50
89.2018686
51
117.2851756
0
ARC
8
DEFAULT_255_1_234
10
14.5272337
20
23.0563752
40
0.2083484
50
118.0551165
51
137.4540413
0
ARC
8
DEFAULT_255_1_234
10
14.5647077
20
23.0223304
40
0.2589774
50
137.5109581
51
158.8516286
0
ARC
8
DEFAULT_255_1_234
10
14.6784913
20
22.9764074
40
0.38167
50
158.5845963
51
170.1721436
0
ARC
8
DEFAULT_255_1_234
10
14.7954302
20
22.9531823
40
0.5008657
50
169.8376422
51
173.0566086
0
ARC
8
DEFAULT_255_1_234
10
14.3257376
20
23.0042509
40
0.4083467
50
2.9091802
51
12.8847116
0
ARC
8
DEFAULT_255_1_234
10
14.4628053
20
23.0365101
40
0.2675383
50
12.6957781
51
28.6404489
0
ARC
8
DEFAULT_255_1_234
10
14.5169723
20
23.0645458
40
0.2065654
50
29.0169854
51
41.1487595
0
ARC
8
DEFAULT_255_1_234
10
14.5372509
20
23.0822003
40
0.1796786
50
41.1646065
51
85.0013516
0
ARC
8
DEFAULT_255_1_234
10
14.5251605
20
23.0087431
40
0.2539726
50
83.7280015
51
90.0964893
0
LINE
8
DEFAULT_255_1_234
10
15.4740843
20
23.3735531
11
15.4740843
21
23.2354072
0
LINE
8
DEFAULT_255_1_234
10
15.2026115
20
23.1165375
11
15.2026115
21
22.4997
0
LINE
8
DEFAULT_255_1_234
10
15.2026115
20
22.4997
11
15.0540244
21
22.4997
0
LINE
8
DEFAULT_255_1_234
10
15.0540244
20
22.4997
11
15.0540244
21
23.3687341
0
LINE
8
DEFAULT_255_1_234
10
15.0540244
20
23.3687341
11
15.1985957
21
23.3687341
0
LINE
8
DEFAULT_255_1_234
10
15.1985957
20
23.3687341
11
15.2010052
21
23.2683374
0
ARC
8
DEFAULT_255_1_234
10
15.4074248
20
22.8294342
40
0.4114092
50
80.6754243
51
86.8932892
0
ARC
8
DEFAULT_255_1_234
10
15.4013783
20
22.73267
40
0.5083596
50
86.8038578
51
90.0431435
0
ARC
8
DEFAULT_255_1_234
10
15.3976763
20
22.9783866
40
0.2626638
50
89.2759698
51
106.6213787
0
ARC
8
DEFAULT_255_1_234
10
15.3772327
20
23.052683
40
0.1856317
50
107.1346045
51
157.6458115
0
ARC
8
DEFAULT_255_1_234
10
15.4463929
20
23.0143311
40
0.2643398
50
155.6586782
51
157.2539184
0
ARC
8
DEFAULT_255_1_234
10
15.4259131
20
23.1312157
40
0.2634121
50
127.8165941
51
148.6302098
0
ARC
8
DEFAULT_255_1_234
10
15.40056
20
23.1572218
40
0.2273596
50
91.3329982
51
126.7875809
0
ARC
8
DEFAULT_255_1_234
10
15.408154
20
23.0857195
40
0.299078
50
89.986594
51
92.4688449
0
ARC
8
DEFAULT_255_1_234
10
15.4089935
20
23.1132078
40
0.2715908
50
85.3589899
51
90.1623399
0
ARC
8
DEFAULT_255_1_234
10
15.4174451
20
23.2136164
40
0.1708278
50
78.401942
51
85.4594656
0
ARC
8
DEFAULT_255_1_234
10
15.4319335
20
23.2827236
40
0.1002194
50
67.7858312
51
78.5728455
0
ARC
8
DEFAULT_255_1_234
10
15.4427188
20
23.3106887
40
0.0702548
50
63.4835954
51
67.3062642
0
LINE
8
DEFAULT_255_1_234
10
15.7720618
20
23.3687341
11
15.7720618
21
22.4997
0
LINE
8
DEFAULT_255_1_234
10
15.7720618
20
22.4997
11
15.6234746
21
22.4997
0
LINE
8
DEFAULT_255_1_234
10
15.6234746
20
22.4997
11
15.6234746
21
23.3687341
0
LINE
8
DEFAULT_255_1_234
10
15.6234746
20
23.3687341
11
15.7720618
21
23.3687341
0
ARC
8
DEFAULT_255_1_234
10
15.7092895
20
23.6001889
40
0.097867
50
161.415052
51
180.5526306
0
ARC
8
DEFAULT_255_1_234
10
15.6968673
20
23.6036077
40
0.0850062
50
138.1827368
51
160.9307106
0
ARC
8
DEFAULT_255_1_234
10
15.6858619
20
23.6131588
40
0.0704362
50
104.6368899
51
138.0039868
0
ARC
8
DEFAULT_255_1_234
10
15.6965773
20
23.5764963
40
0.1086221
50
92.0600725
51
105.2189128
0
ARC
8
DEFAULT_255_1_234
10
15.6989122
20
23.5422117
40
0.1429728
50
89.9756393
51
92.5012496
0
ARC
8
DEFAULT_255_1_234
10
15.6999141
20
23.5647731
40
0.1204151
50
78.0235316
51
90.4478182
0
ARC
8
DEFAULT_255_1_234
10
15.7091233
20
23.6061295
40
0.0780493
50
55.051506
51
78.3369085
0
ARC
8
DEFAULT_255_1_234
10
15.7141507
20
23.6145711
40
0.0682538
50
42.0501187
51
54.4513741
0
ARC
8
DEFAULT_255_1_234
10
15.7006374
20
23.6021798
40
0.0865878
50
1.7497075
51
42.1496013
0
ARC
8
DEFAULT_255_1_234
10
15.6751707
20
23.5992738
40
0.1121515
50
359.9852656
51
2.8364544
0
ARC
8
DEFAULT_255_1_234
10
15.6917699
20
23.5983229
40
0.0955566
50
342.1070653
51
0.552888
0
ARC
8
DEFAULT_255_1_234
10
15.7060397
20
23.5943904
40
0.0807713
50
316.7107116
51
341.6516965
0
ARC
8
DEFAULT_255_1_234
10
15.7127434
20
23.5883823
40
0.0717724
50
285.4397031
51
316.5324284
0
ARC
8
DEFAULT_255_1_234
10
15.7017351
20
23.6249554
40
0.1099597
50
272.3547054
51
285.8953117
0
ARC
8
DEFAULT_255_1_234
10
15.6990509
20
23.6615048
40
0.1465932
50
269.9695369
51
272.8160237
0
ARC
8
DEFAULT_255_1_234
10
15.698069
20
23.6395863
40
0.1246779
50
258.8431134
51
270.4153935
0
ARC
8
DEFAULT_255_1_234
10
15.6890733
20
23.5960414
40
0.0802162
50
238.5431189
51
259.1288175
0
ARC
8
DEFAULT_255_1_234
10
15.6822618
20
23.5836856
40
0.0661247
50
222.5062634
51
237.9906969
0
ARC
8
DEFAULT_255_1_234
10
15.6950205
20
23.5952889
40
0.0833707
50
184.1069131
51
222.460413
0
ARC
8
DEFAULT_255_1_234
10
15.7219446
20
23.5991349
40
0.1105176
50
179.9429482
51
185.0960898
0
LINE
8
DEFAULT_255_1_234
10
15.9720521
20
22.9101218
11
15.9720521
21
22.9374297
0
LINE
8
DEFAULT_255_1_234
10
16.7093656
20
22.9534932
11
16.7093656
21
22.8916488
0
LINE
8
DEFAULT_255_1_234
10
16.7093656
20
22.8916488
11
16.1206392
21
22.8916488
0
LINE
8
DEFAULT_255_1_234
10
16.6073625
20
22.7221792
11
16.6981212
21
22.6514999
0
LINE
8
DEFAULT_255_1_234
10
16.1254583
20
23.0137313
11
16.5607785
21
23.0137313
0
LINE
8
DEFAULT_255_1_234
10
16.5607785
20
23.0137313
11
16.5607785
21
23.0249757
0
ARC
8
DEFAULT_255_1_234
10
16.3659886
20
22.9212332
40
0.4376191
50
252.3266134
51
270.5810217
0
ARC
8
DEFAULT_255_1_234
10
16.3454975
20
22.8471644
40
0.3608374
50
223.3000567
51
251.8561855
0
ARC
8
DEFAULT_255_1_234
10
16.3666335
20
22.8676937
40
0.3902993
50
190.9374509
51
223.3654032
0
ARC
8
DEFAULT_255_1_234
10
16.5391308
20
22.9066885
40
0.5670891
50
179.6531105
51
191.4989439
0
ARC
8
DEFAULT_255_1_234
10
16.551332
20
22.9406417
40
0.5792888
50
167.4007466
51
180.3176909
0
ARC
8
DEFAULT_255_1_234
10
16.4461381
20
22.9628885
40
0.471777
50
154.1835823
51
167.250763
0
ARC
8
DEFAULT_255_1_234
10
16.3829849
20
22.9961417
40
0.4004528
50
134.3149965
51
154.5315275
0
ARC
8
DEFAULT_255_1_234
10
16.3612344
20
23.0152228
40
0.371612
50
122.8616532
51
133.9707695
0
ARC
8
DEFAULT_255_1_234
10
16.3508918
20
23.0374703
40
0.3473289
50
89.8249009
51
123.4199222
0
ARC
8
DEFAULT_255_1_234
10
16.3558959
20
22.9727967
40
0.4120197
50
74.7876118
51
90.5482747
0
ARC
8
DEFAULT_255_1_234
10
16.3852702
20
23.081303
40
0.2996077
50
39.8178249
51
74.7633718
0
ARC
8
DEFAULT_255_1_234
10
16.3340023
20
23.0413351
40
0.3645855
50
16.8990863
51
39.4829761
0
ARC
8
DEFAULT_255_1_234
10
16.1445319
20
22.9806526
40
0.5635218
50
4.9636328
51
17.2026414
0
ARC
8
DEFAULT_255_1_234
10
15.9027389
20
22.955134
40
0.8066286
50
359.8834553
51
5.2834307
0
ARC
8
DEFAULT_255_1_234
10
16.5064914
20
22.8982803
40
0.3859091
50
180.9846213
51
194.9401313
0
ARC
8
DEFAULT_255_1_234
10
16.4015191
20
22.8695849
40
0.2770883
50
194.80314
51
222.0412631
0
ARC
8
DEFAULT_255_1_234
10
16.3711073
20
22.8394116
40
0.2343055
50
221.5417084
51
268.8614402
0
ARC
8
DEFAULT_255_1_234
10
16.3784068
20
22.9070686
40
0.3021528
50
267.732405
51
270.0097136
0
ARC
8
DEFAULT_255_1_234
10
16.3801878
20
22.9272105
40
0.3222994
50
269.6924892
51
280.4117579
0
ARC
8
DEFAULT_255_1_234
10
16.3978285
20
22.8353193
40
0.2287344
50
280.2255091
51
298.6338936
0
ARC
8
DEFAULT_255_1_234
10
16.4095077
20
22.8109223
40
0.2017294
50
299.0430333
51
300.4643464
0
ARC
8
DEFAULT_255_1_234
10
16.3415082
20
22.9243038
40
0.3339357
50
300.6577328
51
322.0378878
0
ARC
8
DEFAULT_255_1_234
10
16.3064621
20
22.9547021
40
0.3802736
50
321.6750233
51
322.3046845
0
ARC
8
DEFAULT_255_1_234
10
16.3995583
20
22.838037
40
0.3520454
50
276.9728461
51
328.0035423
0
ARC
8
DEFAULT_255_1_234
10
16.3718635
20
22.9860841
40
0.5024498
50
269.8361028
51
278.0581756
0
ARC
8
DEFAULT_255_1_234
10
16.3491373
20
23.0605757
40
0.202159
50
89.2018686
51
117.2851756
0
ARC
8
DEFAULT_255_1_234
10
16.3544542
20
23.0563752
40
0.2083484
50
118.0551165
51
137.4540413
0
ARC
8
DEFAULT_255_1_234
10
16.3919282
20
23.0223304
40
0.2589774
50
137.5109581
51
158.8516286
0
ARC
8
DEFAULT_255_1_234
10
16.5057117
20
22.9764074
40
0.38167
50
158.5845963
51
170.1721436
0
ARC
8
DEFAULT_255_1_234
10
16.6226507
20
22.9531823
40
0.5008657
50
169.8376422
51
173.0566086
0
ARC
8
DEFAULT_255_1_234
10
16.1529581
20
23.0042509
40
0.4083467
50
2.9091802
51
12.8847116
0
ARC
8
DEFAULT_255_1_234
10
16.2900257
20
23.0365101
40
0.2675383
50
12.6957781
51
28.6404489
0
ARC
8
DEFAULT_255_1_234
10
16.3441928
20
23.0645458
40
0.2065654
50
29.0169854
51
41.1487595
0
ARC
8
DEFAULT_255_1_234
10
16.3644713
20
23.0822003
40
0.1796786
50
41.1646065
51
85.0013516
0
ARC
8
DEFAULT_255_1_234
10
16.352381
20
23.0087431
40
0.2539726
50
83.7280015
51
90.0964893
0
LINE
8
DEFAULT_255_1_234
10
17.5277998
20
23.1133248
11
17.3784094
21
23.1133248
0
LINE
8
DEFAULT_255_1_234
10
16.845102
20
22.7671569
11
16.9936892
21
22.7671569
0
ARC
8
DEFAULT_255_1_234
10
17.2595913
20
22.7316959
40
0.1276617
50
359.3334982
51
18.5871358
0
ARC
8
DEFAULT_255_1_234
10
17.280455
20
22.7372133
40
0.1061371
50
19.3540742
51
54.6485071
0
ARC
8
DEFAULT_255_1_234
10
17.2300452
20
22.6676919
40
0.1920087
50
54.3827097
51
65.0622807
0
ARC
8
DEFAULT_255_1_234
10
17.1531848
20
22.50599
40
0.3710447
50
64.8282493
51
71.4200025
0
ARC
8
DEFAULT_255_1_234
10
17.0629724
20
22.2413107
40
0.6506741
50
71.3164301
51
75.8006402
0
ARC
8
DEFAULT_255_1_234
10
16.9788544
20
21.9172561
40
0.9854641
50
75.6809531
51
78.0061883
0
ARC
8
DEFAULT_255_1_234
10
17.4237077
20
24.015177
40
1.1591028
50
254.6901892
51
258.0466452
0
ARC
8
DEFAULT_255_1_234
10
17.3198985
20
23.6392781
40
0.7691345
50
249.9010773
51
254.755261
0
ARC
8
DEFAULT_255_1_234
10
17.2195327
20
23.3666982
40
0.478665
50
243.3097214
51
249.9709442
0
ARC
8
DEFAULT_255_1_234
10
17.1566349
20
23.2412778
40
0.3383568
50
234.4047477
51
243.2862168
0
ARC
8
DEFAULT_255_1_234
10
17.0943872
20
23.1553232
40
0.2322322
50
220.8667099
51
234.5493881
0
ARC
8
DEFAULT_255_1_234
10
17.0601813
20
23.1241817
40
0.1859923
50
214.3062465
51
220.5065136
0
ARC
8
DEFAULT_255_1_234
10
17.0575892
20
23.121088
40
0.1821108
50
186.912965
51
213.9618616
0
ARC
8
DEFAULT_255_1_234
10
17.1107987
20
23.1297009
40
0.2359799
50
179.8808832
51
187.4339886
0
ARC
8
DEFAULT_255_1_234
10
17.095312
20
23.1317088
40
0.2204978
50
132.005434
51
180.3942919
0
ARC
8
DEFAULT_255_1_234
10
17.1609734
20
23.0711083
40
0.3095791
50
129.2319861
51
133.5302299
0
ARC
8
DEFAULT_255_1_234
10
17.1663242
20
23.0616928
40
0.3202615
50
100.4410011
51
128.9081242
0
ARC
8
DEFAULT_255_1_234
10
17.1937126
20
22.9331455
40
0.4516583
50
89.6985377
51
100.9026564
0
ARC
8
DEFAULT_255_1_234
10
17.1994168
20
22.9171166
40
0.4676928
50
77.6965325
51
90.4076836
0
ARC
8
DEFAULT_255_1_234
10
17.2325152
20
23.0598413
40
0.3211988
50
50.7276602
51
78.0399361
0
ARC
8
DEFAULT_255_1_234
10
17.276961
20
23.1116296
40
0.2529778
50
25.7545084
51
51.0957453
0
ARC
8
DEFAULT_255_1_234
10
17.2770835
20
23.1166206
40
0.250738
50
359.2468627
51
24.7394243
0
ARC
8
DEFAULT_255_1_234
10
17.2486287
20
23.1137664
40
0.1297815
50
359.8050318
51
45.1544908
0
ARC
8
DEFAULT_255_1_234
10
17.2079429
20
23.0789794
40
0.1831883
50
43.8047702
51
49.6271585
0
ARC
8
DEFAULT_255_1_234
10
17.208733
20
23.0790678
40
0.18261
50
49.7980766
51
82.1218353
0
ARC
8
DEFAULT_255_1_234
10
17.1968302
20
23.0143998
40
0.2483163
50
81.4465357
51
90.1710293
0
ARC
8
DEFAULT_255_1_234
10
17.1943905
20
22.961788
40
0.300932
50
89.6766211
51
99.1264602
0
ARC
8
DEFAULT_255_1_234
10
17.1772367
20
23.0651537
40
0.1961547
50
98.968313
51
113.4570237
0
ARC
8
DEFAULT_255_1_234
10
17.1576452
20
23.1119965
40
0.1453859
50
113.722589
51
127.4763106
0
ARC
8
DEFAULT_255_1_234
10
17.1408098
20
23.1320124
40
0.1192639
50
126.9083309
51
150.3165862
0
ARC
8
DEFAULT_255_1_234
10
17.1360431
20
23.1370981
40
0.112623
50
151.3635175
51
180.0701457
0
ARC
8
DEFAULT_255_1_234
10
17.1669215
20
23.134999
40
0.1435149
50
179.2169974
51
179.9954013
0
ARC
8
DEFAULT_255_1_234
10
17.1308273
20
23.1337056
40
0.1074286
50
179.3040112
51
198.4225446
0
ARC
8
DEFAULT_255_1_234
10
17.1116406
20
23.1287127
40
0.0876573
50
199.2895851
51
238.6034594
0
ARC
8
DEFAULT_255_1_234
10
17.1719253
20
23.223345
40
0.1998512
50
237.9846301
51
246.8744712
0
ARC
8
DEFAULT_255_1_234
10
17.2577198
20
23.4196205
40
0.4140547
50
246.6234531
51
251.8168941
0
ARC
8
DEFAULT_255_1_234
10
17.3607741
20
23.7290905
40
0.7402308
50
251.713434
51
255.0778414
0
ARC
8
DEFAULT_255_1_234
10
17.4807004
20
24.1757563
40
1.2027155
50
255.0367487
51
257.4705983
0
ARC
8
DEFAULT_255_1_234
10
16.9699014
20
21.8743863
40
1.1546601
50
73.6837552
51
77.5016755
0
ARC
8
DEFAULT_255_1_234
10
17.0787789
20
22.2443581
40
0.7690009
50
68.7044154
51
73.7249639
0
ARC
8
DEFAULT_255_1_234
10
17.1690809
20
22.4770654
40
0.5193873
50
63.590599
51
68.6626804
0
ARC
8
DEFAULT_255_1_234
10
17.2461828
20
22.6308123
40
0.3473927
50
54.7106439
51
63.7013633
0
ARC
8
DEFAULT_255_1_234
10
17.3086283
20
22.71804
40
0.2401192
50
41.0622434
51
54.8487496
0
ARC
8
DEFAULT_255_1_234
10
17.3427669
20
22.7493592
40
0.1938094
50
34.4950568
51
40.7105546
0
ARC
8
DEFAULT_255_1_234
10
17.3474477
20
22.7542078
40
0.1872106
50
9.3763373
51
34.0833615
0
ARC
8
DEFAULT_255_1_234
10
17.2821347
20
22.7416728
40
0.2536988
50
359.7694872
51
9.7663171
0
ARC
8
DEFAULT_255_1_234
10
17.3018848
20
22.7373764
40
0.2339696
50
335.8654732
51
0.8022045
0
ARC
8
DEFAULT_255_1_234
10
17.3093892
20
22.7387197
40
0.2277108
50
307.7357725
51
334.7849066
0
ARC
8
DEFAULT_255_1_234
10
17.2693068
20
22.7837645
40
0.2878951
50
307.0241536
51
308.5578354
0
ARC
8
DEFAULT_255_1_234
10
17.2435399
20
22.8223801
40
0.3342515
50
282.9362969
51
306.5646424
0
ARC
8
DEFAULT_255_1_234
10
17.2073697
20
22.9691108
40
0.4853615
50
271.1026298
51
283.2200835
0
ARC
8
DEFAULT_255_1_234
10
17.2009941
20
23.0932418
40
0.6096052
50
269.9919117
51
271.4772449
0
ARC
8
DEFAULT_255_1_234
10
17.1983696
20
22.9854436
40
0.5018135
50
259.0723564
51
270.289833
0
ARC
8
DEFAULT_255_1_234
10
17.1771428
20
22.8737271
40
0.388099
50
245.4963068
51
259.0227342
0
ARC
8
DEFAULT_255_1_234
10
17.1493384
20
22.8155615
40
0.3236422
50
228.9684658
51
245.7044727
0
ARC
8
DEFAULT_255_1_234
10
17.1227828
20
22.7828575
40
0.2815426
50
214.4011705
51
228.6759915
0
ARC
8
DEFAULT_255_1_234
10
17.0938569
20
22.767029
40
0.2487548
50
179.9705531
51
215.1572795
0
ARC
8
DEFAULT_255_1_234
10
17.1639168
20
22.7743806
40
0.1703809
50
182.4299387
51
203.0329699
0
ARC
8
DEFAULT_255_1_234
10
17.1454826
20
22.7687396
40
0.1512226
50
203.798802
51
232.548466
0
ARC
8
DEFAULT_255_1_234
10
17.1731347
20
22.8038826
40
0.1959374
50
232.3782728
51
256.3934612
0
ARC
8
DEFAULT_255_1_234
10
17.1961709
20
22.8928842
40
0.2878639
50
256.104506
51
268.4626716
0
ARC
8
DEFAULT_255_1_234
10
17.2008193
20
22.9725487
40
0.3676329
50
268.0715632
51
270.0138206
0
ARC
8
DEFAULT_255_1_234
10
17.2026718
20
22.9453083
40
0.3403971
50
269.7031147
51
278.8341955
0
ARC
8
DEFAULT_255_1_234
10
17.2208811
20
22.8322876
40
0.2259217
50
278.6728789
51
292.8232582
0
ARC
8
DEFAULT_255_1_234
10
17.2409349
20
22.7821449
40
0.171929
50
293.1452328
51
303.6655899
0
ARC
8
DEFAULT_255_1_234
10
17.2674228
20
22.7445204
40
0.1259367
50
303.1248165
51
321.742847
0
ARC
8
DEFAULT_255_1_234
10
17.2860109
20
22.7282156
40
0.1012531
50
322.4748573
51
1.1291126
0
LINE
8
DEFAULT_255_1_234
10
4.9274119
20
20.6366792
11
4.9274119
21
20.5154
0
LINE
8
DEFAULT_255_1_234
10
4.9274119
20
20.5154
11
4.161184
21
20.5154
0
LINE
8
DEFAULT_255_1_234
10
4.161184
20
20.5154
11
4.161184
21
20.6222221
0
LINE
8
DEFAULT_255_1_234
10
4.161184
20
20.6222221
11
4.5659836
21
21.0719995
0
LINE
8
DEFAULT_255_1_234
10
4.2872823
20
21.3402595
11
4.1386952
21
21.3402595
0
LINE
8
DEFAULT_255_1_234
10
4.6535296
20
20.9764218
11
4.3402918
21
20.6366792
0
LINE
8
DEFAULT_255_1_234
10
4.3402918
20
20.6366792
11
4.9274119
21
20.6366792
0
ARC
8
DEFAULT_255_1_234
10
3.216967
20
22.2649527
40
1.8008286
50
318.5132453
51
320.7828378
0
ARC
8
DEFAULT_255_1_234
10
3.7456644
20
21.8346426
40
1.1191493
50
320.7372736
51
323.9737074
0
ARC
8
DEFAULT_255_1_234
10
4.1376501
20
21.5506361
40
0.6350923
50
323.8961724
51
328.6421089
0
ARC
8
DEFAULT_255_1_234
10
4.3423096
20
21.4244031
40
0.3946393
50
328.8299013
51
331.789948
0
ARC
8
DEFAULT_255_1_234
10
4.4420274
20
21.3729509
40
0.2824501
50
331.4255242
51
352.9364833
0
ARC
8
DEFAULT_255_1_234
10
4.4556775
20
21.3698976
40
0.2685315
50
353.2248685
51
0.0169286
0
ARC
8
DEFAULT_255_1_234
10
4.4766652
20
21.372195
40
0.2475536
50
359.4866256
51
15.9339782
0
ARC
8
DEFAULT_255_1_234
10
4.5273637
20
21.3858286
40
0.1950618
50
16.1714718
51
43.5284424
0
ARC
8
DEFAULT_255_1_234
10
4.5350946
20
21.3935573
40
0.184134
50
43.4415429
51
83.1661404
0
ARC
8
DEFAULT_255_1_234
10
4.5216864
20
21.3198771
40
0.258926
50
82.160215
51
90.1505798
0
ARC
8
DEFAULT_255_1_234
10
4.5185291
20
21.2661865
40
0.3126255
50
89.5460705
51
102.5418777
0
ARC
8
DEFAULT_255_1_234
10
4.4942377
20
21.3692665
40
0.2067346
50
102.1739365
51
129.2061916
0
ARC
8
DEFAULT_255_1_234
10
4.4863449
20
21.3817094
40
0.1921118
50
129.7279328
51
135.7542026
0
ARC
8
DEFAULT_255_1_234
10
4.4984977
20
21.3720045
40
0.2075944
50
136.175737
51
166.3674722
0
ARC
8
DEFAULT_255_1_234
10
4.5991896
20
21.3450182
40
0.3118201
50
165.9092917
51
178.8683903
0
ARC
8
DEFAULT_255_1_234
10
4.6856757
20
21.3403179
40
0.3983935
50
178.438168
51
180.0083905
0
ARC
8
DEFAULT_255_1_234
10
4.5455359
20
21.3442231
40
0.4068601
50
163.2878735
51
180.5581814
0
ARC
8
DEFAULT_255_1_234
10
4.4653621
20
21.366284
40
0.3237344
50
133.454115
51
162.9470031
0
ARC
8
DEFAULT_255_1_234
10
4.4832162
20
21.3473
40
0.349795
50
100.7869394
51
133.4384016
0
ARC
8
DEFAULT_255_1_234
10
4.5179934
20
21.1924319
40
0.5084616
50
89.6605301
51
101.3704185
0
ARC
8
DEFAULT_255_1_234
10
4.5246273
20
21.1985496
40
0.502348
50
78.2171172
51
90.4130393
0
ARC
8
DEFAULT_255_1_234
10
4.5601351
20
21.3609637
40
0.3361092
50
55.9268222
51
78.4888551
0
ARC
8
DEFAULT_255_1_234
10
4.5797791
20
21.3948324
40
0.2970617
50
47.9292255
51
55.4054003
0
ARC
8
DEFAULT_255_1_234
10
4.5899352
20
21.4051502
40
0.2825983
50
4.3347696
51
48.0560701
0
ARC
8
DEFAULT_255_1_234
10
4.4803745
20
21.3881601
40
0.393225
50
359.925209
51
5.5967654
0
ARC
8
DEFAULT_255_1_234
10
4.5232637
20
21.3937816
40
0.3503892
50
337.8914096
51
358.9967724
0
ARC
8
DEFAULT_255_1_234
10
4.2519049
20
21.4984706
40
0.6412172
50
326.9135351
51
338.3505194
0
ARC
8
DEFAULT_255_1_234
10
3.8533353
20
21.7539284
40
1.1146189
50
319.6472867
51
327.095818
0
ARC
8
DEFAULT_255_1_234
10
3.4700356
20
22.0701
40
1.6114559
50
317.2586784
51
319.9046139
0
LINE
8
DEFAULT_255_1_234
10
5.7121127
20
21.6848211
11
5.7121127
21
20.908152
0
LINE
8
DEFAULT_255_1_234
10
5.7121127
20
20.908152
11
5.8743538
21
20.908152
0
LINE
8
DEFAULT_255_1_234
10
5.8743538
20
20.908152
11
5.8743538
21
20.7868728
0
LINE
8
DEFAULT_255_1_234
10
5.8743538
20
20.7868728
11
5.7121127
21
20.7868728
0
LINE
8
DEFAULT_255_1_234
10
5.7121127
20
20.7868728
11
5.7121127
21
20.5154
0
LINE
8
DEFAULT_255_1_234
10
5.7121127
20
20.5154
11
5.5627224
21
20.5154
0
LINE
8
DEFAULT_255_1_234
10
5.5627224
20
20.5154
11
5.5627224
21
20.7868728
0
LINE
8
DEFAULT_255_1_234
10
5.5627224
20
20.7868728
11
5.0302181
21
20.7868728
0
LINE
8
DEFAULT_255_1_234
10
5.0302181
20
20.7868728
11
5.0302181
21
20.8744187
0
LINE
8
DEFAULT_255_1_234
10
5.0302181
20
20.8744187
11
5.5538875
21
21.6848211
0
LINE
8
DEFAULT_255_1_234
10
5.5538875
20
21.6848211
11
5.7121127
21
21.6848211
0
LINE
8
DEFAULT_255_1_234
10
5.5450525
20
21.4494912
11
5.1988846
21
20.908152
0
LINE
8
DEFAULT_255_1_234
10
5.1988846
20
20.908152
11
5.5627224
21
20.908152
0
LINE
8
DEFAULT_255_1_234
10
5.5627224
20
20.908152
11
5.5627224
21
21.4816181
0
LINE
8
DEFAULT_255_1_234
10
5.5627224
20
21.4816181
11
5.5450525
21
21.4494912
0
LINE
8
DEFAULT_255_1_234
10
6.101652
20
21.6848211
11
6.434166
21
20.7202093
0
LINE
8
DEFAULT_255_1_234
10
6.434166
20
20.7202093
11
6.7682863
21
21.6848211
0
LINE
8
DEFAULT_255_1_234
10
6.7682863
20
21.6848211
11
6.9369528
21
21.6848211
0
LINE
8
DEFAULT_255_1_234
10
6.9369528
20
21.6848211
11
6.5032389
21
20.5154
0
LINE
8
DEFAULT_255_1_234
10
6.5032389
20
20.5154
11
6.3666994
21
20.5154
0
LINE
8
DEFAULT_255_1_234
10
6.3666994
20
20.5154
11
5.9337887
21
21.6848211
0
LINE
8
DEFAULT_255_1_234
10
5.9337887
20
21.6848211
11
6.101652
21
21.6848211
0
LINE
8
DEFAULT_255_1_234
10
4.8294484
20
5.3070343
11
4.8294484
21
5.180936
0
LINE
8
DEFAULT_255_1_234
10
4.8294484
20
5.180936
11
4.3226458
21
5.180936
0
LINE
8
DEFAULT_255_1_234
10
4.3226458
20
5.180936
11
4.3226458
21
4.7664983
0
LINE
8
DEFAULT_255_1_234
10
4.3226458
20
4.7664983
11
4.9113722
21
4.7664983
0
LINE
8
DEFAULT_255_1_234
10
4.9113722
20
4.7664983
11
4.9113722
21
4.6404
0
LINE
8
DEFAULT_255_1_234
10
4.9113722
20
4.6404
11
4.1684364
21
4.6404
0
LINE
8
DEFAULT_255_1_234
10
4.1684364
20
4.6404
11
4.1684364
21
5.8098211
0
LINE
8
DEFAULT_255_1_234
10
4.1684364
20
5.8098211
11
4.9033404
21
5.8098211
0
LINE
8
DEFAULT_255_1_234
10
4.9033404
20
5.8098211
11
4.9033404
21
5.6829196
0
LINE
8
DEFAULT_255_1_234
10
4.9033404
20
5.6829196
11
4.3226458
21
5.6829196
0
LINE
8
DEFAULT_255_1_234
10
4.3226458
20
5.6829196
11
4.3226458
21
5.3070343
0
LINE
8
DEFAULT_255_1_234
10
4.3226458
20
5.3070343
11
4.8294484
21
5.3070343
0
LINE
8
DEFAULT_255_1_234
10
5.9273871
20
5.8098211
11
5.9273871
21
5.6829196
0
LINE
8
DEFAULT_255_1_234
10
5.9273871
20
5.6829196
11
5.5515017
21
5.6829196
0
LINE
8
DEFAULT_255_1_234
10
5.5515017
20
5.6829196
11
5.5515017
21
4.6404
0
LINE
8
DEFAULT_255_1_234
10
5.5515017
20
4.6404
11
5.3980955
21
4.6404
0
LINE
8
DEFAULT_255_1_234
10
5.3980955
20
4.6404
11
5.3980955
21
5.6829196
0
LINE
8
DEFAULT_255_1_234
10
5.3980955
20
5.6829196
11
5.0230133
21
5.6829196
0
LINE
8
DEFAULT_255_1_234
10
5.0230133
20
5.6829196
11
5.0230133
21
5.8098211
0
LINE
8
DEFAULT_255_1_234
10
5.0230133
20
5.8098211
11
5.9273871
21
5.8098211
0
LINE
8
DEFAULT_255_1_234
10
6.9996241
20
5.8098211
11
6.9996241
21
4.6404
0
LINE
8
DEFAULT_255_1_234
10
6.9996241
20
4.6404
11
6.8446116
21
4.6404
0
LINE
8
DEFAULT_255_1_234
10
6.8446116
20
4.6404
11
6.8446116
21
5.180936
0
LINE
8
DEFAULT_255_1_234
10
6.8446116
20
5.180936
11
6.255082
21
5.180936
0
LINE
8
DEFAULT_255_1_234
10
6.255082
20
5.180936
11
6.255082
21
4.6404
0
LINE
8
DEFAULT_255_1_234
10
6.255082
20
4.6404
11
6.1008726
21
4.6404
0
LINE
8
DEFAULT_255_1_234
10
6.1008726
20
4.6404
11
6.1008726
21
5.8098211
0
LINE
8
DEFAULT_255_1_234
10
6.1008726
20
5.8098211
11
6.255082
21
5.8098211
0
LINE
8
DEFAULT_255_1_234
10
6.255082
20
5.8098211
11
6.255082
21
5.3070343
0
LINE
8
DEFAULT_255_1_234
10
6.255082
20
5.3070343
11
6.8446116
21
5.3070343
0
LINE
8
DEFAULT_255_1_234
10
6.8446116
20
5.3070343
11
6.8446116
21
5.8098211
0
LINE
8
DEFAULT_255_1_234
10
6.8446116
20
5.8098211
11
6.9996241
21
5.8098211
0
LINE
8
DEFAULT_255_1_234
10
4.891277
20
13.7473211
11
5.0462896
21
13.7473211
0
LINE
8
DEFAULT_255_1_234
10
5.0462896
20
13.7473211
11
5.0462896
21
12.952179
0
LINE
8
DEFAULT_255_1_234
10
4.6623725
20
12.5634429
11
4.6214106
21
12.5618365
0
LINE
8
DEFAULT_255_1_234
10
4.1997443
20
12.9505727
11
4.1997443
21
13.7473211
0
LINE
8
DEFAULT_255_1_234
10
4.1997443
20
13.7473211
11
4.3523474
21
13.7473211
0
LINE
8
DEFAULT_255_1_234
10
4.3523474
20
13.7473211
11
4.3523474
21
12.9553917
0
LINE
8
DEFAULT_255_1_234
10
4.891277
20
12.9545885
11
4.891277
21
13.7473211
0
ARC
8
DEFAULT_255_1_234
10
4.6109794
20
12.9501928
40
0.4353147
50
343.0898354
51
0.2614217
0
ARC
8
DEFAULT_255_1_234
10
4.6938195
20
12.9270837
40
0.3493402
50
315.3345598
51
342.7641223
0
ARC
8
DEFAULT_255_1_234
10
4.6714644
20
12.9502682
40
0.3815385
50
284.6606969
51
315.2182466
0
ARC
8
DEFAULT_255_1_234
10
4.6259357
20
13.1048755
40
0.5426573
50
273.8500273
51
285.1797701
0
ARC
8
DEFAULT_255_1_234
10
4.6171408
20
13.1390475
40
0.5772268
50
257.6317484
51
270.4238298
0
ARC
8
DEFAULT_255_1_234
10
4.5746606
20
12.9569198
40
0.3902347
50
230.6087562
51
257.9964012
0
ARC
8
DEFAULT_255_1_234
10
4.5614608
20
12.9362802
40
0.3659186
50
227.7440991
51
230.1551448
0
ARC
8
DEFAULT_255_1_234
10
4.5480439
20
12.9201471
40
0.3449568
50
189.2524587
51
227.5916061
0
ARC
8
DEFAULT_255_1_234
10
4.7002126
20
12.9529013
40
0.5004737
50
180.2665968
51
190.1525252
0
ARC
8
DEFAULT_255_1_234
10
4.7224146
20
12.9525918
40
0.3700778
50
179.5665184
51
191.9952995
0
ARC
8
DEFAULT_255_1_234
10
4.5996252
20
12.9252043
40
0.2442808
50
191.6974072
51
215.1404042
0
ARC
8
DEFAULT_255_1_234
10
4.5758167
20
12.9110108
40
0.2166522
50
215.6950207
51
224.8513522
0
ARC
8
DEFAULT_255_1_234
10
4.581391
20
12.9189697
40
0.2262237
50
225.2846858
51
255.0111758
0
ARC
8
DEFAULT_255_1_234
10
4.613787
20
13.0303455
40
0.3421979
50
254.5944985
51
267.9129803
0
ARC
8
DEFAULT_255_1_234
10
4.6212351
20
13.1387903
40
0.4508556
50
267.4689655
51
270.0223026
0
ARC
8
DEFAULT_255_1_234
10
4.6242496
20
13.0798849
40
0.3919604
50
269.5849941
51
281.1843768
0
ARC
8
DEFAULT_255_1_234
10
4.6521261
20
12.9446059
40
0.2538457
50
280.9344262
51
300.9743589
0
ARC
8
DEFAULT_255_1_234
10
4.6733866
20
12.9054688
40
0.2093566
50
301.4980046
51
315.1466847
0
ARC
8
DEFAULT_255_1_234
10
4.6589405
20
12.9173236
40
0.2279656
50
315.5952539
51
345.6678731
0
ARC
8
DEFAULT_255_1_234
10
4.5469921
20
12.9485009
40
0.3441564
50
345.2524969
51
358.6304371
0
ARC
8
DEFAULT_255_1_234
10
4.4452275
20
12.9544916
40
0.4460494
50
358.1735671
51
0.0124524
0
LINE
8
DEFAULT_255_1_234
10
6.0655171
20
13.4091849
11
5.9105046
21
13.4091849
0
LINE
8
DEFAULT_255_1_234
10
5.2181688
20
12.9168394
11
5.3731813
21
12.9168394
0
ARC
8
DEFAULT_255_1_234
10
5.9763859
20
14.3038768
40
1.252368
50
248.9199003
51
254.1439814
0
ARC
8
DEFAULT_255_1_234
10
5.8083354
20
13.8712234
40
0.788226
50
241.633709
51
249.0064503
0
ARC
8
DEFAULT_255_1_234
10
5.6554748
20
13.5911317
40
0.4691427
50
230.498225
51
241.8087113
0
ARC
8
DEFAULT_255_1_234
10
5.5770322
20
13.4911906
40
0.3421437
50
227.4064532
51
229.9881192
0
ARC
8
DEFAULT_255_1_234
10
5.5282843
20
13.4436088
40
0.2741476
50
200.6781896
51
228.1763934
0
ARC
8
DEFAULT_255_1_234
10
5.5355154
20
13.4421077
40
0.2804109
50
179.5061581
51
199.8694617
0
ARC
8
DEFAULT_255_1_234
10
5.5345905
20
13.449521
40
0.2795204
50
132.4834203
51
181.0242172
0
ARC
8
DEFAULT_255_1_234
10
5.5941488
20
13.3932704
40
0.3612768
50
129.2532479
51
133.4242687
0
ARC
8
DEFAULT_255_1_234
10
5.6087937
20
13.3712965
40
0.3875675
50
101.98776
51
128.8742646
0
ARC
8
DEFAULT_255_1_234
10
5.6486548
20
13.1991741
40
0.5642249
50
89.5906553
51
102.3169264
0
ARC
8
DEFAULT_255_1_234
10
5.655704
20
13.2310148
40
0.5323783
50
77.2360837
51
90.3248275
0
ARC
8
DEFAULT_255_1_234
10
5.6764119
20
13.32774
40
0.4334697
50
63.837784
51
77.0809408
0
ARC
8
DEFAULT_255_1_234
10
5.7041881
20
13.3794911
40
0.3747796
50
45.9864267
51
64.1607727
0
ARC
8
DEFAULT_255_1_234
10
5.7302762
20
13.4092866
40
0.3352302
50
32.2747395
51
45.6547121
0
ARC
8
DEFAULT_255_1_234
10
5.7369203
20
13.411188
40
0.328603
50
359.6507365
51
32.6130309
0
ARC
8
DEFAULT_255_1_234
10
5.6426298
20
13.411666
40
0.2678863
50
359.469343
51
14.9832209
0
ARC
8
DEFAULT_255_1_234
10
5.7131361
20
13.4305539
40
0.1948938
50
14.9781179
51
48.2004265
0
ARC
8
DEFAULT_255_1_234
10
5.6967005
20
13.4098983
40
0.2212521
50
48.5927837
51
74.1241538
0
ARC
8
DEFAULT_255_1_234
10
5.6633494
20
13.2998248
40
0.3362561
50
73.7888341
51
86.6652678
0
ARC
8
DEFAULT_255_1_234
10
5.653106
20
13.1790881
40
0.4573953
50
86.2640471
51
90.0526343
0
ARC
8
DEFAULT_255_1_234
10
5.6502772
20
13.2186192
40
0.4178709
50
89.6697524
51
99.2309573
0
ARC
8
DEFAULT_255_1_234
10
5.6260223
20
13.3630964
40
0.2713749
50
99.069534
51
113.7658566
0
ARC
8
DEFAULT_255_1_234
10
5.5986414
20
13.4276677
40
0.2012469
50
114.0401004
51
127.9850673
0
ARC
8
DEFAULT_255_1_234
10
5.5745978
20
13.457273
40
0.1631167
50
127.7287463
51
176.7105154
0
ARC
8
DEFAULT_255_1_234
10
5.6424696
20
13.4471693
40
0.2315392
50
175.1779447
51
180.0581938
0
ARC
8
DEFAULT_255_1_234
10
5.5581542
20
13.4459428
40
0.1472271
50
179.6142195
51
228.1246017
0
ARC
8
DEFAULT_255_1_234
10
5.6023211
20
13.4868308
40
0.2072299
50
226.5779593
51
230.8800004
0
ARC
8
DEFAULT_255_1_234
10
5.649429
20
13.5493636
40
0.2854818
50
231.4635071
51
241.9260842
0
ARC
8
DEFAULT_255_1_234
10
5.7691468
20
13.76968
40
0.53622
50
241.7178533
51
248.3259551
0
ARC
8
DEFAULT_255_1_234
10
5.907684
20
14.1129064
40
0.9063478
50
248.2007737
51
252.4528373
0
ARC
8
DEFAULT_255_1_234
10
6.0280565
20
14.4850441
40
1.2974635
50
252.3391078
51
254.3469452
0
ARC
8
DEFAULT_255_1_234
10
5.2738267
20
11.7873148
40
1.5037162
50
71.0197183
51
74.4087047
0
ARC
8
DEFAULT_255_1_234
10
5.4432952
20
12.2765111
40
0.9859993
50
66.1847285
51
71.086374
0
ARC
8
DEFAULT_255_1_234
10
5.5989265
20
12.62692
40
0.6025855
50
59.3536294
51
66.2691831
0
ARC
8
DEFAULT_255_1_234
10
5.6877917
20
12.7772609
40
0.4279449
50
49.1020879
51
59.3293958
0
ARC
8
DEFAULT_255_1_234
10
5.7696657
20
12.8705834
40
0.3038015
50
32.7919921
51
49.2505539
0
ARC
8
DEFAULT_255_1_234
10
5.8017747
20
12.8934191
40
0.264448
50
31.1181161
51
32.4005348
0
ARC
8
DEFAULT_255_1_234
10
5.7929285
20
12.8898779
40
0.2738556
50
8.1116974
51
30.7958831
0
ARC
8
DEFAULT_255_1_234
10
5.7118953
20
12.8760753
40
0.3560327
50
359.8389159
51
8.4706516
0
ARC
8
DEFAULT_255_1_234
10
5.7744744
20
12.8712137
40
0.2934776
50
337.4731098
51
0.7537279
0
ARC
8
DEFAULT_255_1_234
10
5.7923439
20
12.8692387
40
0.2762607
50
307.5917067
51
336.4315538
0
ARC
8
DEFAULT_255_1_234
10
5.7463267
20
12.9205102
40
0.3449979
50
307.6551545
51
308.4529766
0
ARC
8
DEFAULT_255_1_234
10
5.7232986
20
12.956025
40
0.3871988
50
284.3734338
51
307.1424381
0
ARC
8
DEFAULT_255_1_234
10
5.6737816
20
13.1381932
40
0.5759636
50
272.4382747
51
284.646547
0
ARC
8
DEFAULT_255_1_234
10
5.6611025
20
13.3181893
40
0.7563528
50
269.9708387
51
272.8178037
0
ARC
8
DEFAULT_255_1_234
10
5.6568064
20
13.1143716
40
0.5525489
50
248.2707594
51
270.4055579
0
ARC
8
DEFAULT_255_1_234
10
5.6513806
20
13.0953192
40
0.5328452
50
246.1383403
51
248.0542782
0
ARC
8
DEFAULT_255_1_234
10
5.6095185
20
13.0073843
40
0.4355005
50
233.1670131
51
246.4950969
0
ARC
8
DEFAULT_255_1_234
10
5.5541089
20
12.9325812
40
0.3424126
50
215.3403242
51
233.0843104
0
ARC
8
DEFAULT_255_1_234
10
5.5268521
20
12.9127549
40
0.3087104
50
179.2419209
51
215.2648451
0
ARC
8
DEFAULT_255_1_234
10
5.6036115
20
12.9141666
40
0.2304457
50
179.335461
51
199.1045811
0
ARC
8
DEFAULT_255_1_234
10
5.5703791
20
12.9054766
40
0.1962176
50
199.8828939
51
232.7063202
0
ARC
8
DEFAULT_255_1_234
10
5.6176059
20
12.9648788
40
0.2720938
50
232.3738199
51
255.5136649
0
ARC
8
DEFAULT_255_1_234
10
5.6516926
20
13.0892835
40
0.4010747
50
255.2446292
51
267.5320849
0
ARC
8
DEFAULT_255_1_234
10
5.6604549
20
13.2125702
40
0.5246356
50
267.1557994
51
270.0286766
0
ARC
8
DEFAULT_255_1_234
10
5.6632322
20
13.168195
40
0.4802668
50
269.7000017
51
278.1660162
0
ARC
8
DEFAULT_255_1_234
10
5.6888327
20
12.9951515
40
0.3053425
50
278.0231263
51
290.625471
0
ARC
8
DEFAULT_255_1_234
10
5.7236014
20
12.9024025
40
0.206291
50
290.6619762
51
307.0370976
0
ARC
8
DEFAULT_255_1_234
10
5.7536403
20
12.8655504
40
0.1587906
50
306.3943566
51
355.3030547
0
ARC
8
DEFAULT_255_1_234
10
5.7024334
20
12.8732113
40
0.2104809
50
354.3660432
51
0.0698737
0
ARC
8
DEFAULT_255_1_234
10
5.716668
20
12.8754617
40
0.1962563
50
359.417946
51
16.1971788
0
ARC
8
DEFAULT_255_1_234
10
5.762199
20
12.8879418
40
0.149053
50
16.4723299
51
52.6262157
0
ARC
8
DEFAULT_255_1_234
10
5.6801044
20
12.7795433
40
0.2850296
50
52.7386432
51
62.4979148
0
ARC
8
DEFAULT_255_1_234
10
5.5416121
20
12.5189283
40
0.5801521
50
62.2515216
51
68.1220564
0
ARC
8
DEFAULT_255_1_234
10
5.3696031
20
12.0961872
40
1.0365451
50
68.0062803
51
71.8053402
0
ARC
8
DEFAULT_255_1_234
10
5.1900403
20
11.5576758
40
1.6042013
50
71.7183119
51
73.9258742
0
LINE
8
DEFAULT_255_1_234
10
6.6711102
20
12.5779
11
6.2655074
21
12.5779
0
LINE
8
DEFAULT_255_1_234
10
6.2655074
20
12.5779
11
6.2655074
21
13.7473211
0
LINE
8
DEFAULT_255_1_234
10
6.2655074
20
13.7473211
11
6.6478182
21
13.7473211
0
LINE
8
DEFAULT_255_1_234
10
6.6767324
20
13.1248614
11
6.4197168
21
13.1248614
0
LINE
8
DEFAULT_255_1_234
10
6.4197168
20
13.1248614
11
6.4197168
21
12.7039983
0
LINE
8
DEFAULT_255_1_234
10
6.4197168
20
12.7039983
11
6.6743229
21
12.7039983
0
LINE
8
DEFAULT_255_1_234
10
6.4197168
20
13.6204196
11
6.4197168
21
13.2485501
0
LINE
8
DEFAULT_255_1_234
10
6.4197168
20
13.2485501
11
6.6526372
21
13.2485501
0
LINE
8
DEFAULT_255_1_234
10
6.6478182
20
13.6204196
11
6.4197168
21
13.6204196
0
ARC
8
DEFAULT_255_1_234
10
6.651589
20
13.0105901
40
0.7367406
50
82.1257326
51
90.2932599
0
ARC
8
DEFAULT_255_1_234
10
6.6904845
20
13.2824013
40
0.4621653
50
69.9044149
51
82.2857423
0
ARC
8
DEFAULT_255_1_234
10
6.7475523
20
13.4366637
40
0.2976871
50
51.1838526
51
70.0181538
0
ARC
8
DEFAULT_255_1_234
10
6.7730489
20
13.473724
40
0.2528517
50
12.1017251
51
50.4214761
0
ARC
8
DEFAULT_255_1_234
10
6.6346363
20
13.4389676
40
0.3955061
50
359.5251267
51
12.8211707
0
ARC
8
DEFAULT_255_1_234
10
6.792629
20
13.4320344
40
0.2375281
50
323.4908128
51
0.8817314
0
ARC
8
DEFAULT_255_1_234
10
6.7507976
20
13.464355
40
0.2903817
50
298.6825083
51
323.2756573
0
ARC
8
DEFAULT_255_1_234
10
6.7146339
20
13.5244649
40
0.3604842
50
293.1999386
51
299.1396394
0
ARC
8
DEFAULT_255_1_234
10
6.7819312
20
12.9159126
40
0.2871098
50
54.0011765
51
74.9167975
0
ARC
8
DEFAULT_255_1_234
10
6.7935671
20
12.9356332
40
0.2643248
50
36.3580696
51
53.5291921
0
ARC
8
DEFAULT_255_1_234
10
6.7808914
20
12.9265998
40
0.2798884
50
4.8189881
51
36.3089977
0
ARC
8
DEFAULT_255_1_234
10
6.7029749
20
12.915627
40
0.358478
50
359.9370252
51
5.5204067
0
ARC
8
DEFAULT_255_1_234
10
6.670527
20
12.9115667
40
0.3909429
50
344.7478609
51
0.5373281
0
ARC
8
DEFAULT_255_1_234
10
6.7696242
20
12.8848544
40
0.2883093
50
311.1786488
51
344.6886812
0
ARC
8
DEFAULT_255_1_234
10
6.7404289
20
12.9211987
40
0.3348923
50
286.0418249
51
310.8441291
0
ARC
8
DEFAULT_255_1_234
10
6.6897121
20
13.0858807
40
0.5071869
50
274.1042341
51
286.4071509
0
ARC
8
DEFAULT_255_1_234
10
6.6720376
20
13.2742229
40
0.6963234
50
269.9236873
51
274.445647
0
ARC
8
DEFAULT_255_1_234
10
6.6766377
20
13.0402537
40
0.3362634
50
269.6055768
51
281.3740047
0
ARC
8
DEFAULT_255_1_234
10
6.6997015
20
12.9309353
40
0.224546
50
281.1055983
51
302.5132223
0
ARC
8
DEFAULT_255_1_234
10
6.7143915
20
12.9045823
40
0.1944357
50
303.0368945
51
311.8811219
0
ARC
8
DEFAULT_255_1_234
10
6.7215321
20
12.896089
40
0.1833454
50
311.9916004
51
351.7143462
0
ARC
8
DEFAULT_255_1_234
10
6.6398551
20
12.912593
40
0.2665871
50
350.7339597
51
0.2221581
0
ARC
8
DEFAULT_255_1_234
10
6.6290997
20
12.9182467
40
0.2773789
50
359.0456241
51
17.2296242
0
ARC
8
DEFAULT_255_1_234
10
6.7330114
20
12.9491163
40
0.1689915
50
17.6685481
51
78.9940892
0
ARC
8
DEFAULT_255_1_234
10
6.6813278
20
12.7636224
40
0.3612658
50
76.5635957
51
90.6980921
0
LINE
8
DEFAULT_255_1_234
10
6.6769263
20
13.1248613
11
6.6767324
21
13.1248614
0
ARC
8
DEFAULT_255_1_234
10
6.6548939
20
13.5771036
40
0.3285612
50
269.6064736
51
281.4533503
0
ARC
8
DEFAULT_255_1_234
10
6.6771758
20
13.4719688
40
0.2210975
50
281.2041486
51
302.5148063
0
ARC
8
DEFAULT_255_1_234
10
6.6908608
20
13.4473241
40
0.1929674
50
303.021671
51
309.8369575
0
ARC
8
DEFAULT_255_1_234
10
6.709207
20
13.4267488
40
0.1654181
50
309.5228395
51
356.9509836
0
ARC
8
DEFAULT_255_1_234
10
6.6428652
20
13.4362932
40
0.2322512
50
355.4701227
51
0.0492546
0
ARC
8
DEFAULT_255_1_234
10
6.6149743
20
13.4385094
40
0.2601498
50
359.5558597
51
11.2096359
0
ARC
8
DEFAULT_255_1_234
10
6.7107033
20
13.458323
40
0.1623975
50
10.9182341
51
31.3230275
0
ARC
8
DEFAULT_255_1_234
10
6.7392767
20
13.4742214
40
0.1297302
50
31.8852677
51
52.1412565
0
ARC
8
DEFAULT_255_1_234
10
6.7118499
20
13.435475
40
0.1771663
50
52.8285564
51
71.9850297
0
ARC
8
DEFAULT_255_1_234
10
6.6742676
20
13.3248664
40
0.2939794
50
71.6863486
51
82.8455995
0
ARC
8
DEFAULT_255_1_234
10
6.6503212
20
13.1439149
40
0.476506
50
82.6984714
51
90.1729175
0
ARC
8
DEFAULT_255_1_234
10
6.6480847
20
13.2662623
40
0.3541573
50
89.8708275
51
90.0431131
0
LINE
8
DEFAULT_255_1_234
10
23.1659817
20
21.2069327
11
23.1659817
21
21.0141709
0
LINE
8
DEFAULT_255_1_234
10
22.427865
20
20.9940916
11
22.427865
21
21.1924755
0
LINE
8
DEFAULT_255_1_234
10
23.0173946
20
20.9740123
11
23.0173946
21
21.2173739
0
LINE
8
DEFAULT_255_1_234
10
22.5764521
20
21.2286184
11
22.5764521
21
20.9908789
0
ARC
8
DEFAULT_255_1_234
10
21.9412707
20
21.0092805
40
1.2247208
50
353.8441951
51
0.2287902
0
ARC
8
DEFAULT_255_1_234
10
22.4052211
20
20.9574806
40
0.7578929
50
344.4934747
51
353.9765454
0
ARC
8
DEFAULT_255_1_234
10
22.7044801
20
20.8723981
40
0.4467846
50
329.2803592
51
344.7472793
0
ARC
8
DEFAULT_255_1_234
10
22.8037626
20
20.8179018
40
0.3336173
50
324.9352394
51
328.6160465
0
ARC
8
DEFAULT_255_1_234
10
22.8414734
20
20.7915427
40
0.2876076
50
280.580143
51
324.9173126
0
ARC
8
DEFAULT_255_1_234
10
22.8013527
20
20.9586099
40
0.4592847
50
269.5977311
51
281.6734359
0
ARC
8
DEFAULT_255_1_234
10
22.7941433
20
20.9466173
40
0.4472986
50
256.6228859
51
270.51044
0
ARC
8
DEFAULT_255_1_234
10
22.753941
20
20.7917877
40
0.2873874
50
215.8618325
51
257.2788573
0
ARC
8
DEFAULT_255_1_234
10
22.8560442
20
20.8602977
40
0.4102928
50
197.9693508
51
215.2623606
0
ARC
8
DEFAULT_255_1_234
10
23.1045558
20
20.9441709
40
0.6725652
50
187.8816417
51
198.2346507
0
ARC
8
DEFAULT_255_1_234
10
23.5003766
20
21.0013079
40
1.0724845
50
180.8976217
51
188.0055519
0
ARC
8
DEFAULT_255_1_234
10
23.7803954
20
21.0116777
40
1.3526448
50
180.7449369
51
181.1510016
0
ARC
8
DEFAULT_255_1_234
10
23.6226683
20
21.1973042
40
1.1948131
50
173.7675579
51
180.231553
0
ARC
8
DEFAULT_255_1_234
10
23.170883
20
21.2483666
40
0.7401564
50
164.3058563
51
173.9002247
0
ARC
8
DEFAULT_255_1_234
10
22.8796899
20
21.3322656
40
0.4371288
50
148.7922025
51
164.568378
0
ARC
8
DEFAULT_255_1_234
10
22.7845351
20
21.3853929
40
0.3282386
50
144.5883898
51
148.1176286
0
ARC
8
DEFAULT_255_1_234
10
22.7502249
20
21.4093315
40
0.2864044
50
101.6440918
51
144.514236
0
ARC
8
DEFAULT_255_1_234
10
22.7927315
20
21.2404069
40
0.4604934
50
89.5284041
51
102.5819763
0
ARC
8
DEFAULT_255_1_234
10
22.8006403
20
21.2365018
40
0.464401
50
77.0437873
51
90.5081339
0
ARC
8
DEFAULT_255_1_234
10
22.8408405
20
21.4007615
40
0.2953195
50
48.2778575
51
77.4994676
0
ARC
8
DEFAULT_255_1_234
10
22.8481036
20
21.4136746
40
0.2808655
50
36.3142134
51
47.6305865
0
ARC
8
DEFAULT_255_1_234
10
22.7612343
20
21.3551515
40
0.3855453
50
18.2931786
51
35.6769206
0
ARC
8
DEFAULT_255_1_234
10
22.5069102
20
21.2678593
40
0.654423
50
8.024666
51
18.5605216
0
ARC
8
DEFAULT_255_1_234
10
22.0906022
20
21.2063792
40
1.0752407
50
1.1274072
51
8.1718305
0
ARC
8
DEFAULT_255_1_234
10
21.7670213
20
21.1936885
40
1.3990231
50
0.5424119
51
1.3863029
0
ARC
8
DEFAULT_255_1_234
10
21.949159
20
21.2209342
40
1.0682415
50
359.8090433
51
4.9407866
0
ARC
8
DEFAULT_255_1_234
10
22.3701604
20
21.2585113
40
0.6455691
50
4.8362157
51
12.2904523
0
ARC
8
DEFAULT_255_1_234
10
22.6456719
20
21.3198965
40
0.3633074
50
12.0805627
51
23.8173984
0
ARC
8
DEFAULT_255_1_234
10
22.7630425
20
21.3695919
40
0.2358723
50
24.2871213
51
31.3935614
0
ARC
8
DEFAULT_255_1_234
10
22.8155122
20
21.4039233
40
0.1732111
50
30.7407893
51
82.4657128
0
ARC
8
DEFAULT_255_1_234
10
22.7975256
20
21.3155691
40
0.263235
50
81.1060089
51
90.2184952
0
ARC
8
DEFAULT_255_1_234
10
22.7939555
20
21.3413924
40
0.2374236
50
89.3806855
51
105.6762551
0
ARC
8
DEFAULT_255_1_234
10
22.7756186
20
21.4080567
40
0.1682847
50
105.7981136
51
149.7388061
0
ARC
8
DEFAULT_255_1_234
10
22.8820264
20
21.344095
40
0.2924306
50
149.4208916
51
163.6286378
0
ARC
8
DEFAULT_255_1_234
10
23.0911152
20
21.280325
40
0.5110213
50
163.3763315
51
172.1410975
0
ARC
8
DEFAULT_255_1_234
10
23.4211871
20
21.2330518
40
0.8444586
50
172.0259487
51
178.0703232
0
ARC
8
DEFAULT_255_1_234
10
23.724196
20
21.2186906
40
1.1477868
50
177.8631668
51
179.5044149
0
ARC
8
DEFAULT_255_1_234
10
23.6169365
20
20.9872389
40
1.0404907
50
179.7995573
51
185.2460446
0
ARC
8
DEFAULT_255_1_234
10
23.2126404
20
20.9489513
40
0.6343885
50
185.1411642
51
193.0079639
0
ARC
8
DEFAULT_255_1_234
10
22.9482877
20
20.8864641
40
0.3627568
50
192.7897626
51
205.2507664
0
ARC
8
DEFAULT_255_1_234
10
22.8436424
20
20.8397415
40
0.2481908
50
205.8005384
51
211.2537509
0
ARC
8
DEFAULT_255_1_234
10
22.7912864
20
20.804658
40
0.1852521
50
210.3789793
51
238.4008143
0
ARC
8
DEFAULT_255_1_234
10
22.7893386
20
20.8093376
40
0.1882621
50
239.6520629
51
265.9793761
0
ARC
8
DEFAULT_255_1_234
10
22.7978586
20
20.8765427
40
0.2559272
50
265.1315437
51
270.060332
0
ARC
8
DEFAULT_255_1_234
10
22.8007365
20
20.8441534
40
0.2235528
50
269.3314664
51
287.2178029
0
ARC
8
DEFAULT_255_1_234
10
22.8145217
20
20.7938279
40
0.1714108
50
287.7958004
51
329.080874
0
ARC
8
DEFAULT_255_1_234
10
22.7187674
20
20.853593
40
0.2842745
50
328.6634704
51
343.3325132
0
ARC
8
DEFAULT_255_1_234
10
22.5014694
20
20.9212863
40
0.5118644
50
343.0499468
51
351.9393422
0
ARC
8
DEFAULT_255_1_234
10
22.1547994
20
20.9723949
40
0.8622784
50
351.8069023
51
357.7959224
0
ARC
8
DEFAULT_255_1_234
10
21.831255
20
20.9891721
40
1.1862365
50
357.5871873
51
359.2677531
0
LINE
8
DEFAULT_255_1_234
10
23.4495021
20
21.6848211
11
23.7820161
21
20.7202093
0
LINE
8
DEFAULT_255_1_234
10
23.7820161
20
20.7202093
11
24.1161364
21
21.6848211
0
LINE
8
DEFAULT_255_1_234
10
24.1161364
20
21.6848211
11
24.2848029
21
21.6848211
0
LINE
8
DEFAULT_255_1_234
10
24.2848029
20
21.6848211
11
23.851089
21
20.5154
0
LINE
8
DEFAULT_255_1_234
10
23.851089
20
20.5154
11
23.7145495
21
20.5154
0
LINE
8
DEFAULT_255_1_234
10
23.7145495
20
20.5154
11
23.2816388
21
21.6848211
0
LINE
8
DEFAULT_255_1_234
10
23.2816388
20
21.6848211
11
23.4495021
21
21.6848211
0
ENDSEC
0
EOF