0
SECTION
2
HEADER
9
$MEASUREMENT
70
1
0
ENDSEC
0
SECTION
2
TABLES
0
TABLE
2
LTYPE
0
LTYPE
72
65
70
64
2
CONTINUOUS
3
______
73
0
40
0
0
ENDTAB
0
TABLE
2
LAYER
0
LAYER
2
DEFAULT_255_2_778
70
0
62
255
6
CONTINUOUS
0
ENDTAB
0
ENDSEC
0
SECTION
2
ENTITIES
0
LINE
8
DEFAULT_255_2_778
10
8.908149
20
79.5641405
11
8.908149
21
86.5642405
0
LINE
8
DEFAULT_255_2_778
10
8.908149
20
86.5642405
11
8.607849
21
86.5642405
0
LINE
8
DEFAULT_255_2_778
10
8.607849
20
86.5642405
11
8.607849
21
79.5641405
0
LINE
8
DEFAULT_255_2_778
10
8.607849
20
79.5641405
11
8.908149
21
79.5641405
0
ARC
8
DEFAULT_255_2_778
10
22.1447303
20
84.3582769
40
0.8342542
50
318.9290834
51
355.641624
0
ARC
8
DEFAULT_255_2_778
10
20.2820716
20
85.7962314
40
3.1862957
50
312.9381866
51
321.4416697
0
ARC
8
DEFAULT_255_2_778
10
80.7243286
20
23.4803346
40
83.6276476
50
134.170808
51
134.2163762
0
ARC
8
DEFAULT_255_2_778
10
31.2488822
20
74.3329652
40
12.6783012
50
134.2321289
51
134.4251011
0
ARC
8
DEFAULT_255_2_778
10
21.4031323
20
84.7804416
40
1.3739625
50
321.3372042
51
327.9963428
0
ARC
8
DEFAULT_255_2_778
10
21.9687425
20
84.4330182
40
0.7102103
50
327.5818006
51
338.997967
0
ARC
8
DEFAULT_255_2_778
10
22.2409414
20
84.3253122
40
0.4175031
50
339.4089208
51
347.9676794
0
ARC
8
DEFAULT_255_2_778
10
22.3697677
20
84.2970195
40
0.2856102
50
348.1312853
51
359.6305957
0
ARC
8
DEFAULT_255_2_778
10
22.4215499
20
84.2951721
40
0.2338221
50
0.0014565
51
2.8172242
0
ARC
8
DEFAULT_255_2_778
10
22.431276
20
84.2959373
40
0.2240704
50
2.7440292
51
13.0356606
0
ARC
8
DEFAULT_255_2_778
10
22.4659332
20
84.302349
40
0.1888666
50
13.512174
51
27.8837798
0
ARC
8
DEFAULT_255_2_778
10
22.4557272
20
84.2946493
40
0.2014989
50
28.461771
51
54.1030258
0
ARC
8
DEFAULT_255_2_778
10
22.4211985
20
84.2442522
40
0.2625743
50
54.4474803
51
74.7481146
0
ARC
8
DEFAULT_255_2_778
10
22.3981141
20
84.1718396
40
0.3385242
50
74.2027335
51
87.7692737
0
ARC
8
DEFAULT_255_2_778
10
22.3942308
20
84.1180619
40
0.3924162
50
87.5083384
51
90.0085833
0
ARC
8
DEFAULT_255_2_778
10
22.3952746
20
84.0150684
40
0.4954109
50
90.1275251
51
101.7046725
0
ARC
8
DEFAULT_255_2_778
10
22.4682443
20
83.7378421
40
0.781824
50
102.8195665
51
124.4593079
0
ARC
8
DEFAULT_255_2_778
10
22.4783189
20
83.6972557
40
1.0648606
50
110.1284934
51
116.7231798
0
ARC
8
DEFAULT_255_2_778
10
22.4884966
20
83.6696688
40
1.094265
50
103.638619
51
110.1317752
0
ARC
8
DEFAULT_255_2_778
10
22.4876491
20
83.6666967
40
1.0969545
50
97.0837843
51
103.5589965
0
ARC
8
DEFAULT_255_2_778
10
22.4774241
20
83.9186767
40
0.8443044
50
90.0052692
51
90.1528298
0
ARC
8
DEFAULT_255_2_778
10
22.4773674
20
83.9633086
40
0.7996724
50
88.5874699
51
90.0015044
0
ARC
8
DEFAULT_255_2_778
10
22.4774664
20
83.9643222
40
0.7986568
50
82.3002432
51
88.5927743
0
ARC
8
DEFAULT_255_2_778
10
22.5065218
20
84.1724154
40
0.5885476
50
72.6152594
51
82.3891004
0
ARC
8
DEFAULT_255_2_778
10
22.5581046
20
84.3218976
40
0.4305057
50
48.9946665
51
73.2225798
0
ARC
8
DEFAULT_255_2_778
10
22.580244
20
84.359538
40
0.3876565
50
21.3195756
51
47.813728
0
ARC
8
DEFAULT_255_2_778
10
22.455884
20
84.3130971
40
0.5203943
50
2.2134807
51
21.1048029
0
ARC
8
DEFAULT_255_2_778
10
22.244759
20
84.2952875
40
0.7321131
50
359.9679595
51
2.9680973
0
LINE
8
DEFAULT_255_2_778
10
22.374372
20
83.3873781
11
23.027672
21
83.3873781
0
LINE
8
DEFAULT_255_2_778
10
23.027672
20
83.3873781
11
23.027672
21
83.1351781
0
LINE
8
DEFAULT_255_2_778
10
23.027672
20
83.1351781
11
21.963772
21
83.1351781
0
LINE
8
DEFAULT_255_2_778
10
21.963772
20
83.1351781
11
21.963772
21
83.4032781
0
LINE
8
DEFAULT_255_2_778
10
21.963772
20
83.4032781
11
22.134972
21
83.5624781
0
LINE
8
DEFAULT_255_2_778
10
22.134972
20
83.5624781
11
22.365672
21
83.7934781
0
LINE
8
DEFAULT_255_2_778
10
22.365672
20
83.7934781
11
22.475972
21
83.9220781
0
LINE
8
DEFAULT_255_2_778
10
22.025872
20
84.3824781
11
21.999472
21
84.6483781
0
LINE
8
DEFAULT_255_2_778
10
22.352372
20
84.7552781
11
22.413772
21
84.7610781
0
LINE
8
DEFAULT_255_2_778
10
22.413772
20
84.7610781
11
22.475172
21
84.7629781
0
LINE
8
DEFAULT_255_2_778
10
20.925272
20
84.0678781
11
20.925272
21
83.8675781
0
LINE
8
DEFAULT_255_2_778
10
20.925272
20
83.8675781
11
19.625872
21
83.8675781
0
LINE
8
DEFAULT_255_2_778
10
19.625872
20
83.8675781
11
19.625872
21
86.0845781
0
LINE
8
DEFAULT_255_2_778
10
19.625872
20
86.0845781
11
20.925272
21
86.0845781
0
LINE
8
DEFAULT_255_2_778
10
20.925272
20
86.0845781
11
20.925272
21
85.8842781
0
LINE
8
DEFAULT_255_2_778
10
20.925272
20
85.8842781
11
19.825672
21
85.8842781
0
LINE
8
DEFAULT_255_2_778
10
19.825672
20
85.8842781
11
19.825672
21
84.0678781
0
LINE
8
DEFAULT_255_2_778
10
19.825672
20
84.0678781
11
20.925272
21
84.0678781
0
LINE
8
DEFAULT_255_2_778
10
16.518372
20
84.0657781
11
17.108872
21
85.0013781
0
LINE
8
DEFAULT_255_2_778
10
17.108872
20
85.0013781
11
16.572872
21
85.8654781
0
LINE
8
DEFAULT_255_2_778
10
16.572872
20
85.8654781
11
16.990372
21
85.8654781
0
LINE
8
DEFAULT_255_2_778
10
16.990372
20
85.8654781
11
17.366572
21
85.2224781
0
LINE
8
DEFAULT_255_2_778
10
17.366572
20
85.2224781
11
17.751872
21
85.8654781
0
LINE
8
DEFAULT_255_2_778
10
17.751872
20
85.8654781
11
18.138372
21
85.8654781
0
LINE
8
DEFAULT_255_2_778
10
18.138372
20
85.8654781
11
17.596272
21
85.0013781
0
LINE
8
DEFAULT_255_2_778
10
17.596272
20
85.0013781
11
18.187372
21
84.0657781
0
LINE
8
DEFAULT_255_2_778
10
18.187372
20
84.0657781
11
17.761672
21
84.0657781
0
LINE
8
DEFAULT_255_2_778
10
17.761672
20
84.0657781
11
17.346272
21
84.7671781
0
LINE
8
DEFAULT_255_2_778
10
17.346272
20
84.7671781
11
16.925772
21
84.0657781
0
LINE
8
DEFAULT_255_2_778
10
16.925772
20
84.0657781
11
16.518572
21
84.0657781
0
LINE
8
DEFAULT_255_2_778
10
14.652772
20
84.0657781
11
15.354172
21
85.8654781
0
LINE
8
DEFAULT_255_2_778
10
15.354172
20
85.8654781
11
15.761372
21
85.8654781
0
LINE
8
DEFAULT_255_2_778
10
15.761372
20
85.8654781
11
16.468372
21
84.0657781
0
LINE
8
DEFAULT_255_2_778
10
16.468372
20
84.0657781
11
16.068772
21
84.0657781
0
LINE
8
DEFAULT_255_2_778
10
16.068772
20
84.0657781
11
15.913772
21
84.4776781
0
LINE
8
DEFAULT_255_2_778
10
15.913772
20
84.4776781
11
15.184872
21
84.4776781
0
LINE
8
DEFAULT_255_2_778
10
15.184872
20
84.4776781
11
15.026372
21
84.0657781
0
LINE
8
DEFAULT_255_2_778
10
15.026372
20
84.0657781
11
14.653072
21
84.0657781
0
LINE
8
DEFAULT_255_2_778
10
15.547372
20
85.5045781
11
15.286972
21
84.7623781
0
LINE
8
DEFAULT_255_2_778
10
15.286972
20
84.7623781
11
15.813472
21
84.7623781
0
LINE
8
DEFAULT_255_2_778
10
15.813472
20
84.7623781
11
15.553172
21
85.5045781
0
LINE
8
DEFAULT_255_2_778
10
15.553172
20
85.5045781
11
15.547572
21
85.5045781
0
LINE
8
DEFAULT_255_2_778
10
21.852872
20
86.4729781
11
22.320672
21
86.8491781
0
LINE
8
DEFAULT_255_2_778
10
22.320672
20
86.8491781
11
22.604572
21
86.8491781
0
LINE
8
DEFAULT_255_2_778
10
22.604572
20
86.8491781
11
22.604572
21
85.2492781
0
LINE
8
DEFAULT_255_2_778
10
22.604572
20
85.2492781
11
22.284172
21
85.2492781
0
LINE
8
DEFAULT_255_2_778
10
22.284172
20
85.2492781
11
22.284172
21
86.4850781
0
LINE
8
DEFAULT_255_2_778
10
22.284172
20
86.4850781
11
22.013472
21
86.2646781
0
LINE
8
DEFAULT_255_2_778
10
22.013472
20
86.2646781
11
21.852872
21
86.4731781
0
ARC
8
DEFAULT_255_2_778
10
2.1971666
20
85.464225
40
0.2307601
50
30.9844584
51
98.1418186
0
ARC
8
DEFAULT_255_2_778
10
1.9499806
20
85.3246101
40
0.5146043
50
17.2322161
51
30.142717
0
ARC
8
DEFAULT_255_2_778
10
2.1083718
20
81.8201001
40
4.9367872
50
89.9998831
51
90.1936598
0
ARC
8
DEFAULT_255_2_778
10
2.1228449
20
83.4271358
40
3.329783
50
85.9957047
51
90.2488663
0
ARC
8
DEFAULT_255_2_778
10
2.2543461
20
85.2232982
40
1.5288333
50
78.2253457
51
86.2112678
0
ARC
8
DEFAULT_255_2_778
10
2.4391031
20
86.0768426
40
0.6555814
50
61.7598867
51
78.810259
0
ARC
8
DEFAULT_255_2_778
10
2.5693751
20
86.3348956
40
0.3666768
50
2.162929
51
60.6134579
0
ARC
8
DEFAULT_255_2_778
10
2.1328482
20
86.2606418
40
0.8077605
50
1.0014187
51
6.2610102
0
ARC
8
DEFAULT_255_2_778
10
2.4180189
20
86.2619091
40
0.5226246
50
0.0027554
51
1.4089071
0
ARC
8
DEFAULT_255_2_778
10
2.5135847
20
86.2545557
40
0.4271224
50
325.0487419
51
0.9898295
0
ARC
8
DEFAULT_255_2_778
10
2.5153503
20
86.2653076
40
0.4319466
50
277.801783
51
323.7455063
0
ARC
8
DEFAULT_255_2_778
10
2.3202974
20
85.4666461
40
0.4764824
50
22.2231972
51
39.2872998
0
ARC
8
DEFAULT_255_2_778
10
2.5272679
20
85.6332551
40
0.2108033
50
39.8590459
51
58.794991
0
ARC
8
DEFAULT_255_2_778
10
2.5572013
20
85.6799425
40
0.1553686
50
59.3163607
51
85.1691746
0
ARC
8
DEFAULT_255_2_778
10
2.2336974
20
86.5737847
40
0.5919485
50
274.8539181
51
289.0626127
0
ARC
8
DEFAULT_255_2_778
10
2.3648017
20
86.203811
40
0.1994684
50
288.1776179
51
5.3726557
0
ARC
8
DEFAULT_255_2_778
10
2.0304658
20
86.2401274
40
0.5332198
50
358.1042384
51
0.0249051
0
ARC
8
DEFAULT_255_2_778
10
2.3066692
20
86.2524537
40
0.2573007
50
357.3057847
51
359.983467
0
ARC
8
DEFAULT_255_2_778
10
2.3526689
20
86.2466722
40
0.211378
50
1.5472012
51
85.61462
0
ARC
8
DEFAULT_255_2_778
10
2.2740605
20
86.0013652
40
0.4658089
50
78.2609069
51
85.6229745
0
ARC
8
DEFAULT_255_2_778
10
2.2696911
20
85.9560417
40
0.5113345
50
85.5223927
51
86.7606161
0
ARC
8
DEFAULT_255_2_778
10
5.1400649
20
85.6765236
40
1.900103
50
178.0294798
51
178.9947855
0
ARC
8
DEFAULT_255_2_778
10
5.0252036
20
85.6785238
40
1.7852243
50
178.9942986
51
179.9942803
0
ARC
8
DEFAULT_255_2_778
10
4.5937628
20
85.6701495
40
1.3538103
50
179.6380405
51
188.7980304
0
ARC
8
DEFAULT_255_2_778
10
4.0724349
20
85.5869443
40
0.825894
50
188.6254186
51
202.4398157
0
ARC
8
DEFAULT_255_2_778
10
3.8041846
20
85.4743587
40
0.5349825
50
202.2613708
51
225.9319397
0
ARC
8
DEFAULT_255_2_778
10
3.8466543
20
85.5628775
40
0.6288897
50
228.7620179
51
265.9686263
0
ARC
8
DEFAULT_255_2_778
10
3.9640843
20
86.3112388
40
1.3851588
50
263.298535
51
267.4429027
0
ARC
8
DEFAULT_255_2_778
10
3.98692
20
86.5702306
40
1.6449502
50
267.0507663
51
269.0287984
0
ARC
8
DEFAULT_255_2_778
10
3.9841858
20
86.4325129
40
1.507206
50
269.0439868
51
269.9959339
0
ARC
8
DEFAULT_255_2_778
10
3.9954178
20
86.022326
40
1.0970777
50
269.4078017
51
282.2572211
0
ARC
8
DEFAULT_255_2_778
10
4.1016555
20
85.5575562
40
0.6203697
50
281.7820399
51
306.9670957
0
ARC
8
DEFAULT_255_2_778
10
4.1140509
20
85.5090052
40
0.5744485
50
308.8917269
51
345.8142757
0
ARC
8
DEFAULT_255_2_778
10
3.600461
20
85.6608279
40
1.1097887
50
344.7130014
51
358.3005512
0
ARC
8
DEFAULT_255_2_778
10
3.0716988
20
85.6949635
40
1.6394345
50
357.6561134
51
0.0290402
0
ARC
8
DEFAULT_255_2_778
10
2.8802971
20
85.695584
40
1.830836
50
0.0065862
51
1.1165207
0
ARC
8
DEFAULT_255_2_778
10
4.8832063
20
85.6808535
40
1.2836924
50
178.8213393
51
179.9924094
0
ARC
8
DEFAULT_255_2_778
10
4.4920418
20
85.6706545
40
0.892588
50
179.3343875
51
192.107722
0
ARC
8
DEFAULT_255_2_778
10
4.0564287
20
85.5720386
40
0.4460089
50
191.4586861
51
216.019464
0
ARC
8
DEFAULT_255_2_778
10
3.9548324
20
85.513397
40
0.3295814
50
218.1607365
51
270.9306429
0
ARC
8
DEFAULT_255_2_778
10
3.0107117
20
85.6838209
40
1.3375252
50
0.295243
51
2.1611433
0
ARC
8
DEFAULT_255_2_778
10
3.1056305
20
85.6846894
40
1.2426033
50
359.9985746
51
0.2777528
0
ARC
8
DEFAULT_255_2_778
10
3.4335778
20
85.675095
40
0.914706
50
348.3862546
51
0.5990518
0
ARC
8
DEFAULT_255_2_778
10
3.8603108
20
85.5830867
40
0.4782057
50
327.1125456
51
348.8916066
0
ARC
8
DEFAULT_255_2_778
10
3.9982793
20
85.5011759
40
0.3179306
50
267.3539957
51
326.0074196
0
ARC
8
DEFAULT_255_2_778
10
3.983662
20
85.6539758
40
0.4703914
50
268.0414313
51
269.9926937
0
LINE
8
DEFAULT_255_2_778
10
6.5176855
20
86.7562592
11
6.5176855
21
84.9333592
0
LINE
8
DEFAULT_255_2_778
10
6.5176855
20
84.9333592
11
6.0768855
21
84.9333592
0
LINE
8
DEFAULT_255_2_778
10
6.0768855
20
84.9333592
11
5.3881855
21
86.2969592
0
LINE
8
DEFAULT_255_2_778
10
5.3881855
20
86.2969592
11
5.3830855
21
86.2969592
0
LINE
8
DEFAULT_255_2_778
10
5.3830855
20
86.2969592
11
5.3830855
21
84.9333592
0
LINE
8
DEFAULT_255_2_778
10
5.3830855
20
84.9333592
11
5.0375855
21
84.9333592
0
LINE
8
DEFAULT_255_2_778
10
5.0375855
20
84.9333592
11
5.0375855
21
86.7562592
0
LINE
8
DEFAULT_255_2_778
10
5.0375855
20
86.7562592
11
5.4812855
21
86.7562592
0
LINE
8
DEFAULT_255_2_778
10
5.4812855
20
86.7562592
11
6.1673855
21
85.3934592
0
LINE
8
DEFAULT_255_2_778
10
6.1673855
20
85.3934592
11
6.1723855
21
85.3934592
0
LINE
8
DEFAULT_255_2_778
10
6.1723855
20
85.3934592
11
6.1723855
21
86.7562592
0
LINE
8
DEFAULT_255_2_778
10
6.1723855
20
86.7562592
11
6.5178855
21
86.7562592
0
LINE
8
DEFAULT_255_2_778
10
2.1734855
20
85.6916592
11
2.0652855
21
85.6916592
0
LINE
8
DEFAULT_255_2_778
10
2.0652855
20
85.6916592
11
2.0652855
21
84.9338592
0
LINE
8
DEFAULT_255_2_778
10
2.0652855
20
84.9338592
11
1.7040855
21
84.9338592
0
LINE
8
DEFAULT_255_2_778
10
1.7040855
20
84.9338592
11
1.7040855
21
86.7568592
0
LINE
8
DEFAULT_255_2_778
10
1.7040855
20
86.7568592
11
2.0916855
21
86.7568592
0
LINE
8
DEFAULT_255_2_778
10
2.4422855
20
85.4743592
11
2.6480855
21
84.9338592
0
LINE
8
DEFAULT_255_2_778
10
2.6480855
20
84.9338592
11
3.0502855
21
84.9338592
0
LINE
8
DEFAULT_255_2_778
10
3.0502855
20
84.9338592
11
2.7613855
21
85.6468592
0
LINE
8
DEFAULT_255_2_778
10
2.5702855
20
85.8347592
11
2.5702855
21
85.8350592
0
LINE
8
DEFAULT_255_2_778
10
2.2985855
20
86.4665592
11
2.0646855
21
86.4694592
0
LINE
8
DEFAULT_255_2_778
10
2.0646855
20
86.4694592
11
2.0646855
21
85.9794592
0
LINE
8
DEFAULT_255_2_778
10
2.0646855
20
85.9794592
11
2.2760855
21
85.9839592
0
LINE
8
DEFAULT_255_2_778
10
3.6003855
20
85.7027592
11
3.6003855
21
86.7562592
0
LINE
8
DEFAULT_255_2_778
10
3.6003855
20
86.7562592
11
3.2391855
21
86.7562592
0
LINE
8
DEFAULT_255_2_778
10
3.2391855
20
86.7562592
11
3.2391855
21
85.7027592
0
LINE
8
DEFAULT_255_2_778
10
4.7091855
20
85.7027592
11
4.7091855
21
86.7562592
0
LINE
8
DEFAULT_255_2_778
10
4.7091855
20
86.7562592
11
4.3480855
21
86.7562592
0
LINE
8
DEFAULT_255_2_778
10
4.3480855
20
86.7562592
11
4.3480855
21
85.7027592
0
ARC
8
DEFAULT_255_2_778
10
3.8964079
20
82.2231859
40
0.1831962
50
358.5043065
51
80.118228
0
ARC
8
DEFAULT_255_2_778
10
3.7726006
20
81.8357489
40
0.5887523
50
74.7110257
51
89.4234834
0
ARC
8
DEFAULT_255_2_778
10
3.7514715
20
81.4452915
40
0.9795535
50
88.4174167
51
90.0169958
0
ARC
8
DEFAULT_255_2_778
10
3.7528232
20
81.2186159
40
1.2062302
50
90.0780073
51
93.2751227
0
ARC
8
DEFAULT_255_2_778
10
3.768575
20
80.9198612
40
1.5053974
50
93.2240465
51
94.8788711
0
LINE
8
DEFAULT_255_2_778
10
3.6405417
20
82.4198041
11
3.6405417
21
82.0168041
0
ARC
8
DEFAULT_255_2_778
10
3.7809414
20
83.3764176
40
1.3668434
50
264.1042833
51
267.3997655
0
ARC
8
DEFAULT_255_2_778
10
3.7659563
20
83.0645438
40
1.0546112
50
267.4443632
51
269.9551018
0
ARC
8
DEFAULT_255_2_778
10
3.7754126
20
82.6257942
40
0.6159469
50
269.043449
51
283.1313315
0
ARC
8
DEFAULT_255_2_778
10
3.869187
20
82.2528783
40
0.231572
50
281.4976664
51
316.9799416
0
ARC
8
DEFAULT_255_2_778
10
3.8964843
20
82.2106487
40
0.1832133
50
320.8140201
51
2.3634734
0
ARC
8
DEFAULT_255_2_778
10
3.6792969
20
80.7374608
40
0.93357
50
90.0266976
51
91.9247145
0
ARC
8
DEFAULT_255_2_778
10
3.6897511
20
81.1483373
40
0.5228068
50
75.75155
51
91.1934644
0
ARC
8
DEFAULT_255_2_778
10
3.7849576
20
81.4923683
40
0.1661001
50
32.3734367
51
78.3748936
0
ARC
8
DEFAULT_255_2_778
10
4.1144043
20
81.6203639
40
0.2430267
50
26.8964288
51
70.3965538
0
ARC
8
DEFAULT_255_2_778
10
4.093031
20
82.2757113
40
0.4386499
50
283.5685072
51
315.8451685
0
ARC
8
DEFAULT_255_2_778
10
4.0974657
20
82.243832
40
0.4137341
50
318.5858474
51
355.6669686
0
ARC
8
DEFAULT_255_2_778
10
3.827141
20
82.2871273
40
0.6869339
50
353.7692978
51
0.1297079
0
ARC
8
DEFAULT_255_2_778
10
3.7177218
20
82.2886381
40
0.7963514
50
0.0031843
51
1.0408572
0
ARC
8
DEFAULT_255_2_778
10
4.0578516
20
82.295109
40
0.4561602
50
1.0042719
51
33.4119651
0
ARC
8
DEFAULT_255_2_778
10
4.0844657
20
82.2888557
40
0.4378391
50
36.0137095
51
71.7168718
0
ARC
8
DEFAULT_255_2_778
10
3.9313415
20
81.8763645
40
0.8776897
50
70.6729585
51
85.315504
0
ARC
8
DEFAULT_255_2_778
10
3.8680923
20
81.295476
40
1.4618864
50
84.7041816
51
90.1521534
0
ARC
8
DEFAULT_255_2_778
10
3.8645088
20
80.940799
40
1.8165583
50
90.0094186
51
91.2796251
0
LINE
8
DEFAULT_255_2_778
10
3.8239417
20
82.7569041
11
3.2082417
21
82.7569041
0
LINE
8
DEFAULT_255_2_778
10
6.8933417
20
81.3178041
11
6.8933417
21
80.9561041
0
LINE
8
DEFAULT_255_2_778
10
6.8933417
20
80.9561041
11
6.5322417
21
80.9561041
0
LINE
8
DEFAULT_255_2_778
10
6.5322417
20
80.9561041
11
6.5322417
21
81.3178041
0
LINE
8
DEFAULT_255_2_778
10
6.5322417
20
81.3178041
11
6.8933417
21
81.3178041
0
LINE
8
DEFAULT_255_2_778
10
4.0795417
20
82.2182041
11
4.0795417
21
82.2184041
0
LINE
8
DEFAULT_255_2_778
10
3.2082417
20
82.7563041
11
3.2082417
21
80.9564041
0
LINE
8
DEFAULT_255_2_778
10
3.2082417
20
80.9564041
11
3.6479417
21
80.9564041
0
LINE
8
DEFAULT_255_2_778
10
3.6479417
20
80.9564041
11
3.6479417
21
81.6705041
0
LINE
8
DEFAULT_255_2_778
10
3.9252417
20
81.5813041
11
4.1350417
21
80.9640041
0
LINE
8
DEFAULT_255_2_778
10
4.1350417
20
80.9640041
11
4.5883417
21
80.9566041
0
LINE
8
DEFAULT_255_2_778
10
4.5883417
20
80.9566041
11
4.3311417
21
81.7303041
0
LINE
8
DEFAULT_255_2_778
10
3.2082417
20
82.7569041
11
3.2082417
21
82.7563041
0
ARC
8
DEFAULT_255_2_778
10
5.529686
20
82.2231859
40
0.1831962
50
358.5043065
51
80.118228
0
ARC
8
DEFAULT_255_2_778
10
5.4058788
20
81.8357489
40
0.5887523
50
74.7110257
51
89.4234834
0
ARC
8
DEFAULT_255_2_778
10
5.3847497
20
81.4452915
40
0.9795535
50
88.4174167
51
90.0169958
0
ARC
8
DEFAULT_255_2_778
10
5.3861014
20
81.2186159
40
1.2062302
50
90.0780073
51
93.2751227
0
ARC
8
DEFAULT_255_2_778
10
5.4018531
20
80.9198612
40
1.5053974
50
93.2240465
51
94.8788711
0
LINE
8
DEFAULT_255_2_778
10
5.2738199
20
82.4198041
11
5.2738199
21
82.0168041
0
ARC
8
DEFAULT_255_2_778
10
5.4142195
20
83.3764176
40
1.3668434
50
264.1042833
51
267.3997655
0
ARC
8
DEFAULT_255_2_778
10
5.3992344
20
83.0645438
40
1.0546112
50
267.4443632
51
269.9551018
0
ARC
8
DEFAULT_255_2_778
10
5.4086907
20
82.6257942
40
0.6159469
50
269.043449
51
283.1313315
0
ARC
8
DEFAULT_255_2_778
10
5.5024651
20
82.2528783
40
0.231572
50
281.4976664
51
316.9799416
0
ARC
8
DEFAULT_255_2_778
10
5.5297624
20
82.2106487
40
0.1832133
50
320.8140201
51
2.3634734
0
ARC
8
DEFAULT_255_2_778
10
5.312575
20
80.7374608
40
0.93357
50
90.0266976
51
91.9247145
0
ARC
8
DEFAULT_255_2_778
10
5.3230292
20
81.1483373
40
0.5228068
50
75.75155
51
91.1934644
0
ARC
8
DEFAULT_255_2_778
10
5.4182357
20
81.4923683
40
0.1661001
50
32.3734367
51
78.3748936
0
ARC
8
DEFAULT_255_2_778
10
5.7476824
20
81.6203639
40
0.2430267
50
26.8964288
51
70.3965538
0
ARC
8
DEFAULT_255_2_778
10
5.7263092
20
82.2757113
40
0.4386499
50
283.5685072
51
315.8451685
0
ARC
8
DEFAULT_255_2_778
10
5.7307438
20
82.243832
40
0.4137341
50
318.5858474
51
355.6669686
0
ARC
8
DEFAULT_255_2_778
10
5.4604191
20
82.2871273
40
0.6869339
50
353.7692978
51
0.1297079
0
ARC
8
DEFAULT_255_2_778
10
5.351
20
82.2886381
40
0.7963514
50
0.0031843
51
1.0408572
0
ARC
8
DEFAULT_255_2_778
10
5.6911298
20
82.295109
40
0.4561602
50
1.0042719
51
33.4119651
0
ARC
8
DEFAULT_255_2_778
10
5.7177438
20
82.2888557
40
0.4378391
50
36.0137095
51
71.7168718
0
ARC
8
DEFAULT_255_2_778
10
5.5646196
20
81.8763645
40
0.8776897
50
70.6729585
51
85.315504
0
ARC
8
DEFAULT_255_2_778
10
5.5013704
20
81.295476
40
1.4618864
50
84.7041816
51
90.1521534
0
ARC
8
DEFAULT_255_2_778
10
5.4977869
20
80.940799
40
1.8165583
50
90.0094186
51
91.2796251
0
LINE
8
DEFAULT_255_2_778
10
5.4572199
20
82.7569041
11
4.8415199
21
82.7569041
0
LINE
8
DEFAULT_255_2_778
10
5.7128199
20
82.2182041
11
5.7128199
21
82.2184041
0
LINE
8
DEFAULT_255_2_778
10
4.8415199
20
82.7563041
11
4.8415199
21
80.9564041
0
LINE
8
DEFAULT_255_2_778
10
4.8415199
20
80.9564041
11
5.2812199
21
80.9564041
0
LINE
8
DEFAULT_255_2_778
10
5.2812199
20
80.9564041
11
5.2812199
21
81.6705041
0
LINE
8
DEFAULT_255_2_778
10
5.5585199
20
81.5813041
11
5.7683199
21
80.9640041
0
LINE
8
DEFAULT_255_2_778
10
5.7683199
20
80.9640041
11
6.2216199
21
80.9566041
0
LINE
8
DEFAULT_255_2_778
10
6.2216199
20
80.9566041
11
5.9644199
21
81.7303041
0
LINE
8
DEFAULT_255_2_778
10
4.8415199
20
82.7569041
11
4.8415199
21
82.7563041
0
LINE
8
DEFAULT_255_2_778
10
2.8603199
20
81.2397041
11
2.8603199
21
80.9561041
0
LINE
8
DEFAULT_255_2_778
10
2.8603199
20
80.9561041
11
1.7546199
21
80.9561041
0
LINE
8
DEFAULT_255_2_778
10
1.7546199
20
80.9561041
11
1.7546199
21
82.7566041
0
LINE
8
DEFAULT_255_2_778
10
1.7546199
20
82.7566041
11
2.8553199
21
82.7566041
0
LINE
8
DEFAULT_255_2_778
10
2.8553199
20
82.7566041
11
2.8553199
21
82.4730041
0
LINE
8
DEFAULT_255_2_778
10
2.8553199
20
82.4730041
11
2.1285199
21
82.4730041
0
LINE
8
DEFAULT_255_2_778
10
2.1285199
20
82.4730041
11
2.1285199
21
82.0292041
0
LINE
8
DEFAULT_255_2_778
10
2.1285199
20
82.0292041
11
2.7939199
21
82.0292041
0
LINE
8
DEFAULT_255_2_778
10
2.7939199
20
82.0292041
11
2.7939199
21
81.7456041
0
LINE
8
DEFAULT_255_2_778
10
2.7939199
20
81.7456041
11
2.1285199
21
81.7456041
0
LINE
8
DEFAULT_255_2_778
10
2.1285199
20
81.7456041
11
2.1285199
21
81.2397041
0
LINE
8
DEFAULT_255_2_778
10
2.1285199
20
81.2397041
11
2.8603199
21
81.2397041
0
ARC
8
DEFAULT_255_2_778
10
31.6686772
20
63.5885965
40
0.6390147
50
174.5359316
51
179.8074102
0
ARC
8
DEFAULT_255_2_778
10
31.6033807
20
63.5908949
40
0.5738094
50
157.0819554
51
174.1435523
0
ARC
8
DEFAULT_255_2_778
10
31.6082829
20
63.5868877
40
0.5798879
50
145.9060936
51
156.905892
0
ARC
8
DEFAULT_255_2_778
10
31.6097523
20
63.5858582
40
0.5816818
50
124.0967464
51
145.9032536
0
ARC
8
DEFAULT_255_2_778
10
31.6025496
20
63.5974061
40
0.5680815
50
112.8922578
51
124.1480954
0
ARC
8
DEFAULT_255_2_778
10
31.6099197
20
63.5764066
40
0.5902956
50
101.7445143
51
112.7583903
0
ARC
8
DEFAULT_255_2_778
10
31.6042273
20
63.5861689
40
0.5802058
50
67.124986
51
78.3120506
0
ARC
8
DEFAULT_255_2_778
10
31.6023071
20
63.5873238
40
0.5798923
50
55.906115
51
66.9058282
0
ARC
8
DEFAULT_255_2_778
10
31.6035932
20
63.5890954
40
0.5777044
50
33.976173
51
55.913253
0
ARC
8
DEFAULT_255_2_778
10
31.614716
20
63.593574
40
0.5659833
50
22.9585615
51
34.2294569
0
ARC
8
DEFAULT_255_2_778
10
31.6061968
20
63.5903327
40
0.5750921
50
11.6379723
51
22.9248324
0
ARC
8
DEFAULT_255_2_778
10
31.6025895
20
63.5897509
40
0.5787428
50
5.9003092
51
11.6223504
0
ARC
8
DEFAULT_255_2_778
10
31.5756625
20
63.5909369
40
0.6055038
50
354.3899485
51
359.9533936
0
ARC
8
DEFAULT_255_2_778
10
31.6394147
20
63.5852773
40
0.541504
50
351.2759562
51
354.3264871
0
ARC
8
DEFAULT_255_2_778
10
31.6438402
20
63.5846553
40
0.5370354
50
348.1684682
51
351.2699392
0
ARC
8
DEFAULT_255_2_778
10
31.616247
20
63.587635
40
0.56466
50
336.9602662
51
348.4466118
0
ARC
8
DEFAULT_255_2_778
10
31.6146986
20
63.5874242
40
0.566003
50
325.7707483
51
337.0412509
0
ARC
8
DEFAULT_255_2_778
10
31.6047603
20
63.5916495
40
0.5766005
50
304.020993
51
325.979115
0
ARC
8
DEFAULT_255_2_778
10
31.6089933
20
63.5816997
40
0.5659889
50
292.9585897
51
304.2293727
0
ARC
8
DEFAULT_255_2_778
10
31.6092413
20
63.5790028
40
0.5634095
50
281.5206565
51
293.0423403
0
ARC
8
DEFAULT_255_2_778
10
31.6037964
20
63.5851638
40
0.5697471
50
247.0423485
51
258.454747
0
ARC
8
DEFAULT_255_2_778
10
31.6098334
20
63.5972886
40
0.583267
50
235.9989764
51
246.9608586
0
ARC
8
DEFAULT_255_2_778
10
31.6044671
20
63.589317
40
0.5736571
50
224.948564
51
235.9980844
0
ARC
8
DEFAULT_255_2_778
10
31.5953385
20
63.5836619
40
0.5632067
50
213.9357631
51
225.1974746
0
ARC
8
DEFAULT_255_2_778
10
31.6126581
20
63.5964507
40
0.5847165
50
203.1106905
51
214.0280196
0
ARC
8
DEFAULT_255_2_778
10
31.6106992
20
63.592984
40
0.5815591
50
191.72081
51
202.872309
0
ARC
8
DEFAULT_255_2_778
10
31.5329389
20
63.5789744
40
0.5025785
50
188.6607414
51
191.95782
0
ARC
8
DEFAULT_255_2_778
10
31.5288207
20
63.5782984
40
0.4984055
50
185.3249356
51
188.6552013
0
ARC
8
DEFAULT_255_2_778
10
31.6351708
20
63.591237
40
0.6055048
50
180.046613
51
185.6100493
0
ARC
8
DEFAULT_255_2_778
10
31.6038821
20
36.4235216
40
0.5742162
50
180.0476167
51
182.9775247
0
ARC
8
DEFAULT_255_2_778
10
31.7563322
20
36.4314985
40
0.7268747
50
182.9812471
51
185.3009702
0
ARC
8
DEFAULT_255_2_778
10
31.6033807
20
36.4228938
40
0.5738094
50
185.8564477
51
202.9180446
0
ARC
8
DEFAULT_255_2_778
10
31.6152317
20
36.4306887
40
0.5877659
50
203.1680413
51
214.0199598
0
ARC
8
DEFAULT_255_2_778
10
31.6097523
20
36.4279306
40
0.5816818
50
214.0967464
51
235.9032536
0
ARC
8
DEFAULT_255_2_778
10
31.5987149
20
36.4102983
40
0.5608936
50
235.8272012
51
247.222859
0
ARC
8
DEFAULT_255_2_778
10
31.6054353
20
36.4230413
40
0.5752462
50
247.0970756
51
258.4000199
0
ARC
8
DEFAULT_255_2_778
10
31.6106844
20
36.4069651
40
0.5585773
50
281.4706288
51
293.0923289
0
ARC
8
DEFAULT_255_2_778
10
31.6063209
20
36.420091
40
0.572364
50
292.9787751
51
304.1188125
0
ARC
8
DEFAULT_255_2_778
10
31.6035932
20
36.4246934
40
0.5777044
50
304.086747
51
326.023827
0
ARC
8
DEFAULT_255_2_778
10
31.6114253
20
36.4220085
40
0.569713
50
325.8075593
51
337.0044311
0
ARC
8
DEFAULT_255_2_778
10
31.6061968
20
36.4234561
40
0.5750921
50
337.0751676
51
348.3620277
0
ARC
8
DEFAULT_255_2_778
10
31.5980218
20
36.424742
40
0.5833587
50
348.4002993
51
354.0770265
0
ARC
8
DEFAULT_255_2_778
10
31.5756637
20
36.4228519
40
0.6055026
50
0.0466033
51
5.6100595
0
ARC
8
DEFAULT_255_2_778
10
31.6394147
20
36.4285115
40
0.541504
50
5.6735129
51
8.7240438
0
ARC
8
DEFAULT_255_2_778
10
31.6438402
20
36.4291335
40
0.5370354
50
8.7300608
51
11.8315318
0
ARC
8
DEFAULT_255_2_778
10
31.6183599
20
36.4268117
40
0.5624582
50
11.5308284
51
23.0622906
0
ARC
8
DEFAULT_255_2_778
10
31.6146986
20
36.4263646
40
0.566003
50
22.9587491
51
34.2292517
0
ARC
8
DEFAULT_255_2_778
10
31.6033438
20
36.4210308
40
0.5783947
50
34.033389
51
55.9296868
0
ARC
8
DEFAULT_255_2_778
10
31.6063232
20
36.4262983
40
0.5723624
50
55.8813502
51
67.0214168
0
ARC
8
DEFAULT_255_2_778
10
31.6113204
20
36.4414717
40
0.5564439
50
66.8851993
51
78.551612
0
ARC
8
DEFAULT_255_2_778
10
31.6037964
20
36.428625
40
0.5697471
50
101.545253
51
112.9576515
0
ARC
8
DEFAULT_255_2_778
10
31.6091906
20
36.4167747
40
0.5827629
50
112.99154
51
123.9582201
0
ARC
8
DEFAULT_255_2_778
10
31.609203
20
36.4194152
40
0.5805815
50
124.1047944
51
135.0284428
0
ARC
8
DEFAULT_255_2_778
10
31.5953385
20
36.4301269
40
0.5632067
50
134.8025254
51
146.0642369
0
ARC
8
DEFAULT_255_2_778
10
31.6152317
20
36.4157001
40
0.5877659
50
145.9800402
51
156.8319587
0
ARC
8
DEFAULT_255_2_778
10
31.6116813
20
36.4207086
40
0.5825403
50
157.1474557
51
168.2895475
0
ARC
8
DEFAULT_255_2_778
10
31.5338334
20
36.4347183
40
0.5034735
50
168.0525741
51
171.3465904
0
ARC
8
DEFAULT_255_2_778
10
31.5354523
20
36.4344465
40
0.5051149
50
171.3437416
51
174.6156806
0
ARC
8
DEFAULT_255_2_778
10
31.657866
20
36.4210734
40
0.628246
50
174.4490324
51
177.1377903
0
ARC
8
DEFAULT_255_2_778
10
31.6213713
20
36.4229087
40
0.5917052
50
177.1388207
51
179.9868595
0
LINE
8
DEFAULT_255_2_778
10
31.4897662
20
64.1543444
11
31.5469662
21
64.1630444
0
LINE
8
DEFAULT_255_2_778
10
31.5469662
20
64.1630444
11
31.6059662
21
64.1659444
0
LINE
8
DEFAULT_255_2_778
10
31.6059662
20
64.1659444
11
31.6646662
21
64.1630444
0
LINE
8
DEFAULT_255_2_778
10
31.6646662
20
64.1630444
11
31.7217662
21
64.1543444
0
LINE
8
DEFAULT_255_2_778
10
32.1782662
20
63.6492444
11
32.1811662
21
63.5904444
0
LINE
8
DEFAULT_255_2_778
10
31.7217662
20
63.0269444
11
31.6646662
21
63.0181444
0
LINE
8
DEFAULT_255_2_778
10
31.6646662
20
63.0181444
11
31.6059662
21
63.0152444
0
LINE
8
DEFAULT_255_2_778
10
31.6059662
20
63.0152444
11
31.5469662
21
63.0181444
0
LINE
8
DEFAULT_255_2_778
10
31.5469662
20
63.0181444
11
31.4897662
21
63.0269444
0
LINE
8
DEFAULT_255_2_778
10
31.4897662
20
35.8595444
11
31.5469662
21
35.8507444
0
LINE
8
DEFAULT_255_2_778
10
31.5469662
20
35.8507444
11
31.6059662
21
35.8478444
0
LINE
8
DEFAULT_255_2_778
10
31.6059662
20
35.8478444
11
31.6646662
21
35.8507444
0
LINE
8
DEFAULT_255_2_778
10
31.6646662
20
35.8507444
11
31.7217662
21
35.8595444
0
LINE
8
DEFAULT_255_2_778
10
32.1782662
20
36.3645444
11
32.1811662
21
36.4233444
0
LINE
8
DEFAULT_255_2_778
10
31.7217662
20
36.9868444
11
31.6646662
21
36.9956444
0
LINE
8
DEFAULT_255_2_778
10
31.6646662
20
36.9956444
11
31.6059662
21
36.9985444
0
LINE
8
DEFAULT_255_2_778
10
31.6059662
20
36.9985444
11
31.5469662
21
36.9956444
0
LINE
8
DEFAULT_255_2_778
10
31.5469662
20
36.9956444
11
31.4897662
21
36.9868444
0
ARC
8
DEFAULT_255_2_778
10
33.89999
20
64.7453105
40
0.5107401
50
45.4725456
51
89.4214703
0
ARC
8
DEFAULT_255_2_778
10
33.8936552
20
64.7503534
40
0.5116506
50
5.3844926
51
44.570781
0
ARC
8
DEFAULT_255_2_778
10
33.9389756
20
64.7563445
40
0.4659713
50
0.0221379
51
5.1739954
0
ARC
8
DEFAULT_255_2_778
10
33.9390068
20
35.2567048
40
0.4659402
50
354.8138372
51
359.9778388
0
ARC
8
DEFAULT_255_2_778
10
33.8931739
20
35.2628053
40
0.5121407
50
315.4503057
51
354.5976216
0
ARC
8
DEFAULT_255_2_778
10
33.9001334
20
35.2676416
40
0.5106417
50
270.5625453
51
314.5157413
0
ARC
8
DEFAULT_255_2_778
10
29.3098604
20
35.2676412
40
0.5106413
50
225.4842376
51
269.4374681
0
ARC
8
DEFAULT_255_2_778
10
29.31682
20
35.2628053
40
0.5121406
50
185.4023784
51
224.5496943
0
ARC
8
DEFAULT_255_2_778
10
29.2709871
20
35.2567048
40
0.4659403
50
180.0221612
51
185.1861628
0
ARC
8
DEFAULT_255_2_778
10
29.2710183
20
64.7563445
40
0.4659714
50
174.8260046
51
179.9778621
0
ARC
8
DEFAULT_255_2_778
10
29.3163387
20
64.7503534
40
0.5116508
50
135.429219
51
174.6155074
0
ARC
8
DEFAULT_255_2_778
10
29.3100041
20
64.7453101
40
0.5107405
50
90.5785463
51
134.5274321
0
LINE
8
DEFAULT_255_2_778
10
34.404947
20
64.7565246
11
34.404947
21
35.2565246
0
LINE
8
DEFAULT_255_2_778
10
33.905147
20
34.7570246
11
29.304847
21
34.7570246
0
LINE
8
DEFAULT_255_2_778
10
28.805047
20
35.2565246
11
28.805047
21
64.7565246
0
LINE
8
DEFAULT_255_2_778
10
29.304847
20
65.2560246
11
33.905147
21
65.2560246
0
ARC
8
DEFAULT_255_2_778
10
32.6152354
20
60.7397486
40
0.9709698
50
36.9351698
51
74.3265587
0
ARC
8
DEFAULT_255_2_778
10
32.6329266
20
60.7142479
40
0.972647
50
1.7264034
51
38.7624203
0
ARC
8
DEFAULT_255_2_778
10
32.8151381
20
60.7386822
40
0.7900089
50
0.0023712
51
0.3530904
0
ARC
8
DEFAULT_255_2_778
10
32.8192021
20
39.2745824
40
0.7859448
50
359.6507534
51
0.0023744
0
ARC
8
DEFAULT_255_2_778
10
32.6353707
20
39.2982848
40
0.97018
50
321.188523
51
358.3170419
0
ARC
8
DEFAULT_255_2_778
10
32.6154486
20
39.2733694
40
0.9706118
50
285.6662929
51
323.0719786
0
ARC
8
DEFAULT_255_2_778
10
30.1562771
20
38.3824012
40
0.7135294
50
270.2534875
51
284.3438187
0
LINE
8
DEFAULT_255_2_778
10
30.1594339
20
37.6688787
11
30.1590666
21
37.6688788
0
ARC
8
DEFAULT_255_2_778
10
30.1580572
20
38.2623974
40
0.5935194
50
259.5539937
51
270.0974437
0
ARC
8
DEFAULT_255_2_778
10
30.146348
20
38.2074449
40
0.5373568
50
232.5028229
51
259.7194511
0
ARC
8
DEFAULT_255_2_778
10
30.1513254
20
38.2031771
40
0.5370406
50
204.5533674
51
231.8043361
0
ARC
8
DEFAULT_255_2_778
10
30.250225
20
38.244637
40
0.6442343
50
183.2919958
51
204.2522331
0
ARC
8
DEFAULT_255_2_778
10
30.3547516
20
38.25669
40
0.7493048
50
179.9904487
51
183.7531416
0
ARC
8
DEFAULT_255_2_778
10
30.3546566
20
61.7556428
40
0.7492097
50
176.2775805
51
180.0097817
0
ARC
8
DEFAULT_255_2_778
10
30.2494305
20
61.7677619
40
0.6434404
50
155.7324313
51
176.7461385
0
ARC
8
DEFAULT_255_2_778
10
30.1513117
20
61.8092755
40
0.5369355
50
128.2026154
51
155.4676478
0
ARC
8
DEFAULT_255_2_778
10
30.1460163
20
61.805634
40
0.5365607
50
100.2599725
51
127.517763
0
ARC
8
DEFAULT_255_2_778
10
30.1588058
20
61.746606
40
0.5969264
50
89.9749608
51
100.4587728
0
ARC
8
DEFAULT_255_2_778
10
30.1598346
20
61.9066098
40
0.4369231
50
89.966448
51
90.1007087
0
ARC
8
DEFAULT_255_2_778
10
30.1574167
20
61.6414847
40
0.7020535
50
75.51264
51
89.7817896
0
LINE
8
DEFAULT_255_2_778
10
33.6051469
20
60.7387149
11
33.6051469
21
39.2746149
0
LINE
8
DEFAULT_255_2_778
10
32.8775469
20
38.3388149
11
30.3330469
21
37.6911149
0
LINE
8
DEFAULT_255_2_778
10
29.6054469
20
38.2568149
11
29.6054469
21
61.7555149
0
LINE
8
DEFAULT_255_2_778
10
30.3330469
20
62.3212149
11
32.8775469
21
61.6743149
0
LINE
8
DEFAULT_255_2_778
10
32.5552459
20
58.1892143
11
32.5552459
21
59.2494143
0
LINE
8
DEFAULT_255_2_778
10
32.5552459
20
59.2494143
11
32.1552459
21
59.2494143
0
LINE
8
DEFAULT_255_2_778
10
32.1552459
20
59.2494143
11
32.1552459
21
58.1892143
0
LINE
8
DEFAULT_255_2_778
10
32.1552459
20
58.1892143
11
32.5552459
21
58.1892143
0
LINE
8
DEFAULT_255_2_778
10
32.5552459
20
59.7791143
11
32.5552459
21
60.8393143
0
LINE
8
DEFAULT_255_2_778
10
32.5552459
20
60.8393143
11
32.1552459
21
60.8393143
0
LINE
8
DEFAULT_255_2_778
10
32.1552459
20
60.8393143
11
32.1552459
21
59.7791143
0
LINE
8
DEFAULT_255_2_778
10
32.1552459
20
59.7791143
11
32.5552459
21
59.7791143
0
LINE
8
DEFAULT_255_2_778
10
31.0555459
20
58.1892143
11
31.0555459
21
59.2494143
0
LINE
8
DEFAULT_255_2_778
10
31.0555459
20
59.2494143
11
30.6555459
21
59.2494143
0
LINE
8
DEFAULT_255_2_778
10
30.6555459
20
59.2494143
11
30.6555459
21
58.1892143
0
LINE
8
DEFAULT_255_2_778
10
30.6555459
20
58.1892143
11
31.0555459
21
58.1892143
0
LINE
8
DEFAULT_255_2_778
10
31.0555459
20
59.7791143
11
31.0555459
21
60.8393143
0
LINE
8
DEFAULT_255_2_778
10
31.0555459
20
60.8393143
11
30.6555459
21
60.8393143
0
LINE
8
DEFAULT_255_2_778
10
30.6555459
20
60.8393143
11
30.6555459
21
59.7791143
0
LINE
8
DEFAULT_255_2_778
10
30.6555459
20
59.7791143
11
31.0555459
21
59.7791143
0
LINE
8
DEFAULT_255_2_778
10
32.5552459
20
48.6497143
11
32.5552459
21
49.7099143
0
LINE
8
DEFAULT_255_2_778
10
32.5552459
20
49.7099143
11
32.1552459
21
49.7099143
0
LINE
8
DEFAULT_255_2_778
10
32.1552459
20
49.7099143
11
32.1552459
21
48.6497143
0
LINE
8
DEFAULT_255_2_778
10
32.1552459
20
48.6497143
11
32.5552459
21
48.6497143
0
LINE
8
DEFAULT_255_2_778
10
32.5552459
20
50.2396143
11
32.5552459
21
51.2997143
0
LINE
8
DEFAULT_255_2_778
10
32.5552459
20
51.2997143
11
32.1552459
21
51.2997143
0
LINE
8
DEFAULT_255_2_778
10
32.1552459
20
51.2997143
11
32.1552459
21
50.2396143
0
LINE
8
DEFAULT_255_2_778
10
32.1552459
20
50.2396143
11
32.5552459
21
50.2396143
0
LINE
8
DEFAULT_255_2_778
10
32.5552459
20
51.8294143
11
32.5552459
21
52.8896143
0
LINE
8
DEFAULT_255_2_778
10
32.5552459
20
52.8896143
11
32.1552459
21
52.8896143
0
LINE
8
DEFAULT_255_2_778
10
32.1552459
20
52.8896143
11
32.1552459
21
51.8294143
0
LINE
8
DEFAULT_255_2_778
10
32.1552459
20
51.8294143
11
32.5552459
21
51.8294143
0
LINE
8
DEFAULT_255_2_778
10
32.5552459
20
53.4193143
11
32.5552459
21
54.4795143
0
LINE
8
DEFAULT_255_2_778
10
32.5552459
20
54.4795143
11
32.1552459
21
54.4795143
0
LINE
8
DEFAULT_255_2_778
10
32.1552459
20
54.4795143
11
32.1552459
21
53.4193143
0
LINE
8
DEFAULT_255_2_778
10
32.1552459
20
53.4193143
11
32.5552459
21
53.4193143
0
LINE
8
DEFAULT_255_2_778
10
32.5552459
20
55.0092143
11
32.5552459
21
56.0694143
0
LINE
8
DEFAULT_255_2_778
10
32.5552459
20
56.0694143
11
32.1552459
21
56.0694143
0
LINE
8
DEFAULT_255_2_778
10
32.1552459
20
56.0694143
11
32.1552459
21
55.0092143
0
LINE
8
DEFAULT_255_2_778
10
32.1552459
20
55.0092143
11
32.5552459
21
55.0092143
0
LINE
8
DEFAULT_255_2_778
10
32.5552459
20
56.5991143
11
32.5552459
21
57.6593143
0
LINE
8
DEFAULT_255_2_778
10
32.5552459
20
57.6593143
11
32.1552459
21
57.6593143
0
LINE
8
DEFAULT_255_2_778
10
32.1552459
20
57.6593143
11
32.1552459
21
56.5991143
0
LINE
8
DEFAULT_255_2_778
10
32.1552459
20
56.5991143
11
32.5552459
21
56.5991143
0
LINE
8
DEFAULT_255_2_778
10
31.0555459
20
48.6494143
11
31.0555459
21
49.7096143
0
LINE
8
DEFAULT_255_2_778
10
31.0555459
20
49.7096143
11
30.6555459
21
49.7096143
0
LINE
8
DEFAULT_255_2_778
10
30.6555459
20
49.7096143
11
30.6555459
21
48.6494143
0
LINE
8
DEFAULT_255_2_778
10
30.6555459
20
48.6494143
11
31.0555459
21
48.6494143
0
LINE
8
DEFAULT_255_2_778
10
31.0555459
20
50.2393143
11
31.0555459
21
51.2995143
0
LINE
8
DEFAULT_255_2_778
10
31.0555459
20
51.2995143
11
30.6555459
21
51.2995143
0
LINE
8
DEFAULT_255_2_778
10
30.6555459
20
51.2995143
11
30.6555459
21
50.2393143
0
LINE
8
DEFAULT_255_2_778
10
30.6555459
20
50.2393143
11
31.0555459
21
50.2393143
0
LINE
8
DEFAULT_255_2_778
10
31.0555459
20
51.8292143
11
31.0555459
21
52.8894143
0
LINE
8
DEFAULT_255_2_778
10
31.0555459
20
52.8894143
11
30.6555459
21
52.8894143
0
LINE
8
DEFAULT_255_2_778
10
30.6555459
20
52.8894143
11
30.6555459
21
51.8292143
0
LINE
8
DEFAULT_255_2_778
10
30.6555459
20
51.8292143
11
31.0555459
21
51.8292143
0
LINE
8
DEFAULT_255_2_778
10
31.0555459
20
53.4191143
11
31.0555459
21
54.4792143
0
LINE
8
DEFAULT_255_2_778
10
31.0555459
20
54.4792143
11
30.6555459
21
54.4792143
0
LINE
8
DEFAULT_255_2_778
10
30.6555459
20
54.4792143
11
30.6555459
21
53.4191143
0
LINE
8
DEFAULT_255_2_778
10
30.6555459
20
53.4191143
11
31.0555459
21
53.4191143
0
LINE
8
DEFAULT_255_2_778
10
31.0555459
20
55.0089143
11
31.0555459
21
56.0691143
0
LINE
8
DEFAULT_255_2_778
10
31.0555459
20
56.0691143
11
30.6555459
21
56.0691143
0
LINE
8
DEFAULT_255_2_778
10
30.6555459
20
56.0691143
11
30.6555459
21
55.0089143
0
LINE
8
DEFAULT_255_2_778
10
30.6555459
20
55.0089143
11
31.0555459
21
55.0089143
0
LINE
8
DEFAULT_255_2_778
10
31.0555459
20
56.5988143
11
31.0555459
21
57.6590143
0
LINE
8
DEFAULT_255_2_778
10
31.0555459
20
57.6590143
11
30.6555459
21
57.6590143
0
LINE
8
DEFAULT_255_2_778
10
30.6555459
20
57.6590143
11
30.6555459
21
56.5988143
0
LINE
8
DEFAULT_255_2_778
10
30.6555459
20
56.5988143
11
31.0555459
21
56.5988143
0
LINE
8
DEFAULT_255_2_778
10
32.5552459
20
39.1093143
11
32.5552459
21
40.1698143
0
LINE
8
DEFAULT_255_2_778
10
32.5552459
20
40.1698143
11
32.1552459
21
40.1698143
0
LINE
8
DEFAULT_255_2_778
10
32.1552459
20
40.1698143
11
32.1552459
21
39.1093143
0
LINE
8
DEFAULT_255_2_778
10
32.1552459
20
39.1093143
11
32.5552459
21
39.1093143
0
LINE
8
DEFAULT_255_2_778
10
32.5552459
20
40.6995143
11
32.5552459
21
41.7591143
0
LINE
8
DEFAULT_255_2_778
10
32.5552459
20
41.7591143
11
32.1552459
21
41.7591143
0
LINE
8
DEFAULT_255_2_778
10
32.1552459
20
41.7591143
11
32.1552459
21
40.6995143
0
LINE
8
DEFAULT_255_2_778
10
32.1552459
20
40.6995143
11
32.5552459
21
40.6995143
0
LINE
8
DEFAULT_255_2_778
10
32.5552459
20
42.2891143
11
32.5552459
21
43.3495143
0
LINE
8
DEFAULT_255_2_778
10
32.5552459
20
43.3495143
11
32.1552459
21
43.3495143
0
LINE
8
DEFAULT_255_2_778
10
32.1552459
20
43.3495143
11
32.1552459
21
42.2891143
0
LINE
8
DEFAULT_255_2_778
10
32.1552459
20
42.2891143
11
32.5552459
21
42.2891143
0
LINE
8
DEFAULT_255_2_778
10
32.5552459
20
43.8792143
11
32.5552459
21
44.9389143
0
LINE
8
DEFAULT_255_2_778
10
32.5552459
20
44.9389143
11
32.1552459
21
44.9389143
0
LINE
8
DEFAULT_255_2_778
10
32.1552459
20
44.9389143
11
32.1552459
21
43.8792143
0
LINE
8
DEFAULT_255_2_778
10
32.1552459
20
43.8792143
11
32.5552459
21
43.8792143
0
LINE
8
DEFAULT_255_2_778
10
32.5552459
20
45.4689143
11
32.5552459
21
46.5293143
0
LINE
8
DEFAULT_255_2_778
10
32.5552459
20
46.5293143
11
32.1552459
21
46.5293143
0
LINE
8
DEFAULT_255_2_778
10
32.1552459
20
46.5293143
11
32.1552459
21
45.4689143
0
LINE
8
DEFAULT_255_2_778
10
32.1552459
20
45.4689143
11
32.5552459
21
45.4689143
0
LINE
8
DEFAULT_255_2_778
10
32.5552459
20
47.0590143
11
32.5552459
21
48.1192143
0
LINE
8
DEFAULT_255_2_778
10
32.5552459
20
48.1192143
11
32.1552459
21
48.1192143
0
LINE
8
DEFAULT_255_2_778
10
32.1552459
20
48.1192143
11
32.1552459
21
47.0590143
0
LINE
8
DEFAULT_255_2_778
10
32.1552459
20
47.0590143
11
32.5552459
21
47.0590143
0
LINE
8
DEFAULT_255_2_778
10
31.0555459
20
39.1091143
11
31.0555459
21
40.1695143
0
LINE
8
DEFAULT_255_2_778
10
31.0555459
20
40.1695143
11
30.6555459
21
40.1695143
0
LINE
8
DEFAULT_255_2_778
10
30.6555459
20
40.1695143
11
30.6555459
21
39.1091143
0
LINE
8
DEFAULT_255_2_778
10
30.6555459
20
39.1091143
11
31.0555459
21
39.1091143
0
LINE
8
DEFAULT_255_2_778
10
31.0555459
20
40.6992143
11
31.0555459
21
41.7589143
0
LINE
8
DEFAULT_255_2_778
10
31.0555459
20
41.7589143
11
30.6555459
21
41.7589143
0
LINE
8
DEFAULT_255_2_778
10
30.6555459
20
41.7589143
11
30.6555459
21
40.6992143
0
LINE
8
DEFAULT_255_2_778
10
30.6555459
20
40.6992143
11
31.0555459
21
40.6992143
0
LINE
8
DEFAULT_255_2_778
10
31.0555459
20
42.2888143
11
31.0555459
21
43.3493143
0
LINE
8
DEFAULT_255_2_778
10
31.0555459
20
43.3493143
11
30.6555459
21
43.3493143
0
LINE
8
DEFAULT_255_2_778
10
30.6555459
20
43.3493143
11
30.6555459
21
42.2888143
0
LINE
8
DEFAULT_255_2_778
10
30.6555459
20
42.2888143
11
31.0555459
21
42.2888143
0
LINE
8
DEFAULT_255_2_778
10
31.0555459
20
43.8790143
11
31.0555459
21
44.9386143
0
LINE
8
DEFAULT_255_2_778
10
31.0555459
20
44.9386143
11
30.6555459
21
44.9386143
0
LINE
8
DEFAULT_255_2_778
10
30.6555459
20
44.9386143
11
30.6555459
21
43.8790143
0
LINE
8
DEFAULT_255_2_778
10
30.6555459
20
43.8790143
11
31.0555459
21
43.8790143
0
LINE
8
DEFAULT_255_2_778
10
31.0555459
20
45.4686143
11
31.0555459
21
46.5290143
0
LINE
8
DEFAULT_255_2_778
10
31.0555459
20
46.5290143
11
30.6555459
21
46.5290143
0
LINE
8
DEFAULT_255_2_778
10
30.6555459
20
46.5290143
11
30.6555459
21
45.4686143
0
LINE
8
DEFAULT_255_2_778
10
30.6555459
20
45.4686143
11
31.0555459
21
45.4686143
0
LINE
8
DEFAULT_255_2_778
10
31.0555459
20
47.0587143
11
31.0555459
21
48.1189143
0
LINE
8
DEFAULT_255_2_778
10
31.0555459
20
48.1189143
11
30.6555459
21
48.1189143
0
LINE
8
DEFAULT_255_2_778
10
30.6555459
20
48.1189143
11
30.6555459
21
47.0587143
0
LINE
8
DEFAULT_255_2_778
10
30.6555459
20
47.0587143
11
31.0555459
21
47.0587143
0
LINE
8
DEFAULT_255_2_778
10
29.4715491
20
72.9563917
11
29.47071
21
72.956392
0
ARC
8
DEFAULT_255_2_778
10
29.4707694
20
71.6043659
40
1.3520261
50
90.0025169
51
110.3883238
0
ARC
8
DEFAULT_255_2_778
10
29.4319105
20
71.7073527
40
1.2419537
50
110.3631441
51
131.2367809
0
ARC
8
DEFAULT_255_2_778
10
29.3259603
20
71.8249691
40
1.0836697
50
131.1234123
51
153.9898123
0
ARC
8
DEFAULT_255_2_778
10
29.228816
20
71.8787925
40
0.9727783
50
154.3297287
51
179.7232159
0
ARC
8
DEFAULT_255_2_778
10
33.9835823
20
71.8787925
40
0.9727781
50
0.2767831
51
25.6702742
0
ARC
8
DEFAULT_255_2_778
10
33.8891627
20
71.8270561
40
1.0803057
50
25.9740857
51
48.9126542
0
ARC
8
DEFAULT_255_2_778
10
33.7804873
20
71.7073523
40
1.2419541
50
48.7632211
51
69.6368497
0
ARC
8
DEFAULT_255_2_778
10
33.7416288
20
71.6043659
40
1.3520262
50
69.6116762
51
89.9974831
0
LINE
8
DEFAULT_255_2_778
10
33.7416881
20
72.956392
11
33.7408491
21
72.9563917
0
LINE
8
DEFAULT_255_2_778
10
28.2552491
20
69.7562917
11
28.2552491
21
67.2561917
0
LINE
8
DEFAULT_255_2_778
10
28.2552491
20
67.2561917
11
31.4553491
21
67.2561917
0
LINE
8
DEFAULT_255_2_778
10
31.4553491
20
67.2561917
11
31.4553491
21
69.7562917
0
LINE
8
DEFAULT_255_2_778
10
31.4553491
20
69.7562917
11
28.2552491
21
69.7562917
0
LINE
8
DEFAULT_255_2_778
10
31.7562491
20
69.7562917
11
31.7562491
21
67.2561917
0
LINE
8
DEFAULT_255_2_778
10
31.7562491
20
67.2561917
11
34.9563491
21
67.2561917
0
LINE
8
DEFAULT_255_2_778
10
34.9563491
20
67.2561917
11
34.9563491
21
69.7562917
0
LINE
8
DEFAULT_255_2_778
10
34.9563491
20
69.7562917
11
31.7562491
21
69.7562917
0
LINE
8
DEFAULT_255_2_778
10
28.2560491
20
71.8834917
11
28.2560491
21
70.0562917
0
LINE
8
DEFAULT_255_2_778
10
28.2560491
20
70.0562917
11
34.9563491
21
70.0562917
0
LINE
8
DEFAULT_255_2_778
10
34.9563491
20
70.0562917
11
34.9563491
21
71.8834917
0
LINE
8
DEFAULT_255_2_778
10
33.7408491
20
72.9563917
11
29.4715491
21
72.9563917
0
LINE
8
DEFAULT_255_2_778
10
29.3321438
20
67.5422468
11
30.5280438
21
67.5422468
0
LINE
8
DEFAULT_255_2_778
10
30.5280438
20
67.5422468
11
30.5280438
21
67.8200468
0
LINE
8
DEFAULT_255_2_778
10
30.5280438
20
67.8200468
11
29.7925438
21
67.8200468
0
ARC
8
DEFAULT_255_2_778
10
27.7736927
20
70.3106519
40
3.2060682
50
309.0277607
51
314.9439402
0
ARC
8
DEFAULT_255_2_778
10
28.5466707
20
69.5401316
40
2.1146542
50
314.8679208
51
323.0062901
0
ARC
8
DEFAULT_255_2_778
10
29.1580439
20
69.0840926
40
1.3519432
50
322.8519869
51
335.1761346
0
ARC
8
DEFAULT_255_2_778
10
29.606535
20
68.8823109
40
0.8601929
50
334.832936
51
358.0947946
0
ARC
8
DEFAULT_255_2_778
10
29.722564
20
68.8700126
40
0.743867
50
358.7444333
51
0.0001378
0
ARC
8
DEFAULT_255_2_778
10
29.7258126
20
68.8698694
40
0.7406187
50
0.0112146
51
13.4748134
0
ARC
8
DEFAULT_255_2_778
10
29.9680138
20
68.8837342
40
0.5036888
50
18.3668868
51
43.5266135
0
ARC
8
DEFAULT_255_2_778
10
30.0082924
20
68.9056109
40
0.4595719
50
45.0075873
51
78.6159553
0
ARC
8
DEFAULT_255_2_778
10
29.9411722
20
68.6250987
40
0.7478868
50
77.8168118
51
90.4647622
0
ARC
8
DEFAULT_255_2_778
10
29.9401729
20
68.2297706
40
1.1432016
50
90.2539648
51
97.8819039
0
ARC
8
DEFAULT_255_2_778
10
30.0086072
20
67.7204991
40
1.6570478
50
97.8110381
51
103.3311586
0
ARC
8
DEFAULT_255_2_778
10
30.1560139
20
67.0897457
40
2.3047946
50
103.2813444
51
107.3274154
0
ARC
8
DEFAULT_255_2_778
10
30.3392816
20
66.4904495
40
2.9314788
50
107.2582529
51
109.3257197
0
ARC
8
DEFAULT_255_2_778
10
27.3845325
20
68.905534
40
2.0154484
50
6.4713468
51
10.0356194
0
ARC
8
DEFAULT_255_2_778
10
23.5946948
20
68.4572244
40
5.8316946
50
4.9028708
51
6.6512849
0
ARC
8
DEFAULT_255_2_778
10
20.2107696
20
68.148165
40
9.2296714
50
4.9337187
51
5.0190505
0
ARC
8
DEFAULT_255_2_778
10
30.2578564
20
67.2668869
40
1.8791141
50
112.2035444
51
116.9491129
0
ARC
8
DEFAULT_255_2_778
10
29.9931863
20
67.9199133
40
1.1744944
50
105.5465973
51
112.2881049
0
ARC
8
DEFAULT_255_2_778
10
29.8638581
20
68.3928882
40
0.6841651
50
95.2377296
51
105.728424
0
ARC
8
DEFAULT_255_2_778
10
29.8402024
20
68.6106436
40
0.465174
50
90.077688
51
94.7846553
0
ARC
8
DEFAULT_255_2_778
10
29.8469518
20
68.7792394
40
0.2966695
50
64.5467725
51
91.4254712
0
ARC
8
DEFAULT_255_2_778
10
29.8588685
20
68.8267816
40
0.2488086
50
20.5677383
51
62.318862
0
ARC
8
DEFAULT_255_2_778
10
29.7273968
20
68.7625796
40
0.3947007
50
17.2989489
51
22.5890595
0
ARC
8
DEFAULT_255_2_778
10
30.0998727
20
68.8790008
40
0.0044724
50
358.6676847
51
12.2117129
0
ARC
8
DEFAULT_255_2_778
10
30.0900169
20
68.8790428
40
0.0143277
50
353.2017847
51
359.4161065
0
ARC
8
DEFAULT_255_2_778
10
29.831097
20
68.8195784
40
0.2791887
50
359.8223083
51
11.9416293
0
ARC
8
DEFAULT_255_2_778
10
29.6690095
20
68.8309708
40
0.4414451
50
334.9565224
51
358.4087824
0
ARC
8
DEFAULT_255_2_778
10
29.1802645
20
69.0446597
40
0.9747878
50
324.2271994
51
335.7376642
0
ARC
8
DEFAULT_255_2_778
10
28.4227109
20
69.5792496
40
1.9019508
50
317.5969318
51
324.5016384
0
ARC
8
DEFAULT_255_2_778
10
27.3658051
20
70.5349712
40
3.3268808
50
313.1414686
51
317.7173605
0
ARC
8
DEFAULT_255_2_778
10
25.9896613
20
71.9950491
40
5.3332654
50
309.9823478
51
313.2029539
0
ARC
8
DEFAULT_255_2_778
10
24.8775393
20
73.3019389
40
7.0492664
50
309.1922566
51
310.0832231
0
LINE
8
DEFAULT_255_2_778
10
29.3321438
20
67.8385468
11
29.3321438
21
67.5422468
0
LINE
8
DEFAULT_255_2_778
10
32.7648438
20
68.9334468
11
33.2913438
21
69.3567468
0
LINE
8
DEFAULT_255_2_778
10
33.2913438
20
69.3567468
11
33.6104438
21
69.3567468
0
LINE
8
DEFAULT_255_2_778
10
33.6104438
20
69.3567468
11
33.6104438
21
67.5562468
0
LINE
8
DEFAULT_255_2_778
10
33.6104438
20
67.5562468
11
33.2500438
21
67.5562468
0
LINE
8
DEFAULT_255_2_778
10
33.2500438
20
67.5562468
11
33.2500438
21
68.9466468
0
LINE
8
DEFAULT_255_2_778
10
33.2500438
20
68.9466468
11
32.9455438
21
68.6984468
0
LINE
8
DEFAULT_255_2_778
10
32.9455438
20
68.6984468
11
32.7648438
21
68.9334468
0
LINE
8
DEFAULT_255_2_778
10
32.0391438
20
70.5563468
11
32.4595438
21
71.2578468
0
LINE
8
DEFAULT_255_2_778
10
32.4595438
20
71.2578468
11
32.8749438
21
70.5563468
0
LINE
8
DEFAULT_255_2_778
10
32.8749438
20
70.5563468
11
33.3006438
21
70.5563468
0
LINE
8
DEFAULT_255_2_778
10
33.3006438
20
70.5563468
11
32.7095438
21
71.4922468
0
LINE
8
DEFAULT_255_2_778
10
32.7095438
20
71.4922468
11
33.2516438
21
72.3563468
0
LINE
8
DEFAULT_255_2_778
10
33.2516438
20
72.3563468
11
32.8651438
21
72.3563468
0
LINE
8
DEFAULT_255_2_778
10
32.8651438
20
72.3563468
11
32.4798438
21
71.7134468
0
LINE
8
DEFAULT_255_2_778
10
32.4798438
20
71.7134468
11
32.1036438
21
72.3563468
0
LINE
8
DEFAULT_255_2_778
10
32.1036438
20
72.3563468
11
31.6861438
21
72.3563468
0
LINE
8
DEFAULT_255_2_778
10
31.6861438
20
72.3563468
11
32.2221438
21
71.4922468
0
LINE
8
DEFAULT_255_2_778
10
32.2221438
20
71.4922468
11
31.6316438
21
70.5563468
0
LINE
8
DEFAULT_255_2_778
10
31.6316438
20
70.5563468
11
32.0391438
21
70.5563468
0
LINE
8
DEFAULT_255_2_778
10
30.6603438
20
71.9949468
11
30.6659438
21
71.9949468
0
LINE
8
DEFAULT_255_2_778
10
30.6659438
20
71.9949468
11
30.4000438
21
71.2527468
0
LINE
8
DEFAULT_255_2_778
10
30.4000438
20
71.2527468
11
30.9265438
21
71.2527468
0
LINE
8
DEFAULT_255_2_778
10
30.9265438
20
71.2527468
11
30.6661438
21
71.9949468
0
LINE
8
DEFAULT_255_2_778
10
30.6661438
20
71.9949468
11
30.9265438
21
71.2527468
0
LINE
8
DEFAULT_255_2_778
10
30.9265438
20
71.2527468
11
30.4000438
21
71.2527468
0
LINE
8
DEFAULT_255_2_778
10
30.4000438
20
71.2527468
11
30.6661438
21
71.9949468
0
LINE
8
DEFAULT_255_2_778
10
30.1396438
20
70.5561468
11
30.2981438
21
70.9680468
0
LINE
8
DEFAULT_255_2_778
10
30.2981438
20
70.9680468
11
31.0270438
21
70.9680468
0
LINE
8
DEFAULT_255_2_778
10
31.0270438
20
70.9680468
11
31.1821438
21
70.5561468
0
LINE
8
DEFAULT_255_2_778
10
31.1821438
20
70.5561468
11
31.5816438
21
70.5561468
0
LINE
8
DEFAULT_255_2_778
10
31.5816438
20
70.5561468
11
30.8746438
21
72.3558468
0
LINE
8
DEFAULT_255_2_778
10
30.8746438
20
72.3558468
11
30.4674438
21
72.3558468
0
LINE
8
DEFAULT_255_2_778
10
30.4674438
20
72.3558468
11
29.7660438
21
70.5561468
0
LINE
8
DEFAULT_255_2_778
10
29.7660438
20
70.5561468
11
30.1396438
21
70.5561468
0
LINE
8
DEFAULT_255_2_778
10
29.3321438
20
67.5422468
11
29.3321438
21
67.5422468
0
ARC
8
DEFAULT_255_2_778
10
12.7539004
20
47.0060451
40
1.0003706
50
0.006511
51
56.4086674
0
ARC
8
DEFAULT_255_2_778
10
13.7540248
20
48.1564521
40
0.4999066
50
59.4035977
51
90.0061722
0
LINE
8
DEFAULT_255_2_778
10
22.754071
20
3.2562587
11
22.253971
21
3.2562587
0
LINE
8
DEFAULT_255_2_778
10
22.253971
20
41.7562587
11
22.754071
21
41.7562587
0
LINE
8
DEFAULT_255_2_778
10
22.253971
20
47.7562587
11
22.754071
21
47.7562587
0
LINE
8
DEFAULT_255_2_778
10
13.304171
20
48.6563587
11
13.754271
21
48.6563587
0
LINE
8
DEFAULT_255_2_778
10
13.754271
20
48.6563587
11
13.754271
21
44.7862587
0
LINE
8
DEFAULT_255_2_778
10
13.304171
20
17.2114587
11
14.004271
21
17.2114587
0
LINE
8
DEFAULT_255_2_778
10
14.004271
20
16.7113587
11
13.304171
21
16.7113587
0
LINE
8
DEFAULT_255_2_778
10
13.304171
20
14.9262587
11
14.004271
21
14.9262587
0
LINE
8
DEFAULT_255_2_778
10
13.304171
20
14.7264587
11
14.004271
21
14.7264587
0
LINE
8
DEFAULT_255_2_778
10
14.004271
20
12.6563587
11
13.304171
21
12.6563587
0
LINE
8
DEFAULT_255_2_778
10
13.304171
20
11.6562587
11
14.004271
21
11.6562587
0
ARC
8
DEFAULT_255_2_778
10
19.7331141
20
63.0504962
40
1.4958573
50
359.9557
51
34.3371158
0
ARC
8
DEFAULT_255_2_778
10
19.7298488
20
63.05061
40
1.4984907
50
34.2630982
51
77.5992417
0
ARC
8
DEFAULT_255_2_778
10
19.7266704
20
63.0346566
40
1.5147546
50
77.6114112
51
80.994609
0
ARC
8
DEFAULT_255_2_778
10
16.5293419
20
63.554014
40
1.502147
50
81.0177063
51
84.5520629
0
ARC
8
DEFAULT_255_2_778
10
16.5295452
20
63.5562106
40
1.4999411
50
84.5518277
51
89.9997003
0
ARC
8
DEFAULT_255_2_778
10
16.5296313
20
63.5554369
40
1.5007147
50
90.0029861
51
130.4911656
0
ARC
8
DEFAULT_255_2_778
10
16.5297506
20
63.5558481
40
1.5004796
50
130.5048269
51
179.9850487
0
ARC
8
DEFAULT_255_2_778
10
16.5296994
20
11.8566075
40
1.5004285
50
180.0178676
51
229.4960746
0
ARC
8
DEFAULT_255_2_778
10
16.5296313
20
11.8570424
40
1.5007148
50
229.5088344
51
269.9970139
0
ARC
8
DEFAULT_255_2_778
10
16.5295452
20
11.8562687
40
1.4999411
50
270.0002997
51
275.4481723
0
ARC
8
DEFAULT_255_2_778
10
16.5293419
20
11.8584653
40
1.502147
50
275.4479371
51
278.9822937
0
ARC
8
DEFAULT_255_2_778
10
19.730925
20
12.3592513
40
1.4957466
50
278.9557745
51
313.3394388
0
ARC
8
DEFAULT_255_2_778
10
19.7303897
20
12.362628
40
1.4985713
50
313.2657184
51
356.5998134
0
ARC
8
DEFAULT_255_2_778
10
19.7142171
20
12.363279
40
1.514754
50
356.6115139
51
359.9947282
0
LINE
8
DEFAULT_255_2_778
10
22.754071
20
20.8562396
11
22.253971
21
20.8562396
0
LINE
8
DEFAULT_255_2_778
10
22.754071
20
19.2563396
11
22.253971
21
19.2563396
0
LINE
8
DEFAULT_255_2_778
10
22.253971
20
15.2563396
11
22.754071
21
15.2563396
0
LINE
8
DEFAULT_255_2_778
10
22.754071
20
13.6561396
11
22.253971
21
13.6561396
0
LINE
8
DEFAULT_255_2_778
10
14.004271
20
44.7862396
11
13.304171
21
44.7862396
0
LINE
8
DEFAULT_255_2_778
10
14.004271
20
44.5862396
11
13.304171
21
44.5862396
0
LINE
8
DEFAULT_255_2_778
10
14.004271
20
42.8013396
11
13.304171
21
42.8013396
0
LINE
8
DEFAULT_255_2_778
10
13.304171
20
42.3012396
11
14.004271
21
42.3012396
0
LINE
8
DEFAULT_255_2_778
10
14.004271
20
58.0063396
11
13.304171
21
58.0063396
0
LINE
8
DEFAULT_255_2_778
10
13.304171
20
56.2561396
11
14.004271
21
56.2561396
0
LINE
8
DEFAULT_255_2_778
10
14.004271
20
52.2562396
11
13.304171
21
52.2562396
0
LINE
8
DEFAULT_255_2_778
10
13.304171
20
50.5062396
11
14.004271
21
50.5062396
0
LINE
8
DEFAULT_255_2_778
10
22.754071
20
60.8562396
11
22.253971
21
60.8562396
0
LINE
8
DEFAULT_255_2_778
10
22.754071
20
59.2562396
11
22.253971
21
59.2562396
0
LINE
8
DEFAULT_255_2_778
10
22.253971
20
55.2563396
11
22.754071
21
55.2563396
0
LINE
8
DEFAULT_255_2_778
10
22.754071
20
53.6563396
11
22.253971
21
53.6563396
0
LINE
8
DEFAULT_255_2_778
10
13.304171
20
64.5561396
11
14.004271
21
64.5561396
0
LINE
8
DEFAULT_255_2_778
10
14.004271
20
63.9563396
11
13.304171
21
63.9563396
0
LINE
8
DEFAULT_255_2_778
10
14.004271
20
63.5562396
11
13.304171
21
63.5562396
0
LINE
8
DEFAULT_255_2_778
10
14.004271
20
62.3561396
11
13.304171
21
62.3561396
0
LINE
8
DEFAULT_255_2_778
10
13.304171
20
59.9563396
11
14.004271
21
59.9563396
0
LINE
8
DEFAULT_255_2_778
10
14.004271
20
71.5062396
11
13.304171
21
71.5062396
0
LINE
8
DEFAULT_255_2_778
10
14.004271
20
70.7561396
11
13.304171
21
70.7561396
0
LINE
8
DEFAULT_255_2_778
10
22.253971
20
2.4560396
11
22.253971
21
72.9561396
0
LINE
8
DEFAULT_255_2_778
10
19.963771
20
64.5307396
11
16.763871
21
65.0377396
0
LINE
8
DEFAULT_255_2_778
10
15.029271
20
63.5562396
11
15.029271
21
11.8561396
0
LINE
8
DEFAULT_255_2_778
10
16.763871
20
10.3747396
11
19.963771
21
10.8817396
0
LINE
8
DEFAULT_255_2_778
10
21.228971
20
12.3631396
11
21.228971
21
63.0493396
0
LINE
8
DEFAULT_255_2_778
10
22.2540137
20
72.4463553
11
14.0040137
21
72.4463553
0
LINE
8
DEFAULT_255_2_778
10
14.0040137
20
72.4463553
11
14.0040137
21
2.9662553
0
LINE
8
DEFAULT_255_2_778
10
14.0040137
20
2.9662553
11
22.2540137
21
2.9662553
0
ARC
8
DEFAULT_255_2_778
10
13.6040476
20
72.6560309
40
0.3001087
50
89.9826105
51
134.9730267
0
ARC
8
DEFAULT_255_2_778
10
13.6042478
20
72.6562304
40
0.3001091
50
135.0269926
51
180.0173348
0
ARC
8
DEFAULT_255_2_778
10
13.6038989
20
2.7559045
40
0.2997604
50
179.9550591
51
225.0006231
0
ARC
8
DEFAULT_255_2_778
10
13.6040138
20
2.7558249
40
0.2997853
50
224.9743446
51
270.023866
0
ARC
8
DEFAULT_255_2_778
10
22.4543635
20
2.7558249
40
0.2997853
50
269.976134
51
315.0256554
0
ARC
8
DEFAULT_255_2_778
10
22.4544784
20
2.7559045
40
0.2997603
50
314.9993769
51
0.0449409
0
ARC
8
DEFAULT_255_2_778
10
22.4541306
20
72.6562309
40
0.3001081
50
359.9825861
51
44.9730961
0
ARC
8
DEFAULT_255_2_778
10
22.4543298
20
72.6560311
40
0.3001084
50
45.0269503
51
90.0173976
0
LINE
8
DEFAULT_255_2_778
10
13.3041387
20
72.6561396
11
13.3041387
21
2.7561396
0
LINE
8
DEFAULT_255_2_778
10
13.6041387
20
2.4560396
11
22.4542387
21
2.4560396
0
LINE
8
DEFAULT_255_2_778
10
22.7542387
20
2.7561396
11
22.7542387
21
72.6561396
0
LINE
8
DEFAULT_255_2_778
10
22.4542387
20
72.9561396
11
13.6041387
21
72.9561396
0
LINE
8
DEFAULT_255_2_778
10
23.754146
20
1.4562323
11
23.754146
21
73.9563323
0
LINE
8
DEFAULT_255_2_778
10
23.754146
20
73.9563323
11
12.304046
21
73.9563323
0
LINE
8
DEFAULT_255_2_778
10
12.304046
20
73.9563323
11
12.304046
21
1.4562323
0
LINE
8
DEFAULT_255_2_778
10
12.304046
20
1.4562323
11
23.754146
21
1.4562323
0
LINE
8
DEFAULT_255_2_778
10
19.4316761
20
2.9662583
11
18.0290761
21
2.4561583
0
LINE
8
DEFAULT_255_2_778
10
22.1038761
20
2.4561583
11
22.1038761
21
2.9662583
0
ARC
8
DEFAULT_255_2_778
10
18.1261967
20
5.7192955
40
1.297198
50
148.2770855
51
180.1324007
0
ARC
8
DEFAULT_255_2_778
10
18.1253449
20
5.7198122
40
1.2962017
50
97.0226393
51
148.276717
0
ARC
8
DEFAULT_255_2_778
10
18.1285539
20
5.6920442
40
1.3241537
50
89.9849309
51
97.0135513
0
ARC
8
DEFAULT_255_2_778
10
18.1318997
20
5.7190033
40
1.297198
50
58.2770855
51
90.1324007
0
ARC
8
DEFAULT_255_2_778
10
18.1324165
20
5.7198551
40
1.2962017
50
7.0226393
51
58.276717
0
ARC
8
DEFAULT_255_2_778
10
18.1046484
20
5.7166461
40
1.3241537
50
359.9849309
51
7.0135513
0
ARC
8
DEFAULT_255_2_778
10
18.1316076
20
5.7133003
40
1.297198
50
328.2770855
51
0.1324007
0
ARC
8
DEFAULT_255_2_778
10
18.1324594
20
5.7127835
40
1.2962017
50
277.0226393
51
328.276717
0
ARC
8
DEFAULT_255_2_778
10
18.1292504
20
5.7405516
40
1.3241537
50
269.9849309
51
277.0135513
0
ARC
8
DEFAULT_255_2_778
10
18.1259045
20
5.7135924
40
1.297198
50
238.2770855
51
270.1324007
0
ARC
8
DEFAULT_255_2_778
10
18.1253878
20
5.7127406
40
1.2962017
50
187.0226393
51
238.276717
0
ARC
8
DEFAULT_255_2_778
10
18.1531558
20
5.7159496
40
1.3241537
50
179.9849309
51
187.0135513
0
LINE
8
DEFAULT_255_2_778
10
16.8290021
20
5.7162979
11
16.8290021
21
5.7162979
0
LINE
8
DEFAULT_255_2_778
10
22.2540137
20
8.4664
11
14.0040137
21
8.4664
0
ARC
8
DEFAULT_255_2_778
10
18.1261967
20
69.6994955
40
1.297198
50
148.2770855
51
180.1324007
0
ARC
8
DEFAULT_255_2_778
10
18.1253449
20
69.7000122
40
1.2962017
50
97.0226393
51
148.276717
0
ARC
8
DEFAULT_255_2_778
10
18.1285539
20
69.6722442
40
1.3241537
50
89.9849309
51
97.0135513
0
ARC
8
DEFAULT_255_2_778
10
18.1318997
20
69.6992033
40
1.297198
50
58.2770855
51
90.1324007
0
ARC
8
DEFAULT_255_2_778
10
18.1324165
20
69.7000551
40
1.2962017
50
7.0226393
51
58.276717
0
ARC
8
DEFAULT_255_2_778
10
18.1046484
20
69.6968461
40
1.3241537
50
359.9849309
51
7.0135513
0
ARC
8
DEFAULT_255_2_778
10
18.1316076
20
69.6935003
40
1.297198
50
328.2770855
51
0.1324007
0
ARC
8
DEFAULT_255_2_778
10
18.1324594
20
69.6929835
40
1.2962017
50
277.0226393
51
328.276717
0
ARC
8
DEFAULT_255_2_778
10
18.1292504
20
69.7207516
40
1.3241537
50
269.9849309
51
277.0135513
0
ARC
8
DEFAULT_255_2_778
10
18.1259045
20
69.6937924
40
1.297198
50
238.2770855
51
270.1324007
0
ARC
8
DEFAULT_255_2_778
10
18.1253878
20
69.6929406
40
1.2962017
50
187.0226393
51
238.276717
0
ARC
8
DEFAULT_255_2_778
10
18.1531558
20
69.6961496
40
1.3241537
50
179.9849309
51
187.0135513
0
LINE
8
DEFAULT_255_2_778
10
16.8290021
20
69.6964979
11
16.8290021
21
69.6964979
0
LINE
8
DEFAULT_255_2_778
10
18.8707137
20
70.7561398
11
17.3875137
21
70.7561398
0
LINE
8
DEFAULT_255_2_778
10
22.2540137
20
66.9461398
11
14.0040137
21
66.9461398
0
LINE
8
DEFAULT_255_2_778
10
19.6491137
20
53.5960398
11
19.6491137
21
54.8361398
0
LINE
8
DEFAULT_255_2_778
10
19.6491137
20
54.8361398
11
19.1491137
21
54.8361398
0
LINE
8
DEFAULT_255_2_778
10
19.1491137
20
54.8361398
11
19.1491137
21
53.5960398
0
LINE
8
DEFAULT_255_2_778
10
19.1491137
20
53.5960398
11
19.6491137
21
53.5960398
0
LINE
8
DEFAULT_255_2_778
10
19.6491137
20
56.1360398
11
19.6491137
21
57.3761398
0
LINE
8
DEFAULT_255_2_778
10
19.6491137
20
57.3761398
11
19.1491137
21
57.3761398
0
LINE
8
DEFAULT_255_2_778
10
19.1491137
20
57.3761398
11
19.1491137
21
56.1360398
0
LINE
8
DEFAULT_255_2_778
10
19.1491137
20
56.1360398
11
19.6491137
21
56.1360398
0
LINE
8
DEFAULT_255_2_778
10
19.6491137
20
58.6760398
11
19.6491137
21
59.9161398
0
LINE
8
DEFAULT_255_2_778
10
19.6491137
20
59.9161398
11
19.1491137
21
59.9161398
0
LINE
8
DEFAULT_255_2_778
10
19.1491137
20
59.9161398
11
19.1491137
21
58.6760398
0
LINE
8
DEFAULT_255_2_778
10
19.1491137
20
58.6760398
11
19.6491137
21
58.6760398
0
LINE
8
DEFAULT_255_2_778
10
19.6491137
20
61.2160398
11
19.6491137
21
62.4561398
0
LINE
8
DEFAULT_255_2_778
10
19.6491137
20
62.4561398
11
19.1491137
21
62.4561398
0
LINE
8
DEFAULT_255_2_778
10
19.1491137
20
62.4561398
11
19.1491137
21
61.2160398
0
LINE
8
DEFAULT_255_2_778
10
19.1491137
20
61.2160398
11
19.6491137
21
61.2160398
0
LINE
8
DEFAULT_255_2_778
10
17.1091137
20
53.5960398
11
17.1091137
21
54.8361398
0
LINE
8
DEFAULT_255_2_778
10
17.1091137
20
54.8361398
11
16.6091137
21
54.8361398
0
LINE
8
DEFAULT_255_2_778
10
16.6091137
20
54.8361398
11
16.6091137
21
53.5960398
0
LINE
8
DEFAULT_255_2_778
10
16.6091137
20
53.5960398
11
17.1091137
21
53.5960398
0
LINE
8
DEFAULT_255_2_778
10
17.1091137
20
56.1360398
11
17.1091137
21
57.3761398
0
LINE
8
DEFAULT_255_2_778
10
17.1091137
20
57.3761398
11
16.6091137
21
57.3761398
0
LINE
8
DEFAULT_255_2_778
10
16.6091137
20
57.3761398
11
16.6091137
21
56.1360398
0
LINE
8
DEFAULT_255_2_778
10
16.6091137
20
56.1360398
11
17.1091137
21
56.1360398
0
LINE
8
DEFAULT_255_2_778
10
17.1091137
20
58.6760398
11
17.1091137
21
59.9161398
0
LINE
8
DEFAULT_255_2_778
10
17.1091137
20
59.9161398
11
16.6091137
21
59.9161398
0
LINE
8
DEFAULT_255_2_778
10
16.6091137
20
59.9161398
11
16.6091137
21
58.6760398
0
LINE
8
DEFAULT_255_2_778
10
16.6091137
20
58.6760398
11
17.1091137
21
58.6760398
0
LINE
8
DEFAULT_255_2_778
10
17.1091137
20
61.2160398
11
17.1091137
21
62.4561398
0
LINE
8
DEFAULT_255_2_778
10
17.1091137
20
62.4561398
11
16.6091137
21
62.4561398
0
LINE
8
DEFAULT_255_2_778
10
16.6091137
20
62.4561398
11
16.6091137
21
61.2160398
0
LINE
8
DEFAULT_255_2_778
10
16.6091137
20
61.2160398
11
17.1091137
21
61.2160398
0
LINE
8
DEFAULT_255_2_778
10
19.6491137
20
43.4360398
11
19.6491137
21
44.6761398
0
LINE
8
DEFAULT_255_2_778
10
19.6491137
20
44.6761398
11
19.1491137
21
44.6761398
0
LINE
8
DEFAULT_255_2_778
10
19.1491137
20
44.6761398
11
19.1491137
21
43.4360398
0
LINE
8
DEFAULT_255_2_778
10
19.1491137
20
43.4360398
11
19.6491137
21
43.4360398
0
LINE
8
DEFAULT_255_2_778
10
19.6491137
20
45.9760398
11
19.6491137
21
47.2161398
0
LINE
8
DEFAULT_255_2_778
10
19.6491137
20
47.2161398
11
19.1491137
21
47.2161398
0
LINE
8
DEFAULT_255_2_778
10
19.1491137
20
47.2161398
11
19.1491137
21
45.9760398
0
LINE
8
DEFAULT_255_2_778
10
19.1491137
20
45.9760398
11
19.6491137
21
45.9760398
0
LINE
8
DEFAULT_255_2_778
10
19.6491137
20
48.5160398
11
19.6491137
21
49.7561398
0
LINE
8
DEFAULT_255_2_778
10
19.6491137
20
49.7561398
11
19.1491137
21
49.7561398
0
LINE
8
DEFAULT_255_2_778
10
19.1491137
20
49.7561398
11
19.1491137
21
48.5160398
0
LINE
8
DEFAULT_255_2_778
10
19.1491137
20
48.5160398
11
19.6491137
21
48.5160398
0
LINE
8
DEFAULT_255_2_778
10
19.6491137
20
51.0560398
11
19.6491137
21
52.2961398
0
LINE
8
DEFAULT_255_2_778
10
19.6491137
20
52.2961398
11
19.1491137
21
52.2961398
0
LINE
8
DEFAULT_255_2_778
10
19.1491137
20
52.2961398
11
19.1491137
21
51.0560398
0
LINE
8
DEFAULT_255_2_778
10
19.1491137
20
51.0560398
11
19.6491137
21
51.0560398
0
LINE
8
DEFAULT_255_2_778
10
17.1091137
20
43.4360398
11
17.1091137
21
44.6761398
0
LINE
8
DEFAULT_255_2_778
10
17.1091137
20
44.6761398
11
16.6091137
21
44.6761398
0
LINE
8
DEFAULT_255_2_778
10
16.6091137
20
44.6761398
11
16.6091137
21
43.4360398
0
LINE
8
DEFAULT_255_2_778
10
16.6091137
20
43.4360398
11
17.1091137
21
43.4360398
0
LINE
8
DEFAULT_255_2_778
10
17.1091137
20
45.9760398
11
17.1091137
21
47.2161398
0
LINE
8
DEFAULT_255_2_778
10
17.1091137
20
47.2161398
11
16.6091137
21
47.2161398
0
LINE
8
DEFAULT_255_2_778
10
16.6091137
20
47.2161398
11
16.6091137
21
45.9760398
0
LINE
8
DEFAULT_255_2_778
10
16.6091137
20
45.9760398
11
17.1091137
21
45.9760398
0
LINE
8
DEFAULT_255_2_778
10
17.1091137
20
48.5160398
11
17.1091137
21
49.7561398
0
LINE
8
DEFAULT_255_2_778
10
17.1091137
20
49.7561398
11
16.6091137
21
49.7561398
0
LINE
8
DEFAULT_255_2_778
10
16.6091137
20
49.7561398
11
16.6091137
21
48.5160398
0
LINE
8
DEFAULT_255_2_778
10
16.6091137
20
48.5160398
11
17.1091137
21
48.5160398
0
LINE
8
DEFAULT_255_2_778
10
17.1091137
20
51.0560398
11
17.1091137
21
52.2961398
0
LINE
8
DEFAULT_255_2_778
10
17.1091137
20
52.2961398
11
16.6091137
21
52.2961398
0
LINE
8
DEFAULT_255_2_778
10
16.6091137
20
52.2961398
11
16.6091137
21
51.0560398
0
LINE
8
DEFAULT_255_2_778
10
16.6091137
20
51.0560398
11
17.1091137
21
51.0560398
0
LINE
8
DEFAULT_255_2_778
10
19.6491137
20
33.2760398
11
19.6491137
21
34.5161398
0
LINE
8
DEFAULT_255_2_778
10
19.6491137
20
34.5161398
11
19.1491137
21
34.5161398
0
LINE
8
DEFAULT_255_2_778
10
19.1491137
20
34.5161398
11
19.1491137
21
33.2760398
0
LINE
8
DEFAULT_255_2_778
10
19.1491137
20
33.2760398
11
19.6491137
21
33.2760398
0
LINE
8
DEFAULT_255_2_778
10
19.6491137
20
35.8160398
11
19.6491137
21
37.0561398
0
LINE
8
DEFAULT_255_2_778
10
19.6491137
20
37.0561398
11
19.1491137
21
37.0561398
0
LINE
8
DEFAULT_255_2_778
10
19.1491137
20
37.0561398
11
19.1491137
21
35.8160398
0
LINE
8
DEFAULT_255_2_778
10
19.1491137
20
35.8160398
11
19.6491137
21
35.8160398
0
LINE
8
DEFAULT_255_2_778
10
19.6491137
20
38.3560398
11
19.6491137
21
39.5961398
0
LINE
8
DEFAULT_255_2_778
10
19.6491137
20
39.5961398
11
19.1491137
21
39.5961398
0
LINE
8
DEFAULT_255_2_778
10
19.1491137
20
39.5961398
11
19.1491137
21
38.3560398
0
LINE
8
DEFAULT_255_2_778
10
19.1491137
20
38.3560398
11
19.6491137
21
38.3560398
0
LINE
8
DEFAULT_255_2_778
10
19.6491137
20
40.8960398
11
19.6491137
21
42.1361398
0
LINE
8
DEFAULT_255_2_778
10
19.6491137
20
42.1361398
11
19.1491137
21
42.1361398
0
LINE
8
DEFAULT_255_2_778
10
19.1491137
20
42.1361398
11
19.1491137
21
40.8960398
0
LINE
8
DEFAULT_255_2_778
10
19.1491137
20
40.8960398
11
19.6491137
21
40.8960398
0
LINE
8
DEFAULT_255_2_778
10
17.1091137
20
33.2760398
11
17.1091137
21
34.5161398
0
LINE
8
DEFAULT_255_2_778
10
17.1091137
20
34.5161398
11
16.6091137
21
34.5161398
0
LINE
8
DEFAULT_255_2_778
10
16.6091137
20
34.5161398
11
16.6091137
21
33.2760398
0
LINE
8
DEFAULT_255_2_778
10
16.6091137
20
33.2760398
11
17.1091137
21
33.2760398
0
LINE
8
DEFAULT_255_2_778
10
17.1091137
20
35.8160398
11
17.1091137
21
37.0561398
0
LINE
8
DEFAULT_255_2_778
10
17.1091137
20
37.0561398
11
16.6091137
21
37.0561398
0
LINE
8
DEFAULT_255_2_778
10
16.6091137
20
37.0561398
11
16.6091137
21
35.8160398
0
LINE
8
DEFAULT_255_2_778
10
16.6091137
20
35.8160398
11
17.1091137
21
35.8160398
0
LINE
8
DEFAULT_255_2_778
10
17.1091137
20
38.3560398
11
17.1091137
21
39.5961398
0
LINE
8
DEFAULT_255_2_778
10
17.1091137
20
39.5961398
11
16.6091137
21
39.5961398
0
LINE
8
DEFAULT_255_2_778
10
16.6091137
20
39.5961398
11
16.6091137
21
38.3560398
0
LINE
8
DEFAULT_255_2_778
10
16.6091137
20
38.3560398
11
17.1091137
21
38.3560398
0
LINE
8
DEFAULT_255_2_778
10
17.1091137
20
40.8960398
11
17.1091137
21
42.1361398
0
LINE
8
DEFAULT_255_2_778
10
17.1091137
20
42.1361398
11
16.6091137
21
42.1361398
0
LINE
8
DEFAULT_255_2_778
10
16.6091137
20
42.1361398
11
16.6091137
21
40.8960398
0
LINE
8
DEFAULT_255_2_778
10
16.6091137
20
40.8960398
11
17.1091137
21
40.8960398
0
LINE
8
DEFAULT_255_2_778
10
19.6491137
20
23.1160398
11
19.6491137
21
24.3561398
0
LINE
8
DEFAULT_255_2_778
10
19.6491137
20
24.3561398
11
19.1491137
21
24.3561398
0
LINE
8
DEFAULT_255_2_778
10
19.1491137
20
24.3561398
11
19.1491137
21
23.1160398
0
LINE
8
DEFAULT_255_2_778
10
19.1491137
20
23.1160398
11
19.6491137
21
23.1160398
0
LINE
8
DEFAULT_255_2_778
10
19.6491137
20
25.6560398
11
19.6491137
21
26.8961398
0
LINE
8
DEFAULT_255_2_778
10
19.6491137
20
26.8961398
11
19.1491137
21
26.8961398
0
LINE
8
DEFAULT_255_2_778
10
19.1491137
20
26.8961398
11
19.1491137
21
25.6560398
0
LINE
8
DEFAULT_255_2_778
10
19.1491137
20
25.6560398
11
19.6491137
21
25.6560398
0
LINE
8
DEFAULT_255_2_778
10
19.6491137
20
28.1960398
11
19.6491137
21
29.4361398
0
LINE
8
DEFAULT_255_2_778
10
19.6491137
20
29.4361398
11
19.1491137
21
29.4361398
0
LINE
8
DEFAULT_255_2_778
10
19.1491137
20
29.4361398
11
19.1491137
21
28.1960398
0
LINE
8
DEFAULT_255_2_778
10
19.1491137
20
28.1960398
11
19.6491137
21
28.1960398
0
LINE
8
DEFAULT_255_2_778
10
19.6491137
20
30.7360398
11
19.6491137
21
31.9761398
0
LINE
8
DEFAULT_255_2_778
10
19.6491137
20
31.9761398
11
19.1491137
21
31.9761398
0
LINE
8
DEFAULT_255_2_778
10
19.1491137
20
31.9761398
11
19.1491137
21
30.7360398
0
LINE
8
DEFAULT_255_2_778
10
19.1491137
20
30.7360398
11
19.6491137
21
30.7360398
0
LINE
8
DEFAULT_255_2_778
10
17.1091137
20
23.1160398
11
17.1091137
21
24.3561398
0
LINE
8
DEFAULT_255_2_778
10
17.1091137
20
24.3561398
11
16.6091137
21
24.3561398
0
LINE
8
DEFAULT_255_2_778
10
16.6091137
20
24.3561398
11
16.6091137
21
23.1160398
0
LINE
8
DEFAULT_255_2_778
10
16.6091137
20
23.1160398
11
17.1091137
21
23.1160398
0
LINE
8
DEFAULT_255_2_778
10
17.1091137
20
25.6560398
11
17.1091137
21
26.8961398
0
LINE
8
DEFAULT_255_2_778
10
17.1091137
20
26.8961398
11
16.6091137
21
26.8961398
0
LINE
8
DEFAULT_255_2_778
10
16.6091137
20
26.8961398
11
16.6091137
21
25.6560398
0
LINE
8
DEFAULT_255_2_778
10
16.6091137
20
25.6560398
11
17.1091137
21
25.6560398
0
LINE
8
DEFAULT_255_2_778
10
17.1091137
20
28.1960398
11
17.1091137
21
29.4361398
0
LINE
8
DEFAULT_255_2_778
10
17.1091137
20
29.4361398
11
16.6091137
21
29.4361398
0
LINE
8
DEFAULT_255_2_778
10
16.6091137
20
29.4361398
11
16.6091137
21
28.1960398
0
LINE
8
DEFAULT_255_2_778
10
16.6091137
20
28.1960398
11
17.1091137
21
28.1960398
0
LINE
8
DEFAULT_255_2_778
10
17.1091137
20
30.7360398
11
17.1091137
21
31.9761398
0
LINE
8
DEFAULT_255_2_778
10
17.1091137
20
31.9761398
11
16.6091137
21
31.9761398
0
LINE
8
DEFAULT_255_2_778
10
16.6091137
20
31.9761398
11
16.6091137
21
30.7360398
0
LINE
8
DEFAULT_255_2_778
10
16.6091137
20
30.7360398
11
17.1091137
21
30.7360398
0
LINE
8
DEFAULT_255_2_778
10
19.6491137
20
12.9560398
11
19.6491137
21
14.1961398
0
LINE
8
DEFAULT_255_2_778
10
19.6491137
20
14.1961398
11
19.1491137
21
14.1961398
0
LINE
8
DEFAULT_255_2_778
10
19.1491137
20
14.1961398
11
19.1491137
21
12.9560398
0
LINE
8
DEFAULT_255_2_778
10
19.1491137
20
12.9560398
11
19.6491137
21
12.9560398
0
LINE
8
DEFAULT_255_2_778
10
19.6491137
20
15.4960398
11
19.6491137
21
16.7361398
0
LINE
8
DEFAULT_255_2_778
10
19.6491137
20
16.7361398
11
19.1491137
21
16.7361398
0
LINE
8
DEFAULT_255_2_778
10
19.1491137
20
16.7361398
11
19.1491137
21
15.4960398
0
LINE
8
DEFAULT_255_2_778
10
19.1491137
20
15.4960398
11
19.6491137
21
15.4960398
0
LINE
8
DEFAULT_255_2_778
10
19.6491137
20
18.0360398
11
19.6491137
21
19.2761398
0
LINE
8
DEFAULT_255_2_778
10
19.6491137
20
19.2761398
11
19.1491137
21
19.2761398
0
LINE
8
DEFAULT_255_2_778
10
19.1491137
20
19.2761398
11
19.1491137
21
18.0360398
0
LINE
8
DEFAULT_255_2_778
10
19.1491137
20
18.0360398
11
19.6491137
21
18.0360398
0
LINE
8
DEFAULT_255_2_778
10
19.6491137
20
20.5760398
11
19.6491137
21
21.8161398
0
LINE
8
DEFAULT_255_2_778
10
19.6491137
20
21.8161398
11
19.1491137
21
21.8161398
0
LINE
8
DEFAULT_255_2_778
10
19.1491137
20
21.8161398
11
19.1491137
21
20.5760398
0
LINE
8
DEFAULT_255_2_778
10
19.1491137
20
20.5760398
11
19.6491137
21
20.5760398
0
LINE
8
DEFAULT_255_2_778
10
17.1091137
20
12.9560398
11
17.1091137
21
14.1961398
0
LINE
8
DEFAULT_255_2_778
10
17.1091137
20
14.1961398
11
16.6091137
21
14.1961398
0
LINE
8
DEFAULT_255_2_778
10
16.6091137
20
14.1961398
11
16.6091137
21
12.9560398
0
LINE
8
DEFAULT_255_2_778
10
16.6091137
20
12.9560398
11
17.1091137
21
12.9560398
0
LINE
8
DEFAULT_255_2_778
10
17.1091137
20
15.4960398
11
17.1091137
21
16.7361398
0
LINE
8
DEFAULT_255_2_778
10
17.1091137
20
16.7361398
11
16.6091137
21
16.7361398
0
LINE
8
DEFAULT_255_2_778
10
16.6091137
20
16.7361398
11
16.6091137
21
15.4960398
0
LINE
8
DEFAULT_255_2_778
10
16.6091137
20
15.4960398
11
17.1091137
21
15.4960398
0
LINE
8
DEFAULT_255_2_778
10
17.1091137
20
18.0360398
11
17.1091137
21
19.2761398
0
LINE
8
DEFAULT_255_2_778
10
17.1091137
20
19.2761398
11
16.6091137
21
19.2761398
0
LINE
8
DEFAULT_255_2_778
10
16.6091137
20
19.2761398
11
16.6091137
21
18.0360398
0
LINE
8
DEFAULT_255_2_778
10
16.6091137
20
18.0360398
11
17.1091137
21
18.0360398
0
LINE
8
DEFAULT_255_2_778
10
17.1091137
20
20.5760398
11
17.1091137
21
21.8161398
0
LINE
8
DEFAULT_255_2_778
10
17.1091137
20
21.8161398
11
16.6091137
21
21.8161398
0
LINE
8
DEFAULT_255_2_778
10
16.6091137
20
21.8161398
11
16.6091137
21
20.5760398
0
LINE
8
DEFAULT_255_2_778
10
16.6091137
20
20.5760398
11
17.1091137
21
20.5760398
0
ARC
8
DEFAULT_255_2_778
10
7.0925988
20
90.3797171
40
3.3260509
50
304.7029607
51
309.5369895
0
ARC
8
DEFAULT_255_2_778
10
7.865114
20
89.4478113
40
2.115589
50
309.4680581
51
316.1076071
0
ARC
8
DEFAULT_255_2_778
10
8.4731646
20
88.8673905
40
1.2749963
50
315.9598055
51
325.9393578
0
ARC
8
DEFAULT_255_2_778
10
8.9285969
20
88.5643489
40
0.727982
50
325.6229185
51
342.5774083
0
ARC
8
DEFAULT_255_2_778
10
9.1576366
20
88.488586
40
0.4867795
50
343.0139395
51
359.7080251
0
ARC
8
DEFAULT_255_2_778
10
9.1933859
20
88.4845231
40
0.4510268
50
0.2010016
51
27.152282
0
ARC
8
DEFAULT_255_2_778
10
9.1148432
20
88.4499081
40
0.5367342
50
26.6139185
51
29.0854689
0
ARC
8
DEFAULT_255_2_778
10
9.1203556
20
88.3570168
40
0.5831337
50
37.3534968
51
77.0583131
0
ARC
8
DEFAULT_255_2_778
10
9.0308254
20
88.0238022
40
0.9280212
50
76.2785496
51
89.7369515
0
ARC
8
DEFAULT_255_2_778
10
9.0193497
20
87.7590423
40
1.1928753
50
89.2441384
51
90.0013133
0
ARC
8
DEFAULT_255_2_778
10
9.0242499
20
87.5216325
40
1.4302936
50
90.1973925
51
97.0558231
0
ARC
8
DEFAULT_255_2_778
10
9.0911284
20
86.9690468
40
1.9869101
50
97.0124064
51
102.2699974
0
ARC
8
DEFAULT_255_2_778
10
9.2437856
20
86.2612892
40
2.7109432
50
102.2437541
51
106.4505376
0
ARC
8
DEFAULT_255_2_778
10
9.3695337
20
85.815452
40
3.1741453
50
106.34846
51
106.4084303
0
ARC
8
DEFAULT_255_2_778
10
9.4756901
20
85.6344818
40
3.050202
50
106.0177162
51
108.7726556
0
ARC
8
DEFAULT_255_2_778
10
9.194537
20
86.6160021
40
2.0292081
50
102.6453001
51
106.0345919
0
ARC
8
DEFAULT_255_2_778
10
9.0306952
20
87.3547637
40
1.2724997
50
97.6385876
51
102.7289632
0
ARC
8
DEFAULT_255_2_778
10
8.9602186
20
87.8902906
40
0.7323582
50
90.3832213
51
97.742883
0
ARC
8
DEFAULT_255_2_778
10
8.9611488
20
88.2571071
40
0.3655717
50
76.2069892
51
90.9135512
0
ARC
8
DEFAULT_255_2_778
10
9.0149777
20
88.460583
40
0.1551754
50
41.0527073
51
77.5972642
0
ARC
8
DEFAULT_255_2_778
10
9.0133164
20
88.4721992
40
0.1491249
50
357.8526438
51
37.265103
0
ARC
8
DEFAULT_255_2_778
10
8.92959
20
88.4647553
40
0.2327541
50
359.9932478
51
0.4569365
0
ARC
8
DEFAULT_255_2_778
10
8.8590175
20
88.4667904
40
0.3033336
50
349.9024734
51
359.6104112
0
ARC
8
DEFAULT_255_2_778
10
8.6906591
20
88.495763
40
0.4741649
50
343.3883562
51
350.0225242
0
ARC
8
DEFAULT_255_2_778
10
8.5577609
20
88.5330095
40
0.612169
50
342.3129785
51
343.6037477
0
ARC
8
DEFAULT_255_2_778
10
7.8471935
20
89.0622857
40
1.47835
50
317.0876793
51
331.0644391
0
ARC
8
DEFAULT_255_2_778
10
7.2377777
20
89.6192812
40
2.303941
50
308.2452554
51
317.2616722
0
ARC
8
DEFAULT_255_2_778
10
6.6038459
20
90.4056369
40
3.3139604
50
303.5985329
51
308.4370442
0
LINE
8
DEFAULT_255_2_778
10
8.4376928
20
87.645322
11
8.4376928
21
87.346622
0
LINE
8
DEFAULT_255_2_778
10
8.4376928
20
87.346622
11
9.6682928
21
87.346622
0
ARC
8
DEFAULT_255_2_778
10
9.7049097
20
87.3623073
40
0.0398349
50
175.704764
51
203.1884531
0
ARC
8
DEFAULT_255_2_778
10
11.1155529
20
87.4519307
40
1.4529518
50
180.8284442
51
183.418592
0
ARC
8
DEFAULT_255_2_778
10
16.4595821
20
87.5639299
40
6.7981305
50
180.3558011
51
181.1210753
0
ARC
8
DEFAULT_255_2_778
10
26.8770645
20
87.6378641
40
17.2158735
50
179.9751793
51
180.3865579
0
LINE
8
DEFAULT_255_2_778
10
9.6611928
20
87.645322
11
8.9861928
21
87.645322
0
ARC
8
DEFAULT_255_2_778
10
5.9419351
20
86.2032267
40
1.9299956
50
89.9686004
51
92.1317545
0
ARC
8
DEFAULT_255_2_778
10
5.9078672
20
86.8115425
40
1.320883
50
91.636536
51
103.7955135
0
ARC
8
DEFAULT_255_2_778
10
6.099395
20
87.2780921
40
1.1311299
50
88.8103767
51
90.0051775
0
ARC
8
DEFAULT_255_2_778
10
6.1103068
20
87.498288
40
0.910777
50
75.8476475
51
89.2090874
0
ARC
8
DEFAULT_255_2_778
10
6.1959169
20
87.8140555
40
0.5836905
50
55.2291819
51
76.4176035
0
ARC
8
DEFAULT_255_2_778
10
6.2759582
20
87.9374816
40
0.4366808
50
27.5301313
51
54.6203427
0
ARC
8
DEFAULT_255_2_778
10
6.2109885
20
87.9207138
40
0.5022731
50
359.9925895
51
25.8004248
0
ARC
8
DEFAULT_255_2_778
10
6.21203
20
87.9206386
40
0.5012317
50
359.0492922
51
0.0011713
0
ARC
8
DEFAULT_255_2_778
10
5.9081038
20
87.9117621
40
0.8050892
50
355.6113316
51
0.0398505
0
ARC
8
DEFAULT_255_2_778
10
6.1270484
20
87.8860827
40
0.5848885
50
334.1456898
51
356.478318
0
ARC
8
DEFAULT_255_2_778
10
6.2116822
20
87.8579438
40
0.4965901
50
304.7297585
51
332.8088927
0
ARC
8
DEFAULT_255_2_778
10
6.116417
20
88.01626
40
0.6810792
50
282.9194087
51
303.7286064
0
ARC
8
DEFAULT_255_2_778
10
6.0397633
20
88.302386
40
0.9771592
50
275.9108939
51
283.5492222
0
ARC
8
DEFAULT_255_2_778
10
6.0839373
20
89.3785552
40
2.0608323
50
255.7625126
51
261.5636929
0
ARC
8
DEFAULT_255_2_778
10
5.9663493
20
88.5242748
40
0.8829805
50
244.3328379
51
265.9627361
0
ARC
8
DEFAULT_255_2_778
10
5.9747734
20
88.5776871
40
0.936865
50
265.6787984
51
269.9950702
0
ARC
8
DEFAULT_255_2_778
10
5.9790215
20
88.2051719
40
0.5643665
50
269.5605429
51
269.9972973
0
ARC
8
DEFAULT_255_2_778
10
5.9791311
20
88.1984594
40
0.5576539
50
269.9859985
51
281.6136155
0
ARC
8
DEFAULT_255_2_778
10
6.0308414
20
87.9613867
40
0.3150385
50
281.0813888
51
301.5521102
0
ARC
8
DEFAULT_255_2_778
10
6.0757963
20
87.8812177
40
0.2232273
50
302.4867896
51
330.7140921
0
ARC
8
DEFAULT_255_2_778
10
6.0517032
20
87.8866934
40
0.2470191
50
332.3402037
51
355.6644344
0
ARC
8
DEFAULT_255_2_778
10
5.966065
20
87.8982937
40
0.3333281
50
354.7889574
51
0.0392533
0
ARC
8
DEFAULT_255_2_778
10
6.0770477
20
87.8984973
40
0.2223451
50
0.0063819
51
5.2116928
0
ARC
8
DEFAULT_255_2_778
10
6.0968045
20
87.9022174
40
0.2023411
50
4.670792
51
32.4284579
0
ARC
8
DEFAULT_255_2_778
10
6.0825715
20
87.8825402
40
0.2250855
50
34.7140133
51
62.9043507
0
ARC
8
DEFAULT_255_2_778
10
6.0026963
20
87.7308224
40
0.3965383
50
62.6146991
51
80.1557236
0
ARC
8
DEFAULT_255_2_778
10
5.9489841
20
87.4717514
40
0.6610342
50
79.4078871
51
88.0556205
0
ARC
8
DEFAULT_255_2_778
10
5.9431613
20
87.3607978
40
0.7721244
50
87.9031332
51
90.0124994
0
ARC
8
DEFAULT_255_2_778
10
3.0230394
20
88.152784
40
0.660418
50
0.8014914
51
18.2983049
0
ARC
8
DEFAULT_255_2_778
10
3.2769428
20
88.2314985
40
0.3946712
50
19.0216155
51
81.1922546
0
ARC
8
DEFAULT_255_2_778
10
3.1388174
20
87.6835296
40
0.9587715
50
78.0478073
51
90.712184
0
ARC
8
DEFAULT_255_2_778
10
3.1282066
20
87.1126546
40
1.5295729
50
90.0489339
51
92.748347
0
ARC
8
DEFAULT_255_2_778
10
3.1391827
20
86.8592041
40
1.7832588
50
92.7101371
51
93.809866
0
ARC
8
DEFAULT_255_2_778
10
3.1488917
20
89.1203768
40
1.4556112
50
264.9472892
51
267.3520938
0
ARC
8
DEFAULT_255_2_778
10
3.1397411
20
88.9214746
40
1.2564986
50
267.3499003
51
269.967895
0
ARC
8
DEFAULT_255_2_778
10
3.1477408
20
88.5466594
40
0.8817263
50
269.4344059
51
281.990717
0
ARC
8
DEFAULT_255_2_778
10
3.2297077
20
88.1770387
40
0.5031528
50
281.6048393
51
303.5417531
0
ARC
8
DEFAULT_255_2_778
10
3.2457534
20
88.1098126
40
0.4388994
50
306.6465187
51
4.1081773
0
ARC
8
DEFAULT_255_2_778
10
2.9198857
20
88.1412132
40
0.7636393
50
0.0031571
51
1.0661467
0
ARC
8
DEFAULT_255_2_778
10
3.1986748
20
88.7737689
40
1.4232227
50
268.3700664
51
290.3053113
0
ARC
8
DEFAULT_255_2_778
10
3.4636169
20
88.0465467
40
0.6492631
50
290.6481341
51
338.1618463
0
ARC
8
DEFAULT_255_2_778
10
3.2544522
20
88.1211951
40
0.8712277
50
338.7218314
51
355.6041042
0
ARC
8
DEFAULT_255_2_778
10
2.9023866
20
88.16023
40
1.2253076
50
355.0460085
51
0.083798
0
ARC
8
DEFAULT_255_2_778
10
2.8335857
20
88.1785233
40
1.2942123
50
359.2694581
51
359.9990042
0
ARC
8
DEFAULT_255_2_778
10
3.1281179
20
88.1881451
40
0.9997267
50
359.447262
51
13.6334884
0
ARC
8
DEFAULT_255_2_778
10
3.4657721
20
88.2726853
40
0.6516645
50
13.4075591
51
38.8480331
0
ARC
8
DEFAULT_255_2_778
10
3.4064153
20
88.1787017
40
0.7576981
50
41.5685584
51
81.1609701
0
ARC
8
DEFAULT_255_2_778
10
3.2165602
20
87.3401088
40
1.6165725
50
79.0785
51
90.4897515
0
ARC
8
DEFAULT_255_2_778
10
3.2029033
20
86.7726391
40
2.1839831
50
90.0042242
51
90.9500092
0
ARC
8
DEFAULT_255_2_778
10
7.6472825
20
88.4269813
40
0.2140078
50
358.2704042
51
80.6059463
0
ARC
8
DEFAULT_255_2_778
10
7.507249
20
87.9752489
40
0.6855725
50
75.2139999
51
89.9253105
0
ARC
8
DEFAULT_255_2_778
10
7.4869367
20
87.5445555
40
1.1164667
50
88.9116671
51
90.0073855
0
LINE
8
DEFAULT_255_2_778
10
7.4867928
20
88.661022
11
7.4867928
21
88.206522
0
ARC
8
DEFAULT_255_2_778
10
7.4988854
20
89.0580382
40
0.851602
50
269.1863859
51
281.1488336
0
ARC
8
DEFAULT_255_2_778
10
7.6104759
20
88.5288338
40
0.3108901
50
279.8294216
51
307.5509994
0
ARC
8
DEFAULT_255_2_778
10
7.6902605
20
88.4136206
40
0.1710636
50
309.8843472
51
2.2451541
0
ARC
8
DEFAULT_255_2_778
10
7.6165207
20
89.8788558
40
1.9972318
50
266.2844212
51
268.5135346
0
ARC
8
DEFAULT_255_2_778
10
7.609742
20
89.6390919
40
1.7573729
50
268.5316865
51
269.9884529
0
ARC
8
DEFAULT_255_2_778
10
7.6206825
20
89.1284166
40
1.2467487
50
269.4809357
51
280.5128605
0
ARC
8
DEFAULT_255_2_778
10
7.7310984
20
88.5607561
40
0.6684895
50
280.0852245
51
299.8806862
0
ARC
8
DEFAULT_255_2_778
10
7.8314673
20
88.3702079
40
0.4533374
50
300.8796876
51
354.6890503
0
ARC
8
DEFAULT_255_2_778
10
7.5158766
20
88.4319421
40
0.7739601
50
352.3003302
51
0.189777
0
ARC
8
DEFAULT_255_2_778
10
7.3429064
20
88.4341582
40
0.9469261
50
0.0210219
51
2.4127578
0
ARC
8
DEFAULT_255_2_778
10
7.8433903
20
88.487789
40
0.4458151
50
358.2304025
51
31.3955006
0
ARC
8
DEFAULT_255_2_778
10
7.862366
20
88.4766222
40
0.4358674
50
33.9487683
51
68.3661212
0
ARC
8
DEFAULT_255_2_778
10
7.6899701
20
88.0801642
40
0.8680707
50
67.4362038
51
82.2006641
0
ARC
8
DEFAULT_255_2_778
10
7.5762815
20
87.323443
40
1.63325
50
81.8517223
51
90.3895133
0
ARC
8
DEFAULT_255_2_778
10
7.5657446
20
86.6544053
40
2.3022501
50
90.0140942
51
91.4623992
0
ARC
8
DEFAULT_255_2_778
10
7.570053
20
86.464767
40
2.4919364
50
91.4501488
51
91.907811
0
LINE
8
DEFAULT_255_2_778
10
7.4870928
20
88.955322
11
7.0592928
21
88.955322
0
LINE
8
DEFAULT_255_2_778
10
8.4728928
20
88.860322
11
8.4940928
21
88.522422
0
LINE
8
DEFAULT_255_2_778
10
8.9861928
20
87.645322
11
8.9861928
21
87.645322
0
LINE
8
DEFAULT_255_2_778
10
5.5928928
20
88.094322
11
5.6045928
21
88.956622
0
LINE
8
DEFAULT_255_2_778
10
5.6045928
20
88.956622
11
6.6512928
21
88.956622
0
LINE
8
DEFAULT_255_2_778
10
6.6512928
20
88.956622
11
6.6512928
21
88.666922
0
LINE
8
DEFAULT_255_2_778
10
6.6512928
20
88.666922
11
5.9725928
21
88.666922
0
LINE
8
DEFAULT_255_2_778
10
5.9725928
20
88.666922
11
5.9725928
21
88.400222
0
LINE
8
DEFAULT_255_2_778
10
5.9725928
20
88.400222
11
6.0138928
21
88.403322
0
LINE
8
DEFAULT_255_2_778
10
6.0138928
20
88.403322
11
6.0992928
21
88.409222
0
LINE
8
DEFAULT_255_2_778
10
6.1403928
20
87.330422
11
6.0069928
21
87.323622
0
LINE
8
DEFAULT_255_2_778
10
6.0069928
20
87.323622
11
5.9484928
21
87.324622
0
LINE
8
DEFAULT_255_2_778
10
5.9484928
20
87.324622
11
5.8913928
21
87.327822
0
LINE
8
DEFAULT_255_2_778
10
5.8913928
20
87.327822
11
5.7815928
21
87.340022
0
LINE
8
DEFAULT_255_2_778
10
5.5770928
20
87.381022
11
5.5838928
21
87.728422
0
LINE
8
DEFAULT_255_2_778
10
4.3279928
20
87.351122
11
4.9253928
21
88.653122
0
LINE
8
DEFAULT_255_2_778
10
4.9253928
20
88.653122
11
4.2080928
21
88.653122
0
LINE
8
DEFAULT_255_2_778
10
4.2080928
20
88.653122
11
4.2080928
21
88.956622
0
LINE
8
DEFAULT_255_2_778
10
4.2080928
20
88.956622
11
5.3629928
21
88.956622
0
LINE
8
DEFAULT_255_2_778
10
5.3629928
20
88.956622
11
5.3629928
21
88.609222
0
LINE
8
DEFAULT_255_2_778
10
5.3629928
20
88.609222
11
4.7877928
21
87.351122
0
LINE
8
DEFAULT_255_2_778
10
4.7877928
20
87.351122
11
4.3281928
21
87.351122
0
LINE
8
DEFAULT_255_2_778
10
2.3443928
20
87.668622
11
2.3443928
21
87.351322
0
LINE
8
DEFAULT_255_2_778
10
2.3443928
20
87.351322
11
1.2542928
21
87.351322
0
LINE
8
DEFAULT_255_2_778
10
1.2542928
20
87.351322
11
1.2542928
21
88.956622
0
LINE
8
DEFAULT_255_2_778
10
1.2542928
20
88.956622
11
1.6820928
21
88.956622
0
LINE
8
DEFAULT_255_2_778
10
1.6820928
20
88.956622
11
1.6820928
21
87.668622
0
LINE
8
DEFAULT_255_2_778
10
1.6820928
20
87.668622
11
2.3443928
21
87.668622
0
LINE
8
DEFAULT_255_2_778
10
3.0206928
20
88.638522
11
3.0206928
21
87.670422
0
LINE
8
DEFAULT_255_2_778
10
3.1666928
20
88.956322
11
2.5930928
21
88.956322
0
LINE
8
DEFAULT_255_2_778
10
2.5930928
20
88.956322
11
2.5930928
21
87.351122
0
LINE
8
DEFAULT_255_2_778
10
2.5930928
20
87.351122
11
3.1581928
21
87.351122
0
LINE
8
DEFAULT_255_2_778
10
7.8611928
20
88.420322
11
7.8611928
21
88.420522
0
LINE
8
DEFAULT_255_2_778
10
7.0592928
20
88.955322
11
7.0592928
21
87.351122
0
LINE
8
DEFAULT_255_2_778
10
7.0592928
20
87.351122
11
7.4870928
21
87.351122
0
LINE
8
DEFAULT_255_2_778
10
7.4870928
20
87.351122
11
7.4870928
21
87.885822
0
LINE
8
DEFAULT_255_2_778
10
7.0592928
20
88.955322
11
7.0592928
21
88.955322
0
ARC
8
DEFAULT_255_2_778
10
44.7541693
20
89.2563706
40
0.5000969
50
359.9996485
51
90.0003515
0
LINE
8
DEFAULT_255_2_778
10
0.7542662
20
89.7564675
11
0.7538885
21
89.7564677
0
ARC
8
DEFAULT_255_2_778
10
0.7538511
20
89.2565204
40
0.4999473
50
89.9957191
51
134.9787502
0
ARC
8
DEFAULT_255_2_778
10
0.7541133
20
89.2567826
40
0.4999472
50
135.0212498
51
180.0042809
0
ARC
8
DEFAULT_255_2_778
10
0.4324605
20
89.2566509
40
0.1782944
50
179.9696533
51
180.0910426
0
ARC
8
DEFAULT_255_2_778
10
0.754242
20
0.2564433
40
0.5000758
50
180.008676
51
270.0027763
0
ARC
8
DEFAULT_255_2_778
10
44.7541904
20
0.2564433
40
0.5000757
50
269.9972237
51
359.991324
0
LINE
8
DEFAULT_255_2_778
10
44.7541662
20
89.7564675
11
0.7542662
21
89.7564675
0
LINE
8
DEFAULT_255_2_778
10
0.2541662
20
89.2563675
11
0.2541662
21
0.2563675
0
LINE
8
DEFAULT_255_2_778
10
0.7542662
20
-0.2436325
11
44.7541662
21
-0.2436325
0
LINE
8
DEFAULT_255_2_778
10
45.2542662
20
0.2563675
11
45.2542662
21
89.2563675
0
LINE
8
DEFAULT_255_2_778
10
0.2541662
20
75.6565675
11
45.2542662
21
75.6565675
0
LINE
8
DEFAULT_255_2_778
10
0.2541662
20
75.7562675
11
45.2542662
21
75.7562675
0
ENDSEC
0
EOF