0
SECTION
2
HEADER
9
$MEASUREMENT
70
1
0
ENDSEC
0
SECTION
2
TABLES
0
TABLE
2
LTYPE
0
LTYPE
72
65
70
64
2
CONTINUOUS
3
______
73
0
40
0
0
ENDTAB
0
TABLE
2
LAYER
0
LAYER
2
DEFAULT_255_2_778
70
0
62
255
6
CONTINUOUS
0
ENDTAB
0
ENDSEC
0
SECTION
2
ENTITIES
0
ARC
8
DEFAULT_255_2_778
10
2.0672567
20
-0.2023045
40
1.9286102
50
170.8587464
51
179.8836653
0
ARC
8
DEFAULT_255_2_778
10
2.4107381
20
-0.2563613
40
2.2763177
50
164.1852848
51
170.8889093
0
ARC
8
DEFAULT_255_2_778
10
2.8118518
20
-0.3691724
40
2.6929928
50
158.7476938
51
164.2017411
0
ARC
8
DEFAULT_255_2_778
10
3.2685728
20
-0.5461491
40
3.1828036
50
154.1361897
51
158.7586589
0
ARC
8
DEFAULT_255_2_778
10
3.7834899
20
-0.7953212
40
3.7548407
50
150.0670221
51
154.1424567
0
ARC
8
DEFAULT_255_2_778
10
4.3514255
20
-1.1216412
40
4.4098483
50
146.536672
51
150.0748191
0
ARC
8
DEFAULT_255_2_778
10
4.9662548
20
-1.5275639
40
5.1465898
50
143.3537535
51
146.5409287
0
ARC
8
DEFAULT_255_2_778
10
5.6146583
20
-2.0090134
40
5.9541913
50
140.6040241
51
143.3607792
0
ARC
8
DEFAULT_255_2_778
10
6.2985384
20
-2.5705404
40
6.8390667
50
137.9991997
51
140.6049168
0
ARC
8
DEFAULT_255_2_778
10
6.876775
20
-3.0876853
40
7.6148181
50
136.5685883
51
138.0188617
0
ARC
8
DEFAULT_255_2_778
10
7.7137155
20
-3.8912272
40
8.77503
50
132.8925031
51
136.5154011
0
ARC
8
DEFAULT_255_2_778
10
8.9605507
20
-5.2306461
40
10.6049584
50
129.7116398
51
132.9023865
0
ARC
8
DEFAULT_255_2_778
10
10.2206808
20
-6.7465063
40
12.5761914
50
126.7214757
51
129.7155595
0
ARC
8
DEFAULT_255_2_778
10
11.4575766
20
-8.4024483
40
14.6430862
50
123.9356523
51
126.7265843
0
ARC
8
DEFAULT_255_2_778
10
12.6157208
20
-10.1220376
40
16.7163166
50
121.2273518
51
123.9387075
0
ARC
8
DEFAULT_255_2_778
10
13.5959676
20
-11.7341485
40
18.6030545
50
118.8292246
51
121.2348986
0
ARC
8
DEFAULT_255_2_778
10
14.4156267
20
-13.2247676
40
20.3041676
50
116.0685733
51
118.827232
0
ARC
8
DEFAULT_255_2_778
10
15.0468672
20
-14.5121859
40
21.7380116
50
113.1601214
51
116.0719264
0
ARC
8
DEFAULT_255_2_778
10
15.3925745
20
-15.3160727
40
22.6130801
50
109.7639735
51
113.1643682
0
ARC
8
DEFAULT_255_2_778
10
15.3802986
20
-15.2654613
40
22.5612997
50
105.1086209
51
109.7780968
0
ARC
8
DEFAULT_255_2_778
10
14.8590637
20
-13.1966386
40
20.4281611
50
96.524079
51
105.2096497
0
ARC
8
DEFAULT_255_2_778
10
14.526836
20
-10.6677784
40
17.8779804
50
94.1091851
51
96.3870878
0
ARC
8
DEFAULT_255_2_778
10
14.4492665
20
-9.5798991
40
16.7873395
50
91.6304917
51
94.1111798
0
ARC
8
DEFAULT_255_2_778
10
14.421384
20
-8.6800867
40
15.8870981
50
90.0058915
51
91.6223113
0
ARC
8
DEFAULT_255_2_778
10
14.4160839
20
-8.8519073
40
16.0589191
50
87.5824264
51
89.9869187
0
ARC
8
DEFAULT_255_2_778
10
14.3693635
20
-9.946826
40
17.1548339
50
85.0559426
51
87.5807803
0
ARC
8
DEFAULT_255_2_778
10
14.2934849
20
-10.8581286
40
18.0692857
50
83.6202572
51
85.065273
0
ARC
8
DEFAULT_255_2_778
10
13.8921215
20
-13.7001186
40
20.9384394
50
72.2237765
51
83.3929095
0
ARC
8
DEFAULT_255_2_778
10
13.400432
20
-15.4400776
40
22.7455263
50
68.6480955
51
72.3824615
0
ARC
8
DEFAULT_255_2_778
10
13.5604724
20
-15.0384862
40
22.3132297
50
65.5219987
51
68.6553831
0
ARC
8
DEFAULT_255_2_778
10
14.0252177
20
-14.0195752
40
21.1933337
50
62.8212627
51
65.5241472
0
ARC
8
DEFAULT_255_2_778
10
14.7462705
20
-12.6187864
40
19.6178581
50
60.0871224
51
62.825945
0
ARC
8
DEFAULT_255_2_778
10
15.6603033
20
-11.029315
40
17.7843164
50
57.5951986
51
60.0859235
0
ARC
8
DEFAULT_255_2_778
10
16.7131478
20
-9.3738805
40
15.8224445
50
54.8729332
51
57.6015554
0
ARC
8
DEFAULT_255_2_778
10
17.9182782
20
-7.6629524
40
13.729692
50
51.9690139
51
54.8779236
0
ARC
8
DEFAULT_255_2_778
10
19.1903151
20
-6.0383428
40
11.6663372
50
48.8474653
51
51.974187
0
ARC
8
DEFAULT_255_2_778
10
20.4343091
20
-4.6150886
40
9.7760531
50
45.6219428
51
48.8479518
0
ARC
8
DEFAULT_255_2_778
10
21.3883122
20
-3.634034
40
8.4076347
50
43.4435989
51
45.592812
0
ARC
8
DEFAULT_255_2_778
10
22.0953796
20
-2.9649343
40
7.4341676
50
41.0761659
51
43.4467357
0
ARC
8
DEFAULT_255_2_778
10
22.7550952
20
-2.3895657
40
6.5587969
50
38.7286617
51
41.073894
0
ARC
8
DEFAULT_255_2_778
10
23.3964492
20
-1.8765634
40
5.7375145
50
35.8208844
51
38.7391484
0
ARC
8
DEFAULT_255_2_778
10
24.0216042
20
-1.4252908
40
4.9664985
50
32.7786998
51
35.8204153
0
ARC
8
DEFAULT_255_2_778
10
24.6093959
20
-1.0478116
40
4.2679368
50
29.110836
51
32.7901847
0
ARC
8
DEFAULT_255_2_778
10
25.1714871
20
-0.73535
40
3.6248359
50
24.9051991
51
29.1182039
0
ARC
8
DEFAULT_255_2_778
10
25.6773791
20
-0.5008917
40
3.0672544
50
20.0944635
51
24.9123968
0
ARC
8
DEFAULT_255_2_778
10
26.1282133
20
-0.3366686
40
2.5874417
50
14.2773656
51
20.1092153
0
ARC
8
DEFAULT_255_2_778
10
26.5207835
20
-0.237399
40
2.1825151
50
7.1204958
51
14.2933967
0
ARC
8
DEFAULT_255_2_778
10
26.8077803
20
-0.2006051
40
1.8931712
50
0.0670787
51
7.0921976
0
LINE
8
DEFAULT_255_2_778
10
14.4197504
20
-0.1983886
11
0.1386504
21
-0.1983886
0
LINE
8
DEFAULT_255_2_778
10
28.7009504
20
-0.1983886
11
14.4197504
21
-0.1983886
0
ARC
8
DEFAULT_255_2_778
10
14.438855
20
-9.4175778
40
16.6245398
50
90.0659448
51
95.3420437
0
ARC
8
DEFAULT_255_2_778
10
14.5592334
20
-10.904692
40
18.1164119
50
95.2832291
51
96.4093426
0
ARC
8
DEFAULT_255_2_778
10
14.8230592
20
-12.9238225
40
20.152407
50
96.5139107
51
103.6033892
0
ARC
8
DEFAULT_255_2_778
10
10.4714544
20
6.9615109
40
0.4895755
50
217.5332239
51
218.5640755
0
ARC
8
DEFAULT_255_2_778
10
11.2970625
20
7.6155776
40
1.5428698
50
218.4432704
51
219.2306746
0
ARC
8
DEFAULT_255_2_778
10
12.0714494
20
8.2482293
40
2.5428313
50
219.2374205
51
220.3646881
0
ARC
8
DEFAULT_255_2_778
10
12.8164431
20
8.8808318
40
3.5201754
50
220.3566814
51
221.613401
0
ARC
8
DEFAULT_255_2_778
10
13.4220932
20
9.418236
40
4.3298761
50
221.607757
51
222.9660551
0
ARC
8
DEFAULT_255_2_778
10
13.9053188
20
9.8681598
40
4.9901322
50
222.9647405
51
224.5509868
0
ARC
8
DEFAULT_255_2_778
10
14.2673884
20
10.2241552
40
5.4978989
50
224.547695
51
226.2712958
0
ARC
8
DEFAULT_255_2_778
10
14.5180318
20
10.4859348
40
5.8603222
50
226.2696686
51
228.2816236
0
ARC
8
DEFAULT_255_2_778
10
14.66833
20
10.654121
40
6.0858795
50
228.2791433
51
230.526225
0
ARC
8
DEFAULT_255_2_778
10
14.7307505
20
10.7294501
40
6.1837097
50
230.5234936
51
232.8457059
0
ARC
8
DEFAULT_255_2_778
10
14.7325842
20
10.7315219
40
6.1864685
50
232.843759
51
235.3524628
0
ARC
8
DEFAULT_255_2_778
10
14.6909042
20
10.6706139
40
6.1126654
50
235.3492844
51
238.6267522
0
ARC
8
DEFAULT_255_2_778
10
14.6165579
20
10.5480044
40
5.9692766
50
238.6233404
51
242.5074933
0
ARC
8
DEFAULT_255_2_778
10
14.5336459
20
10.3882512
40
5.7892891
50
242.505529
51
246.8858443
0
ARC
8
DEFAULT_255_2_778
10
14.4647517
20
10.2268396
40
5.6137896
50
246.8858372
51
251.7402233
0
ARC
8
DEFAULT_255_2_778
10
14.4228753
20
10.1007193
40
5.4808991
50
251.7428469
51
257.0298485
0
ARC
8
DEFAULT_255_2_778
10
14.4099461
20
10.0469451
40
5.4255951
50
257.035446
51
262.4517168
0
ARC
8
DEFAULT_255_2_778
10
14.414965
20
10.0890091
40
5.4679538
50
262.4574827
51
267.6163963
0
ARC
8
DEFAULT_255_2_778
10
14.4194293
20
10.1832188
40
5.5622676
50
267.6108103
51
270.0030046
0
ARC
8
DEFAULT_255_2_778
10
14.4198718
20
10.2188398
40
5.5978888
50
269.998456
51
275.8181194
0
ARC
8
DEFAULT_255_2_778
10
14.4125829
20
10.2823024
40
5.6617634
50
275.826398
51
281.5867017
0
ARC
8
DEFAULT_255_2_778
10
14.374844
20
10.4629856
40
5.8463446
50
281.5933614
51
287.1941685
0
ARC
8
DEFAULT_255_2_778
10
14.293753
20
10.7246436
40
6.1202801
50
287.1952734
51
292.2299486
0
ARC
8
DEFAULT_255_2_778
10
14.1777236
20
11.0094633
40
6.4278269
50
292.2268374
51
296.5658783
0
ARC
8
DEFAULT_255_2_778
10
14.0558248
20
11.2549297
40
6.7018936
50
296.559464
51
299.9405115
0
ARC
8
DEFAULT_255_2_778
10
13.9517177
20
11.4363234
40
6.9110391
50
299.9378559
51
303.0099523
0
ARC
8
DEFAULT_255_2_778
10
13.8866835
20
11.5372911
40
7.0311377
50
303.0061259
51
305.3447993
0
ARC
8
DEFAULT_255_2_778
10
13.8746581
20
11.5546324
40
7.0522394
50
305.3429887
51
307.2401229
0
ARC
8
DEFAULT_255_2_778
10
13.9213711
20
11.493606
40
6.9753872
50
307.2380037
51
309.1656514
0
ARC
8
DEFAULT_255_2_778
10
14.0522017
20
11.3334124
40
6.7685576
50
309.1634216
51
310.9345199
0
ARC
8
DEFAULT_255_2_778
10
14.2670321
20
11.0856561
40
6.440632
50
310.9348168
51
312.3136955
0
ARC
8
DEFAULT_255_2_778
10
14.5742074
20
10.7487851
40
5.9847389
50
312.3101635
51
313.7107563
0
ARC
8
DEFAULT_255_2_778
10
14.9594815
20
10.3452992
40
5.4268529
50
313.7141927
51
314.7058931
0
ARC
8
DEFAULT_255_2_778
10
15.4132886
20
9.8873834
40
4.7821609
50
314.7010529
51
315.7605753
0
ARC
8
DEFAULT_255_2_778
10
15.957012
20
9.3577235
40
4.0230991
50
315.762448
51
316.6023407
0
ARC
8
DEFAULT_255_2_778
10
16.5536657
20
8.7938515
40
3.2021564
50
316.5983212
51
317.4015134
0
ARC
8
DEFAULT_255_2_778
10
14.0164112
20
-12.9484515
40
20.1775136
50
75.9618719
51
83.5038812
0
ARC
8
DEFAULT_255_2_778
10
14.3736148
20
-9.9578768
40
17.1657352
50
83.5591844
51
88.8710298
0
ARC
8
DEFAULT_255_2_778
10
14.4190197
20
-8.5269915
40
15.7342424
50
88.9336755
51
89.9974464
0
LINE
8
DEFAULT_255_2_778
10
14.419721
20
7.207251
11
14.419721
21
7.206951
0
ARC
8
DEFAULT_255_2_778
10
24.7450377
20
17.09993
40
4.5298628
50
83.798722
51
90.1635366
0
ARC
8
DEFAULT_255_2_778
10
24.8817484
20
18.333039
40
3.2892028
50
75.4915237
51
83.8459006
0
ARC
8
DEFAULT_255_2_778
10
25.111941
20
19.20714
40
2.385311
50
63.4091217
51
75.5844649
0
ARC
8
DEFAULT_255_2_778
10
25.3899346
20
19.7428611
40
1.7818425
50
22.962907
51
63.6918074
0
ARC
8
DEFAULT_255_2_778
10
24.8377784
20
19.4941284
40
2.3873228
50
11.4438455
51
23.2894775
0
ARC
8
DEFAULT_255_2_778
10
23.9607845
20
19.3124541
40
3.2829297
50
3.0509258
51
11.5147111
0
ARC
8
DEFAULT_255_2_778
10
23.0682266
20
19.2515945
40
4.1774828
50
359.9585766
51
3.2329045
0
ARC
8
DEFAULT_255_2_778
10
20.3781204
20
20.0288977
40
6.9117776
50
348.727284
51
353.5176209
0
ARC
8
DEFAULT_255_2_778
10
21.9371008
20
19.7156813
40
5.3216465
50
342.7505968
51
348.7534001
0
ARC
8
DEFAULT_255_2_778
10
23.1041295
20
19.3519696
40
4.0992555
50
335.4602458
51
342.7686569
0
ARC
8
DEFAULT_255_2_778
10
23.9478919
20
18.9626881
40
3.1700313
50
325.0865094
51
335.526827
0
ARC
8
DEFAULT_255_2_778
10
24.4926487
20
18.5761878
40
2.5021175
50
306.3103176
51
325.2044689
0
ARC
8
DEFAULT_255_2_778
10
24.5176332
20
18.5730864
40
2.4848909
50
286.376214
51
305.8884397
0
ARC
8
DEFAULT_255_2_778
10
24.3278468
20
19.1957082
40
3.1357695
50
275.9520024
51
286.4957654
0
ARC
8
DEFAULT_255_2_778
10
24.2345918
20
20.0130582
40
3.9583915
50
269.894493
51
276.0677532
0
ARC
8
DEFAULT_255_2_778
10
24.2282635
20
20.6179737
40
4.5633005
50
268.0646283
51
269.987936
0
ARC
8
DEFAULT_255_2_778
10
24.2390067
20
20.9451192
40
4.8906224
50
266.5120098
51
268.0682761
0
ARC
8
DEFAULT_255_2_778
10
24.2589057
20
21.272026
40
5.2181343
50
265.0219674
51
266.5123027
0
ARC
8
DEFAULT_255_2_778
10
84.4125154
20
16.0841824
40
60.606408
50
179.3739479
51
180.0100286
0
ARC
8
DEFAULT_255_2_778
10
73.769449
20
16.2005671
40
49.9627051
50
178.6958081
51
179.3740474
0
ARC
8
DEFAULT_255_2_778
10
65.0099519
20
16.4000651
40
41.2009365
50
177.9728332
51
178.6959137
0
ARC
8
DEFAULT_255_2_778
10
57.8101188
20
16.6549683
40
33.9965924
50
177.2023832
51
177.9729368
0
ARC
8
DEFAULT_255_2_778
10
51.8884948
20
16.9443846
40
28.0679
50
176.3816234
51
177.20248
0
ARC
8
DEFAULT_255_2_778
10
45.9327806
20
17.3280462
40
22.0998464
50
175.0459134
51
176.3998442
0
ARC
8
DEFAULT_255_2_778
10
40.4097747
20
17.8069322
40
16.5561177
50
173.5588862
51
175.046413
0
ARC
8
DEFAULT_255_2_778
10
35.88021
20
18.3231494
40
11.9972357
50
171.492957
51
173.58192
0
ARC
8
DEFAULT_255_2_778
10
32.2249797
20
18.8714018
40
8.301118
50
168.988661
51
171.5033005
0
ARC
8
DEFAULT_255_2_778
10
29.4402248
20
19.4180569
40
5.4632213
50
165.4247376
51
169.0378853
0
ARC
8
DEFAULT_255_2_778
10
27.3638707
20
19.9621232
40
3.316776
50
160.3561758
51
165.4945172
0
ARC
8
DEFAULT_255_2_778
10
25.9905338
20
20.4567555
40
1.8570895
50
152.7931512
51
160.4847515
0
ARC
8
DEFAULT_255_2_778
10
25.1785177
20
20.8799572
40
0.9414379
50
140.1241105
51
153.104894
0
ARC
8
DEFAULT_255_2_778
10
24.7904179
20
21.2132456
40
0.4299727
50
113.0144855
51
141.0510612
0
ARC
8
DEFAULT_255_2_778
10
24.7318461
20
21.3307015
40
0.2990729
50
89.9497591
51
111.4838355
0
LINE
8
DEFAULT_255_2_778
10
24.7321084
20
21.6297743
11
24.7321084
21
21.6297743
0
ARC
8
DEFAULT_255_2_778
10
3.8171796
20
17.1002899
40
4.5295029
50
89.8364578
51
96.2015258
0
ARC
8
DEFAULT_255_2_778
10
3.6804756
20
18.3332874
40
3.2889545
50
96.1543435
51
104.5090301
0
ARC
8
DEFAULT_255_2_778
10
3.4503003
20
19.2072921
40
2.3851601
50
104.4161148
51
116.5918043
0
ARC
8
DEFAULT_255_2_778
10
3.1723604
20
19.7429032
40
1.781814
50
116.3093852
51
157.0381711
0
ARC
8
DEFAULT_255_2_778
10
3.7246224
20
19.4941283
40
2.3874078
50
156.7113987
51
168.5565652
0
ARC
8
DEFAULT_255_2_778
10
4.6016496
20
19.3124565
40
3.2830469
50
168.485748
51
176.949225
0
ARC
8
DEFAULT_255_2_778
10
5.4943378
20
19.2515911
40
4.1777305
50
176.7672406
51
180.0413742
0
ARC
8
DEFAULT_255_2_778
10
8.1841964
20
20.0288977
40
6.9117776
50
186.4823791
51
191.272716
0
ARC
8
DEFAULT_255_2_778
10
6.6252159
20
19.7156813
40
5.3216465
50
191.2465999
51
197.2494032
0
ARC
8
DEFAULT_255_2_778
10
5.4581873
20
19.3519696
40
4.0992555
50
197.2313431
51
204.5397542
0
ARC
8
DEFAULT_255_2_778
10
4.6144248
20
18.9626881
40
3.1700313
50
204.473173
51
214.9134906
0
ARC
8
DEFAULT_255_2_778
10
4.0696681
20
18.5761878
40
2.5021175
50
214.7955311
51
233.6896824
0
ARC
8
DEFAULT_255_2_778
10
4.0446836
20
18.5730864
40
2.4848909
50
234.1115603
51
253.623786
0
ARC
8
DEFAULT_255_2_778
10
4.23447
20
19.1957082
40
3.1357695
50
253.5042346
51
264.0479976
0
ARC
8
DEFAULT_255_2_778
10
4.3277249
20
20.0130582
40
3.9583915
50
263.9322468
51
270.105507
0
ARC
8
DEFAULT_255_2_778
10
4.3340532
20
20.6179737
40
4.5633005
50
270.012064
51
271.9353717
0
ARC
8
DEFAULT_255_2_778
10
4.3233101
20
20.9451192
40
4.8906224
50
271.9317239
51
273.4879902
0
ARC
8
DEFAULT_255_2_778
10
4.3034111
20
21.272026
40
5.2181343
50
273.4876973
51
274.9780326
0
ARC
8
DEFAULT_255_2_778
10
-55.8433934
20
16.0841649
40
60.5996028
50
359.9899868
51
0.6261389
0
ARC
8
DEFAULT_255_2_778
10
-45.1951689
20
16.2006673
40
49.950741
50
0.6259876
51
1.3043894
0
ARC
8
DEFAULT_255_2_778
10
-36.4418974
20
16.4000894
40
41.1951982
50
1.3042341
51
2.0274155
0
ARC
8
DEFAULT_255_2_778
10
-29.2426204
20
16.6550232
40
33.9914089
50
2.0272798
51
2.797951
0
ARC
8
DEFAULT_255_2_778
10
-23.3216274
20
16.9444865
40
28.0633446
50
2.7977662
51
3.6187563
0
ARC
8
DEFAULT_255_2_778
10
-17.3668792
20
17.3281289
40
22.096256
50
3.6005268
51
4.9546784
0
ARC
8
DEFAULT_255_2_778
10
-11.8456665
20
17.8069351
40
16.5543209
50
4.9541156
51
6.4418055
0
ARC
8
DEFAULT_255_2_778
10
-7.316793
20
18.323126
40
11.9961287
50
6.418787
51
8.5079466
0
ARC
8
DEFAULT_255_2_778
10
-3.6618916
20
18.8713885
40
8.3003348
50
8.4976
51
11.0124846
0
ARC
8
DEFAULT_255_2_778
10
-0.8774755
20
19.4180325
40
5.4627726
50
10.9632869
51
14.5767506
0
ARC
8
DEFAULT_255_2_778
10
1.1986569
20
19.9620962
40
3.3165424
50
14.5070093
51
19.6457608
0
ARC
8
DEFAULT_255_2_778
10
2.5718422
20
20.4567247
40
1.8569998
50
19.5172354
51
27.2093386
0
ARC
8
DEFAULT_255_2_778
10
3.3837618
20
20.8799194
40
0.9414369
50
26.8977192
51
39.8789428
0
ARC
8
DEFAULT_255_2_778
10
3.7718121
20
21.2131998
40
0.4300144
50
38.952287
51
66.9880616
0
ARC
8
DEFAULT_255_2_778
10
3.830371
20
21.330641
40
0.2991334
50
68.5183573
51
90.0502971
0
LINE
8
DEFAULT_255_2_778
10
3.8301084
20
21.6297743
11
3.8301084
21
21.6297743
0
ARC
8
DEFAULT_255_2_778
10
16.6713912
20
26.323206
40
9.150311
50
359.9051289
51
7.5182347
0
ARC
8
DEFAULT_255_2_778
10
17.9302678
20
26.4944639
40
7.8798507
50
7.4813551
51
18.069467
0
ARC
8
DEFAULT_255_2_778
10
18.8044428
20
26.786357
40
6.9582554
50
18.0171424
51
41.9235799
0
ARC
8
DEFAULT_255_2_778
10
18.4779348
20
26.4858411
40
7.4019778
50
41.9657056
51
50.8918475
0
ARC
8
DEFAULT_255_2_778
10
17.9542023
20
25.8426187
40
8.2314537
50
50.8872679
51
58.0271313
0
ARC
8
DEFAULT_255_2_778
10
17.3824261
20
24.9299787
40
9.3084109
50
58.0161864
51
63.8301268
0
ARC
8
DEFAULT_255_2_778
10
16.8049444
20
23.7566012
40
10.6161951
50
63.8258904
51
68.9366883
0
ARC
8
DEFAULT_255_2_778
10
16.2457083
20
22.3089683
40
12.168092
50
68.929193
51
73.3401178
0
ARC
8
DEFAULT_255_2_778
10
15.7472141
20
20.6518495
40
13.8985641
50
73.3298525
51
77.0140716
0
ARC
8
DEFAULT_255_2_778
10
15.3079661
20
18.7475662
40
15.8528502
50
77.0137119
51
80.4756225
0
ARC
8
DEFAULT_255_2_778
10
14.9338932
20
16.5257752
40
18.1059113
50
80.4715633
51
83.5752377
0
ARC
8
DEFAULT_255_2_778
10
14.6626453
20
14.1441972
40
20.5028845
50
83.5667155
51
86.128033
0
ARC
8
DEFAULT_255_2_778
10
14.4874992
20
11.5527047
40
23.1002889
50
86.1286525
51
88.6154212
0
ARC
8
DEFAULT_255_2_778
10
14.4235271
20
9.2061465
40
25.4477086
50
88.5990904
51
90.0084148
0
ARC
8
DEFAULT_255_2_778
10
14.4094487
20
9.8151593
40
24.8386977
50
89.9761463
51
92.3645049
0
ARC
8
DEFAULT_255_2_778
10
14.2918243
20
12.6515588
40
21.9998603
50
92.3631926
51
94.9199046
0
ARC
8
DEFAULT_255_2_778
10
14.0806872
20
15.1086258
40
19.5337384
50
94.9209794
51
97.5349851
0
ARC
8
DEFAULT_255_2_778
10
13.7833704
20
17.3387232
40
17.2839104
50
97.5273163
51
100.6520781
0
ARC
8
DEFAULT_255_2_778
10
13.3860083
20
19.4414995
40
15.1439196
50
100.6451638
51
104.266937
0
ARC
8
DEFAULT_255_2_778
10
12.9313172
20
21.2324832
40
13.2961194
50
104.2699624
51
107.9673902
0
ARC
8
DEFAULT_255_2_778
10
12.424793
20
22.7851193
40
11.6629518
50
107.9532822
51
112.5756371
0
ARC
8
DEFAULT_255_2_778
10
11.8650579
20
24.130151
40
10.2061013
50
112.5729245
51
117.7109447
0
ARC
8
DEFAULT_255_2_778
10
11.2918233
20
25.2178284
40
8.9766149
50
117.7000606
51
123.9087882
0
ARC
8
DEFAULT_255_2_778
10
10.7274874
20
26.0556505
40
7.9664566
50
123.9018863
51
131.383876
0
ARC
8
DEFAULT_255_2_778
10
10.2372707
20
26.6113091
40
7.2254649
50
131.3802138
51
141.0257876
0
ARC
8
DEFAULT_255_2_778
10
10.1454032
20
26.720373
40
7.0854981
50
141.2441802
51
168.3487133
0
ARC
8
DEFAULT_255_2_778
10
11.5276581
20
26.3861841
40
8.5068989
50
168.0244104
51
176.535962
0
ARC
8
DEFAULT_255_2_778
10
12.5336703
20
26.3117285
40
9.5155813
50
176.454469
51
180.02212
0
ARC
8
DEFAULT_255_2_778
10
-43.8301807
20
26.3099275
40
46.8482705
50
359.8650026
51
359.9977097
0
ARC
8
DEFAULT_255_2_778
10
-54.318245
20
26.3340775
40
57.3363624
50
359.7685944
51
359.8655636
0
ARC
8
DEFAULT_255_2_778
10
-66.4794384
20
26.3827977
40
69.4976533
50
359.6976227
51
359.7689214
0
ARC
8
DEFAULT_255_2_778
10
-85.1899726
20
26.4824006
40
88.2084527
50
359.6219132
51
359.6970657
0
ARC
8
DEFAULT_255_2_778
10
-119.9356392
20
26.7120887
40
122.9548783
50
359.5620355
51
359.6217254
0
ARC
8
DEFAULT_255_2_778
10
-179.635065
20
27.1653656
40
182.6560249
50
359.5322861
51
359.5629984
0
ARC
8
DEFAULT_255_2_778
10
-337.0222336
20
28.4555527
40
340.0484816
50
359.5077402
51
359.531379
0
ARC
8
DEFAULT_255_2_778
10
-2565.3559102
20
47.5950212
40
2568.4643525
50
359.5047015
51
359.5078707
0
ARC
8
DEFAULT_255_2_778
10
841.1475609
20
18.1639412
40
838.1662538
50
179.5058962
51
179.5072996
0
ARC
8
DEFAULT_255_2_778
10
464.8079957
20
21.3934344
40
461.8128321
50
179.5064533
51
179.5222707
0
ARC
8
DEFAULT_255_2_778
10
255.8505078
20
23.1375895
40
252.848065
50
179.5226872
51
179.5483649
0
ARC
8
DEFAULT_255_2_778
10
178.7752725
20
23.7432175
40
175.7704505
50
179.5477353
51
179.59701
0
ARC
8
DEFAULT_255_2_778
10
134.2742298
20
24.0555917
40
131.2683117
50
179.5967354
51
179.6695396
0
ARC
8
DEFAULT_255_2_778
10
111.5867707
20
24.187597
40
108.5804686
50
179.670147
51
179.7372238
0
ARC
8
DEFAULT_255_2_778
10
96.6069723
20
24.2554132
40
93.6005167
50
179.7366813
51
179.8403692
0
ARC
8
DEFAULT_255_2_778
10
84.8828909
20
24.2882802
40
81.8763892
50
179.840511
51
179.9566745
0
ARC
8
DEFAULT_255_2_778
10
79.3994689
20
24.2940909
40
76.3929645
50
179.9579228
51
179.9998478
0
ARC
8
DEFAULT_255_2_778
10
71.1739438
20
24.2896752
40
68.1674396
50
179.996118
51
180.2662052
0
ARC
8
DEFAULT_255_2_778
10
62.0449269
20
24.2478143
40
59.0383268
50
180.2667431
51
180.5664681
0
ARC
8
DEFAULT_255_2_778
10
54.6702953
20
24.1724058
40
51.6633101
50
180.5637011
51
181.0581671
0
ARC
8
DEFAULT_255_2_778
10
48.3675013
20
24.0556047
40
45.359434
50
181.0576812
51
181.6701243
0
ARC
8
DEFAULT_255_2_778
10
43.5162518
20
23.9140439
40
40.5061193
50
181.6699677
51
182.3860802
0
ARC
8
DEFAULT_255_2_778
10
39.8838644
20
23.7635871
40
36.8706173
50
182.3874796
51
183.0904802
0
ARC
8
DEFAULT_255_2_778
10
36.6318238
20
23.5858048
40
33.6137216
50
183.0867358
51
184.1186821
0
ARC
8
DEFAULT_255_2_778
10
33.3810234
20
23.3506598
40
30.3544279
50
184.1166877
51
185.3786076
0
ARC
8
DEFAULT_255_2_778
10
30.3100858
20
23.0596928
40
27.2697374
50
185.3747698
51
186.9816586
0
ARC
8
DEFAULT_255_2_778
10
27.1498648
20
22.6681586
40
24.0853578
50
186.970951
51
189.2782052
0
ARC
8
DEFAULT_255_2_778
10
25.0948586
20
22.341606
40
22.0045891
50
189.3017569
51
190.1499928
0
ARC
8
DEFAULT_255_2_778
10
20.0533809
20
21.3081288
40
16.8603789
50
189.7120721
51
201.5085259
0
ARC
8
DEFAULT_255_2_778
10
14.55881
20
19.1340478
40
10.951332
50
201.4658506
51
218.8792283
0
ARC
8
DEFAULT_255_2_778
10
12.9884812
20
17.9589156
40
8.9915481
50
219.3307612
51
228.5612952
0
ARC
8
DEFAULT_255_2_778
10
12.8077375
20
17.7639769
40
8.7257924
50
228.6038642
51
235.5732826
0
ARC
8
DEFAULT_255_2_778
10
12.9026521
20
17.9057141
40
8.8963646
50
235.5851397
51
241.5103737
0
ARC
8
DEFAULT_255_2_778
10
13.1030296
20
18.2757193
40
9.3171435
50
241.5127102
51
246.5035696
0
ARC
8
DEFAULT_255_2_778
10
13.3454299
20
18.8341025
40
9.9258712
50
246.5054239
51
251.0294722
0
ARC
8
DEFAULT_255_2_778
10
13.5971742
20
19.5653477
40
10.6992369
50
251.0275623
51
254.9799904
0
ARC
8
DEFAULT_255_2_778
10
13.8356984
20
20.4536844
40
11.619039
50
254.9792163
51
258.5785397
0
ARC
8
DEFAULT_255_2_778
10
14.0424248
20
21.4720486
40
12.6581737
50
258.5741421
51
261.6503635
0
ARC
8
DEFAULT_255_2_778
10
14.2145057
20
22.647617
40
13.8462699
50
261.6522315
51
264.6782127
0
ARC
8
DEFAULT_255_2_778
10
14.3432083
20
24.0235467
40
15.2282058
50
264.6762131
51
267.420444
0
ARC
8
DEFAULT_255_2_778
10
14.412858
20
25.5600168
40
16.7662538
50
267.4189816
51
269.941164
0
ARC
8
DEFAULT_255_2_778
10
14.4199811
20
26.4258244
40
17.6320696
50
269.9209065
51
270.0000279
0
ARC
8
DEFAULT_255_2_778
10
14.425225
20
25.6640528
40
16.8702987
50
269.9822196
51
272.3359078
0
ARC
8
DEFAULT_255_2_778
10
14.4872255
20
24.1674566
40
15.3724191
50
272.3323641
51
275.0315267
0
ARC
8
DEFAULT_255_2_778
10
14.6105417
20
22.774629
40
13.9741435
50
275.0287197
51
278.055995
0
ARC
8
DEFAULT_255_2_778
10
14.7799774
20
21.5743673
40
12.7619815
50
278.0579795
51
281.1296989
0
ARC
8
DEFAULT_255_2_778
10
14.98625
20
20.5310379
40
11.6984575
50
281.1248077
51
284.7510985
0
ARC
8
DEFAULT_255_2_778
10
15.227081
20
19.6169938
40
10.7532187
50
284.750251
51
288.738949
0
ARC
8
DEFAULT_255_2_778
10
15.4813896
20
18.8681588
40
9.9623795
50
288.737454
51
293.2586766
0
ARC
8
DEFAULT_255_2_778
10
15.7283837
20
18.2931625
40
9.3365786
50
293.259505
51
298.3483598
0
ARC
8
DEFAULT_255_2_778
10
15.9330089
20
17.9127867
40
8.9046562
50
298.35176
51
304.233789
0
ARC
8
DEFAULT_255_2_778
10
16.0321795
20
17.7639638
40
8.7258266
50
304.2451765
51
311.171424
0
ARC
8
DEFAULT_255_2_778
10
15.8635554
20
17.9469886
40
8.9746074
50
311.2125562
51
320.3853764
0
ARC
8
DEFAULT_255_2_778
10
14.3385506
20
19.0995235
40
10.884604
50
320.8302814
51
338.2419468
0
ARC
8
DEFAULT_255_2_778
10
8.8711466
20
21.2867536
40
16.7732768
50
338.2258739
51
350.2876289
0
ARC
8
DEFAULT_255_2_778
10
5.7080549
20
21.9907892
40
20.0104468
50
349.8285689
51
349.8482553
0
ARC
8
DEFAULT_255_2_778
10
2.5834382
20
22.5364808
40
23.182331
50
349.8818267
51
352.5461003
0
ARC
8
DEFAULT_255_2_778
10
-0.694705
20
22.97283
40
26.4893803
50
352.5301084
51
354.2611422
0
ARC
8
DEFAULT_255_2_778
10
-3.4120055
20
23.2507484
40
29.2208523
50
354.2517105
51
355.2960924
0
ARC
8
DEFAULT_255_2_778
10
-5.7282841
20
23.4423618
40
31.5450428
50
355.2942432
51
356.1296067
0
ARC
8
DEFAULT_255_2_778
10
-8.5685708
20
23.6325243
40
34.3916877
50
356.1329217
51
357.1215934
0
ARC
8
DEFAULT_255_2_778
10
-12.3100896
20
23.8213497
40
38.1379681
50
357.1205402
51
357.9470626
0
ARC
8
DEFAULT_255_2_778
10
-16.6071612
20
23.976504
40
42.4378398
50
357.9455486
51
358.5930027
0
ARC
8
DEFAULT_255_2_778
10
-21.1251831
20
24.0894983
40
46.957274
50
358.5905338
51
359.0195863
0
ARC
8
DEFAULT_255_2_778
10
-27.0155934
20
24.1878283
40
52.8485044
50
359.0222673
51
359.5101777
0
ARC
8
DEFAULT_255_2_778
10
-36.5211777
20
24.2691804
40
62.3544369
50
359.510098
51
359.896501
0
ARC
8
DEFAULT_255_2_778
10
-45.92966
20
24.2928256
40
71.7629467
50
359.8911919
51
0.0006006
0
ARC
8
DEFAULT_255_2_778
10
-52.1149234
20
24.2926074
40
77.94821
50
0.0007134
51
0.1047249
0
ARC
8
DEFAULT_255_2_778
10
-60.1202773
20
24.2782277
40
85.9535768
50
0.1045566
51
0.1860831
0
ARC
8
DEFAULT_255_2_778
10
-70.9070278
20
24.2421908
40
96.7403874
50
0.1866777
51
0.2804477
0
ARC
8
DEFAULT_255_2_778
10
-89.7298943
20
24.1494839
40
115.5634823
50
0.2807319
51
0.364333
0
ARC
8
DEFAULT_255_2_778
10
-116.4656405
20
23.9811046
40
142.2997587
50
0.3636765
51
0.4137773
0
ARC
8
DEFAULT_255_2_778
10
-164.9597624
20
23.6284313
40
190.7951629
50
0.4145141
51
0.4627399
0
ARC
8
DEFAULT_255_2_778
10
-293.9870975
20
22.586816
40
319.8267023
50
0.4626548
51
0.4898582
0
ARC
8
DEFAULT_255_2_778
10
-528.8688147
20
20.5970927
40
554.7168466
50
0.4879495
51
0.4931084
0
LINE
8
DEFAULT_255_2_778
10
25.8274882
20
25.3711293
11
25.8274202
21
25.3790276
0
LINE
8
DEFAULT_255_2_778
10
25.8274202
20
25.3790276
11
25.8263481
21
25.5032545
0
ARC
8
DEFAULT_255_2_778
10
522.244709
20
29.784126
40
496.4368186
50
180.4817426
51
180.4940788
0
ARC
8
DEFAULT_255_2_778
10
246.3213898
20
27.4672278
40
220.5037723
50
180.4467834
51
180.4825528
0
ARC
8
DEFAULT_255_2_778
10
159.3283637
20
26.7887473
40
133.5081006
50
180.3919461
51
180.4467367
0
ARC
8
DEFAULT_255_2_778
10
120.5733912
20
26.5227651
40
94.7522154
50
180.323927
51
180.391423
0
ARC
8
DEFAULT_255_2_778
10
97.1399253
20
26.3908036
40
71.3183779
50
180.2256591
51
180.3243473
0
ARC
8
DEFAULT_255_2_778
10
82.2178754
20
26.3312239
40
56.3962091
50
180.1231269
51
180.2248372
0
ARC
8
DEFAULT_255_2_778
10
72.171563
20
26.3095418
40
46.3498732
50
180.0018381
51
180.123012
0
LINE
8
DEFAULT_255_2_778
10
25.8216897
20
26.3080548
11
25.8216897
21
26.3080548
0
ARC
8
DEFAULT_255_2_778
10
7.0832778
20
24.5832423
40
0.4353461
50
243.9146889
51
269.9027093
0
ARC
8
DEFAULT_255_2_778
10
7.0925548
20
24.7217856
40
0.5739762
50
269.0000993
51
270.0027799
0
ARC
8
DEFAULT_255_2_778
10
7.0853781
20
24.9190121
40
0.7712363
50
270.5352368
51
281.0020546
0
ARC
8
DEFAULT_255_2_778
10
6.9608333
20
25.5891962
40
1.4528824
50
280.7794363
51
285.9298509
0
ARC
8
DEFAULT_255_2_778
10
6.4807841
20
27.2769201
40
3.2075499
50
285.9012981
51
288.6779837
0
ARC
8
DEFAULT_255_2_778
10
5.3482323
20
30.7085886
40
6.8212325
50
288.4588845
51
288.4779756
0
ARC
8
DEFAULT_255_2_778
10
5.3737486
20
30.6321058
40
6.7406055
50
288.4783132
51
288.4975065
0
ARC
8
DEFAULT_255_2_778
10
5.396544
20
30.5602315
40
6.6652123
50
288.507696
51
288.5269793
0
ARC
8
DEFAULT_255_2_778
10
5.4220844
20
30.4849366
40
6.5857043
50
288.5244413
51
288.5438296
0
ARC
8
DEFAULT_255_2_778
10
5.4474103
20
30.4103025
40
6.5068908
50
288.5414069
51
288.5609011
0
ARC
8
DEFAULT_255_2_778
10
5.4720836
20
30.3364636
40
6.4290386
50
288.561916
51
288.5815165
0
ARC
8
DEFAULT_255_2_778
10
6.00872
20
28.7394565
40
4.7442803
50
288.5842925
51
288.6106783
0
ARC
8
DEFAULT_255_2_778
10
5.5196541
20
30.1941931
40
6.2790259
50
288.6036829
51
288.6234877
0
ARC
8
DEFAULT_255_2_778
10
5.5441407
20
30.1221575
40
6.2029425
50
288.6216405
51
288.6415557
0
ARC
8
DEFAULT_255_2_778
10
5.5688521
20
30.0506229
40
6.127262
50
288.6364199
51
288.6564475
0
ARC
8
DEFAULT_255_2_778
10
5.5933515
20
29.9797289
40
6.0522561
50
288.6513962
51
288.6715375
0
ARC
8
DEFAULT_255_2_778
10
1.6990441
20
41.4951637
40
18.20836
50
288.6802498
51
288.6869
0
ARC
8
DEFAULT_255_2_778
10
129.4972146
20
-336.1336403
40
380.4592787
50
108.6971544
51
108.6974705
0
ARC
8
DEFAULT_255_2_778
10
121.1723649
20
-311.2261377
40
354.1975903
50
108.7128285
51
108.7131658
0
ARC
8
DEFAULT_255_2_778
10
5.6872977
20
29.7060795
40
5.7629318
50
288.7202854
51
288.7408797
0
ARC
8
DEFAULT_255_2_778
10
6.1806931
20
28.2540967
40
4.229409
50
288.7309827
51
288.7588564
0
ARC
8
DEFAULT_255_2_778
10
6.1993048
20
28.2027475
40
4.1748024
50
288.7436243
51
288.7716734
0
ARC
8
DEFAULT_255_2_778
10
2.0725146
20
40.3440494
40
16.9982812
50
288.7724742
51
288.7793169
0
ARC
8
DEFAULT_255_2_778
10
91.742906
20
-223.2584266
40
261.4385061
50
108.786959
51
108.7874009
0
ARC
8
DEFAULT_255_2_778
10
2.2002766
20
39.9603171
40
16.5938475
50
288.7951599
51
288.8020753
0
ARC
8
DEFAULT_255_2_778
10
84.5574649
20
-201.8252991
40
238.8332278
50
108.8099729
51
108.8104501
0
ARC
8
DEFAULT_255_2_778
10
5.8487145
20
29.2468947
40
5.2762274
50
288.8148545
51
288.8363112
0
ARC
8
DEFAULT_255_2_778
10
76.9037742
20
-178.9838077
40
214.7438784
50
108.8409023
51
108.8414259
0
ARC
8
DEFAULT_255_2_778
10
2.4433251
20
39.2272396
40
15.8215564
50
288.8459658
51
288.8530248
0
ARC
8
DEFAULT_255_2_778
10
2.5053307
20
39.0428822
40
15.6270531
50
288.8563043
51
288.8634026
0
ARC
8
DEFAULT_255_2_778
10
4.8021321
20
32.3186323
40
8.5213629
50
288.8673882
51
288.8867867
0
ARC
8
DEFAULT_255_2_778
10
4.8554821
20
32.1648517
40
8.3585927
50
288.8819953
51
288.9015697
0
ARC
8
DEFAULT_255_2_778
10
4.9081008
20
32.0132389
40
8.19811
50
288.8969059
51
288.9166593
0
ARC
8
DEFAULT_255_2_778
10
4.9605609
20
31.8632714
40
8.0392349
50
288.909472
51
288.9294092
0
ARC
8
DEFAULT_255_2_778
10
2.3336451
20
39.5225021
40
16.1364259
50
288.9300206
51
288.9398514
0
ARC
8
DEFAULT_255_2_778
10
-3.7784551
20
57.3303135
40
34.9639567
50
288.9418391
51
288.9463294
0
ARC
8
DEFAULT_255_2_778
10
2.5269291
20
38.9538484
40
15.5358243
50
288.9564163
51
288.9664178
0
ARC
8
DEFAULT_255_2_778
10
2.6261913
20
38.6665047
40
15.2318192
50
288.9646028
51
288.9746986
0
ARC
8
DEFAULT_255_2_778
10
2.7183852
20
38.3954632
40
14.9455286
50
288.9783216
51
288.9885043
0
ARC
8
DEFAULT_255_2_778
10
2.8110519
20
38.1253886
40
14.6599986
50
288.9894904
51
288.9997638
0
ARC
8
DEFAULT_255_2_778
10
2.9024037
20
37.8592091
40
14.3785799
50
289.0008939
51
289.0112596
0
ARC
8
DEFAULT_255_2_778
10
4.6323186
20
32.8398695
40
9.0694957
50
289.0081879
51
289.0244504
0
ARC
8
DEFAULT_255_2_778
10
63.0812566
20
-136.6855466
40
170.2490616
50
109.0220896
51
109.0230899
0
ARC
8
DEFAULT_255_2_778
10
14.7807784
20
3.4299861
40
22.0421168
50
109.0293128
51
109.0358538
0
ARC
8
DEFAULT_255_2_778
10
20.2649957
20
-12.2078748
40
38.6136325
50
108.9108158
51
109.1565682
0
ARC
8
DEFAULT_255_2_778
10
10.6020935
20
15.9493714
40
8.8445023
50
108.433554
51
108.8091853
0
ARC
8
DEFAULT_255_2_778
10
9.5695479
20
19.067848
40
5.5595397
50
106.6780791
51
108.5006474
0
ARC
8
DEFAULT_255_2_778
10
9.0873037
20
20.6764697
40
3.8801878
50
103.6542886
51
106.6737599
0
ARC
8
DEFAULT_255_2_778
10
8.9242632
20
21.3445859
40
3.1924662
50
99.5983357
51
103.6414539
0
ARC
8
DEFAULT_255_2_778
10
8.8738826
20
21.6366392
40
2.8961012
50
95.0336066
51
99.5789803
0
ARC
8
DEFAULT_255_2_778
10
8.865386
20
21.7242063
40
2.8081265
50
90.3230096
51
95.017679
0
ARC
8
DEFAULT_255_2_778
10
8.8654329
20
21.7186739
40
2.813659
50
89.9996271
51
90.323328
0
ARC
8
DEFAULT_255_2_778
10
8.8648692
20
21.6733754
40
2.8589576
50
85.5024925
51
89.9883374
0
ARC
8
DEFAULT_255_2_778
10
8.8525186
20
21.5222341
40
3.010602
50
80.9750627
51
85.4937236
0
ARC
8
DEFAULT_255_2_778
10
8.8139103
20
21.2803336
40
3.2555641
50
76.7676872
51
80.9718111
0
ARC
8
DEFAULT_255_2_778
10
8.7390294
20
20.9619168
40
3.5826671
50
72.9366691
51
76.7675716
0
ARC
8
DEFAULT_255_2_778
10
8.6209122
20
20.5766798
40
3.9856055
50
69.4809563
51
72.9384192
0
ARC
8
DEFAULT_255_2_778
10
8.4520993
20
20.1253982
40
4.4674278
50
66.3057701
51
69.4819817
0
ARC
8
DEFAULT_255_2_778
10
8.2250822
20
19.6076527
40
5.032757
50
63.4170717
51
66.3078034
0
ARC
8
DEFAULT_255_2_778
10
8.0356645
20
19.2235587
40
5.4610111
50
62.4955837
51
63.4431477
0
ARC
8
DEFAULT_255_2_778
10
10.6227402
20
24.1913003
40
0.1400089
50
242.2972599
51
253.284888
0
ARC
8
DEFAULT_255_2_778
10
10.6149126
20
24.1648757
40
0.1124495
50
253.2322999
51
269.79478
0
ARC
8
DEFAULT_255_2_778
10
10.6109191
20
24.1747805
40
0.1224063
50
271.6809723
51
316.3356522
0
ARC
8
DEFAULT_255_2_778
10
10.5237595
20
24.2677341
40
0.2497354
50
314.7146584
51
331.8854938
0
ARC
8
DEFAULT_255_2_778
10
10.3612258
20
24.3572772
40
0.4352938
50
331.5714153
51
343.2438726
0
ARC
8
DEFAULT_255_2_778
10
10.1475967
20
24.4233961
40
0.6589166
50
343.0940937
51
352.3181522
0
ARC
8
DEFAULT_255_2_778
10
9.9370369
20
24.4531836
40
0.8715695
50
352.2278133
51
0.1341099
0
ARC
8
DEFAULT_255_2_778
10
9.7816468
20
24.4539762
40
1.0269579
50
0.0695971
51
6.6755157
0
ARC
8
DEFAULT_255_2_778
10
9.6838807
20
24.4429003
40
1.1253489
50
6.6569769
51
13.3969005
0
ARC
8
DEFAULT_255_2_778
10
9.626302
20
24.4294336
40
1.1844811
50
13.3852673
51
20.5187066
0
ARC
8
DEFAULT_255_2_778
10
9.5994634
20
24.4197238
40
1.2130205
50
20.5038976
51
24.8966039
0
ARC
8
DEFAULT_255_2_778
10
9.5703429
20
24.4053884
40
1.2454701
50
24.9308313
51
36.9753549
0
ARC
8
DEFAULT_255_2_778
10
9.5092007
20
24.3587101
40
1.322392
50
36.9976996
51
48.1624464
0
ARC
8
DEFAULT_255_2_778
10
9.4124501
20
24.2501276
40
1.4678248
50
48.1758691
51
57.884229
0
ARC
8
DEFAULT_255_2_778
10
9.293392
20
24.0606437
40
1.6916081
50
57.8807186
51
66.0700644
0
ARC
8
DEFAULT_255_2_778
10
9.1705322
20
23.7848525
40
1.9935273
50
66.0576224
51
72.9106907
0
ARC
8
DEFAULT_255_2_778
10
9.0567899
20
23.4161111
40
2.3794127
50
72.9019927
51
78.8389473
0
ARC
8
DEFAULT_255_2_778
10
8.9623677
20
22.9395707
40
2.8652174
50
78.8310746
51
84.0382963
0
ARC
8
DEFAULT_255_2_778
10
8.9003894
20
22.3536735
40
3.4543831
50
84.0251996
51
88.4467932
0
ARC
8
DEFAULT_255_2_778
10
8.8835265
20
21.877408
40
3.9309326
50
88.3892573
51
90.0098282
0
ARC
8
DEFAULT_255_2_778
10
8.8786988
20
22.0013427
40
3.807
50
89.9374912
51
94.5906561
0
ARC
8
DEFAULT_255_2_778
10
8.8323886
20
22.5710814
40
3.2353826
50
94.5807066
51
99.9373757
0
ARC
8
DEFAULT_255_2_778
10
8.7506551
20
23.0370633
40
2.7622868
50
99.9354669
51
105.7736567
0
ARC
8
DEFAULT_255_2_778
10
8.6435039
20
23.4141012
40
2.3703194
50
105.7585975
51
112.6970432
0
ARC
8
DEFAULT_255_2_778
10
8.518421
20
23.7125973
40
2.046675
50
112.690913
51
120.5214791
0
ARC
8
DEFAULT_255_2_778
10
8.3877566
20
23.9339818
40
1.7896064
50
120.5174181
51
129.2148475
0
ARC
8
DEFAULT_255_2_778
10
8.2549511
20
24.0964188
40
1.5797898
50
129.207682
51
138.7296149
0
ARC
8
DEFAULT_255_2_778
10
8.1300637
20
24.207183
40
1.4128626
50
138.7650423
51
146.2810464
0
ARC
8
DEFAULT_255_2_778
10
8.0116567
20
24.2862627
40
1.2704764
50
146.2831276
51
153.2661268
0
ARC
8
DEFAULT_255_2_778
10
7.8745393
20
24.3549079
40
1.1171364
50
153.24692
51
160.5842676
0
ARC
8
DEFAULT_255_2_778
10
7.7084842
20
24.4129748
40
0.9412219
50
160.5577678
51
168.3080493
0
ARC
8
DEFAULT_255_2_778
10
7.522289
20
24.4510193
40
0.7511805
50
168.2716477
51
176.6869158
0
ARC
8
DEFAULT_255_2_778
10
7.3955394
20
24.4601382
40
0.6241183
50
176.8501855
51
179.9727871
0
ARC
8
DEFAULT_255_2_778
10
7.2745335
20
24.4579721
40
0.5031184
50
179.7195657
51
190.0654548
0
ARC
8
DEFAULT_255_2_778
10
7.1179762
20
24.4293165
40
0.3439635
50
189.9234458
51
203.7027659
0
ARC
8
DEFAULT_255_2_778
10
7.0056668
20
24.3786625
40
0.2207692
50
203.3826329
51
225.4551831
0
ARC
8
DEFAULT_255_2_778
10
6.967092
20
24.3419579
40
0.16756
50
226.0519737
51
243.3184136
0
ARC
8
DEFAULT_255_2_778
10
21.7563282
20
24.5832354
40
0.4353392
50
270.0974567
51
296.0855241
0
ARC
8
DEFAULT_255_2_778
10
21.7470525
20
24.7217817
40
0.5739723
50
269.9972349
51
270.9998959
0
ARC
8
DEFAULT_255_2_778
10
21.7542288
20
24.9189608
40
0.7711851
50
258.99758
51
269.4647679
0
ARC
8
DEFAULT_255_2_778
10
21.8787669
20
25.5890861
40
1.452772
50
254.0695767
51
259.2202031
0
ARC
8
DEFAULT_255_2_778
10
22.3587935
20
27.276666
40
3.2072948
50
251.3213186
51
254.098128
0
ARC
8
DEFAULT_255_2_778
10
23.4913159
20
30.7083669
40
6.8209988
50
251.5220244
51
251.5411155
0
ARC
8
DEFAULT_255_2_778
10
23.4658006
20
30.6318869
40
6.7403747
50
251.5024935
51
251.5216868
0
ARC
8
DEFAULT_255_2_778
10
23.443006
20
30.5600152
40
6.6649842
50
251.4730207
51
251.492304
0
ARC
8
DEFAULT_255_2_778
10
23.4174666
20
30.4847232
40
6.5854792
50
251.4561704
51
251.4755587
0
ARC
8
DEFAULT_255_2_778
10
23.3925815
20
30.410227
40
6.5069366
50
251.4358055
51
251.4552989
0
ARC
8
DEFAULT_255_2_778
10
23.3674692
20
30.3362557
40
6.4288193
50
251.4184835
51
251.438084
0
ARC
8
DEFAULT_255_2_778
10
23.3450364
20
30.2668138
40
6.3558489
50
251.390995
51
251.4106898
0
ARC
8
DEFAULT_255_2_778
10
22.8111057
20
28.6828902
40
4.6843541
50
251.3714559
51
251.3980019
0
ARC
8
DEFAULT_255_2_778
10
23.2954148
20
30.1219574
40
6.2027314
50
251.3584443
51
251.3783595
0
ARC
8
DEFAULT_255_2_778
10
23.2707042
20
30.0504253
40
6.1270535
50
251.3435525
51
251.3635801
0
ARC
8
DEFAULT_255_2_778
10
22.7525197
20
28.517341
40
4.5087635
50
251.3232914
51
251.3503268
0
ARC
8
DEFAULT_255_2_778
10
27.140381
20
41.4945781
40
18.2077418
50
251.3131
51
251.3197502
0
ARC
8
DEFAULT_255_2_778
10
27.0765871
20
41.2973153
40
18.0004389
50
251.2975965
51
251.3042785
0
ARC
8
DEFAULT_255_2_778
10
-92.3288481
20
-311.2146436
40
354.1854547
50
71.2868342
51
71.2871715
0
ARC
8
DEFAULT_255_2_778
10
22.6776592
20
28.3057849
40
4.2843741
50
251.2537901
51
251.2814906
0
ARC
8
DEFAULT_255_2_778
10
22.6588843
20
28.2539611
40
4.2292658
50
251.2411436
51
251.2690173
0
ARC
8
DEFAULT_255_2_778
10
22.6402733
20
28.2026138
40
4.1746612
50
251.2283266
51
251.2563757
0
ARC
8
DEFAULT_255_2_778
10
26.7669241
20
40.3435056
40
16.9977068
50
251.2206831
51
251.2275258
0
ARC
8
DEFAULT_255_2_778
10
26.7040205
20
40.1528129
40
16.7969155
50
251.2075507
51
251.2144286
0
ARC
8
DEFAULT_255_2_778
10
26.6391667
20
39.959787
40
16.5932875
50
251.1979247
51
251.2048401
0
ARC
8
DEFAULT_255_2_778
10
-55.7152862
20
-201.8177987
40
238.8253042
50
71.1895499
51
71.1900271
0
ARC
8
DEFAULT_255_2_778
10
22.5505959
20
27.9549766
40
3.9113361
50
251.1580734
51
251.1870167
0
ARC
8
DEFAULT_255_2_778
10
-48.0617983
20
-178.976915
40
214.7365955
50
71.1585741
51
71.1590977
0
ARC
8
DEFAULT_255_2_778
10
-45.4779693
20
-171.2845062
40
206.6219321
50
71.1483351
51
71.1488756
0
ARC
8
DEFAULT_255_2_778
10
26.3341236
20
39.0423852
40
15.6265279
50
251.1365974
51
251.1436957
0
ARC
8
DEFAULT_255_2_778
10
24.0373994
20
32.3183614
40
8.5210766
50
251.1132133
51
251.1326118
0
ARC
8
DEFAULT_255_2_778
10
23.9840513
20
32.1645864
40
8.3583122
50
251.0984303
51
251.1180047
0
ARC
8
DEFAULT_255_2_778
10
23.9314346
20
32.012979
40
8.1978352
50
251.0833407
51
251.1030941
0
ARC
8
DEFAULT_255_2_778
10
23.8789763
20
31.8630168
40
8.0389658
50
251.0705908
51
251.090528
0
ARC
8
DEFAULT_255_2_778
10
26.5058044
20
39.5219916
40
16.1358862
50
251.0601486
51
251.0699794
0
ARC
8
DEFAULT_255_2_778
10
26.4055863
20
39.2294047
40
15.8266117
50
251.049598
51
251.0595178
0
ARC
8
DEFAULT_255_2_778
10
26.3125272
20
38.9533581
40
15.5353059
50
251.0335822
51
251.0435837
0
ARC
8
DEFAULT_255_2_778
10
26.2132685
20
38.6660246
40
15.2313115
50
251.0253014
51
251.0353972
0
ARC
8
DEFAULT_255_2_778
10
26.121078
20
38.3949931
40
14.9450314
50
251.0114957
51
251.0216784
0
ARC
8
DEFAULT_255_2_778
10
31.9229883
20
55.2467364
40
32.7675848
50
251.0016561
51
251.0062521
0
ARC
8
DEFAULT_255_2_778
10
-38.2696328
20
-148.550158
40
182.7786476
50
70.9938574
51
70.9948088
0
ARC
8
DEFAULT_255_2_778
10
24.1956403
20
32.8081964
40
9.0357499
50
250.9772952
51
250.9935893
0
ARC
8
DEFAULT_255_2_778
10
25.7367421
20
37.2824871
40
13.7680084
50
250.9726287
51
250.9832108
0
ARC
8
DEFAULT_255_2_778
10
14.059085
20
3.4306759
40
22.0413871
50
70.9641462
51
70.9706872
0
ARC
8
DEFAULT_255_2_778
10
8.5775017
20
-12.1982526
40
38.6036007
50
70.8427719
51
71.0885804
0
ARC
8
DEFAULT_255_2_778
10
18.237734
20
15.9502568
40
8.8436008
50
71.1901701
51
71.5658285
0
ARC
8
DEFAULT_255_2_778
10
19.2701633
20
19.0682507
40
5.559133
50
71.4988017
51
73.3214541
0
ARC
8
DEFAULT_255_2_778
10
19.7523864
20
20.6767409
40
3.879913
50
73.3258297
51
76.3454475
0
ARC
8
DEFAULT_255_2_778
10
19.9154069
20
21.3447674
40
3.1922834
50
76.3582578
51
80.4015422
0
ARC
8
DEFAULT_255_2_778
10
19.9657726
20
21.6367254
40
2.8960147
50
80.420909
51
84.9663771
0
ARC
8
DEFAULT_255_2_778
10
19.9742633
20
21.7242271
40
2.8081057
50
84.9823028
51
89.6769995
0
ARC
8
DEFAULT_255_2_778
10
19.9742159
20
21.7186672
40
2.8136657
50
89.676672
51
90.0003729
0
ARC
8
DEFAULT_255_2_778
10
19.9747799
20
21.673333
40
2.859
50
90.0116701
51
94.4974758
0
ARC
8
DEFAULT_255_2_778
10
19.9871332
20
21.5221465
40
3.0106896
50
94.506229
51
99.0248165
0
ARC
8
DEFAULT_255_2_778
10
20.0257579
20
21.2801373
40
3.2557617
50
99.0280628
51
103.2320114
0
ARC
8
DEFAULT_255_2_778
10
20.100648
20
20.9616766
40
3.5829096
50
103.2321367
51
107.0628726
0
ARC
8
DEFAULT_255_2_778
10
20.2187861
20
20.5763598
40
3.9859303
50
107.0611198
51
110.5183995
0
ARC
8
DEFAULT_255_2_778
10
20.3875869
20
20.1250854
40
4.4677416
50
110.5173309
51
113.6934209
0
ARC
8
DEFAULT_255_2_778
10
20.6147294
20
19.6070351
40
5.0334004
50
113.6913912
51
116.5818538
0
ARC
8
DEFAULT_255_2_778
10
20.8045711
20
19.2220953
40
5.4626007
50
116.555877
51
117.5031997
0
ARC
8
DEFAULT_255_2_778
10
18.2168614
20
24.1913064
40
0.1400157
50
286.715551
51
297.7025985
0
ARC
8
DEFAULT_255_2_778
10
18.2246925
20
24.164871
40
0.1124448
50
270.2052496
51
286.7681156
0
ARC
8
DEFAULT_255_2_778
10
18.2286833
20
24.1747616
40
0.1223873
50
223.6662346
51
268.3200563
0
ARC
8
DEFAULT_255_2_778
10
18.3158105
20
24.2676851
40
0.2496725
50
208.1152286
51
225.2868098
0
ARC
8
DEFAULT_255_2_778
10
18.4783157
20
24.3572125
40
0.4351983
50
196.7564652
51
208.4290117
0
ARC
8
DEFAULT_255_2_778
10
18.6918906
20
24.4233135
40
0.6587641
50
187.6817282
51
196.9060395
0
ARC
8
DEFAULT_255_2_778
10
18.9024416
20
24.4530973
40
0.8714078
50
179.8656974
51
187.7719414
0
ARC
8
DEFAULT_255_2_778
10
19.0578534
20
24.4538941
40
1.0268181
50
173.3226847
51
179.9304904
0
ARC
8
DEFAULT_255_2_778
10
19.1556687
20
24.4428155
40
1.1252581
50
166.5998365
51
173.3415338
0
ARC
8
DEFAULT_255_2_778
10
19.2133271
20
24.429331
40
1.1844718
50
159.4766875
51
166.6116872
0
ARC
8
DEFAULT_255_2_778
10
19.2402758
20
24.4195786
40
1.213129
50
155.09821
51
159.4915416
0
ARC
8
DEFAULT_255_2_778
10
19.2693939
20
24.4052351
40
1.2455799
50
143.0196218
51
155.063739
0
ARC
8
DEFAULT_255_2_778
10
19.330605
20
24.3584952
40
1.322594
50
131.8333689
51
142.9972343
0
ARC
8
DEFAULT_255_2_778
10
19.4273777
20
24.2498728
40
1.4680713
50
122.1123903
51
131.8199694
0
ARC
8
DEFAULT_255_2_778
10
19.5464775
20
24.0602998
40
1.6919522
50
113.9274827
51
122.1159391
0
ARC
8
DEFAULT_255_2_778
10
19.6693517
20
23.7844443
40
1.993936
50
107.0875887
51
113.9399193
0
ARC
8
DEFAULT_255_2_778
10
19.7830997
20
23.4156504
40
2.3798732
50
101.1599454
51
107.0963257
0
ARC
8
DEFAULT_255_2_778
10
19.8775348
20
22.9390045
40
2.8657839
50
95.9611661
51
101.1678493
0
ARC
8
DEFAULT_255_2_778
10
19.9395147
20
22.3530316
40
3.455025
50
91.5530754
51
95.9742482
0
ARC
8
DEFAULT_255_2_778
10
19.9563779
20
21.8767029
40
3.9316378
50
89.9901738
51
91.6105964
0
ARC
8
DEFAULT_255_2_778
10
19.9612046
20
22.0024688
40
3.8058739
50
85.4086642
51
90.0625126
0
ARC
8
DEFAULT_255_2_778
10
20.0075038
20
22.5719891
40
3.2344751
50
80.0612093
51
85.4186108
0
ARC
8
DEFAULT_255_2_778
10
20.08921
20
23.037755
40
2.7615968
50
74.2242356
51
80.0630908
0
ARC
8
DEFAULT_255_2_778
10
20.1963356
20
23.4146518
40
2.3697721
50
67.3000994
51
74.2392846
0
ARC
8
DEFAULT_255_2_778
10
20.3213586
20
23.7129654
40
2.0463191
50
59.4751261
51
67.3062032
0
ARC
8
DEFAULT_255_2_778
10
20.451964
20
23.9342208
40
1.7893918
50
50.7814703
51
59.479168
0
ARC
8
DEFAULT_255_2_778
10
20.5847038
20
24.0965569
40
1.5796948
50
41.2667469
51
50.7886144
0
ARC
8
DEFAULT_255_2_778
10
20.7095597
20
24.2072782
40
1.4128195
50
33.715481
51
41.2313576
0
ARC
8
DEFAULT_255_2_778
10
20.8279166
20
24.2863114
40
1.2705008
50
26.7310773
51
33.7135007
0
ARC
8
DEFAULT_255_2_778
10
20.9650025
20
24.3549358
40
1.117198
50
19.4135408
51
26.7501276
0
ARC
8
DEFAULT_255_2_778
10
21.1310407
20
24.4129892
40
0.9413043
50
11.6907269
51
19.440059
0
ARC
8
DEFAULT_255_2_778
10
21.3172191
20
24.4510302
40
0.7512799
50
3.3128576
51
11.7268166
0
ARC
8
DEFAULT_255_2_778
10
21.4440813
20
24.4601522
40
0.6241052
50
0.027227
51
3.1498454
0
ARC
8
DEFAULT_255_2_778
10
21.5650447
20
24.4579851
40
0.5031476
50
349.9347092
51
0.2805562
0
ARC
8
DEFAULT_255_2_778
10
21.7216137
20
24.4293242
40
0.3439805
50
336.2979596
51
350.0773159
0
ARC
8
DEFAULT_255_2_778
10
21.8339287
20
24.3786696
40
0.2207807
50
314.5456697
51
336.6180481
0
ARC
8
DEFAULT_255_2_778
10
21.8725168
20
24.3419524
40
0.167553
50
296.6810955
51
313.9489012
0
LINE
8
DEFAULT_255_2_778
10
6.8918522
20
24.1922404
11
6.8918522
21
24.1922404
0
LINE
8
DEFAULT_255_2_778
10
21.9477522
20
24.1922404
11
21.9477522
21
24.1922404
0
ARC
8
DEFAULT_255_2_778
10
14.113942
20
17.6281537
40
1.653992
50
261.1635601
51
270.0639305
0
ARC
8
DEFAULT_255_2_778
10
14.1045426
20
17.5606638
40
1.5858597
50
251.0019456
51
261.1245566
0
ARC
8
DEFAULT_255_2_778
10
14.129995
20
17.6289586
40
1.6587212
50
240.7632934
51
250.9386115
0
ARC
8
DEFAULT_255_2_778
10
14.2426128
20
17.8284489
40
1.8878031
50
232.4077014
51
240.7379023
0
ARC
8
DEFAULT_255_2_778
10
14.4358493
20
18.0831995
40
2.2075432
50
227.945053
51
232.4672045
0
ARC
8
DEFAULT_255_2_778
10
14.580675
20
18.2469859
40
2.4261664
50
227.8993959
51
227.996481
0
ARC
8
DEFAULT_255_2_778
10
14.5587938
20
18.2227422
40
2.3935086
50
227.8011119
51
227.8989487
0
ARC
8
DEFAULT_255_2_778
10
14.6839365
20
18.3605644
40
2.579669
50
227.7079358
51
227.7981831
0
ARC
8
DEFAULT_255_2_778
10
14.5155904
20
18.1755333
40
2.3295153
50
227.6090828
51
227.7084383
0
ARC
8
DEFAULT_255_2_778
10
14.4943691
20
18.1524179
40
2.298136
50
227.5111813
51
227.6113055
0
ARC
8
DEFAULT_255_2_778
10
14.6136797
20
18.282904
40
2.4749457
50
227.4223577
51
227.5147858
0
ARC
8
DEFAULT_255_2_778
10
14.5906958
20
18.2579627
40
2.4410293
50
227.3303527
51
227.4235169
0
ARC
8
DEFAULT_255_2_778
10
14.5567168
20
18.2211607
40
2.3909397
50
227.2367656
51
227.3313249
0
ARC
8
DEFAULT_255_2_778
10
14.6933891
20
18.3688521
40
2.5921661
50
227.1486864
51
227.2353941
0
ARC
8
DEFAULT_255_2_778
10
14.6693077
20
18.3426383
40
2.5565704
50
227.0574023
51
227.1448018
0
ARC
8
DEFAULT_255_2_778
10
14.6455867
20
18.3171334
40
2.5217395
50
226.9690652
51
227.0571518
0
ARC
8
DEFAULT_255_2_778
10
14.6220689
20
18.2919026
40
2.4872477
50
226.8796796
51
226.9684632
0
ARC
8
DEFAULT_255_2_778
10
14.9899208
20
18.6839803
40
3.0248717
50
226.7975501
51
226.8701245
0
ARC
8
DEFAULT_255_2_778
10
14.9613647
20
18.652496
40
2.9823727
50
226.7101997
51
226.7833751
0
ARC
8
DEFAULT_255_2_778
10
14.728918
20
18.4051778
40
2.6429651
50
226.6197346
51
226.7018208
0
ARC
8
DEFAULT_255_2_778
10
14.6934295
20
18.3674817
40
2.5911923
50
226.5343422
51
226.617575
0
ARC
8
DEFAULT_255_2_778
10
14.5085079
20
18.1726123
40
2.3225474
50
226.4459564
51
226.5382686
0
ARC
8
DEFAULT_255_2_778
10
14.6453073
20
18.3167257
40
2.5212499
50
226.3650056
51
226.4495404
0
ARC
8
DEFAULT_255_2_778
10
14.8235822
20
18.5036271
40
2.7795406
50
226.2876878
51
226.3639139
0
ARC
8
DEFAULT_255_2_778
10
14.7969411
20
18.475196
40
2.74058
50
226.2026742
51
226.2795267
0
ARC
8
DEFAULT_255_2_778
10
14.5749654
20
18.2438575
40
2.4199702
50
226.1187322
51
226.2052511
0
ARC
8
DEFAULT_255_2_778
10
14.7447178
20
18.4205228
40
2.6649733
50
226.0428844
51
226.1209836
0
ARC
8
DEFAULT_255_2_778
10
14.7191983
20
18.394025
40
2.628185
50
225.9636779
51
226.0424006
0
ARC
8
DEFAULT_255_2_778
10
14.9210024
20
18.6021886
40
2.9181104
50
225.885748
51
225.9562283
0
ARC
8
DEFAULT_255_2_778
10
14.6687587
20
18.3421048
40
2.5557979
50
225.807035
51
225.8870286
0
ARC
8
DEFAULT_255_2_778
10
14.8652777
20
18.5439786
40
2.8375294
50
225.7317422
51
225.803365
0
ARC
8
DEFAULT_255_2_778
10
14.8378684
20
18.5157481
40
2.798182
50
225.6579442
51
225.7301418
0
ARC
8
DEFAULT_255_2_778
10
14.8107749
20
18.4875715
40
2.7590938
50
225.5785746
51
225.6513588
0
ARC
8
DEFAULT_255_2_778
10
15.0638612
20
18.7454561
40
3.1204207
50
225.5099059
51
225.5738784
0
ARC
8
DEFAULT_255_2_778
10
14.7577024
20
18.4334652
40
2.6833035
50
225.430965
51
225.5049148
0
ARC
8
DEFAULT_255_2_778
10
14.7348789
20
18.4104057
40
2.6508589
50
225.3582242
51
225.4326321
0
ARC
8
DEFAULT_255_2_778
10
14.7057957
20
18.3810464
40
2.6095333
50
225.2844759
51
225.3596102
0
ARC
8
DEFAULT_255_2_778
10
14.9423764
20
18.619896
40
2.9457171
50
225.2170549
51
225.2832162
0
ARC
8
DEFAULT_255_2_778
10
14.9131901
20
18.590202
40
2.9040814
50
225.1463759
51
225.2130838
0
ARC
8
DEFAULT_255_2_778
10
14.6304704
20
18.3062189
40
2.5033611
50
225.0724373
51
225.1493596
0
ARC
8
DEFAULT_255_2_778
10
14.8555915
20
18.5320986
40
2.8222671
50
225.0073212
51
225.0751423
0
ARC
8
DEFAULT_255_2_778
10
14.5814808
20
18.2580663
40
2.4346714
50
224.9316449
51
225.009791
0
ARC
8
DEFAULT_255_2_778
10
14.7993501
20
18.4758956
40
2.7427567
50
224.8697814
51
224.9387328
0
ARC
8
DEFAULT_255_2_778
10
14.7717799
20
18.4484176
40
2.7038318
50
224.7997649
51
224.8692883
0
ARC
8
DEFAULT_255_2_778
10
14.7467676
20
18.4238528
40
2.6687747
50
224.7339144
51
224.8039271
0
ARC
8
DEFAULT_255_2_778
10
15.0275726
20
18.7021683
40
3.0641365
50
224.6747186
51
224.7353304
0
ARC
8
DEFAULT_255_2_778
10
14.9966738
20
18.6711507
40
3.0203562
50
224.6072912
51
224.6684108
0
ARC
8
DEFAULT_255_2_778
10
14.6651581
20
18.344213
40
2.5547481
50
224.5364966
51
224.6083193
0
ARC
8
DEFAULT_255_2_778
10
14.9360917
20
18.6112143
40
2.9351357
50
224.4801497
51
224.5422869
0
ARC
8
DEFAULT_255_2_778
10
14.906405
20
18.5819169
40
2.8934268
50
224.4154553
51
224.4781073
0
ARC
8
DEFAULT_255_2_778
10
14.8773529
20
18.553653
40
2.8528948
50
224.355187
51
224.4183447
0
ARC
8
DEFAULT_255_2_778
10
15.2452301
20
18.9129152
40
3.3670959
50
224.2968078
51
224.3499965
0
ARC
8
DEFAULT_255_2_778
10
15.211028
20
18.8788879
40
3.3188527
50
224.2350847
51
224.2887196
0
ARC
8
DEFAULT_255_2_778
10
14.7917835
20
18.4706629
40
2.7336916
50
224.1699482
51
224.2346691
0
ARC
8
DEFAULT_255_2_778
10
15.1440388
20
18.8128025
40
3.2247551
50
224.1147216
51
224.1692539
0
ARC
8
DEFAULT_255_2_778
10
15.1112392
20
18.7807224
40
3.1788759
50
224.0561308
51
224.1111142
0
ARC
8
DEFAULT_255_2_778
10
15.0787447
20
18.7489867
40
3.1334557
50
223.9968197
51
224.052261
0
ARC
8
DEFAULT_255_2_778
10
14.6826856
20
18.3668143
40
2.5830754
50
223.9340419
51
224.0008871
0
ARC
8
DEFAULT_255_2_778
10
14.6563708
20
18.3422071
40
2.5470521
50
223.8787524
51
223.9461303
0
ARC
8
DEFAULT_255_2_778
10
14.630296
20
18.3178599
40
2.5113813
50
223.8227813
51
223.8906998
0
ARC
8
DEFAULT_255_2_778
10
15.4454588
20
19.10028
40
3.6412801
50
223.7771854
51
223.823743
0
ARC
8
DEFAULT_255_2_778
10
14.5792061
20
18.2702837
40
2.441577
50
223.7089919
51
223.7780025
0
ARC
8
DEFAULT_255_2_778
10
14.8930409
20
18.5708861
40
2.8761503
50
223.6594229
51
223.7176486
0
ARC
8
DEFAULT_255_2_778
10
15.331479
20
18.989542
40
3.4823687
50
223.61483
51
223.6626257
0
ARC
8
DEFAULT_255_2_778
10
14.8345301
20
18.5158779
40
2.7958442
50
223.5529797
51
223.6121476
0
ARC
8
DEFAULT_255_2_778
10
15.2579605
20
18.9186734
40
3.3802563
50
223.5071691
51
223.5558078
0
ARC
8
DEFAULT_255_2_778
10
14.7775096
20
18.4628031
40
2.7179491
50
223.4497234
51
223.5098438
0
ARC
8
DEFAULT_255_2_778
10
14.9666646
20
18.6423081
40
2.9787203
50
223.3724392
51
223.4541747
0
ARC
8
DEFAULT_255_2_778
10
15.144332
20
18.8104503
40
3.2233374
50
223.301379
51
223.3762166
0
ARC
8
DEFAULT_255_2_778
10
15.0938413
20
18.7629912
40
3.1540433
50
223.2272306
51
223.3030079
0
ARC
8
DEFAULT_255_2_778
10
15.3093039
20
18.9654489
40
3.4497007
50
223.1577645
51
223.2264083
0
ARC
8
DEFAULT_255_2_778
10
14.9958032
20
18.6716922
40
3.0200779
50
223.0829234
51
223.1606083
0
ARC
8
DEFAULT_255_2_778
10
15.1829585
20
18.8469441
40
3.2764766
50
223.0147856
51
223.0857295
0
ARC
8
DEFAULT_255_2_778
10
15.4387389
20
19.0854729
40
3.6262188
50
222.9499618
51
223.0134702
0
ARC
8
DEFAULT_255_2_778
10
15.0983962
20
18.7688102
40
3.1613441
50
222.87987
51
222.9520424
0
ARC
8
DEFAULT_255_2_778
10
15.3228219
20
18.9770246
40
3.4674814
50
222.8124047
51
222.877595
0
ARC
8
DEFAULT_255_2_778
10
15.2673055
20
18.9259088
40
3.3920173
50
222.7502877
51
222.8163098
0
ARC
8
DEFAULT_255_2_778
10
15.5770724
20
19.2120206
40
3.8136989
50
222.6895013
51
222.7476777
0
ARC
8
DEFAULT_255_2_778
10
15.5149509
20
19.1542596
40
3.7288739
50
222.6253823
51
222.6843286
0
ARC
8
DEFAULT_255_2_778
10
15.4544613
20
19.0984856
40
3.6465955
50
222.564494
51
222.624209
0
ARC
8
DEFAULT_255_2_778
10
15.3953037
20
19.0440553
40
3.5662072
50
222.5028221
51
222.563314
0
ARC
8
DEFAULT_255_2_778
10
15.3700446
20
19.0211081
40
3.5320813
50
222.4447157
51
222.5052222
0
ARC
8
DEFAULT_255_2_778
10
15.3132518
20
18.9693215
40
3.4552226
50
222.3853215
51
222.4465962
0
ARC
8
DEFAULT_255_2_778
10
15.2745848
20
18.9343621
40
3.4030955
50
222.3175465
51
222.389429
0
ARC
8
DEFAULT_255_2_778
10
15.5137187
20
19.152325
40
3.7266582
50
222.2552819
51
222.3202066
0
ARC
8
DEFAULT_255_2_778
10
15.4431437
20
19.0885751
40
3.6315542
50
222.1936791
51
222.2595759
0
ARC
8
DEFAULT_255_2_778
10
15.3741917
20
19.0264251
40
3.5387268
50
222.1310883
51
222.1979738
0
ARC
8
DEFAULT_255_2_778
10
15.6651062
20
19.2901262
40
3.931371
50
222.0775172
51
222.137063
0
ARC
8
DEFAULT_255_2_778
10
15.5896605
20
19.2219901
40
3.8297118
50
222.0168459
51
222.077302
0
ARC
8
DEFAULT_255_2_778
10
15.5163455
20
19.1562543
40
3.7312423
50
221.9590848
51
222.0204552
0
ARC
8
DEFAULT_255_2_778
10
15.7591306
20
19.3748985
40
4.0579682
50
221.9030071
51
221.9627935
0
ARC
8
DEFAULT_255_2_778
10
15.6757915
20
19.3005084
40
3.9462578
50
221.8465079
51
221.9072621
0
ARC
8
DEFAULT_255_2_778
10
15.5944785
20
19.2280753
40
3.8373621
50
221.7890817
51
221.8508227
0
ARC
8
DEFAULT_255_2_778
10
15.6616315
20
19.2884985
40
3.9276969
50
221.73189
51
221.7934808
0
ARC
8
DEFAULT_255_2_778
10
16.0591
20
19.6433137
40
4.4604961
50
221.6802052
51
221.7346383
0
ARC
8
DEFAULT_255_2_778
10
16.0641533
20
19.6478204
40
4.4672671
50
221.6257519
51
221.6802769
0
ARC
8
DEFAULT_255_2_778
10
15.9654908
20
19.5605962
40
4.3355774
50
221.5747443
51
221.6302152
0
ARC
8
DEFAULT_255_2_778
10
16.409694
20
19.9544421
40
4.9292364
50
221.5249528
51
221.5731256
0
ARC
8
DEFAULT_255_2_778
10
16.3004791
20
19.858206
40
4.7836716
50
221.4801922
51
221.529202
0
ARC
8
DEFAULT_255_2_778
10
16.9069245
20
20.3936297
40
5.5926549
50
221.4331221
51
221.4745109
0
ARC
8
DEFAULT_255_2_778
10
16.7794392
20
20.2806042
40
5.4222815
50
221.3870057
51
221.429153
0
ARC
8
DEFAULT_255_2_778
10
16.6574163
20
20.1731348
40
5.25968
50
221.3445897
51
221.3874878
0
ARC
8
DEFAULT_255_2_778
10
16.6344572
20
20.1529189
40
5.2290891
50
221.3018731
51
221.3444732
0
ARC
8
DEFAULT_255_2_778
10
17.3641685
20
20.7937166
40
6.2002225
50
221.26424
51
221.2997101
0
ARC
8
DEFAULT_255_2_778
10
17.2237899
20
20.6706319
40
6.0135251
50
221.2287491
51
221.2648543
0
ARC
8
DEFAULT_255_2_778
10
17.2260725
20
20.6720772
40
6.0161941
50
221.1891457
51
221.2247744
0
ARC
8
DEFAULT_255_2_778
10
18.3689222
20
21.671831
40
7.5346186
50
221.1590398
51
221.187125
0
ARC
8
DEFAULT_255_2_778
10
18.1898428
20
21.5139526
40
7.2958844
50
221.1225292
51
221.1511626
0
ARC
8
DEFAULT_255_2_778
10
18.2531627
20
21.5685856
40
7.3795142
50
221.0907908
51
221.1187374
0
ARC
8
DEFAULT_255_2_778
10
16.7097976
20
20.2230153
40
5.3319462
50
221.0554913
51
221.0936746
0
ARC
8
DEFAULT_255_2_778
10
16.5923459
20
20.1219896
40
5.1770263
50
221.027297
51
221.0661188
0
ARC
8
DEFAULT_255_2_778
10
17.7650299
20
21.1437223
40
6.7323798
50
221.0065119
51
221.0359818
0
ARC
8
DEFAULT_255_2_778
10
20.1166733
20
23.187112
40
9.8477717
50
220.9807755
51
221.0006637
0
LINE
8
DEFAULT_255_2_778
10
12.6822983
20
16.7288865
11
12.6175421
21
16.8037851
0
ARC
8
DEFAULT_255_2_778
10
11.1810831
20
15.5667386
40
1.8957053
50
40.7342992
51
42.9838617
0
ARC
8
DEFAULT_255_2_778
10
12.2668577
20
16.5838629
40
0.4079614
50
42.4501333
51
50.3043424
0
ARC
8
DEFAULT_255_2_778
10
12.4829794
20
16.8501331
40
0.0651508
50
46.9827409
51
78.3333717
0
ARC
8
DEFAULT_255_2_778
10
12.4942287
20
16.8920768
40
0.0219457
50
84.9670229
51
89.9483131
0
ARC
8
DEFAULT_255_2_778
10
12.4948342
20
16.8941729
40
0.0198581
50
91.690089
51
158.623737
0
ARC
8
DEFAULT_255_2_778
10
12.5417199
20
16.8694011
40
0.0727934
50
153.9129392
51
169.3509222
0
ARC
8
DEFAULT_255_2_778
10
12.6654718
20
16.8437354
40
0.1991707
50
168.6733805
51
176.0994621
0
ARC
8
DEFAULT_255_2_778
10
12.9054741
20
16.8253586
40
0.4398717
50
175.8378958
51
179.7790571
0
ARC
8
DEFAULT_255_2_778
10
13.1204955
20
16.8221724
40
0.6549079
50
179.572842
51
180.0008405
0
ARC
8
DEFAULT_255_2_778
10
13.3825294
20
16.8241975
40
0.9169442
50
180.1271438
51
187.9378099
0
ARC
8
DEFAULT_255_2_778
10
13.5044112
20
16.8404482
40
1.0399027
50
187.897221
51
196.1495184
0
ARC
8
DEFAULT_255_2_778
10
13.5642102
20
16.8573664
40
1.1020478
50
196.1296466
51
205.1028692
0
ARC
8
DEFAULT_255_2_778
10
13.5910707
20
16.8694429
40
1.1314948
50
205.0795965
51
209.3370419
0
ARC
8
DEFAULT_255_2_778
10
13.6341993
20
16.8954688
40
1.1818445
50
209.4125472
51
222.7611862
0
ARC
8
DEFAULT_255_2_778
10
13.7376062
20
16.9918529
40
1.3232044
50
222.7852953
51
234.2046298
0
ARC
8
DEFAULT_255_2_778
10
13.8824093
20
17.1932489
40
1.5712531
50
234.2171545
51
244.1135283
0
ARC
8
DEFAULT_255_2_778
10
14.0450032
20
17.5267936
40
1.9423171
50
244.0941388
51
252.1820409
0
ARC
8
DEFAULT_255_2_778
10
14.1979807
20
17.9994177
40
2.4390815
50
252.1580895
51
258.7832738
0
ARC
8
DEFAULT_255_2_778
10
14.3201079
20
18.6075776
40
3.0593813
50
258.75528
51
264.0783489
0
ARC
8
DEFAULT_255_2_778
10
14.399151
20
19.3619641
40
3.8178971
50
264.0664571
51
268.662695
0
ARC
8
DEFAULT_255_2_778
10
14.4191189
20
19.9700337
40
4.426271
50
268.5879905
51
270.0086559
0
ARC
8
DEFAULT_255_2_778
10
14.4254631
20
19.6608729
40
4.1171141
50
269.9210167
51
274.2902985
0
ARC
8
DEFAULT_255_2_778
10
14.4891207
20
18.8286992
40
3.2825103
50
274.2689259
51
279.599106
0
ARC
8
DEFAULT_255_2_778
10
14.6036552
20
18.1561505
40
2.6002794
50
279.5818952
51
285.8980078
0
ARC
8
DEFAULT_255_2_778
10
14.749922
20
17.6450731
40
2.0686842
50
285.8793131
51
293.4257452
0
ARC
8
DEFAULT_255_2_778
10
14.9116791
20
17.2737835
40
1.6636899
50
293.397698
51
302.822471
0
ARC
8
DEFAULT_255_2_778
10
15.0664901
20
17.0339178
40
1.3782042
50
302.8191517
51
314.1291403
0
ARC
8
DEFAULT_255_2_778
10
15.1841702
20
16.911742
40
1.2085718
50
314.1576279
51
327.083822
0
ARC
8
DEFAULT_255_2_778
10
15.2325246
20
16.8782953
40
1.149806
50
327.1735686
51
330.6810508
0
ARC
8
DEFAULT_255_2_778
10
15.2578911
20
16.8645444
40
1.1209553
50
330.6589817
51
339.7645535
0
ARC
8
DEFAULT_255_2_778
10
15.3016783
20
16.8486196
40
1.0743625
50
339.7537179
51
348.3594323
0
ARC
8
DEFAULT_255_2_778
10
15.3898902
20
16.83096
40
0.984402
50
348.3302013
51
356.2321429
0
ARC
8
DEFAULT_255_2_778
10
15.5017293
20
16.8226434
40
0.8722585
50
356.294491
51
359.9684253
0
ARC
8
DEFAULT_255_2_778
10
16.130844
20
16.8235194
40
0.2431473
50
359.6803252
51
5.8654934
0
ARC
8
DEFAULT_255_2_778
10
16.2565453
20
16.8370614
40
0.1167219
50
5.5585492
51
16.4088401
0
ARC
8
DEFAULT_255_2_778
10
16.3221329
20
16.8571694
40
0.0481315
50
15.5026388
51
38.6383837
0
ARC
8
DEFAULT_255_2_778
10
16.3396108
20
16.8705105
40
0.0261537
50
39.7174822
51
91.794412
0
ARC
8
DEFAULT_255_2_778
10
16.3450004
20
16.8176789
40
0.0792164
50
94.4951299
51
122.743303
0
ARC
8
DEFAULT_255_2_778
10
16.4806835
20
16.5816499
40
0.3513895
50
120.5351459
51
129.7798648
0
ARC
8
DEFAULT_255_2_778
10
16.6704122
20
16.3380316
40
0.660085
50
128.9058739
51
129.1504706
0
ARC
8
DEFAULT_255_2_778
10
16.7019425
20
16.2992642
40
0.7100554
50
129.1484757
51
129.3767646
0
ARC
8
DEFAULT_255_2_778
10
16.7374517
20
16.2560785
40
0.7659652
50
129.3805478
51
129.5929582
0
ARC
8
DEFAULT_255_2_778
10
16.7516935
20
16.2389456
40
0.7882444
50
129.5969759
51
129.8040932
0
ARC
8
DEFAULT_255_2_778
10
16.7604871
20
16.2283696
40
0.8019986
50
129.8030372
51
130.0072506
0
ARC
8
DEFAULT_255_2_778
10
16.8030616
20
16.1777055
40
0.8681759
50
130.0098456
51
130.199046
0
ARC
8
DEFAULT_255_2_778
10
16.858365
20
16.1123787
40
0.9537683
50
130.2036261
51
130.3763108
0
ARC
8
DEFAULT_255_2_778
10
16.8264265
20
16.1499481
40
0.9044579
50
130.3767363
51
130.5592827
0
ARC
8
DEFAULT_255_2_778
10
16.8840558
20
16.0825114
40
0.9931644
50
130.5554312
51
130.7220432
0
ARC
8
DEFAULT_255_2_778
10
16.8930216
20
16.0720979
40
1.0069058
50
130.7221238
51
130.8867915
0
ARC
8
DEFAULT_255_2_778
10
16.9543991
20
16.0011601
40
1.1007109
50
130.8851311
51
131.0360351
0
ARC
8
DEFAULT_255_2_778
10
16.9637782
20
15.9904369
40
1.114957
50
131.0378066
51
131.187018
0
ARC
8
DEFAULT_255_2_778
10
16.9801042
20
15.9717002
40
1.1398086
50
131.1843992
51
131.3305585
0
ARC
8
DEFAULT_255_2_778
10
17.0559107
20
15.8853685
40
1.2546989
50
131.3264657
51
131.4593984
0
ARC
8
DEFAULT_255_2_778
10
17.1479094
20
15.7815315
40
1.3934282
50
131.467488
51
131.5873045
0
ARC
8
DEFAULT_255_2_778
10
17.0825468
20
15.8553058
40
1.294864
50
131.590883
51
131.7199235
0
ARC
8
DEFAULT_255_2_778
10
17.1783469
20
15.7478202
40
1.4388459
50
131.7189389
51
131.8351392
0
ARC
8
DEFAULT_255_2_778
10
17.1978293
20
15.7261799
40
1.4679638
50
131.8383329
51
131.9522794
0
ARC
8
DEFAULT_255_2_778
10
17.2061815
20
15.7168323
40
1.4804993
50
131.9508323
51
132.0638454
0
ARC
8
DEFAULT_255_2_778
10
17.2139183
20
15.7080092
40
1.4922329
50
132.0574186
51
132.1695556
0
ARC
8
DEFAULT_255_2_778
10
17.2311524
20
15.6887503
40
1.5180764
50
132.1636773
51
132.2738999
0
ARC
8
DEFAULT_255_2_778
10
17.4989909
20
15.3941675
40
1.9162177
50
132.2746516
51
132.3619547
0
ARC
8
DEFAULT_255_2_778
10
17.3672824
20
15.5387733
40
1.7206214
50
132.3658593
51
132.463052
0
ARC
8
DEFAULT_255_2_778
10
17.5336876
20
15.3569182
40
1.9671209
50
132.4626535
51
132.5476238
0
ARC
8
DEFAULT_255_2_778
10
17.5569239
20
15.3317549
40
2.0013716
50
132.5505728
51
132.6340345
0
ARC
8
DEFAULT_255_2_778
10
17.5640604
20
15.3239268
40
2.0119643
50
132.6325597
51
132.7155161
0
ARC
8
DEFAULT_255_2_778
10
17.5708282
20
15.3165294
40
2.0219904
50
132.7142228
51
132.7966911
0
ARC
8
DEFAULT_255_2_778
10
17.5907865
20
15.2946445
40
2.0516085
50
132.7904429
51
132.8716342
0
ARC
8
DEFAULT_255_2_778
10
17.8305925
20
15.0365258
40
2.4039324
50
132.8748708
51
132.9440798
0
ARC
8
DEFAULT_255_2_778
10
17.83693
20
15.029773
40
2.4131932
50
132.9449976
51
133.0138499
0
ARC
8
DEFAULT_255_2_778
10
17.6172896
20
15.2648178
40
2.0914979
50
133.0068108
51
133.0861385
0
ARC
8
DEFAULT_255_2_778
10
17.8657766
20
14.9987527
40
2.4555533
50
133.079806
51
133.147267
0
ARC
8
DEFAULT_255_2_778
10
17.8686413
20
14.9951467
40
2.4601435
50
133.1385107
51
133.2057324
0
ARC
8
DEFAULT_255_2_778
10
17.8722424
20
14.9911332
40
2.4655342
50
133.2028775
51
133.2698316
0
ARC
8
DEFAULT_255_2_778
10
18.2300639
20
14.6106195
40
2.9878626
50
133.2645478
51
133.3196917
0
ARC
8
DEFAULT_255_2_778
10
18.2333819
20
14.6069514
40
2.9928076
50
133.3177274
51
133.3726691
0
ARC
8
DEFAULT_255_2_778
10
18.2604482
20
14.5781949
40
3.0322982
50
133.3712771
51
133.425388
0
ARC
8
DEFAULT_255_2_778
10
18.2624933
20
14.5759711
40
3.0353191
50
133.4245678
51
133.4785042
0
ARC
8
DEFAULT_255_2_778
10
18.8399798
20
13.9666404
40
3.8748276
50
133.4751523
51
133.5173045
0
ARC
8
DEFAULT_255_2_778
10
18.8431885
20
13.9637975
40
3.8790986
50
133.5227603
51
133.5647638
0
ARC
8
DEFAULT_255_2_778
10
18.2827994
20
14.5527938
40
3.0661087
50
133.5622467
51
133.6152534
0
ARC
8
DEFAULT_255_2_778
10
18.2800017
20
14.5548912
40
3.0626603
50
133.6044279
51
133.6573551
0
ARC
8
DEFAULT_255_2_778
10
19.9001919
20
12.8570433
40
5.4095101
50
133.6581793
51
133.6880633
0
ARC
8
DEFAULT_255_2_778
10
19.969798
20
12.7851492
40
5.5095768
50
133.6950656
51
133.7243247
0
ARC
8
DEFAULT_255_2_778
10
19.9711526
20
12.7847682
40
5.5107884
50
133.7317655
51
133.7609335
0
ARC
8
DEFAULT_255_2_778
10
19.9724479
20
12.7844935
40
5.5118828
50
133.7686822
51
133.7977575
0
ARC
8
DEFAULT_255_2_778
10
19.9691156
20
12.7882622
40
5.5068563
50
133.7998719
51
133.8288847
0
ARC
8
DEFAULT_255_2_778
10
20.0280649
20
12.7272027
40
5.5917281
50
133.8313697
51
133.8598523
0
ARC
8
DEFAULT_255_2_778
10
20.0221552
20
12.7337541
40
5.5829095
50
133.862709
51
133.8911446
0
ARC
8
DEFAULT_255_2_778
10
20.0161453
20
12.7404377
40
5.5739263
50
133.8942548
51
133.9226422
0
ARC
8
DEFAULT_255_2_778
10
20.0055545
20
12.7510647
40
5.5589253
50
133.9199983
51
133.948366
0
ARC
8
DEFAULT_255_2_778
10
22.825555
20
9.8257309
40
9.622173
50
133.9489184
51
133.9652504
0
ARC
8
DEFAULT_255_2_778
10
18.8639419
20
13.9328682
40
3.9157769
50
133.9630616
51
134.0030522
0
ARC
8
DEFAULT_255_2_778
10
20.02368
20
12.7305178
40
5.5862972
50
133.9921186
51
134.0200496
0
ARC
8
DEFAULT_255_2_778
10
22.8131185
20
9.8442899
40
9.6001829
50
134.0212861
51
134.0374793
0
ARC
8
DEFAULT_255_2_778
10
22.8002204
20
9.8586254
40
9.5809115
50
134.0416217
51
134.0577867
0
ARC
8
DEFAULT_255_2_778
10
22.9514024
20
9.7034748
40
9.7975382
50
134.0622087
51
134.0779561
0
ARC
8
DEFAULT_255_2_778
10
22.9354073
20
9.721194
40
9.7736821
50
134.082853
51
134.0985777
0
ARC
8
DEFAULT_255_2_778
10
22.9072541
20
9.7499801
40
9.733418
50
134.0974835
51
134.1132111
0
ARC
8
DEFAULT_255_2_778
10
23.04245
20
9.610312
40
9.9278019
50
134.1123224
51
134.1276803
0
ARC
8
DEFAULT_255_2_778
10
19.9372836
20
12.8109808
40
5.4683916
50
134.1239001
51
134.151669
0
ARC
8
DEFAULT_255_2_778
10
22.9879616
20
9.6677046
40
9.848668
50
134.1480378
51
134.1633926
0
ARC
8
DEFAULT_255_2_778
10
22.9548198
20
9.7017286
40
9.8011708
50
134.162985
51
134.1783497
0
ARC
8
DEFAULT_255_2_778
10
22.9099509
20
9.7462976
40
9.7379384
50
134.1717663
51
134.1871652
0
ARC
8
DEFAULT_255_2_778
10
53.1838703
20
-21.395119
40
53.1694711
50
134.19009
51
134.1928981
0
ARC
8
DEFAULT_255_2_778
10
-4.1486905
20
37.4844761
40
29.0122585
50
314.0542908
51
314.3187151
0
ARC
8
DEFAULT_255_2_778
10
12.224648
20
20.5605707
40
5.4643334
50
312.1613741
51
314.0611206
0
ARC
8
DEFAULT_255_2_778
10
13.3621026
20
19.3135361
40
3.7764814
50
310.9228987
51
312.0686655
0
ARC
8
DEFAULT_255_2_778
10
14.1076984
20
18.4341571
40
2.6236634
50
304.1179487
51
311.199477
0
ARC
8
DEFAULT_255_2_778
10
14.8095937
20
17.3413792
40
1.3256598
50
278.2471933
51
305.4946108
0
ARC
8
DEFAULT_255_2_778
10
14.8945081
20
16.9549626
40
0.9314983
50
270.0264323
51
276.4873205
0
ARC
8
DEFAULT_255_2_778
10
14.8947202
20
16.9229652
40
0.8995009
50
259.4738174
51
270.0138648
0
ARC
8
DEFAULT_255_2_778
10
14.9015248
20
16.956502
40
0.9337166
50
251.1461748
51
259.4392383
0
ARC
8
DEFAULT_255_2_778
10
14.9301594
20
17.0401043
40
1.0220867
50
244.3353791
51
251.1415935
0
ARC
8
DEFAULT_255_2_778
10
14.966624
20
17.1183784
40
1.1084322
50
242.0141047
51
244.3888042
0
LINE
8
DEFAULT_255_2_778
10
14.4464876
20
16.1395628
11
14.1157876
21
15.9741628
0
ARC
8
DEFAULT_255_2_778
10
9.7806381
20
20.848149
40
2.0164404
50
165.9122361
51
180.16744
0
ARC
8
DEFAULT_255_2_778
10
9.3800971
20
20.9526972
40
1.602503
50
150.9042625
51
166.0519986
0
ARC
8
DEFAULT_255_2_778
10
8.9382264
20
21.2042036
40
1.0941035
50
131.7391354
51
151.1608524
0
ARC
8
DEFAULT_255_2_778
10
8.6540856
20
21.5388892
40
0.6552916
50
91.1174346
51
132.6828195
0
ARC
8
DEFAULT_255_2_778
10
8.6257392
20
21.52861
40
0.6656283
50
44.9498744
51
88.6598982
0
ARC
8
DEFAULT_255_2_778
10
8.3080276
20
21.1762126
40
1.1397183
50
27.3772992
51
46.2038098
0
ARC
8
DEFAULT_255_2_778
10
7.8582024
20
20.9356448
40
1.6498005
50
12.4972897
51
27.6124973
0
ARC
8
DEFAULT_255_2_778
10
7.4862528
20
20.8468617
40
2.0321587
50
359.8701514
51
12.671874
0
ARC
8
DEFAULT_255_2_778
10
7.5037556
20
20.8364218
40
2.0146591
50
345.9030534
51
0.1659288
0
ARC
8
DEFAULT_255_2_778
10
7.9053891
20
20.7312139
40
1.5995015
50
330.6860467
51
346.0540853
0
ARC
8
DEFAULT_255_2_778
10
8.3515928
20
20.4748367
40
1.0849252
50
311.1544842
51
330.9548088
0
ARC
8
DEFAULT_255_2_778
10
8.629182
20
20.1426279
40
0.6521844
50
271.0652062
51
311.9993372
0
ARC
8
DEFAULT_255_2_778
10
8.6569336
20
20.1559387
40
0.665566
50
224.9479739
51
268.6545834
0
ARC
8
DEFAULT_255_2_778
10
8.9748796
20
20.5086566
40
1.140049
50
207.3842366
51
226.2054165
0
ARC
8
DEFAULT_255_2_778
10
9.4242771
20
20.7490756
40
1.649684
50
192.5037758
51
207.6195512
0
ARC
8
DEFAULT_255_2_778
10
9.7952214
20
20.8376684
40
2.0310203
50
179.8705757
51
192.6781331
0
LINE
8
DEFAULT_255_2_778
10
7.7642063
20
20.8422562
11
7.7642063
21
20.8422562
0
ARC
8
DEFAULT_255_2_778
10
21.2900381
20
21.002949
40
2.0164404
50
165.9122361
51
180.16744
0
ARC
8
DEFAULT_255_2_778
10
20.8894971
20
21.1074972
40
1.602503
50
150.9042625
51
166.0519986
0
ARC
8
DEFAULT_255_2_778
10
20.4476264
20
21.3590036
40
1.0941035
50
131.7391354
51
151.1608524
0
ARC
8
DEFAULT_255_2_778
10
20.1634856
20
21.6936892
40
0.6552916
50
91.1174346
51
132.6828195
0
ARC
8
DEFAULT_255_2_778
10
20.1351392
20
21.68341
40
0.6656283
50
44.9498744
51
88.6598982
0
ARC
8
DEFAULT_255_2_778
10
19.8174276
20
21.3310126
40
1.1397183
50
27.3772992
51
46.2038098
0
ARC
8
DEFAULT_255_2_778
10
19.3676024
20
21.0904448
40
1.6498005
50
12.4972897
51
27.6124973
0
ARC
8
DEFAULT_255_2_778
10
18.9956528
20
21.0016617
40
2.0321587
50
359.8701514
51
12.671874
0
ARC
8
DEFAULT_255_2_778
10
19.0131556
20
20.9912218
40
2.0146591
50
345.9030534
51
0.1659288
0
ARC
8
DEFAULT_255_2_778
10
19.4147891
20
20.8860139
40
1.5995015
50
330.6860467
51
346.0540853
0
ARC
8
DEFAULT_255_2_778
10
19.8609928
20
20.6296367
40
1.0849252
50
311.1544842
51
330.9548088
0
ARC
8
DEFAULT_255_2_778
10
20.138582
20
20.2974279
40
0.6521844
50
271.0652062
51
311.9993372
0
ARC
8
DEFAULT_255_2_778
10
20.1663336
20
20.3107387
40
0.665566
50
224.9479739
51
268.6545834
0
ARC
8
DEFAULT_255_2_778
10
20.4842796
20
20.6634566
40
1.140049
50
207.3842366
51
226.2054165
0
ARC
8
DEFAULT_255_2_778
10
20.9336771
20
20.9038756
40
1.649684
50
192.5037758
51
207.6195512
0
ARC
8
DEFAULT_255_2_778
10
21.3046214
20
20.9924684
40
2.0310203
50
179.8705757
51
192.6781331
0
LINE
8
DEFAULT_255_2_778
10
19.2736063
20
20.9970562
11
19.2736063
21
20.9970562
0
ARC
8
DEFAULT_255_2_778
10
8.443092
20
21.250108
40
0.3796637
50
89.8736529
51
180.1263471
0
ARC
8
DEFAULT_255_2_778
10
8.444688
20
21.2501295
40
0.3796421
50
359.8704124
51
90.11452
0
ARC
8
DEFAULT_255_2_778
10
8.4447092
20
21.2484908
40
0.3796207
50
269.8822664
51
0.1177305
0
ARC
8
DEFAULT_255_2_778
10
8.4430707
20
21.248512
40
0.3796422
50
179.88548
51
270.1295619
0
LINE
8
DEFAULT_255_2_778
10
8.0634292
20
21.2492708
11
8.0634292
21
21.2492708
0
ARC
8
DEFAULT_255_2_778
10
19.886292
20
21.316208
40
0.3796637
50
89.8736529
51
180.1263471
0
ARC
8
DEFAULT_255_2_778
10
19.887888
20
21.3162295
40
0.3796421
50
359.8704124
51
90.11452
0
ARC
8
DEFAULT_255_2_778
10
19.8879092
20
21.3145908
40
0.3796207
50
269.8822664
51
0.1177305
0
ARC
8
DEFAULT_255_2_778
10
19.8862707
20
21.314612
40
0.3796422
50
179.88548
51
270.1295619
0
LINE
8
DEFAULT_255_2_778
10
19.5066292
20
21.3153708
11
19.5066292
21
21.3153708
0
ARC
8
DEFAULT_255_2_778
10
14.2819149
20
13.7722014
40
1.9664398
50
265.1225039
51
270.0557777
0
ARC
8
DEFAULT_255_2_778
10
14.2620423
20
13.5396091
40
1.7330002
50
259.7713387
51
265.1233064
0
ARC
8
DEFAULT_255_2_778
10
14.2326843
20
13.3749617
40
1.5657563
50
254.6245794
51
259.7586727
0
ARC
8
DEFAULT_255_2_778
10
14.2085801
20
13.2857144
40
1.4733122
50
249.7377997
51
254.6081781
0
ARC
8
DEFAULT_255_2_778
10
14.2064885
20
13.2793142
40
1.4665838
50
248.7163231
51
249.7278625
0
ARC
8
DEFAULT_255_2_778
10
14.2020416
20
13.2678067
40
1.454247
50
248.5793165
51
248.7150041
0
ARC
8
DEFAULT_255_2_778
10
14.2034445
20
13.2715916
40
1.4582829
50
248.4488696
51
248.5823162
0
ARC
8
DEFAULT_255_2_778
10
14.2392457
20
13.3622464
40
1.5557511
50
248.3255793
51
248.4489424
0
ARC
8
DEFAULT_255_2_778
10
14.220116
20
13.3137272
40
1.5035969
50
248.194261
51
248.3201462
0
ARC
8
DEFAULT_255_2_778
10
14.2245115
20
13.3243395
40
1.5150826
50
248.0657954
51
248.1890081
0
ARC
8
DEFAULT_255_2_778
10
14.2300879
20
13.3382054
40
1.530028
50
247.945716
51
248.0660484
0
ARC
8
DEFAULT_255_2_778
10
14.1874772
20
13.2328986
40
1.4164269
50
247.8155639
51
247.9437624
0
ARC
8
DEFAULT_255_2_778
10
14.2178037
20
13.307622
40
1.4970699
50
247.7010345
51
247.8206629
0
ARC
8
DEFAULT_255_2_778
10
14.1991487
20
13.2624191
40
1.448169
50
247.5833431
51
247.7053154
0
ARC
8
DEFAULT_255_2_778
10
14.2484776
20
13.3816991
40
1.5772465
50
247.4686993
51
247.5791553
0
ARC
8
DEFAULT_255_2_778
10
14.2606968
20
13.4108383
40
1.6088439
50
247.3575945
51
247.4643986
0
ARC
8
DEFAULT_255_2_778
10
14.2402111
20
13.3612536
40
1.5551943
50
247.2419034
51
247.3508803
0
ARC
8
DEFAULT_255_2_778
10
14.2204432
20
13.3142223
40
1.5041775
50
247.1321165
51
247.2432491
0
ARC
8
DEFAULT_255_2_778
10
14.2339378
20
13.3461459
40
1.538836
50
247.0239189
51
247.1310644
0
ARC
8
DEFAULT_255_2_778
10
14.2377649
20
13.3550628
40
1.5485393
50
246.8650368
51
247.0223353
0
ARC
8
DEFAULT_255_2_778
10
14.2648053
20
13.4178351
40
1.6168876
50
246.7102797
51
246.8578515
0
ARC
8
DEFAULT_255_2_778
10
14.2278626
20
13.3317671
40
1.5232263
50
246.5531768
51
246.706626
0
ARC
8
DEFAULT_255_2_778
10
14.2396645
20
13.3590584
40
1.5529601
50
246.4069038
51
246.5543466
0
ARC
8
DEFAULT_255_2_778
10
14.2282694
20
13.3332947
40
1.5247894
50
246.2647196
51
246.4118281
0
ARC
8
DEFAULT_255_2_778
10
14.2381821
20
13.3559364
40
1.5495058
50
246.1243546
51
246.2661712
0
ARC
8
DEFAULT_255_2_778
10
14.228754
20
13.3348661
40
1.5264226
50
245.9868124
51
246.1278473
0
ARC
8
DEFAULT_255_2_778
10
14.2202594
20
13.3164098
40
1.5061069
50
245.8562385
51
245.9962731
0
ARC
8
DEFAULT_255_2_778
10
14.2979142
20
13.4896871
40
1.6959891
50
245.7146585
51
245.8566945
0
ARC
8
DEFAULT_255_2_778
10
14.3026685
20
13.4998158
40
1.7071769
50
245.571253
51
245.7090243
0
ARC
8
DEFAULT_255_2_778
10
14.2860031
20
13.4631571
40
1.6669079
50
245.4339243
51
245.5716938
0
ARC
8
DEFAULT_255_2_778
10
14.327143
20
13.5526923
40
1.765442
50
245.2916429
51
245.4276798
0
ARC
8
DEFAULT_255_2_778
10
14.3095044
20
13.5141525
40
1.7230576
50
245.1484167
51
245.288788
0
ARC
8
DEFAULT_255_2_778
10
14.3125614
20
13.5208038
40
1.7303777
50
245.0086191
51
245.1491249
0
ARC
8
DEFAULT_255_2_778
10
14.3393086
20
13.5779289
40
1.7934543
50
244.8732226
51
245.0051497
0
ARC
8
DEFAULT_255_2_778
10
14.3455929
20
13.5915269
40
1.8084342
50
244.7485681
51
244.8758962
0
ARC
8
DEFAULT_255_2_778
10
14.3936719
20
13.6933602
40
1.9210468
50
244.6306127
51
244.7472686
0
ARC
8
DEFAULT_255_2_778
10
14.4132119
20
13.734149
40
1.966274
50
244.5144534
51
244.6253792
0
ARC
8
DEFAULT_255_2_778
10
14.4405856
20
13.7913928
40
2.0297261
50
244.4076354
51
244.5122241
0
ARC
8
DEFAULT_255_2_778
10
14.4775244
20
13.8678983
40
2.1146819
50
244.3026916
51
244.4004012
0
ARC
8
DEFAULT_255_2_778
10
14.4160937
20
13.740419
40
1.9731733
50
244.2030257
51
244.3049533
0
ARC
8
DEFAULT_255_2_778
10
14.5268812
20
13.9695169
40
2.2276527
50
244.1139352
51
244.2018168
0
ARC
8
DEFAULT_255_2_778
10
14.6046912
20
14.1297183
40
2.4057506
50
244.0332542
51
244.1124676
0
ARC
8
DEFAULT_255_2_778
10
14.6188283
20
14.1582918
40
2.4376295
50
243.9524735
51
244.028576
0
ARC
8
DEFAULT_255_2_778
10
14.6394055
20
14.1997594
40
2.4839209
50
243.8733536
51
243.946058
0
ARC
8
DEFAULT_255_2_778
10
14.5676658
20
14.0538288
40
2.3213101
50
243.8012708
51
243.8770086
0
ARC
8
DEFAULT_255_2_778
10
14.8458449
20
14.6192677
40
2.9514726
50
243.7439008
51
243.8018928
0
ARC
8
DEFAULT_255_2_778
10
14.6338066
20
14.1897197
40
2.4724406
50
243.679655
51
243.7470547
0
ARC
8
DEFAULT_255_2_778
10
14.992408
20
14.9146932
40
3.2812555
50
243.6060528
51
243.6800191
0
ARC
8
DEFAULT_255_2_778
10
15.1717001
20
15.2752903
40
3.6839661
50
243.5380629
51
243.6013493
0
ARC
8
DEFAULT_255_2_778
10
15.1470959
20
15.2260242
40
3.628898
50
243.4774984
51
243.5392203
0
ARC
8
DEFAULT_255_2_778
10
12.296656
20
9.5588961
40
2.7147502
50
63.0594998
51
64.3237289
0
ARC
8
DEFAULT_255_2_778
10
13.3962133
20
11.8560816
40
0.1680306
50
62.8386549
51
75.9242698
0
ARC
8
DEFAULT_255_2_778
10
13.4300973
20
11.9841491
40
0.0356092
50
78.693
51
89.3405932
0
ARC
8
DEFAULT_255_2_778
10
13.4297737
20
12.0055742
40
0.0142008
50
87.0393684
51
186.3610642
0
ARC
8
DEFAULT_255_2_778
10
13.4684154
20
11.9990527
40
0.0529865
50
174.6416399
51
180.2055911
0
ARC
8
DEFAULT_255_2_778
10
13.5205919
20
12.0012494
40
0.1051898
50
181.3001835
51
210.0776086
0
ARC
8
DEFAULT_255_2_778
10
13.592899
20
12.0411065
40
0.1877441
50
209.5441183
51
226.842993
0
ARC
8
DEFAULT_255_2_778
10
13.6629357
20
12.1109844
40
0.2866428
50
226.1845457
51
232.5588935
0
ARC
8
DEFAULT_255_2_778
10
13.7681262
20
12.2568236
40
0.4664143
50
233.1907283
51
246.0254211
0
ARC
8
DEFAULT_255_2_778
10
13.9341829
20
12.6185263
40
0.8643985
50
245.7099628
51
253.732425
0
ARC
8
DEFAULT_255_2_778
10
14.1013932
20
13.1829703
40
1.4530857
50
253.6377198
51
259.631763
0
ARC
8
DEFAULT_255_2_778
10
14.2529536
20
13.9934534
40
2.2776139
50
259.5507641
51
263.8924724
0
ARC
8
DEFAULT_255_2_778
10
14.3690627
20
15.0580379
40
3.3485098
50
263.8551031
51
267.2530281
0
ARC
8
DEFAULT_255_2_778
10
14.4364525
20
16.4245819
40
4.7167136
50
267.2309169
51
269.9907858
0
ARC
8
DEFAULT_255_2_778
10
14.4436196
20
17.3164114
40
5.6085488
50
269.9190334
51
270.0000983
0
ARC
8
DEFAULT_255_2_778
10
14.4493687
20
16.4909333
40
4.7830742
50
269.9312475
51
272.6111733
0
ARC
8
DEFAULT_255_2_778
10
14.5131215
20
15.1243909
40
3.4150466
50
272.587182
51
275.9347392
0
ARC
8
DEFAULT_255_2_778
10
14.6270237
20
14.0436401
40
2.3283117
50
275.8966735
51
280.1946983
0
ARC
8
DEFAULT_255_2_778
10
14.7774206
20
13.2185798
40
1.4896594
50
280.1180858
51
286.0070924
0
ARC
8
DEFAULT_255_2_778
10
14.9474239
20
12.6329335
40
0.8798426
50
285.8823056
51
294.147481
0
ARC
8
DEFAULT_255_2_778
10
15.1181356
20
12.2581795
40
0.4680518
50
293.8455176
51
306.800083
0
ARC
8
DEFAULT_255_2_778
10
15.2487465
20
12.0824337
40
0.2490885
50
306.9592625
51
321.0372554
0
ARC
8
DEFAULT_255_2_778
10
15.3342959
20
12.0145283
40
0.1398726
50
320.6298168
51
342.9136642
0
ARC
8
DEFAULT_255_2_778
10
15.3795102
20
11.9994137
40
0.0922205
50
343.6362307
51
359.6575534
0
ARC
8
DEFAULT_255_2_778
10
15.4571051
20
12.0008479
40
0.0147583
50
352.2689234
51
90.3755039
0
ARC
8
DEFAULT_255_2_778
10
15.4533409
20
11.9793773
40
0.0364137
50
84.2195303
51
90.1668114
0
ARC
8
DEFAULT_255_2_778
10
15.4599086
20
11.8983409
40
0.1176395
50
93.252141
51
109.576047
0
ARC
8
DEFAULT_255_2_778
10
15.6068534
20
11.4368014
40
0.6019538
50
108.0347224
51
112.2911485
0
ARC
8
DEFAULT_255_2_778
10
15.8812413
20
10.7393028
40
1.3514484
50
111.8380163
51
111.9925204
0
ARC
8
DEFAULT_255_2_778
10
15.962757
20
10.5372323
40
1.5693413
50
111.9892923
51
112.1214479
0
ARC
8
DEFAULT_255_2_778
10
16.0463807
20
10.3314972
40
1.791422
50
112.1212587
51
112.2361589
0
ARC
8
DEFAULT_255_2_778
10
16.1047956
20
10.1887883
40
1.9456235
50
112.2381049
51
112.3430227
0
ARC
8
DEFAULT_255_2_778
10
16.2376219
20
9.8657564
40
2.2948975
50
112.344358
51
112.4325091
0
ARC
8
DEFAULT_255_2_778
10
16.2538979
20
9.8261752
40
2.3376943
50
112.431048
51
112.5167517
0
ARC
8
DEFAULT_255_2_778
10
-215.0784609
20
561.2083948
40
595.6063144
50
292.75344
51
292.7614373
0
ARC
8
DEFAULT_255_2_778
10
14.1876081
20
14.5735458
40
2.8394253
50
290.6446302
51
292.6704184
0
ARC
8
DEFAULT_255_2_778
10
14.5352258
20
13.6494966
40
1.8521541
50
286.2575643
51
290.6600102
0
ARC
8
DEFAULT_255_2_778
10
14.6536709
20
13.2403106
40
1.426171
50
278.8002477
51
286.2915181
0
ARC
8
DEFAULT_255_2_778
10
14.6915793
20
13.0003565
40
1.1832424
50
270.1030372
51
278.7638528
0
ARC
8
DEFAULT_255_2_778
10
14.6929003
20
12.8849059
40
1.06779
50
262.4026197
51
270.0432987
0
ARC
8
DEFAULT_255_2_778
10
14.6886612
20
12.8490352
40
1.0316738
50
257.0595074
51
262.3725971
0
LINE
8
DEFAULT_255_2_778
10
14.4576292
20
11.8435626
11
14.2838292
21
11.8057626
0
ARC
8
DEFAULT_255_2_778
10
16.547782
20
13.0818372
40
8.0792537
50
230.1500562
51
233.563903
0
ARC
8
DEFAULT_255_2_778
10
15.8424722
20
12.1254279
40
6.8909018
50
233.5589094
51
237.4332738
0
ARC
8
DEFAULT_255_2_778
10
15.2975124
20
11.2707058
40
5.8772301
50
237.4253978
51
241.9503855
0
ARC
8
DEFAULT_255_2_778
10
14.897481
20
10.5185255
40
5.0252913
50
241.9428813
51
247.237173
0
ARC
8
DEFAULT_255_2_778
10
14.6213144
20
9.8563077
40
4.3077973
50
247.2163393
51
254.092488
0
ARC
8
DEFAULT_255_2_778
10
14.4651062
20
9.303956
40
3.7337836
50
254.0746066
51
263.2727181
0
ARC
8
DEFAULT_255_2_778
10
14.4271187
20
9.0156501
40
3.4430148
50
263.338497
51
269.9795598
0
ARC
8
DEFAULT_255_2_778
10
14.4222317
20
8.9954352
40
3.4228016
50
270.0612454
51
286.8989875
0
ARC
8
DEFAULT_255_2_778
10
14.2911334
20
9.4400995
40
3.8863749
50
286.8426687
51
295.2460274
0
ARC
8
DEFAULT_255_2_778
10
14.0227278
20
10.012368
40
4.5184598
50
295.2294523
51
301.7125806
0
ARC
8
DEFAULT_255_2_778
10
13.6229626
20
10.6635028
40
5.2825179
50
301.688762
51
306.596463
0
ARC
8
DEFAULT_255_2_778
10
13.0786621
20
11.396432
40
6.1954519
50
306.5968306
51
311.0786082
0
ARC
8
DEFAULT_255_2_778
10
12.4756952
20
12.0952013
40
7.1183975
50
311.0412986
51
313.6598651
0
LINE
8
DEFAULT_255_2_778
10
11.3707647
20
9.32659
11
11.3707647
21
6.87919
0
LINE
8
DEFAULT_255_2_778
10
17.3900647
20
6.94539
11
17.3900647
21
9.19429
0
LINE
8
DEFAULT_255_2_778
10
17.3900647
20
9.19429
11
11.3707647
21
9.32659
0
ARC
8
DEFAULT_255_2_778
10
17.1781018
20
13.0732472
40
0.2219929
50
63.9181582
51
90.0121987
0
ARC
8
DEFAULT_255_2_778
10
17.1780338
20
13.0782525
40
0.2169877
50
89.994505
51
90.5445664
0
ARC
8
DEFAULT_255_2_778
10
17.1780502
20
13.072726
40
0.2225141
50
90.5352653
51
112.9454487
0
ARC
8
DEFAULT_255_2_778
10
14.5002579
20
19.5818148
40
6.815879
50
270.5358552
51
292.3428632
0
ARC
8
DEFAULT_255_2_778
10
14.5685241
20
18.7541503
40
5.9879181
50
265.162861
51
269.9567303
0
ARC
8
DEFAULT_255_2_778
10
14.6138946
20
19.3134703
40
6.5490722
50
261.6124621
51
265.1799655
0
ARC
8
DEFAULT_255_2_778
10
14.6735162
20
19.7249177
40
6.9648158
50
258.7407814
51
261.6209599
0
ARC
8
DEFAULT_255_2_778
10
14.7217333
20
19.9709377
40
7.2155153
50
256.4573158
51
258.7467043
0
ARC
8
DEFAULT_255_2_778
10
14.738038
20
20.0405828
40
7.2870421
50
254.4616522
51
256.4609124
0
ARC
8
DEFAULT_255_2_778
10
14.7078033
20
19.9318431
40
7.1741772
50
254.3997501
51
254.4616525
0
ARC
8
DEFAULT_255_2_778
10
14.7024655
20
19.9143337
40
7.1558773
50
252.7366862
51
254.4032128
0
ARC
8
DEFAULT_255_2_778
10
14.6205243
20
19.6500897
40
6.87922
50
251.6909013
51
252.7352863
0
ARC
8
DEFAULT_255_2_778
10
14.4884865
20
19.2529731
40
6.4607284
50
250.4164786
51
251.69624
0
ARC
8
DEFAULT_255_2_778
10
14.2610474
20
18.6142437
40
5.7827138
50
249.2915587
51
250.4183896
0
ARC
8
DEFAULT_255_2_778
10
13.9584409
20
17.8139821
40
4.9271501
50
248.350456
51
249.2924082
0
ARC
8
DEFAULT_255_2_778
10
13.6301614
20
16.9861816
40
4.0366327
50
247.6769079
51
248.3465224
0
ARC
8
DEFAULT_255_2_778
10
13.207674
20
15.9600997
40
2.926976
50
246.8091859
51
247.6982281
0
ARC
8
DEFAULT_255_2_778
10
12.594522
20
14.5310519
40
1.3719418
50
246.0339858
51
246.8449828
0
ARC
8
DEFAULT_255_2_778
10
12.1194349
20
13.461343
40
0.2014787
50
245.7557168
51
245.9253803
0
ARC
8
DEFAULT_255_2_778
10
11.9519338
20
13.0810285
40
0.2141013
50
66.6762617
51
90.1635068
0
ARC
8
DEFAULT_255_2_778
10
11.9495601
20
13.0523742
40
0.2427612
50
89.5839677
51
89.9999964
0
ARC
8
DEFAULT_255_2_778
10
11.9463697
20
13.0874849
40
0.207675
50
89.1197688
51
116.9335136
0
ARC
8
DEFAULT_255_2_778
10
11.8866734
20
13.1958214
40
0.0841519
50
114.1070835
51
166.4399715
0
ARC
8
DEFAULT_255_2_778
10
11.8582552
20
13.2069887
40
0.0540705
50
170.8875183
51
179.9819391
0
ARC
8
DEFAULT_255_2_778
10
11.8578022
20
13.2070067
40
0.0536173
50
180.0010377
51
183.0349106
0
ARC
8
DEFAULT_255_2_778
10
11.8691174
20
13.2095843
40
0.0650831
50
184.7736965
51
227.3256156
0
ARC
8
DEFAULT_255_2_778
10
12.3677654
20
13.7042673
40
0.7674206
50
224.987856
51
226.6884651
0
ARC
8
DEFAULT_255_2_778
10
12.7943269
20
14.1546294
40
1.3877265
50
226.6286673
51
228.3232366
0
ARC
8
DEFAULT_255_2_778
10
13.1656914
20
14.5718592
40
1.9462891
50
228.3247797
51
230.5004489
0
ARC
8
DEFAULT_255_2_778
10
13.470902
20
14.9408847
40
2.425176
50
230.4819588
51
232.5729973
0
ARC
8
DEFAULT_255_2_778
10
13.7065843
20
15.2486894
40
2.8128485
50
232.5710898
51
234.9712813
0
ARC
8
DEFAULT_255_2_778
10
13.9051964
20
15.5320429
40
3.1588773
50
234.9713692
51
237.8103848
0
ARC
8
DEFAULT_255_2_778
10
14.0615037
20
15.7799577
40
3.4519534
50
237.8068769
51
240.8437777
0
ARC
8
DEFAULT_255_2_778
10
14.161827
20
15.9583331
40
3.6566047
50
240.8326731
51
243.0144612
0
ARC
8
DEFAULT_255_2_778
10
14.2460535
20
16.1251083
40
3.8434408
50
243.0237167
51
246.6103942
0
ARC
8
DEFAULT_255_2_778
10
14.3274262
20
16.3130181
40
4.0482128
50
246.6091297
51
250.3314837
0
ARC
8
DEFAULT_255_2_778
10
14.3956666
20
16.5042475
40
4.2512531
50
250.3328943
51
254.3599761
0
ARC
8
DEFAULT_255_2_778
10
14.4530994
20
16.7088842
40
4.4637965
50
254.3582074
51
258.1668498
0
ARC
8
DEFAULT_255_2_778
10
14.501528
20
16.9411377
40
4.7010453
50
258.1696164
51
262.1952992
0
ARC
8
DEFAULT_255_2_778
10
14.5396448
20
17.219412
40
4.981918
50
262.1955871
51
266.0973878
0
ARC
8
DEFAULT_255_2_778
10
14.5621626
20
17.5523986
40
5.315665
50
266.0995193
51
270.0230602
0
ARC
8
DEFAULT_255_2_778
10
14.5665689
20
17.5480654
40
5.3113319
50
269.9755465
51
274.0241057
0
ARC
8
DEFAULT_255_2_778
10
14.589743
20
17.2134312
40
4.9758965
50
274.0283248
51
277.8717778
0
ARC
8
DEFAULT_255_2_778
10
14.6284847
20
16.9340703
40
4.6938619
50
277.8703576
51
282.0206714
0
ARC
8
DEFAULT_255_2_778
10
14.6791584
20
16.6951295
40
4.4496069
50
282.0232508
51
285.9890347
0
ARC
8
DEFAULT_255_2_778
10
14.7380507
20
16.4895539
40
4.235762
50
285.9892034
51
289.9360713
0
ARC
8
DEFAULT_255_2_778
10
14.8057119
20
16.302662
40
4.0369993
50
289.937751
51
293.5447122
0
ARC
8
DEFAULT_255_2_778
10
14.8852898
20
16.1201764
40
3.8379174
50
293.5438704
51
296.9769337
0
ARC
8
DEFAULT_255_2_778
10
14.9862718
20
15.922073
40
3.6155611
50
296.9749039
51
300.2206776
0
ARC
8
DEFAULT_255_2_778
10
15.1190633
20
15.6944361
40
3.3520233
50
300.2178176
51
303.2337504
0
ARC
8
DEFAULT_255_2_778
10
15.2877177
20
15.4370306
40
3.0442866
50
303.2338077
51
305.8015817
0
ARC
8
DEFAULT_255_2_778
10
15.5022268
20
15.140171
40
2.6780358
50
305.794731
51
308.2532985
0
ARC
8
DEFAULT_255_2_778
10
15.7582034
20
14.8151691
40
2.2643327
50
308.2585568
51
310.1597138
0
ARC
8
DEFAULT_255_2_778
10
16.0690019
20
14.4478435
40
1.7831641
50
310.1394116
51
312.170709
0
ARC
8
DEFAULT_255_2_778
10
16.4495974
20
14.027744
40
1.2162985
50
312.168484
51
313.7933354
0
ARC
8
DEFAULT_255_2_778
10
16.8826382
20
13.5771332
40
0.5913399
50
313.7219161
51
315.3743997
0
ARC
8
DEFAULT_255_2_778
10
17.2580531
20
13.210073
40
0.0663496
50
313.2349601
51
354.0349369
0
ARC
8
DEFAULT_255_2_778
10
17.2706031
20
13.2071199
40
0.0535855
50
355.7812288
51
0.0028209
0
ARC
8
DEFAULT_255_2_778
10
17.2483705
20
13.2010636
40
0.0760598
50
4.5689727
51
63.8204787
0
ARC
8
DEFAULT_255_2_778
10
17.2080608
20
13.1482845
40
0.1417957
50
58.6051188
51
61.2780704
0
ARC
8
DEFAULT_255_2_778
10
22.4498784
20
21.8617896
40
2.675418
50
357.8642133
51
359.8299616
0
ARC
8
DEFAULT_255_2_778
10
19.1007154
20
21.9808792
40
6.0266954
50
356.752842
51
357.9194423
0
ARC
8
DEFAULT_255_2_778
10
13.5129277
20
22.2927726
40
11.6231796
50
356.0430572
51
356.7780704
0
ARC
8
DEFAULT_255_2_778
10
5.6928188
20
22.8280349
40
19.4615845
50
355.6235927
51
356.0597037
0
ARC
8
DEFAULT_255_2_778
10
-6.3057718
20
23.7478416
40
31.4953794
50
355.2280858
51
355.620808
0
ARC
8
DEFAULT_255_2_778
10
-27.642323
20
25.5261808
40
52.9059118
50
354.9534435
51
355.2311171
0
ARC
8
DEFAULT_255_2_778
10
-73.3014502
20
29.5625331
40
98.7431021
50
354.7406464
51
354.9509531
0
ARC
8
DEFAULT_255_2_778
10
-291.2029102
20
49.6388299
40
317.5674698
50
354.6491116
51
354.737396
0
ARC
8
DEFAULT_255_2_778
10
289.9522296
20
-4.8227297
40
266.1339598
50
174.6429431
51
174.7668063
0
ARC
8
DEFAULT_255_2_778
10
107.9326244
20
11.8619762
40
83.3512596
50
174.7759067
51
175.0200302
0
ARC
8
DEFAULT_255_2_778
10
69.637603
20
15.2002239
40
44.9110128
50
175.0217552
51
175.3470724
0
ARC
8
DEFAULT_255_2_778
10
51.1024489
20
16.7074175
40
26.3146807
50
175.3441563
51
175.791444
0
ARC
8
DEFAULT_255_2_778
10
40.8390402
20
17.46366
40
16.0234486
50
175.7950243
51
176.2866966
0
ARC
8
DEFAULT_255_2_778
10
34.2732098
20
17.8867165
40
9.4440039
50
176.2681248
51
177.0879598
0
ARC
8
DEFAULT_255_2_778
10
29.9255483
20
18.1073337
40
5.0907486
50
177.0818694
51
178.1505835
0
ARC
8
DEFAULT_255_2_778
10
27.3469242
20
18.1885907
40
2.5108462
50
178.1048372
51
179.8685844
0
ARC
8
DEFAULT_255_2_778
10
25.4028667
20
19.0622285
40
1.0365594
50
236.8528178
51
242.2039442
0
ARC
8
DEFAULT_255_2_778
10
25.2333709
20
18.7385646
40
0.6712025
50
242.1190388
51
249.7713384
0
ARC
8
DEFAULT_255_2_778
10
25.1489343
20
18.5065924
40
0.4243439
50
249.6390293
51
261.0989976
0
ARC
8
DEFAULT_255_2_778
10
25.1289761
20
18.3890341
40
0.3051172
50
261.3859903
51
269.8544402
0
ARC
8
DEFAULT_255_2_778
10
25.123272
20
18.350062
40
0.2661898
50
271.0610005
51
327.2077369
0
ARC
8
DEFAULT_255_2_778
10
24.7463354
20
18.6409215
40
0.7416847
50
324.0882534
51
336.9773882
0
ARC
8
DEFAULT_255_2_778
10
23.7976873
20
19.0572643
40
1.7776445
50
336.5851179
51
342.8984051
0
ARC
8
DEFAULT_255_2_778
10
21.370775
20
19.8162069
40
4.3204461
50
342.743097
51
345.8147758
0
ARC
8
DEFAULT_255_2_778
10
-274.9521124
20
67.5343299
40
304.4444186
50
350.7805636
51
350.7823554
0
LINE
8
DEFAULT_255_2_778
10
25.5610098
20
18.7668474
11
25.5630399
21
18.779356
0
ARC
8
DEFAULT_255_2_778
10
-117.0155736
20
41.9274893
40
144.4454815
50
350.7782932
51
350.7808019
0
ARC
8
DEFAULT_255_2_778
10
-239.1929326
20
61.7616063
40
268.2222936
50
350.7800241
51
350.7813737
0
ARC
8
DEFAULT_255_2_778
10
102.2457311
20
6.3480867
40
77.6837908
50
170.7777331
51
170.7823878
0
ARC
8
DEFAULT_255_2_778
10
-496.2317503
20
103.5160294
40
528.6304057
50
350.7780499
51
350.7790747
0
LINE
8
DEFAULT_255_2_778
10
25.5675919
20
18.8073974
11
25.5696088
21
18.8198198
0
ARC
8
DEFAULT_255_2_778
10
-236.457821
20
61.3657949
40
265.4591004
50
350.7772469
51
350.7786026
0
ARC
8
DEFAULT_255_2_778
10
101.3370429
20
6.5268793
40
76.7581942
50
170.7749378
51
170.7796213
0
ARC
8
DEFAULT_255_2_778
10
-268.1297854
20
66.5316419
40
297.5495786
50
350.7752549
51
350.777065
0
LINE
8
DEFAULT_255_2_778
10
25.5731279
20
18.8414915
11
25.5751336
21
18.8538416
0
LINE
8
DEFAULT_255_2_778
10
25.5751336
20
18.8538416
11
25.5771353
21
18.8661655
0
ARC
8
DEFAULT_255_2_778
10
-265.0294998
20
66.074631
40
294.4161265
50
350.7730167
51
350.7748355
0
ARC
8
DEFAULT_255_2_778
10
-785.9332129
20
150.7122145
40
822.1510964
50
350.7724423
51
350.7733092
0
ARC
8
DEFAULT_255_2_778
10
-783.5567547
20
150.3535207
40
819.7478728
50
350.7714227
51
350.7722903
0
LINE
8
DEFAULT_255_2_778
10
25.582619
20
18.8999207
11
25.5846056
21
18.9121471
0
ARC
8
DEFAULT_255_2_778
10
-778.5524236
20
149.5908404
40
814.6860025
50
350.7696677
51
350.770537
0
ARC
8
DEFAULT_255_2_778
10
-776.2054599
20
149.2367862
40
812.3126369
50
350.7686356
51
350.7695056
0
ARC
8
DEFAULT_255_2_778
10
-773.5870486
20
148.8342849
40
809.6635678
50
350.7678978
51
350.7687688
0
ARC
8
DEFAULT_255_2_778
10
-770.9782991
20
148.4333031
40
807.0242794
50
350.7671568
51
350.7680288
0
LINE
8
DEFAULT_255_2_778
10
25.5925121
20
18.9607945
11
25.5964435
21
18.9849762
0
ARC
8
DEFAULT_255_2_778
10
82.8894518
20
9.6728433
40
58.0448501
50
170.7621211
51
170.7681465
0
ARC
8
DEFAULT_255_2_778
10
-107.3361925
20
40.6078398
40
134.6797456
50
350.7637621
51
350.7663562
0
ARC
8
DEFAULT_255_2_778
10
-253.5145944
20
64.3917131
40
282.7803791
50
350.7623478
51
350.7641988
0
LINE
8
DEFAULT_255_2_778
10
25.5998681
20
19.0060372
11
25.60377
21
19.0300281
0
ARC
8
DEFAULT_255_2_778
10
-105.5947114
20
40.3712858
40
132.9228754
50
350.7609644
51
350.7635748
0
ARC
8
DEFAULT_255_2_778
10
-754.3437526
20
145.9217686
40
790.2022852
50
350.7597983
51
350.7606754
0
ARC
8
DEFAULT_255_2_778
10
-433.0552303
20
93.6703532
40
464.6926466
50
350.7591792
51
350.7606675
0
ARC
8
DEFAULT_255_2_778
10
-104.2975896
20
40.1983411
40
131.6148145
50
350.7577718
51
350.7603943
0
ARC
8
DEFAULT_255_2_778
10
95.1752483
20
7.750966
40
70.4798298
50
170.7568607
51
170.761753
0
ARC
8
DEFAULT_255_2_778
10
-246.8997116
20
63.4168
40
276.0947846
50
350.757386
51
350.7592571
0
ARC
8
DEFAULT_255_2_778
10
94.8032585
20
7.8250984
40
70.1007628
50
170.7555536
51
170.7604594
0
ARC
8
DEFAULT_255_2_778
10
-163.189914
20
49.8158905
40
191.28727
50
350.7556702
51
350.7583637
0
ARC
8
DEFAULT_255_2_778
10
94.4328493
20
7.8989426
40
69.723302
50
170.7542395
51
170.7591589
0
ARC
8
DEFAULT_255_2_778
10
-162.2634776
20
49.6840149
40
190.3516804
50
350.7545609
51
350.7572606
0
ARC
8
DEFAULT_255_2_778
10
-424.3906066
20
92.3581769
40
455.9297588
50
350.7550099
51
350.7565101
0
ARC
8
DEFAULT_255_2_778
10
93.7774309
20
8.0310224
40
69.0551781
50
170.7527398
51
170.7576835
0
ARC
8
DEFAULT_255_2_778
10
-101.2865486
20
39.7865234
40
128.576722
50
350.7541078
51
350.7567601
0
ARC
8
DEFAULT_255_2_778
10
-734.2503383
20
142.8427065
40
769.8751984
50
350.7532236
51
350.7541084
0
ARC
8
DEFAULT_255_2_778
10
-159.50717
20
49.2917952
40
187.5681641
50
350.751198
51
350.7539163
0
ARC
8
DEFAULT_255_2_778
10
-418.3411736
20
91.4430212
40
449.8118812
50
350.7519559
51
350.7534647
0
ARC
8
DEFAULT_255_2_778
10
-99.687857
20
39.576351
40
126.9650331
50
350.7492164
51
350.7518841
0
ARC
8
DEFAULT_255_2_778
10
-416.1557694
20
91.120023
40
447.6029747
50
350.7500797
51
350.7515911
0
ARC
8
DEFAULT_255_2_778
10
92.2702784
20
8.3338598
40
67.5189477
50
170.7480839
51
170.7530847
0
ARC
8
DEFAULT_255_2_778
10
-156.755573
20
48.8971059
40
184.7889031
50
350.7486158
51
350.7513533
0
ARC
8
DEFAULT_255_2_778
10
91.9196977
20
8.4049995
40
67.1614907
50
170.7473525
51
170.7523668
0
ARC
8
DEFAULT_255_2_778
10
-411.832479
20
90.4668443
40
443.2309093
50
350.7477737
51
350.7492913
0
ARC
8
DEFAULT_255_2_778
10
-155.131714
20
48.6645174
40
183.1487738
50
350.7470352
51
350.7497843
0
ARC
8
DEFAULT_255_2_778
10
-97.1564619
20
39.2301104
40
124.4109001
50
350.7462905
51
350.7489847
0
ARC
8
DEFAULT_255_2_778
10
91.1535479
20
8.5600882
40
66.3803734
50
170.7453341
51
170.7503782
0
ARC
8
DEFAULT_255_2_778
10
-713.9810206
20
139.7441926
40
749.371392
50
350.7459146
51
350.7468071
0
ARC
8
DEFAULT_255_2_778
10
90.7386109
20
8.6439225
40
65.9573553
50
170.7440428
51
170.7491034
0
LINE
8
DEFAULT_255_2_778
10
25.6400436
20
19.2528456
11
26.0583511
21
21.8103638
0
ARC
8
DEFAULT_255_2_778
10
-315.8737512
20
77.4701143
40
346.4326348
50
350.7544774
51
350.8220387
0
ARC
8
DEFAULT_255_2_778
10
-184.9389603
20
56.3276017
40
213.8018501
50
350.8187015
51
350.9631748
0
ARC
8
DEFAULT_255_2_778
10
-105.848996
20
43.7533711
40
133.718558
50
350.9612695
51
351.1878965
0
ARC
8
DEFAULT_255_2_778
10
-61.7256819
20
36.9155067
40
89.0685498
50
351.1864153
51
351.5077873
0
ARC
8
DEFAULT_255_2_778
10
-36.898818
20
33.2066403
40
63.9661823
50
351.5094849
51
351.8756528
0
ARC
8
DEFAULT_255_2_778
10
-20.1540993
20
30.8224034
40
47.0525743
50
351.8682397
51
352.4795607
0
ARC
8
DEFAULT_255_2_778
10
-8.0119631
20
29.2213393
40
34.8053349
50
352.4764841
51
353.3118662
0
ARC
8
DEFAULT_255_2_778
10
0.236408
20
28.2588983
40
26.5010053
50
353.3015846
51
354.6504105
0
ARC
8
DEFAULT_255_2_778
10
4.9945495
20
27.8126042
40
21.7219795
50
354.6523557
51
356.6660673
0
ARC
8
DEFAULT_255_2_778
10
5.3979847
20
27.7808273
40
21.3173806
50
356.6882714
51
358.2472605
0
ARC
8
DEFAULT_255_2_778
10
3.1871195
20
27.8494048
40
23.529309
50
358.2450123
51
359.1746285
0
ARC
8
DEFAULT_255_2_778
10
0.1754523
20
27.894192
40
26.5413088
50
359.1716072
51
359.8081201
0
ARC
8
DEFAULT_255_2_778
10
-2.2545953
20
27.9052543
40
28.9713799
50
359.802337
51
0.0007819
0
ARC
8
DEFAULT_255_2_778
10
457.0293467
20
56.3351046
40
431.2506637
50
183.7074628
51
183.7798665
0
ARC
8
DEFAULT_255_2_778
10
-1996.5713494
20
-103.0831476
40
2027.5235419
50
3.7195913
51
3.7217849
0
ARC
8
DEFAULT_255_2_778
10
-99.8020788
20
20.5308847
40
126.7307486
50
3.6174571
51
4.2985359
0
ARC
8
DEFAULT_255_2_778
10
-17.4691496
20
26.6937132
40
44.1675014
50
4.3317809
51
5.7726319
0
ARC
8
DEFAULT_255_2_778
10
0.9468376
20
28.5545347
40
25.657741
50
5.7746742
51
7.8814355
0
ARC
8
DEFAULT_255_2_778
10
9.6764624
20
29.7626938
40
16.8449094
50
7.8824248
51
10.5869549
0
ARC
8
DEFAULT_255_2_778
10
14.8218064
20
30.7269459
40
11.6099942
50
10.5746351
51
14.0945292
0
ARC
8
DEFAULT_255_2_778
10
18.2460125
20
31.5907284
40
8.0785236
50
14.0668143
51
18.7856994
0
ARC
8
DEFAULT_255_2_778
10
20.5716369
20
32.3852006
40
5.6209434
50
18.7527655
51
24.9973871
0
ARC
8
DEFAULT_255_2_778
10
22.1100945
20
33.1067005
40
3.9217104
50
24.9418964
51
33.5531547
0
ARC
8
DEFAULT_255_2_778
10
23.0877708
20
33.7630832
40
2.7441595
50
33.4145144
51
47.265071
0
ARC
8
DEFAULT_255_2_778
10
23.5064274
20
34.2134192
40
2.1292846
50
47.31626
51
76.326943
0
ARC
8
DEFAULT_255_2_778
10
23.4182904
20
33.8429773
40
2.510063
50
76.3709143
51
87.8108006
0
ARC
8
DEFAULT_255_2_778
10
23.3916903
20
33.4249938
40
2.9287768
50
87.6031577
51
90.0133316
0
ARC
8
DEFAULT_255_2_778
10
23.3911473
20
33.2807488
40
3.0730217
50
90.0025815
51
91.0122812
0
ARC
8
DEFAULT_255_2_778
10
23.3926018
20
33.1953371
40
3.158446
50
91.0112905
51
91.8390056
0
ARC
8
DEFAULT_255_2_778
10
23.3952481
20
33.1129119
40
3.2409136
50
91.8390025
51
92.6539051
0
ARC
8
DEFAULT_255_2_778
10
21.945761
20
36.0270867
40
1.3390298
50
13.9701166
51
31.8857713
0
ARC
8
DEFAULT_255_2_778
10
21.3099234
20
35.6417035
40
2.0825093
50
31.6481462
51
42.5686124
0
ARC
8
DEFAULT_255_2_778
10
20.514004
20
34.919176
40
3.1574547
50
42.4543007
51
50.1384632
0
ARC
8
DEFAULT_255_2_778
10
19.6047846
20
33.839876
40
4.5686749
50
50.0613083
51
55.6532674
0
ARC
8
DEFAULT_255_2_778
10
18.6460666
20
32.4460429
40
6.2603875
50
55.6060953
51
59.8350596
0
ARC
8
DEFAULT_255_2_778
10
17.5980746
20
30.6435023
40
8.3454389
50
59.8328968
51
63.7077541
0
ARC
8
DEFAULT_255_2_778
10
16.4810999
20
28.3921161
40
10.8586758
50
63.6857593
51
66.8496374
0
ARC
8
DEFAULT_255_2_778
10
15.3623363
20
25.7794217
40
13.7008233
50
66.8433327
51
69.7177594
0
ARC
8
DEFAULT_255_2_778
10
14.3006388
20
22.9183002
40
16.7525776
50
69.7038218
51
72.0975249
0
ARC
8
DEFAULT_255_2_778
10
13.3330219
20
19.9264295
40
19.8970285
50
72.0944388
51
74.3615621
0
ARC
8
DEFAULT_255_2_778
10
12.4600008
20
16.8146706
40
23.128933
50
74.3569062
51
76.4584625
0
ARC
8
DEFAULT_255_2_778
10
11.7001982
20
13.6614546
40
26.3723988
50
76.4576931
51
78.5833208
0
ARC
8
DEFAULT_255_2_778
10
11.0870285
20
10.635011
40
29.4603326
50
78.57948
51
80.6023496
0
ARC
8
DEFAULT_255_2_778
10
10.6370543
20
7.9208675
40
32.2115234
50
80.6010071
51
82.6959569
0
ARC
8
DEFAULT_255_2_778
10
10.3414894
20
5.6240118
40
34.5273179
50
82.6940375
51
84.889037
0
ARC
8
DEFAULT_255_2_778
10
10.1992366
20
4.066672
40
36.0911386
50
84.8843509
51
86.8205401
0
ARC
8
DEFAULT_255_2_778
10
10.1521641
20
3.2437692
40
36.9153856
50
86.8184308
51
88.7628609
0
ARC
8
DEFAULT_255_2_778
10
11.1085074
20
39.8204875
40
0.3665034
50
115.7668448
51
122.5122954
0
ARC
8
DEFAULT_255_2_778
10
11.0517952
20
39.9089168
40
0.2614517
50
122.4476478
51
131.6073413
0
ARC
8
DEFAULT_255_2_778
10
11.002114
20
39.9643293
40
0.18703
50
131.499457
51
145.1753192
0
ARC
8
DEFAULT_255_2_778
10
10.9691333
20
39.9873557
40
0.1468064
50
145.2019512
51
180.4889541
0
ARC
8
DEFAULT_255_2_778
10
11.0511049
20
39.9914067
40
0.2288341
50
181.3280975
51
203.8915146
0
ARC
8
DEFAULT_255_2_778
10
11.2708524
20
40.0832508
40
0.4669766
50
203.2749908
51
214.7463534
0
ARC
8
DEFAULT_255_2_778
10
11.615201
20
40.3182076
40
0.8838403
50
214.5389363
51
221.7622325
0
ARC
8
DEFAULT_255_2_778
10
12.1208257
20
40.7657901
40
1.5591044
50
221.6553616
51
226.4959494
0
ARC
8
DEFAULT_255_2_778
10
12.8228277
20
41.501434
40
2.5759497
50
226.4345934
51
229.7779468
0
ARC
8
DEFAULT_255_2_778
10
13.8077693
20
42.6635595
40
4.0993157
50
229.7555092
51
232.2640399
0
ARC
8
DEFAULT_255_2_778
10
15.3039411
20
44.5951382
40
6.542577
50
232.254754
51
234.169231
0
ARC
8
DEFAULT_255_2_778
10
18.0719763
20
48.4317625
40
11.2735073
50
234.1781266
51
235.6559243
0
ARC
8
DEFAULT_255_2_778
10
21.7812528
20
53.8235852
40
17.8179868
50
235.589168
51
235.9095986
0
ARC
8
DEFAULT_255_2_778
10
27.9566747
20
62.9698537
40
28.8538362
50
235.9339914
51
236.3847232
0
ARC
8
DEFAULT_255_2_778
10
-8.8621045
20
7.6129746
40
37.629295
50
56.355075
51
56.3612932
0
LINE
8
DEFAULT_255_2_778
10
11.986198
20
38.9388763
11
11.9895911
21
38.9366187
0
LINE
8
DEFAULT_255_2_778
10
11.9895911
20
38.9366187
11
11.9929776
21
38.9343659
0
LINE
8
DEFAULT_255_2_778
10
11.9929776
20
38.9343659
11
11.9963573
21
38.9321179
0
LINE
8
DEFAULT_255_2_778
10
11.9963573
20
38.9321179
11
11.9997304
21
38.9298748
0
LINE
8
DEFAULT_255_2_778
10
11.9997304
20
38.9298748
11
12.0014136
21
38.9287556
0
LINE
8
DEFAULT_255_2_778
10
12.0014136
20
38.9287556
11
12.0030951
21
38.9276376
0
LINE
8
DEFAULT_255_2_778
10
12.0030951
20
38.9276376
11
12.0047749
21
38.9265208
0
LINE
8
DEFAULT_255_2_778
10
12.0047749
20
38.9265208
11
12.0064531
21
38.9254052
0
LINE
8
DEFAULT_255_2_778
10
12.0064531
20
38.9254052
11
12.0081295
21
38.9242908
0
LINE
8
DEFAULT_255_2_778
10
12.0081295
20
38.9242908
11
12.0098043
21
38.9231776
0
LINE
8
DEFAULT_255_2_778
10
12.0098043
20
38.9231776
11
12.0114774
21
38.9220656
0
ARC
8
DEFAULT_255_2_778
10
6.9780044
20
31.3464802
40
9.0953475
50
56.3859623
51
56.3986043
0
LINE
8
DEFAULT_255_2_778
10
12.0131488
20
38.9209549
11
12.0148185
21
38.9198453
0
LINE
8
DEFAULT_255_2_778
10
12.0148185
20
38.9198453
11
12.0164866
21
38.9187369
0
LINE
8
DEFAULT_255_2_778
10
12.0164866
20
38.9187369
11
12.0181529
21
38.9176297
0
LINE
8
DEFAULT_255_2_778
10
12.0181529
20
38.9176297
11
12.0198176
21
38.9165238
0
LINE
8
DEFAULT_255_2_778
10
12.0198176
20
38.9165238
11
12.0214805
21
38.915419
0
LINE
8
DEFAULT_255_2_778
10
12.0214805
20
38.915419
11
12.0231418
21
38.9143154
0
LINE
8
DEFAULT_255_2_778
10
12.0231418
20
38.9143154
11
12.0248013
21
38.9132131
0
ARC
8
DEFAULT_255_2_778
10
-57.0409909
20
-65.3979924
40
125.1036021
50
56.3186526
51
56.4909444
0
ARC
8
DEFAULT_255_2_778
10
1.3255005
20
22.2158404
40
19.8285879
50
55.7008792
51
56.2622151
0
ARC
8
DEFAULT_255_2_778
10
6.9265967
20
30.4152919
40
9.8986737
50
54.4172403
51
55.7391039
0
ARC
8
DEFAULT_255_2_778
10
9.6306399
20
34.1936369
40
5.2524127
50
52.4954585
51
54.4237443
0
ARC
8
DEFAULT_255_2_778
10
11.0707104
20
36.0668984
40
2.8895955
50
49.6017157
51
52.5336893
0
ARC
8
DEFAULT_255_2_778
10
11.9421669
20
37.0890744
40
1.5463614
50
45.4482925
51
49.6459985
0
ARC
8
DEFAULT_255_2_778
10
12.4917348
20
37.6439989
40
0.7653652
50
38.5507641
51
45.6221958
0
ARC
8
DEFAULT_255_2_778
10
12.8382141
20
37.916947
40
0.3243047
50
25.7876298
51
38.9867617
0
ARC
8
DEFAULT_255_2_778
10
13.0172536
20
38.0020578
40
0.1260753
50
1.8427489
51
26.3574764
0
ARC
8
DEFAULT_255_2_778
10
13.0695235
20
38.0056106
40
0.0737419
50
311.0223641
51
0.3895592
0
ARC
8
DEFAULT_255_2_778
10
13.03229
20
38.0447233
40
0.1277117
50
297.8031749
51
312.1077567
0
ARC
8
DEFAULT_255_2_778
10
12.9907581
20
38.1216299
40
0.2151135
50
289.1197199
51
298.0336302
0
ARC
8
DEFAULT_255_2_778
10
12.9481902
20
38.2419976
40
0.3427851
50
283.3384365
51
289.2524437
0
ARC
8
DEFAULT_255_2_778
10
12.9074894
20
38.4114739
40
0.5170796
50
279.0177192
51
283.3943096
0
ARC
8
DEFAULT_255_2_778
10
12.8826696
20
38.5585975
40
0.6662767
50
277.9033812
51
279.1426585
0
ARC
8
DEFAULT_255_2_778
10
8.6415392
20
6.7825338
40
31.416323
50
82.0728535
51
84.8791337
0
ARC
8
DEFAULT_255_2_778
10
8.8562111
20
9.2099061
40
28.9794783
50
84.8735087
51
87.6281102
0
ARC
8
DEFAULT_255_2_778
10
8.9738186
20
11.9712726
40
26.2156106
50
87.6351617
51
89.8284034
0
ARC
8
DEFAULT_255_2_778
10
8.9859491
20
13.374101
40
24.8127536
50
89.8467126
51
89.9999561
0
ARC
8
DEFAULT_255_2_778
10
8.9723881
20
15.1051123
40
23.0817463
50
89.9662905
51
92.881341
0
ARC
8
DEFAULT_255_2_778
10
8.820983
20
18.1590639
40
20.0240449
50
92.887926
51
95.5625083
0
ARC
8
DEFAULT_255_2_778
10
8.5640566
20
20.7929712
40
17.3776364
50
95.5611647
51
98.3712645
0
ARC
8
DEFAULT_255_2_778
10
8.1996685
20
23.2536401
40
14.8901349
50
98.3625501
51
101.6381438
0
ARC
8
DEFAULT_255_2_778
10
7.7378597
20
25.4925244
40
12.6041186
50
101.6351236
51
105.2049729
0
ARC
8
DEFAULT_255_2_778
10
7.4291492
20
26.6659691
40
11.3907897
50
105.2545643
51
105.9698481
0
ARC
8
DEFAULT_255_2_778
10
4.4782009
20
37.2386242
40
0.420448
50
115.8036637
51
120.8569316
0
ARC
8
DEFAULT_255_2_778
10
4.410482
20
37.3513655
40
0.2889325
50
120.795696
51
127.6743308
0
ARC
8
DEFAULT_255_2_778
10
4.3514399
20
37.4273082
40
0.1927395
50
127.5799375
51
137.3019294
0
ARC
8
DEFAULT_255_2_778
10
4.3035398
20
37.4710651
40
0.1278632
50
137.1566778
51
151.9575687
0
ARC
8
DEFAULT_255_2_778
10
4.2733471
20
37.4871002
40
0.0936766
50
151.9320461
51
179.9138937
0
ARC
8
DEFAULT_255_2_778
10
4.3155402
20
37.4929745
40
0.1359905
50
182.4163564
51
215.5722295
0
ARC
8
DEFAULT_255_2_778
10
4.4973831
20
37.6118706
40
0.3531803
50
214.0998246
51
227.4457704
0
ARC
8
DEFAULT_255_2_778
10
4.7900402
20
37.9225756
40
0.7799968
50
227.0449633
51
234.3652426
0
ARC
8
DEFAULT_255_2_778
10
5.2232287
20
38.5201313
40
1.5180464
50
234.2170145
51
238.7928223
0
ARC
8
DEFAULT_255_2_778
10
5.8701028
20
39.5831003
40
2.7623717
50
238.7407533
51
241.9240523
0
ARC
8
DEFAULT_255_2_778
10
6.8385717
20
41.3905698
40
4.8129495
50
241.8784146
51
243.95827
0
ARC
8
DEFAULT_255_2_778
10
8.375145
20
44.5301225
40
8.3083531
50
243.9429068
51
245.3725449
0
ARC
8
DEFAULT_255_2_778
10
11.9094365
20
52.2507093
40
16.7994464
50
245.3878762
51
246.387705
0
ARC
8
DEFAULT_255_2_778
10
46.8730187
20
132.3304328
40
104.1791576
50
246.4093007
51
246.6272824
0
ARC
8
DEFAULT_255_2_778
10
-9.520425
20
1.9474934
40
37.8769444
50
66.2365782
51
66.5642384
0
ARC
8
DEFAULT_255_2_778
10
-1.9593984
20
19.1236685
40
19.1102157
50
65.6720435
51
66.2325325
0
ARC
8
DEFAULT_255_2_778
10
-0.1487734
20
23.1432356
40
14.7016746
50
65.5457288
51
65.6484609
0
ARC
8
DEFAULT_255_2_778
10
1.6296369
20
27.0246277
40
10.4322786
50
64.1556539
51
65.6122113
0
ARC
8
DEFAULT_255_2_778
10
3.4843402
20
30.85399
40
6.1774061
50
62.2132469
51
64.15448
0
ARC
8
DEFAULT_255_2_778
10
4.5766929
20
32.9244173
40
3.8364871
50
59.5671767
51
62.2311089
0
ARC
8
DEFAULT_255_2_778
10
5.3177307
20
34.1841891
40
2.3749261
50
56.0826608
51
59.5872209
0
ARC
8
DEFAULT_255_2_778
10
5.8413964
20
34.9608422
40
1.4382224
50
51.2748832
51
56.1301083
0
ARC
8
DEFAULT_255_2_778
10
6.2279683
20
35.4402496
40
0.8223781
50
44.0283358
51
51.3916908
0
ARC
8
DEFAULT_255_2_778
10
6.5074943
20
35.7080588
40
0.4352724
50
32.372732
51
44.2548353
0
ARC
8
DEFAULT_255_2_778
10
6.6952296
20
35.8242788
40
0.2145002
50
9.4282443
51
33.0033272
0
ARC
8
DEFAULT_255_2_778
10
6.7571311
20
35.8379429
40
0.1512333
50
0.0563395
51
8.163
0
ARC
8
DEFAULT_255_2_778
10
6.7624391
20
35.8384663
40
0.1459258
50
332.5167722
51
359.8528865
0
ARC
8
DEFAULT_255_2_778
10
6.7180124
20
35.860865
40
0.1956764
50
319.9779956
51
332.7016951
0
ARC
8
DEFAULT_255_2_778
10
6.6557661
20
35.9125765
40
0.2765995
50
311.1771495
51
320.0668485
0
ARC
8
DEFAULT_255_2_778
10
6.579816
20
35.9986839
40
0.3914156
50
304.7504572
51
311.2464918
0
ARC
8
DEFAULT_255_2_778
10
6.4919806
20
36.1246332
40
0.5449674
50
299.7560871
51
304.7901749
0
ARC
8
DEFAULT_255_2_778
10
6.4348182
20
36.2216819
40
0.6575918
50
299.0557658
51
299.8832292
0
ARC
8
DEFAULT_255_2_778
10
10.3161271
20
25.6289658
40
10.6322825
50
109.573269
51
116.0031637
0
ARC
8
DEFAULT_255_2_778
10
9.1490408
20
28.0104606
40
7.9801933
50
115.9683765
51
124.4381601
0
ARC
8
DEFAULT_255_2_778
10
7.9899815
20
29.6715943
40
5.9547508
50
124.2791995
51
139.0684708
0
ARC
8
DEFAULT_255_2_778
10
7.2822283
20
30.3098217
40
5.0019434
50
139.2802357
51
155.8874502
0
ARC
8
DEFAULT_255_2_778
10
7.4414777
20
30.2476985
40
5.1726835
50
155.9800023
51
165.5367453
0
ARC
8
DEFAULT_255_2_778
10
8.0343887
20
30.0949954
40
5.784943
50
165.538936
51
173.0545336
0
ARC
8
DEFAULT_255_2_778
10
8.9182907
20
29.9863163
40
6.6755009
50
173.0459849
51
179.1850966
0
ARC
8
DEFAULT_255_2_778
10
9.5583058
20
29.9674031
40
7.3157266
50
179.1082749
51
180.0019326
0
ARC
8
DEFAULT_255_2_778
10
9.7894037
20
29.9676522
40
7.5468246
50
180.0037646
51
181.2160867
0
ARC
8
DEFAULT_255_2_778
10
10.0920716
20
29.9742166
40
7.8495637
50
181.217104
51
182.5510394
0
ARC
8
DEFAULT_255_2_778
10
10.4051231
20
29.9879675
40
8.1629169
50
182.5496605
51
183.6368704
0
ARC
8
DEFAULT_255_2_778
10
10.707876
20
30.0072325
40
8.4662821
50
183.6370174
51
184.7018214
0
ARC
8
DEFAULT_255_2_778
10
-7.4233496
20
28.4862606
40
9.7286473
50
4.0984301
51
4.8763446
0
ARC
8
DEFAULT_255_2_778
10
-10.6201882
20
28.2556482
40
12.9337929
50
3.5577621
51
4.1052709
0
ARC
8
DEFAULT_255_2_778
10
-14.2315303
20
28.0299658
40
16.5521797
50
3.1664183
51
3.5617306
0
ARC
8
DEFAULT_255_2_778
10
-19.3102864
20
27.750396
40
21.6386245
50
2.7434509
51
3.1627413
0
ARC
8
DEFAULT_255_2_778
10
-27.5664225
20
27.3545749
40
29.9042434
50
2.4003209
51
2.7438267
0
ARC
8
DEFAULT_255_2_778
10
-38.5668429
20
26.8901103
40
40.9144646
50
2.2027058
51
2.4050061
0
ARC
8
DEFAULT_255_2_778
10
-55.3136222
20
26.2483508
40
57.6735357
50
2.0027922
51
2.2003442
0
ARC
8
DEFAULT_255_2_778
10
-88.2351525
20
25.0951087
40
90.6152588
50
1.8766302
51
2.00405
0
ARC
8
DEFAULT_255_2_778
10
-126.8848456
20
23.818117
40
129.2860412
50
1.8506401
51
1.881339
0
ARC
8
DEFAULT_255_2_778
10
-137.2544484
20
23.4777212
40
139.6612283
50
1.8502459
51
1.8528311
0
ARC
8
DEFAULT_255_2_778
10
-137.6858577
20
23.4680826
40
140.0927237
50
1.8459109
51
1.8484891
0
ARC
8
DEFAULT_255_2_778
10
434.0786705
20
41.881414
40
431.9682227
50
181.8440934
51
181.8453485
0
ARC
8
DEFAULT_255_2_778
10
-138.3351933
20
23.4443151
40
140.742488
50
1.840646
51
1.8432146
0
ARC
8
DEFAULT_255_2_778
10
75.689404
20
30.3176332
40
73.392448
50
181.8370101
51
181.8419375
0
ARC
8
DEFAULT_255_2_778
10
-138.9067741
20
23.4254236
40
141.3143806
50
1.835739
51
1.8382989
0
ARC
8
DEFAULT_255_2_778
10
428.7293669
20
41.6052306
40
426.6128102
50
181.8339531
51
181.8352259
0
ARC
8
DEFAULT_255_2_778
10
-153.735674
20
22.9481783
40
156.1509581
50
1.8306652
51
1.8329839
0
ARC
8
DEFAULT_255_2_778
10
-153.8858955
20
22.938632
40
156.301408
50
1.8300865
51
1.8324036
0
ARC
8
DEFAULT_255_2_778
10
-154.3455869
20
22.929111
40
156.7611689
50
1.8258877
51
1.8281989
0
ARC
8
DEFAULT_255_2_778
10
-154.4951561
20
22.9195951
40
156.9109655
50
1.8253109
51
1.8276206
0
ARC
8
DEFAULT_255_2_778
10
75.7637758
20
30.2528477
40
73.4647111
50
181.8216109
51
181.8265457
0
ARC
8
DEFAULT_255_2_778
10
-155.1049409
20
22.9006185
40
157.5210453
50
1.8205413
51
1.8228435
0
ARC
8
DEFAULT_255_2_778
10
-155.2533853
20
22.8911478
40
157.6697157
50
1.8199666
51
1.8222674
0
ARC
8
DEFAULT_255_2_778
10
-155.71526
20
22.8817022
40
158.1316574
50
1.8157777
51
1.8180724
0
ARC
8
DEFAULT_255_2_778
10
-155.8630546
20
22.8722615
40
158.2796772
50
1.8152049
51
1.8174982
0
ARC
8
DEFAULT_255_2_778
10
-156.0103775
20
22.8628358
40
158.4272249
50
1.8146325
51
1.8169244
0
ARC
8
DEFAULT_255_2_778
10
75.8379795
20
30.2034785
40
73.5373107
50
181.8109294
51
181.8158684
0
ARC
8
DEFAULT_255_2_778
10
-156.5998907
20
22.8443563
40
159.0170274
50
1.8099927
51
1.8122774
0
ARC
8
DEFAULT_255_2_778
10
-156.7460833
20
22.8349756
40
159.1634436
50
1.8094225
51
1.8117057
0
ARC
8
DEFAULT_255_2_778
10
-156.8717305
20
22.8259269
40
159.2893138
50
1.8089665
51
1.8112486
0
ARC
8
DEFAULT_255_2_778
10
415.1717985
20
40.8706214
40
413.038748
50
181.8059012
51
181.8072221
0
ARC
8
DEFAULT_255_2_778
10
-175.2961382
20
22.2430524
40
177.7229388
50
1.8041649
51
1.8062117
0
ARC
8
DEFAULT_255_2_778
10
371.4509839
20
39.4521757
40
369.294949
50
181.8021675
51
181.803646
0
ARC
8
DEFAULT_255_2_778
10
-158.1730482
20
22.7802882
40
160.591423
50
1.7992561
51
1.8015229
0
ARC
8
DEFAULT_255_2_778
10
-176.1559143
20
22.2102643
40
178.5833207
50
1.7988602
51
1.8008991
0
ARC
8
DEFAULT_255_2_778
10
370.2655598
20
39.3664812
40
368.1074173
50
181.7980996
51
181.7995842
0
ARC
8
DEFAULT_255_2_778
10
75.994177
20
30.1141201
40
73.6906164
50
181.7944178
51
181.7993621
0
LINE
8
DEFAULT_255_2_778
10
2.3398967
20
27.8002619
11
2.3530566
21
27.3778337
0
ARC
8
DEFAULT_255_2_778
10
214.3903021
20
33.9949223
40
212.1404708
50
181.7874607
51
181.9020307
0
ARC
8
DEFAULT_255_2_778
10
128.2841579
20
31.1397707
40
125.9870035
50
181.9040028
51
182.0956309
0
ARC
8
DEFAULT_255_2_778
10
95.6761266
20
29.9409815
40
93.3569442
50
182.0921982
51
182.4786693
0
ARC
8
DEFAULT_255_2_778
10
79.2333411
20
29.2326124
40
76.8989075
50
182.4812041
51
182.9330861
0
ARC
8
DEFAULT_255_2_778
10
70.0610471
20
28.7620077
40
67.7145486
50
182.9325403
51
183.5468478
0
ARC
8
DEFAULT_255_2_778
10
64.0499999
20
28.3907153
40
61.6920457
50
183.5480458
51
184.2162578
0
ARC
8
DEFAULT_255_2_778
10
60.1545299
20
28.1048189
40
57.7860987
50
184.2175239
51
184.8684564
0
ARC
8
DEFAULT_255_2_778
10
56.9107419
20
27.8267744
40
54.5304168
50
184.8666215
51
185.8097921
0
ARC
8
DEFAULT_255_2_778
10
53.8482085
20
27.5146771
40
51.4520219
50
185.8092518
51
186.9312072
0
ARC
8
DEFAULT_255_2_778
10
51.5075214
20
27.2320552
40
49.094335
50
186.9334386
51
187.8566653
0
ARC
8
DEFAULT_255_2_778
10
49.3623731
20
26.933574
40
46.928522
50
187.8536769
51
189.25739
0
ARC
8
DEFAULT_255_2_778
10
47.117731
20
26.5676573
40
44.65425
50
189.2573188
51
190.7713974
0
ARC
8
DEFAULT_255_2_778
10
45.9258644
20
26.3455673
40
43.4418769
50
190.7774275
51
191.0037845
0
ARC
8
DEFAULT_255_2_778
10
3.5181208
20
18.1808729
40
0.2676115
50
208.3855669
51
269.7736638
0
ARC
8
DEFAULT_255_2_778
10
3.5344905
20
18.2737279
40
0.3608855
50
267.2321681
51
270.0083902
0
ARC
8
DEFAULT_255_2_778
10
3.5334147
20
18.3086377
40
0.3957971
50
270.1633781
51
283.399369
0
ARC
8
DEFAULT_255_2_778
10
3.5282338
20
18.3348564
40
0.4225039
50
283.2588799
51
283.6702959
0
ARC
8
DEFAULT_255_2_778
10
3.5155817
20
18.3736264
40
0.4631766
50
284.0576185
51
313.4315794
0
ARC
8
DEFAULT_255_2_778
10
3.4788743
20
18.4131585
40
0.5171208
50
313.3738385
51
336.8945751
0
ARC
8
DEFAULT_255_2_778
10
3.3762824
20
18.4566482
40
0.6285499
50
336.9181305
51
354.1559382
0
ARC
8
DEFAULT_255_2_778
10
3.2380001
20
18.4749229
40
0.767985
50
353.850084
51
0.0691443
0
ARC
8
DEFAULT_255_2_778
10
-0.9256205
20
18.4730027
40
4.931606
50
0.033077
51
0.4965814
0
ARC
8
DEFAULT_255_2_778
10
-7.1325406
20
18.418782
40
11.1387628
50
0.4987626
51
0.8665223
0
ARC
8
DEFAULT_255_2_778
10
-19.4229583
20
18.2379576
40
23.4305102
50
0.8541357
51
1.0486271
0
ARC
8
DEFAULT_255_2_778
10
-41.2180343
20
17.8399261
40
45.2292205
50
1.047479
51
1.1865905
0
ARC
8
DEFAULT_255_2_778
10
-81.4354029
20
17.0115086
40
85.45512
50
1.1835072
51
1.2600866
0
ARC
8
DEFAULT_255_2_778
10
-14.5760795
20
18.4846833
40
18.5795689
50
1.2523075
51
1.2625104
0
ARC
8
DEFAULT_255_2_778
10
-14.5457843
20
18.4882617
40
18.5492024
50
1.2535216
51
1.2637309
0
ARC
8
DEFAULT_255_2_778
10
-13.9772398
20
18.5036505
40
17.9804571
50
1.2546617
51
1.2651829
0
ARC
8
DEFAULT_255_2_778
10
-13.9448452
20
18.5072329
40
17.9479914
50
1.2560328
51
1.2665619
0
ARC
8
DEFAULT_255_2_778
10
-13.9120593
20
18.510821
40
17.9151344
50
1.257407
51
1.2679439
0
ARC
8
DEFAULT_255_2_778
10
-13.8788898
20
18.5144146
40
17.8818937
50
1.2587842
51
1.2693289
0
ARC
8
DEFAULT_255_2_778
10
-14.3809655
20
18.5061571
40
18.3840293
50
1.260395
51
1.27064
0
ARC
8
DEFAULT_255_2_778
10
-13.809959
20
18.5216019
40
17.8128208
50
1.2617015
51
1.2722628
0
ARC
8
DEFAULT_255_2_778
10
-13.774217
20
18.5251951
40
17.7770081
50
1.2632424
51
1.2738124
0
ARC
8
DEFAULT_255_2_778
10
-13.7381258
20
18.5287929
40
17.7408459
50
1.2647871
51
1.2753658
0
ARC
8
DEFAULT_255_2_778
10
-13.7016926
20
18.532395
40
17.7043418
50
1.2663355
51
1.276923
0
LINE
8
DEFAULT_255_2_778
10
3.9982526
20
18.9269304
11
3.998107
21
18.9334722
0
LINE
8
DEFAULT_255_2_778
10
3.998107
20
18.9334722
11
3.9979616
21
18.939997
0
LINE
8
DEFAULT_255_2_778
10
3.9979616
20
18.939997
11
3.9978163
21
18.9465043
0
ARC
8
DEFAULT_255_2_778
10
61.501889
20
20.2352656
40
57.5185125
50
181.279032
51
181.2838782
0
ARC
8
DEFAULT_255_2_778
10
62.4030018
20
20.2606747
40
58.4199682
50
181.2810467
51
181.2842189
0
ARC
8
DEFAULT_255_2_778
10
62.1459017
20
20.2600867
40
58.1629194
50
181.2829481
51
181.2861298
0
ARC
8
DEFAULT_255_2_778
10
61.9028536
20
20.2596369
40
57.9199224
50
181.2846961
51
181.2878864
0
ARC
8
DEFAULT_255_2_778
10
61.6451171
20
20.259003
40
57.6622367
50
181.2866084
51
181.2898082
0
ARC
8
DEFAULT_255_2_778
10
62.8983792
20
20.2900309
40
58.9158794
50
181.2847155
51
181.2894089
0
ARC
8
DEFAULT_255_2_778
10
65.2811137
20
20.3515324
40
61.2993944
50
181.287752
51
181.2922525
0
ARC
8
DEFAULT_255_2_778
10
67.2276673
20
20.3982883
40
63.2465072
50
181.2875683
51
181.2904678
0
ARC
8
DEFAULT_255_2_778
10
60.6373768
20
20.255191
40
56.6546655
50
181.2894189
51
181.2926507
0
ARC
8
DEFAULT_255_2_778
10
64.4996707
20
20.3475943
40
60.5180611
50
181.290062
51
181.2945956
0
ARC
8
DEFAULT_255_2_778
10
66.1683785
20
20.3935454
40
62.187381
50
181.2948416
51
181.297774
0
ARC
8
DEFAULT_255_2_778
10
-11.8463197
20
18.6317657
40
15.8472077
50
1.2890794
51
1.3005677
0
ARC
8
DEFAULT_255_2_778
10
65.9023995
20
20.3906691
40
61.9214048
50
181.2918669
51
181.2948021
0
ARC
8
DEFAULT_255_2_778
10
69.6319424
20
20.4832491
40
65.6520877
50
181.2951128
51
181.2992608
0
ARC
8
DEFAULT_255_2_778
10
72.7612789
20
20.5600285
40
68.7823604
50
181.2975048
51
181.3001361
0
ARC
8
DEFAULT_255_2_778
10
64.8068905
20
20.3852005
40
60.8260529
50
181.2995593
51
181.3025296
0
ARC
8
DEFAULT_255_2_778
10
68.6886214
20
20.4763959
40
64.7088536
50
181.2981526
51
181.3023357
0
ARC
8
DEFAULT_255_2_778
10
71.8925706
20
20.5521262
40
67.9136962
50
181.2981404
51
181.3007891
0
ARC
8
DEFAULT_255_2_778
10
68.0746809
20
20.4712991
40
64.0949557
50
181.2990201
51
181.3032246
0
ARC
8
DEFAULT_255_2_778
10
70.9863157
20
20.5462151
40
67.0075412
50
181.3039485
51
181.306621
0
ARC
8
DEFAULT_255_2_778
10
-10.8783842
20
18.6843156
40
14.8783293
50
1.2981157
51
1.3101297
0
ARC
8
DEFAULT_255_2_778
10
70.6379547
20
20.5458953
40
66.6592631
50
181.3024473
51
181.307806
0
ARC
8
DEFAULT_255_2_778
10
72.2081064
20
20.5893542
40
68.2299974
50
181.3037464
51
181.3089621
0
ARC
8
DEFAULT_255_2_778
10
78.8567064
20
20.7441628
40
74.8803987
50
181.3040558
51
181.3064206
0
ARC
8
DEFAULT_255_2_778
10
78.4230539
20
20.7406701
40
74.4467794
50
181.3065899
51
181.3089639
0
ARC
8
DEFAULT_255_2_778
10
73.6314614
20
20.6374264
40
69.6540788
50
181.3066491
51
181.3115603
0
ARC
8
DEFAULT_255_2_778
10
72.6722578
20
20.6229537
40
68.694795
50
181.3077035
51
181.3128247
0
ARC
8
DEFAULT_255_2_778
10
74.3911979
20
20.6702722
40
70.4143678
50
181.3092996
51
181.3142757
0
ARC
8
DEFAULT_255_2_778
10
76.2396201
20
20.7158915
40
72.2633499
50
181.3095607
51
181.311973
0
ARC
8
DEFAULT_255_2_778
10
74.7657027
20
20.6886332
40
70.7891949
50
181.3110802
51
181.3147682
0
ARC
8
DEFAULT_255_2_778
10
-9.6482008
20
18.7575617
40
13.6467935
50
1.3073826
51
1.320091
0
ARC
8
DEFAULT_255_2_778
10
75.0873062
20
20.7072853
40
71.1111417
50
181.3128649
51
181.317737
0
ARC
8
DEFAULT_255_2_778
10
73.3370059
20
20.6721409
40
69.3604957
50
181.3132394
51
181.3169682
0
ARC
8
DEFAULT_255_2_778
10
85.6010533
20
20.9570162
40
81.6278509
50
181.3137521
51
181.3158567
0
ARC
8
DEFAULT_255_2_778
10
78.637657
20
20.8038656
40
74.6627741
50
181.3147512
51
181.318772
0
ARC
8
DEFAULT_255_2_778
10
78.0461751
20
20.7962179
40
74.0712727
50
181.3152973
51
181.3193348
0
ARC
8
DEFAULT_255_2_778
10
300.7818481
20
25.9336071
40
296.8661844
50
181.3180729
51
181.3197952
0
ARC
8
DEFAULT_255_2_778
10
342.1682534
20
26.9019481
40
338.2639139
50
181.3192962
51
181.3207977
0
ARC
8
DEFAULT_255_2_778
10
398.7186051
20
28.2220767
40
394.82967
50
181.3205961
51
181.3218737
0
ARC
8
DEFAULT_255_2_778
10
431.3744952
20
28.9936931
40
427.4946701
50
181.3219441
51
181.3231159
0
ARC
8
DEFAULT_255_2_778
10
211.6139228
20
23.9360488
40
207.6759071
50
181.3229084
51
181.3257041
0
ARC
8
DEFAULT_255_2_778
10
92.5808974
20
21.1959847
40
88.6113494
50
181.326738
51
181.328591
0
LINE
8
DEFAULT_255_2_778
10
3.9933037
20
19.1442885
11
3.9930385
21
19.1557473
0
LINE
8
DEFAULT_255_2_778
10
3.9930385
20
19.1557473
11
3.9927757
21
19.1670949
0
LINE
8
DEFAULT_255_2_778
10
3.9927757
20
19.1670949
11
3.9925152
21
19.1783307
0
ARC
8
DEFAULT_255_2_778
10
91.5396063
20
21.2114423
40
87.5706954
50
181.3267097
51
181.3303444
0
ARC
8
DEFAULT_255_2_778
10
88.2116328
20
21.1374529
40
84.241901
50
181.325989
51
181.3288074
0
ARC
8
DEFAULT_255_2_778
10
85.3233332
20
21.0817856
40
81.3530876
50
181.3319289
51
181.3338665
0
ARC
8
DEFAULT_255_2_778
10
92.7171222
20
21.2544887
40
88.7488931
50
181.3293381
51
181.3324401
0
LINE
8
DEFAULT_255_2_778
10
3.992115
20
19.1955813
11
3.9916051
21
19.2175333
0
LINE
8
DEFAULT_255_2_778
10
3.9916051
20
19.2175333
11
3.9874693
21
19.3953015
0
ARC
8
DEFAULT_255_2_778
10
650.4695535
20
34.4375686
40
646.6570613
50
181.3138662
51
181.3329108
0
ARC
8
DEFAULT_255_2_778
10
381.3176405
20
28.2609637
40
377.4342861
50
181.2845255
51
181.3133317
0
ARC
8
DEFAULT_255_2_778
10
290.881959
20
26.2331324
40
286.9758726
50
181.2449594
51
181.2845263
0
ARC
8
DEFAULT_255_2_778
10
237.774517
20
25.0800628
40
233.8559144
50
181.1869731
51
181.2452202
0
ARC
8
DEFAULT_255_2_778
10
199.3536136
20
24.2847214
40
195.42678
50
181.1090984
51
181.1871849
0
ARC
8
DEFAULT_255_2_778
10
165.6414425
20
23.6345673
40
161.7083403
50
180.9825483
51
181.1099869
0
ARC
8
DEFAULT_255_2_778
10
132.1357679
20
23.0647914
40
128.197822
50
180.773982
51
180.9847198
0
ARC
8
DEFAULT_255_2_778
10
100.322331
20
22.6400834
40
96.3815509
50
180.4660578
51
180.7769962
0
ARC
8
DEFAULT_255_2_778
10
78.8778055
20
22.4584165
40
74.9362575
50
180.2516621
51
180.4605314
0
ARC
8
DEFAULT_255_2_778
10
65.5336182
20
22.4005415
40
61.5919448
50
180.0043437
51
180.2523482
0
ARC
8
DEFAULT_255_2_778
10
53.0475184
20
22.4015377
40
49.1058451
50
179.6759201
51
180.0066105
0
ARC
8
DEFAULT_255_2_778
10
42.2589857
20
22.4624419
40
38.3171407
50
179.3216817
51
179.6757419
0
ARC
8
DEFAULT_255_2_778
10
34.0192399
20
22.5598471
40
30.0768193
50
178.9462703
51
179.3213982
0
ARC
8
DEFAULT_255_2_778
10
27.6923052
20
22.6761002
40
23.7488167
50
178.5519548
51
178.9459834
0
ARC
8
DEFAULT_255_2_778
10
21.8186614
20
22.8276248
40
17.8732198
50
177.9204209
51
178.5617207
0
ARC
8
DEFAULT_255_2_778
10
16.4448499
20
23.0236799
40
12.4958332
50
177.1317402
51
177.9246558
0
ARC
8
DEFAULT_255_2_778
10
12.4795275
20
23.2227415
40
8.5255175
50
176.1986583
51
177.1343532
0
ARC
8
DEFAULT_255_2_778
10
9.515061
20
23.4212883
40
5.55441
50
174.9022181
51
176.2148944
0
ARC
8
DEFAULT_255_2_778
10
7.3181827
20
23.6184591
40
3.3487019
50
173.1289854
51
174.9225045
0
ARC
8
DEFAULT_255_2_778
10
5.814129
20
23.8013814
40
1.8335672
50
170.4575353
51
173.1812211
0
ARC
8
DEFAULT_255_2_778
10
4.6940987
20
23.9880001
40
0.6980993
50
170.2977298
51
170.3228946
0
ARC
8
DEFAULT_255_2_778
10
11.0360193
20
23.6150844
40
7.0471299
50
171.5289196
51
176.008294
0
ARC
8
DEFAULT_255_2_778
10
9.9797548
20
23.7733725
40
5.9790716
50
166.3088386
51
171.5381452
0
ARC
8
DEFAULT_255_2_778
10
9.1179538
20
23.9843873
40
5.0918136
50
160.0646243
51
166.3205501
0
ARC
8
DEFAULT_255_2_778
10
8.4577196
20
24.2244415
40
4.3892933
50
152.6157642
51
160.0718836
0
ARC
8
DEFAULT_255_2_778
10
8.0060092
20
24.458749
40
3.8804297
50
143.2654533
51
152.6199686
0
ARC
8
DEFAULT_255_2_778
10
7.7912216
20
24.6167663
40
3.6137846
50
130.620376
51
143.236457
0
ARC
8
DEFAULT_255_2_778
10
8.0949553
20
24.1688244
40
4.1519839
50
101.0546324
51
129.7774103
0
ARC
8
DEFAULT_255_2_778
10
8.5351246
20
22.2958109
40
6.0750805
50
89.7278864
51
101.7418221
0
ARC
8
DEFAULT_255_2_778
10
8.5638092
20
21.3255533
40
7.0452695
50
89.1352532
51
89.9986372
0
ARC
8
DEFAULT_255_2_778
10
8.5411216
20
20.6641164
40
7.706984
50
81.7065655
51
89.0408196
0
ARC
8
DEFAULT_255_2_778
10
8.4546406
20
20.0034077
40
8.373263
50
78.0329595
51
81.7731164
0
ARC
8
DEFAULT_255_2_778
10
8.4280993
20
19.8718138
40
8.5075004
50
77.7990381
51
78.0418588
0
ARC
8
DEFAULT_255_2_778
10
15.4179275
20
69.0823521
40
41.2234497
50
262.7647308
51
263.5202345
0
ARC
8
DEFAULT_255_2_778
10
15.256317
20
67.6592255
40
39.7911763
50
263.5201985
51
264.2853383
0
ARC
8
DEFAULT_255_2_778
10
15.1236624
20
66.3364062
40
38.4617222
50
264.28575
51
264.9744559
0
ARC
8
DEFAULT_255_2_778
10
15.0230556
20
65.1956631
40
37.3165513
50
264.9749028
51
265.5829772
0
ARC
8
DEFAULT_255_2_778
10
14.9465881
20
64.2091773
40
36.3271062
50
265.5833967
51
266.1197731
0
ARC
8
DEFAULT_255_2_778
10
14.8748865
20
63.1445869
40
35.260104
50
266.1189531
51
266.8294971
0
ARC
8
DEFAULT_255_2_778
10
14.8070997
20
61.9161877
40
34.0298359
50
266.8290649
51
267.6072102
0
ARC
8
DEFAULT_255_2_778
10
14.7605188
20
60.8155246
40
32.9281877
50
267.6082328
51
268.1977551
0
ARC
8
DEFAULT_255_2_778
10
14.7261136
20
59.6964168
40
31.8085515
50
268.1963004
51
269.0342131
0
ARC
8
DEFAULT_255_2_778
10
14.7044592
20
58.4123355
40
30.5242875
50
269.0342274
51
269.8758972
0
ARC
8
DEFAULT_255_2_778
10
14.7013279
20
57.6704863
40
29.7824333
50
269.87883
51
270.0000569
0
ARC
8
DEFAULT_255_2_778
10
14.7044134
20
56.7187512
40
28.8306985
50
269.9939269
51
271.1984726
0
ARC
8
DEFAULT_255_2_778
10
14.7392504
20
55.0423803
40
27.1539657
50
271.1989648
51
272.3502353
0
ARC
8
DEFAULT_255_2_778
10
14.8114368
20
53.3111436
40
25.421225
50
272.3476852
51
273.7266294
0
ARC
8
DEFAULT_255_2_778
10
14.9349269
20
51.4255834
40
23.5316252
50
273.7249861
51
275.2259023
0
ARC
8
DEFAULT_255_2_778
10
15.1044653
20
49.5705657
40
21.6688762
50
275.2262367
51
276.6939025
0
ARC
8
DEFAULT_255_2_778
10
15.3191421
20
47.747755
40
19.8334678
50
276.6917725
51
278.2949451
0
ARC
8
DEFAULT_255_2_778
10
15.5892988
20
45.8982836
40
17.9643695
50
278.2933209
51
279.9819264
0
ARC
8
DEFAULT_255_2_778
10
15.8900424
20
44.1859551
40
16.2258313
50
279.9841146
51
281.5304617
0
ARC
8
DEFAULT_255_2_778
10
16.2257837
20
42.5456399
40
14.551509
50
281.5261906
51
283.297179
0
ARC
8
DEFAULT_255_2_778
10
16.6229886
20
40.8677003
40
12.8271968
50
283.2943793
51
285.1905275
0
ARC
8
DEFAULT_255_2_778
10
17.0708384
20
39.2211547
40
11.1208318
50
285.1866215
51
287.2447712
0
ARC
8
DEFAULT_255_2_778
10
17.5698418
20
37.6168091
40
9.4406747
50
287.2389672
51
289.5151531
0
ARC
8
DEFAULT_255_2_778
10
18.1024953
20
36.1152814
40
7.8474687
50
289.5117969
51
291.9203196
0
ARC
8
DEFAULT_255_2_778
10
18.6436846
20
34.7718312
40
6.3991095
50
291.9155662
51
294.5062971
0
ARC
8
DEFAULT_255_2_778
10
19.009473
20
33.9597446
40
5.508454
50
294.5480217
51
295.4862562
0
ARC
8
DEFAULT_255_2_778
10
19.2245275
20
33.5098613
40
5.0098128
50
295.4800249
51
296.8178371
0
ARC
8
DEFAULT_255_2_778
10
19.4748704
20
33.0149918
40
4.4552253
50
296.8158515
51
298.2647579
0
ARC
8
DEFAULT_255_2_778
10
19.7335932
20
32.5344317
40
3.9094457
50
298.2602528
51
299.9405241
0
ARC
8
DEFAULT_255_2_778
10
19.9921804
20
32.0854955
40
3.3913617
50
299.9403079
51
301.6716578
0
ARC
8
DEFAULT_255_2_778
10
20.2426759
20
31.6798726
40
2.9146249
50
301.6673952
51
303.6228209
0
ARC
8
DEFAULT_255_2_778
10
20.4879702
20
31.3112636
40
2.4718588
50
303.6193603
51
305.7626529
0
ARC
8
DEFAULT_255_2_778
10
20.6279332
20
31.1149588
40
2.23077
50
305.7922903
51
306.1187575
0
ARC
8
DEFAULT_255_2_778
10
19.3998616
20
24.0424421
40
5.8519412
50
53.9020115
51
64.242663
0
ARC
8
DEFAULT_255_2_778
10
19.8864273
20
24.7113355
40
5.0247995
50
32.1944451
51
53.8912889
0
ARC
8
DEFAULT_255_2_778
10
19.440999
20
24.4334668
40
5.5497882
50
23.4575426
51
32.1719731
0
ARC
8
DEFAULT_255_2_778
10
18.6260329
20
24.0768827
40
6.4393475
50
17.1838642
51
23.4815775
0
ARC
8
DEFAULT_255_2_778
10
17.5123217
20
23.7319327
40
7.605256
50
11.7990243
51
17.1877693
0
ARC
8
DEFAULT_255_2_778
10
16.1087005
20
23.4354197
40
9.0398512
50
7.6435012
51
11.8195365
0
ARC
8
DEFAULT_255_2_778
10
14.4533085
20
23.2120659
40
10.7102428
50
4.0401968
51
7.649853
0
ARC
8
DEFAULT_255_2_778
10
12.4689418
20
23.070515
40
12.6996514
50
0.9240575
51
4.0464585
0
ARC
8
DEFAULT_255_2_778
10
10.9398804
20
23.0361748
40
14.229071
50
359.9953871
51
0.9630211
0
ARC
8
DEFAULT_255_2_778
10
10.0949964
20
23.0362415
40
15.0739552
50
359.0485222
51
359.9953921
0
ARC
8
DEFAULT_255_2_778
10
9.2393854
20
23.0501588
40
15.9296794
50
358.2335834
51
359.0495746
0
ARC
8
DEFAULT_255_2_778
10
8.4969281
20
23.0725816
40
16.6724749
50
357.6408581
51
358.2352125
0
ARC
8
DEFAULT_255_2_778
10
7.6673776
20
23.1074302
40
17.5027567
50
356.7880693
51
357.6386577
0
ARC
8
DEFAULT_255_2_778
10
6.6464755
20
23.1646018
40
18.5252583
50
355.9951733
51
356.7884368
0
ARC
8
DEFAULT_255_2_778
10
6.5528864
20
23.1697113
40
18.6189758
50
355.946423
51
355.9996023
0
LINE
8
DEFAULT_255_2_778
10
25.1252847
20
21.8535497
11
25.1252847
21
21.8538497
0
ENDSEC
0
EOF