0
SECTION
2
HEADER
9
$MEASUREMENT
70
1
0
ENDSEC
0
SECTION
2
TABLES
0
TABLE
2
LTYPE
0
LTYPE
72
65
70
64
2
CONTINUOUS
3
______
73
0
40
0
0
ENDTAB
0
TABLE
2
LAYER
0
LAYER
2
DEFAULT_255_2_778
70
0
62
255
6
CONTINUOUS
0
ENDTAB
0
ENDSEC
0
SECTION
2
ENTITIES
0
ARC
8
DEFAULT_255_2_778
10
2.1334567
20
-0.2024045
40
1.9286102
50
170.8587464
51
179.8836653
0
ARC
8
DEFAULT_255_2_778
10
2.4769381
20
-0.2564613
40
2.2763177
50
164.1852848
51
170.8889093
0
ARC
8
DEFAULT_255_2_778
10
2.8780518
20
-0.3692724
40
2.6929928
50
158.7476938
51
164.2017411
0
ARC
8
DEFAULT_255_2_778
10
3.3347728
20
-0.5462491
40
3.1828036
50
154.1361897
51
158.7586589
0
ARC
8
DEFAULT_255_2_778
10
3.8496899
20
-0.7954212
40
3.7548407
50
150.0670221
51
154.1424567
0
ARC
8
DEFAULT_255_2_778
10
4.4176255
20
-1.1217412
40
4.4098483
50
146.536672
51
150.0748191
0
ARC
8
DEFAULT_255_2_778
10
5.0324548
20
-1.5276639
40
5.1465898
50
143.3537535
51
146.5409287
0
ARC
8
DEFAULT_255_2_778
10
5.6808583
20
-2.0091134
40
5.9541913
50
140.6040241
51
143.3607792
0
ARC
8
DEFAULT_255_2_778
10
6.3647384
20
-2.5706404
40
6.8390667
50
137.9991997
51
140.6049168
0
ARC
8
DEFAULT_255_2_778
10
6.942975
20
-3.0877853
40
7.6148181
50
136.5685883
51
138.0188617
0
ARC
8
DEFAULT_255_2_778
10
7.7799155
20
-3.8913272
40
8.77503
50
132.8925031
51
136.5154011
0
ARC
8
DEFAULT_255_2_778
10
9.0267507
20
-5.2307461
40
10.6049584
50
129.7116398
51
132.9023865
0
ARC
8
DEFAULT_255_2_778
10
10.2868808
20
-6.7466063
40
12.5761914
50
126.7214757
51
129.7155595
0
ARC
8
DEFAULT_255_2_778
10
11.5237766
20
-8.4025483
40
14.6430862
50
123.9356523
51
126.7265843
0
ARC
8
DEFAULT_255_2_778
10
12.6819208
20
-10.1221376
40
16.7163166
50
121.2273518
51
123.9387075
0
ARC
8
DEFAULT_255_2_778
10
13.6621676
20
-11.7342485
40
18.6030545
50
118.8292246
51
121.2348986
0
ARC
8
DEFAULT_255_2_778
10
14.4818267
20
-13.2248676
40
20.3041676
50
116.0685733
51
118.827232
0
ARC
8
DEFAULT_255_2_778
10
15.1130672
20
-14.5122859
40
21.7380116
50
113.1601214
51
116.0719264
0
ARC
8
DEFAULT_255_2_778
10
15.4587745
20
-15.3161727
40
22.6130801
50
109.7639735
51
113.1643682
0
ARC
8
DEFAULT_255_2_778
10
15.4464986
20
-15.2655613
40
22.5612997
50
105.1086209
51
109.7780968
0
ARC
8
DEFAULT_255_2_778
10
14.9252637
20
-13.1967386
40
20.4281611
50
96.524079
51
105.2096497
0
ARC
8
DEFAULT_255_2_778
10
14.593036
20
-10.6678784
40
17.8779804
50
94.1091851
51
96.3870878
0
ARC
8
DEFAULT_255_2_778
10
14.5154665
20
-9.5799991
40
16.7873395
50
91.6304917
51
94.1111798
0
ARC
8
DEFAULT_255_2_778
10
14.487584
20
-8.6801867
40
15.8870981
50
90.0058915
51
91.6223113
0
ARC
8
DEFAULT_255_2_778
10
14.4822839
20
-8.8520073
40
16.0589191
50
87.5824264
51
89.9869187
0
ARC
8
DEFAULT_255_2_778
10
14.4355635
20
-9.946926
40
17.1548339
50
85.0559426
51
87.5807803
0
ARC
8
DEFAULT_255_2_778
10
14.3596849
20
-10.8582286
40
18.0692857
50
83.6202572
51
85.065273
0
ARC
8
DEFAULT_255_2_778
10
13.9583215
20
-13.7002186
40
20.9384394
50
72.2237765
51
83.3929095
0
ARC
8
DEFAULT_255_2_778
10
13.466632
20
-15.4401776
40
22.7455263
50
68.6480955
51
72.3824615
0
ARC
8
DEFAULT_255_2_778
10
13.6266724
20
-15.0385862
40
22.3132297
50
65.5219987
51
68.6553831
0
ARC
8
DEFAULT_255_2_778
10
14.0914177
20
-14.0196752
40
21.1933337
50
62.8212627
51
65.5241472
0
ARC
8
DEFAULT_255_2_778
10
14.8124705
20
-12.6188864
40
19.6178581
50
60.0871224
51
62.825945
0
ARC
8
DEFAULT_255_2_778
10
15.7265033
20
-11.029415
40
17.7843164
50
57.5951986
51
60.0859235
0
ARC
8
DEFAULT_255_2_778
10
16.7793478
20
-9.3739805
40
15.8224445
50
54.8729332
51
57.6015554
0
ARC
8
DEFAULT_255_2_778
10
17.9844782
20
-7.6630524
40
13.729692
50
51.9690139
51
54.8779236
0
ARC
8
DEFAULT_255_2_778
10
19.2565151
20
-6.0384428
40
11.6663372
50
48.8474653
51
51.974187
0
ARC
8
DEFAULT_255_2_778
10
20.5005091
20
-4.6151886
40
9.7760531
50
45.6219428
51
48.8479518
0
ARC
8
DEFAULT_255_2_778
10
21.4545122
20
-3.634134
40
8.4076347
50
43.4435989
51
45.592812
0
ARC
8
DEFAULT_255_2_778
10
22.1615796
20
-2.9650343
40
7.4341676
50
41.0761659
51
43.4467357
0
ARC
8
DEFAULT_255_2_778
10
22.8212952
20
-2.3896657
40
6.5587969
50
38.7286617
51
41.073894
0
ARC
8
DEFAULT_255_2_778
10
23.4626492
20
-1.8766634
40
5.7375145
50
35.8208844
51
38.7391484
0
ARC
8
DEFAULT_255_2_778
10
24.0878042
20
-1.4253908
40
4.9664985
50
32.7786998
51
35.8204153
0
ARC
8
DEFAULT_255_2_778
10
24.6755959
20
-1.0479116
40
4.2679368
50
29.110836
51
32.7901847
0
ARC
8
DEFAULT_255_2_778
10
25.2376871
20
-0.73545
40
3.6248359
50
24.9051991
51
29.1182039
0
ARC
8
DEFAULT_255_2_778
10
25.7435791
20
-0.5009917
40
3.0672544
50
20.0944635
51
24.9123968
0
ARC
8
DEFAULT_255_2_778
10
26.1944133
20
-0.3367686
40
2.5874417
50
14.2773656
51
20.1092153
0
ARC
8
DEFAULT_255_2_778
10
26.5869835
20
-0.237499
40
2.1825151
50
7.1204958
51
14.2933967
0
ARC
8
DEFAULT_255_2_778
10
26.8739803
20
-0.2007051
40
1.8931712
50
0.0670787
51
7.0921976
0
LINE
8
DEFAULT_255_2_778
10
14.4859504
20
-0.1984886
11
0.2048504
21
-0.1984886
0
LINE
8
DEFAULT_255_2_778
10
28.7671504
20
-0.1984886
11
14.4859504
21
-0.1984886
0
ARC
8
DEFAULT_255_2_778
10
14.5052634
20
-9.4054802
40
16.6124102
50
90.0667115
51
95.3466773
0
ARC
8
DEFAULT_255_2_778
10
14.6272811
20
-10.9112226
40
18.1229808
50
95.2871753
51
96.4128881
0
ARC
8
DEFAULT_255_2_778
10
14.8959311
20
-12.9658935
40
20.1948361
50
96.5192181
51
103.5937351
0
ARC
8
DEFAULT_255_2_778
10
10.5376544
20
6.9614786
40
0.4895755
50
217.5332239
51
218.5640755
0
ARC
8
DEFAULT_255_2_778
10
11.3632625
20
7.6155454
40
1.5428698
50
218.4432704
51
219.2306746
0
ARC
8
DEFAULT_255_2_778
10
12.1376494
20
8.248197
40
2.5428313
50
219.2374205
51
220.3646881
0
ARC
8
DEFAULT_255_2_778
10
12.8826431
20
8.8807995
40
3.5201754
50
220.3566814
51
221.613401
0
ARC
8
DEFAULT_255_2_778
10
13.4882932
20
9.4182037
40
4.3298761
50
221.607757
51
222.9660551
0
ARC
8
DEFAULT_255_2_778
10
13.9715188
20
9.8681275
40
4.9901322
50
222.9647405
51
224.5509868
0
ARC
8
DEFAULT_255_2_778
10
14.3335884
20
10.2241229
40
5.4978989
50
224.547695
51
226.2712958
0
ARC
8
DEFAULT_255_2_778
10
14.5842318
20
10.4859025
40
5.8603222
50
226.2696686
51
228.2816236
0
ARC
8
DEFAULT_255_2_778
10
14.73453
20
10.6540887
40
6.0858795
50
228.2791433
51
230.526225
0
ARC
8
DEFAULT_255_2_778
10
14.7969505
20
10.7294178
40
6.1837097
50
230.5234936
51
232.8457059
0
ARC
8
DEFAULT_255_2_778
10
14.7987842
20
10.7314896
40
6.1864685
50
232.843759
51
235.3524628
0
ARC
8
DEFAULT_255_2_778
10
14.7571042
20
10.6705816
40
6.1126654
50
235.3492844
51
238.6267522
0
ARC
8
DEFAULT_255_2_778
10
14.6827579
20
10.5479721
40
5.9692766
50
238.6233404
51
242.5074933
0
ARC
8
DEFAULT_255_2_778
10
14.5998459
20
10.3882189
40
5.7892891
50
242.505529
51
246.8858443
0
ARC
8
DEFAULT_255_2_778
10
14.5309517
20
10.2268074
40
5.6137896
50
246.8858372
51
251.7402233
0
ARC
8
DEFAULT_255_2_778
10
14.4890753
20
10.100687
40
5.4808991
50
251.7428469
51
257.0298485
0
ARC
8
DEFAULT_255_2_778
10
14.4761461
20
10.0469128
40
5.4255951
50
257.035446
51
262.4517168
0
ARC
8
DEFAULT_255_2_778
10
14.481165
20
10.0889768
40
5.4679538
50
262.4574827
51
267.6163963
0
ARC
8
DEFAULT_255_2_778
10
14.4856293
20
10.1831865
40
5.5622676
50
267.6108103
51
270.0030046
0
ARC
8
DEFAULT_255_2_778
10
14.4860717
20
10.2188384
40
5.5979197
50
269.9984572
51
275.8175578
0
ARC
8
DEFAULT_255_2_778
10
14.4787666
20
10.2824473
40
5.6619414
50
275.8258558
51
281.5854757
0
ARC
8
DEFAULT_255_2_778
10
14.4410236
20
10.4631545
40
5.8465468
50
281.5921659
51
287.19231
0
ARC
8
DEFAULT_255_2_778
10
14.3599176
20
10.7248993
40
6.1205697
50
287.1933918
51
292.227424
0
ARC
8
DEFAULT_255_2_778
10
14.2437571
20
11.0100588
40
6.4284804
50
292.2243696
51
296.5626364
0
ARC
8
DEFAULT_255_2_778
10
14.1217912
20
11.2556875
40
6.7027223
50
296.5562483
51
299.9366332
0
ARC
8
DEFAULT_255_2_778
10
14.0175796
20
11.4372834
40
6.9120952
50
299.9340098
51
303.0054316
0
ARC
8
DEFAULT_255_2_778
10
13.9522054
20
11.5388011
40
7.0328405
50
303.0015655
51
305.3399918
0
ARC
8
DEFAULT_255_2_778
10
13.9396494
20
11.5569
40
7.0548672
50
305.3381517
51
307.23482
0
ARC
8
DEFAULT_255_2_778
10
13.9860416
20
11.4962828
40
6.978535
50
307.2327076
51
309.1597048
0
ARC
8
DEFAULT_255_2_778
10
14.1158151
20
11.3373608
40
6.7733587
50
309.1574364
51
310.927445
0
ARC
8
DEFAULT_255_2_778
10
14.3294084
20
11.0909594
40
6.447267
50
310.9278004
51
312.3053525
0
ARC
8
DEFAULT_255_2_778
10
14.6356011
20
10.7550603
40
5.992754
50
312.3018833
51
313.7006454
0
ARC
8
DEFAULT_255_2_778
10
15.0187005
20
10.3537325
40
5.4379306
50
313.7038934
51
314.6935549
0
ARC
8
DEFAULT_255_2_778
10
15.4675832
20
9.9005991
40
4.800102
50
314.6887119
51
315.7441822
0
ARC
8
DEFAULT_255_2_778
10
16.006174
20
9.3756325
40
4.0479916
50
315.7460903
51
316.5806571
0
ARC
8
DEFAULT_255_2_778
10
16.5916577
20
8.821862
40
3.2421052
50
316.5772097
51
317.3702186
0
ARC
8
DEFAULT_255_2_778
10
14.0826112
20
-12.9487838
40
20.1775136
50
75.9618719
51
83.5038812
0
ARC
8
DEFAULT_255_2_778
10
14.4398148
20
-9.9582091
40
17.1657352
50
83.5591844
51
88.8710298
0
ARC
8
DEFAULT_255_2_778
10
14.4852197
20
-8.5273238
40
15.7342424
50
88.9336755
51
89.9974464
0
LINE
8
DEFAULT_255_2_778
10
14.485921
20
7.2069187
11
14.485921
21
7.2069187
0
ARC
8
DEFAULT_255_2_778
10
24.8112377
20
16.43833
40
4.5298628
50
83.798722
51
90.1635366
0
ARC
8
DEFAULT_255_2_778
10
24.9479484
20
17.671439
40
3.2892028
50
75.4915237
51
83.8459006
0
ARC
8
DEFAULT_255_2_778
10
25.178141
20
18.54554
40
2.385311
50
63.4091217
51
75.5844649
0
ARC
8
DEFAULT_255_2_778
10
25.4561346
20
19.0812611
40
1.7818425
50
22.962907
51
63.6918074
0
ARC
8
DEFAULT_255_2_778
10
24.9039784
20
18.8325284
40
2.3873228
50
11.4438455
51
23.2894775
0
ARC
8
DEFAULT_255_2_778
10
24.0269845
20
18.6508541
40
3.2829297
50
3.0509258
51
11.5147111
0
ARC
8
DEFAULT_255_2_778
10
23.1344266
20
18.5899945
40
4.1774828
50
359.9585766
51
3.2329045
0
ARC
8
DEFAULT_255_2_778
10
20.4443204
20
19.3672977
40
6.9117776
50
348.727284
51
353.5176209
0
ARC
8
DEFAULT_255_2_778
10
22.0033008
20
19.0540813
40
5.3216465
50
342.7505968
51
348.7534001
0
ARC
8
DEFAULT_255_2_778
10
23.1703295
20
18.6903696
40
4.0992555
50
335.4602458
51
342.7686569
0
ARC
8
DEFAULT_255_2_778
10
24.0140919
20
18.3010881
40
3.1700313
50
325.0865094
51
335.526827
0
ARC
8
DEFAULT_255_2_778
10
24.5588487
20
17.9145878
40
2.5021175
50
306.3103176
51
325.2044689
0
ARC
8
DEFAULT_255_2_778
10
24.5838332
20
17.9114864
40
2.4848909
50
286.376214
51
305.8884397
0
ARC
8
DEFAULT_255_2_778
10
24.3940468
20
18.5341082
40
3.1357695
50
275.9520024
51
286.4957654
0
ARC
8
DEFAULT_255_2_778
10
24.3007918
20
19.3514582
40
3.9583915
50
269.894493
51
276.0677532
0
ARC
8
DEFAULT_255_2_778
10
24.2944635
20
19.9563737
40
4.5633005
50
268.0646283
51
269.987936
0
ARC
8
DEFAULT_255_2_778
10
24.3052067
20
20.2835192
40
4.8906224
50
266.5120098
51
268.0682761
0
ARC
8
DEFAULT_255_2_778
10
24.3251057
20
20.610426
40
5.2181343
50
265.0219674
51
266.5123027
0
ARC
8
DEFAULT_255_2_778
10
84.4787154
20
15.4225824
40
60.606408
50
179.3739479
51
180.0100286
0
ARC
8
DEFAULT_255_2_778
10
73.835649
20
15.5389671
40
49.9627051
50
178.6958081
51
179.3740474
0
ARC
8
DEFAULT_255_2_778
10
65.0761519
20
15.7384651
40
41.2009365
50
177.9728332
51
178.6959137
0
ARC
8
DEFAULT_255_2_778
10
57.8763188
20
15.9933683
40
33.9965924
50
177.2023832
51
177.9729368
0
ARC
8
DEFAULT_255_2_778
10
51.9546948
20
16.2827846
40
28.0679
50
176.3816234
51
177.20248
0
ARC
8
DEFAULT_255_2_778
10
45.9989806
20
16.6664462
40
22.0998464
50
175.0459134
51
176.3998442
0
ARC
8
DEFAULT_255_2_778
10
40.4759747
20
17.1453322
40
16.5561177
50
173.5588862
51
175.046413
0
ARC
8
DEFAULT_255_2_778
10
35.94641
20
17.6615494
40
11.9972357
50
171.492957
51
173.58192
0
ARC
8
DEFAULT_255_2_778
10
32.2911797
20
18.2098018
40
8.301118
50
168.988661
51
171.5033005
0
ARC
8
DEFAULT_255_2_778
10
29.5064248
20
18.7564569
40
5.4632213
50
165.4247376
51
169.0378853
0
ARC
8
DEFAULT_255_2_778
10
27.4300707
20
19.3005232
40
3.316776
50
160.3561758
51
165.4945172
0
ARC
8
DEFAULT_255_2_778
10
26.0567338
20
19.7951555
40
1.8570895
50
152.7931512
51
160.4847515
0
ARC
8
DEFAULT_255_2_778
10
25.2447177
20
20.2183572
40
0.9414379
50
140.1241105
51
153.104894
0
ARC
8
DEFAULT_255_2_778
10
24.8566179
20
20.5516456
40
0.4299727
50
113.0144855
51
141.0510612
0
ARC
8
DEFAULT_255_2_778
10
24.7980461
20
20.6691015
40
0.2990729
50
89.9497591
51
111.4838355
0
LINE
8
DEFAULT_255_2_778
10
24.7983084
20
20.9681743
11
24.7983084
21
20.9681743
0
ARC
8
DEFAULT_255_2_778
10
3.8832796
20
16.4386899
40
4.5295029
50
89.8364578
51
96.2015258
0
ARC
8
DEFAULT_255_2_778
10
3.7465756
20
17.6716874
40
3.2889545
50
96.1543435
51
104.5090301
0
ARC
8
DEFAULT_255_2_778
10
3.5164003
20
18.5456921
40
2.3851601
50
104.4161148
51
116.5918043
0
ARC
8
DEFAULT_255_2_778
10
3.2384604
20
19.0813032
40
1.781814
50
116.3093852
51
157.0381711
0
ARC
8
DEFAULT_255_2_778
10
3.7907224
20
18.8325283
40
2.3874078
50
156.7113987
51
168.5565652
0
ARC
8
DEFAULT_255_2_778
10
4.6677496
20
18.6508565
40
3.2830469
50
168.485748
51
176.949225
0
ARC
8
DEFAULT_255_2_778
10
5.5604378
20
18.5899911
40
4.1777305
50
176.7672406
51
180.0413742
0
ARC
8
DEFAULT_255_2_778
10
8.2502964
20
19.3672977
40
6.9117776
50
186.4823791
51
191.272716
0
ARC
8
DEFAULT_255_2_778
10
6.6913159
20
19.0540813
40
5.3216465
50
191.2465999
51
197.2494032
0
ARC
8
DEFAULT_255_2_778
10
5.5242873
20
18.6903696
40
4.0992555
50
197.2313431
51
204.5397542
0
ARC
8
DEFAULT_255_2_778
10
4.6805248
20
18.3010881
40
3.1700313
50
204.473173
51
214.9134906
0
ARC
8
DEFAULT_255_2_778
10
4.1357681
20
17.9145878
40
2.5021175
50
214.7955311
51
233.6896824
0
ARC
8
DEFAULT_255_2_778
10
4.1107836
20
17.9114864
40
2.4848909
50
234.1115603
51
253.623786
0
ARC
8
DEFAULT_255_2_778
10
4.30057
20
18.5341082
40
3.1357695
50
253.5042346
51
264.0479976
0
ARC
8
DEFAULT_255_2_778
10
4.3938249
20
19.3514582
40
3.9583915
50
263.9322468
51
270.105507
0
ARC
8
DEFAULT_255_2_778
10
4.4001532
20
19.9563737
40
4.5633005
50
270.012064
51
271.9353717
0
ARC
8
DEFAULT_255_2_778
10
4.3894101
20
20.2835192
40
4.8906224
50
271.9317239
51
273.4879902
0
ARC
8
DEFAULT_255_2_778
10
4.3695111
20
20.610426
40
5.2181343
50
273.4876973
51
274.9780326
0
ARC
8
DEFAULT_255_2_778
10
-55.7772934
20
15.4225649
40
60.5996028
50
359.9899868
51
0.6261389
0
ARC
8
DEFAULT_255_2_778
10
-45.1290689
20
15.5390673
40
49.950741
50
0.6259876
51
1.3043894
0
ARC
8
DEFAULT_255_2_778
10
-36.3757974
20
15.7384894
40
41.1951982
50
1.3042341
51
2.0274155
0
ARC
8
DEFAULT_255_2_778
10
-29.1765204
20
15.9934232
40
33.9914089
50
2.0272798
51
2.797951
0
ARC
8
DEFAULT_255_2_778
10
-23.2555274
20
16.2828865
40
28.0633446
50
2.7977662
51
3.6187563
0
ARC
8
DEFAULT_255_2_778
10
-17.3007792
20
16.6665289
40
22.096256
50
3.6005268
51
4.9546784
0
ARC
8
DEFAULT_255_2_778
10
-11.7795665
20
17.1453351
40
16.5543209
50
4.9541156
51
6.4418055
0
ARC
8
DEFAULT_255_2_778
10
-7.250693
20
17.661526
40
11.9961287
50
6.418787
51
8.5079466
0
ARC
8
DEFAULT_255_2_778
10
-3.5957916
20
18.2097885
40
8.3003348
50
8.4976
51
11.0124846
0
ARC
8
DEFAULT_255_2_778
10
-0.8113755
20
18.7564325
40
5.4627726
50
10.9632869
51
14.5767506
0
ARC
8
DEFAULT_255_2_778
10
1.2647569
20
19.3004962
40
3.3165424
50
14.5070093
51
19.6457608
0
ARC
8
DEFAULT_255_2_778
10
2.6379422
20
19.7951247
40
1.8569998
50
19.5172354
51
27.2093386
0
ARC
8
DEFAULT_255_2_778
10
3.4498618
20
20.2183194
40
0.9414369
50
26.8977192
51
39.8789428
0
ARC
8
DEFAULT_255_2_778
10
3.8379121
20
20.5515998
40
0.4300144
50
38.952287
51
66.9880616
0
ARC
8
DEFAULT_255_2_778
10
3.896471
20
20.669041
40
0.2991334
50
68.5183573
51
90.0502971
0
LINE
8
DEFAULT_255_2_778
10
3.8962084
20
20.9681743
11
3.8962084
21
20.9681743
0
ARC
8
DEFAULT_255_2_778
10
18.6881638
20
25.9626565
40
7.949906
50
359.8841488
51
8.9017478
0
ARC
8
DEFAULT_255_2_778
10
19.9776758
20
26.1986823
40
6.6394886
50
8.6114216
51
36.3298592
0
ARC
8
DEFAULT_255_2_778
10
19.776548
20
26.0238619
40
6.9051244
50
36.5097838
51
46.3519228
0
ARC
8
DEFAULT_255_2_778
10
19.2181855
20
25.4403283
40
7.7127623
50
46.3425889
51
53.8449483
0
ARC
8
DEFAULT_255_2_778
10
18.5873627
20
24.5794526
40
8.7800218
50
53.8354981
51
60.0123491
0
ARC
8
DEFAULT_255_2_778
10
17.9490021
20
23.4782092
40
10.0529067
50
59.9981619
51
65.0114274
0
ARC
8
DEFAULT_255_2_778
10
17.3182416
20
22.1258535
40
11.5451282
50
65.0092909
51
69.5554968
0
ARC
8
DEFAULT_255_2_778
10
16.7013268
20
20.475094
40
13.3073964
50
69.5492721
51
73.5384171
0
ARC
8
DEFAULT_255_2_778
10
16.1407193
20
18.5855949
40
15.2783057
50
73.5301809
51
76.9401964
0
ARC
8
DEFAULT_255_2_778
10
15.6650484
20
16.5464293
40
17.3722143
50
76.9316823
51
79.7855066
0
ARC
8
DEFAULT_255_2_778
10
15.2469443
20
14.2200341
40
19.7358819
50
79.7886152
51
82.6544609
0
ARC
8
DEFAULT_255_2_778
10
14.900264
20
11.5474329
40
22.4308735
50
82.6490068
51
85.1392174
0
ARC
8
DEFAULT_255_2_778
10
14.6555394
20
8.6868096
40
25.3019455
50
85.1359345
51
87.3678203
0
ARC
8
DEFAULT_255_2_778
10
14.5132231
20
5.6205325
40
28.3715233
50
87.3650933
51
89.3766132
0
ARC
8
DEFAULT_255_2_778
10
14.4807136
20
3.4440747
40
30.5482072
50
89.3600558
51
90.0019881
0
ARC
8
DEFAULT_255_2_778
10
14.469525
20
4.6209512
40
29.3713325
50
89.9802419
51
92.0425276
0
ARC
8
DEFAULT_255_2_778
10
14.3498923
20
7.9333567
40
26.0567677
50
92.039233
51
94.3498994
0
ARC
8
DEFAULT_255_2_778
10
14.1245914
20
10.8993531
40
23.0822266
50
94.3506702
51
96.7167382
0
ARC
8
DEFAULT_255_2_778
10
13.8275416
20
13.4243591
40
20.5398078
50
96.7176194
51
99.1343472
0
ARC
8
DEFAULT_255_2_778
10
13.453986
20
15.7333523
40
18.2007935
50
99.1272143
51
102.0147779
0
ARC
8
DEFAULT_255_2_778
10
12.9826265
20
17.9385059
40
15.9458261
50
102.0075902
51
105.3827315
0
ARC
8
DEFAULT_255_2_778
10
12.4612832
20
19.8362977
40
13.9777276
50
105.3858155
51
108.8082465
0
ARC
8
DEFAULT_255_2_778
10
11.8907367
20
21.5017363
40
12.2172737
50
108.7935193
51
113.1118334
0
ARC
8
DEFAULT_255_2_778
10
11.2638634
20
22.9690811
40
10.6216326
50
113.1086608
51
117.8997096
0
ARC
8
DEFAULT_255_2_778
10
10.6302828
20
24.1628551
40
9.2701451
50
117.8914204
51
123.5001663
0
ARC
8
DEFAULT_255_2_778
10
10.0029768
20
25.1083452
40
8.1354811
50
123.4913814
51
130.1842719
0
ARC
8
DEFAULT_255_2_778
10
9.4123403
20
25.8050296
40
7.2221261
50
130.1708151
51
138.7857782
0
ARC
8
DEFAULT_255_2_778
10
8.9411853
20
26.2170111
40
6.5962543
50
138.7812691
51
151.6022878
0
ARC
8
DEFAULT_255_2_778
10
9.0781406
20
26.1704477
40
6.738918
50
151.8078222
51
170.824509
0
ARC
8
DEFAULT_255_2_778
10
10.2074878
20
25.9683176
40
7.8860701
50
170.6831282
51
179.5528521
0
ARC
8
DEFAULT_255_2_778
10
10.8827576
20
25.946669
40
8.5615041
50
179.4432464
51
180.0005828
0
ARC
8
DEFAULT_255_2_778
10
-38.5154943
20
25.9483931
40
40.8367479
50
359.8507011
51
359.9974589
0
ARC
8
DEFAULT_255_2_778
10
-47.4460461
20
25.9709956
40
49.7673282
50
359.7437784
51
359.8514705
0
ARC
8
DEFAULT_255_2_778
10
-61.3712215
20
26.0343118
40
63.6926475
50
359.6298773
51
359.7428396
0
ARC
8
DEFAULT_255_2_778
10
-84.768557
20
26.1845837
40
87.0904657
50
359.5502504
51
359.6304521
0
ARC
8
DEFAULT_255_2_778
10
-123.5675712
20
26.4880037
40
125.8906663
50
359.5001803
51
359.5507708
0
ARC
8
DEFAULT_255_2_778
10
-205.6566108
20
27.2056609
40
207.9828429
50
359.4646053
51
359.4997573
0
ARC
8
DEFAULT_255_2_778
10
-477.0990692
20
29.7355142
40
479.4370903
50
359.4524557
51
359.4654045
0
ARC
8
DEFAULT_255_2_778
10
3633.9246708
20
-9.5419054
40
3631.7742769
50
179.4526225
51
179.4543602
0
ARC
8
DEFAULT_255_2_778
10
399.695222
20
21.2578283
40
397.3981776
50
179.4541514
51
179.4718703
0
ARC
8
DEFAULT_255_2_778
10
226.3713104
20
22.8571945
40
224.0668871
50
179.4723025
51
179.5002342
0
ARC
8
DEFAULT_255_2_778
10
155.5581441
20
23.4737517
40
153.2510367
50
179.4998116
51
179.5542901
0
ARC
8
DEFAULT_255_2_778
10
117.0750598
20
23.7727927
40
114.7667905
50
179.5541259
51
179.6343967
0
ARC
8
DEFAULT_255_2_778
10
97.2197982
20
23.9010298
40
94.9111148
50
179.635326
51
179.7092973
0
ARC
8
DEFAULT_255_2_778
10
83.4915194
20
23.9696758
40
81.1826645
50
179.7085858
51
179.8321297
0
ARC
8
DEFAULT_255_2_778
10
72.5585744
20
24.0017334
40
70.2496725
50
179.8321503
51
179.9762283
0
ARC
8
DEFAULT_255_2_778
10
64.6576164
20
24.0059048
40
62.3487133
50
179.9770492
51
180.000463
0
ARC
8
DEFAULT_255_2_778
10
61.7611892
20
24.0010411
40
59.4522862
50
179.9957983
51
180.2943519
0
ARC
8
DEFAULT_255_2_778
10
53.7746986
20
23.9606153
40
51.4656933
50
180.2950248
51
180.6265009
0
ARC
8
DEFAULT_255_2_778
10
47.3370999
20
23.887827
40
45.0276835
50
180.6234555
51
181.1704213
0
ARC
8
DEFAULT_255_2_778
10
41.8521164
20
23.7753929
40
39.5415478
50
181.169881
51
181.8472411
0
ARC
8
DEFAULT_255_2_778
10
37.6339877
20
23.6392255
40
35.321222
50
181.8470369
51
182.6388821
0
ARC
8
DEFAULT_255_2_778
10
34.4803955
20
23.494796
40
32.1643241
50
182.6405172
51
183.4176341
0
ARC
8
DEFAULT_255_2_778
10
31.6582667
20
23.3241829
40
29.3370436
50
183.4135868
51
184.5540047
0
ARC
8
DEFAULT_255_2_778
10
28.8490552
20
23.0994606
40
26.5188583
50
184.5519196
51
185.9455495
0
ARC
8
DEFAULT_255_2_778
10
26.2045829
20
22.8223523
40
23.8599074
50
185.9414805
51
187.7143519
0
ARC
8
DEFAULT_255_2_778
10
23.5032975
20
22.4522035
40
21.1333836
50
187.7029828
51
190.2437681
0
ARC
8
DEFAULT_255_2_778
10
21.7575053
20
22.1453423
40
19.36085
50
190.2689102
51
191.2013099
0
ARC
8
DEFAULT_255_2_778
10
18.5329118
20
21.4441289
40
16.0615846
50
190.9820778
51
199.5947689
0
ARC
8
DEFAULT_255_2_778
10
14.3702407
20
19.9363521
40
11.6343511
50
199.4743989
51
213.4020335
0
ARC
8
DEFAULT_255_2_778
10
12.6762181
20
18.8759785
40
9.6365026
50
213.6835467
51
222.4011781
0
ARC
8
DEFAULT_255_2_778
10
12.3099207
20
18.5510761
40
9.1469288
50
222.4455227
51
229.593366
0
ARC
8
DEFAULT_255_2_778
10
12.3139687
20
18.559763
40
9.156168
50
229.6093135
51
235.5881639
0
ARC
8
DEFAULT_255_2_778
10
12.4812651
20
18.805692
40
9.4536043
50
235.5940108
51
240.795782
0
ARC
8
DEFAULT_255_2_778
10
12.7301488
20
19.2519873
40
9.9646056
50
240.7987199
51
245.5064071
0
ARC
8
DEFAULT_255_2_778
10
13.0166612
20
19.8806628
40
10.6554907
50
245.5059504
51
249.6684722
0
ARC
8
DEFAULT_255_2_778
10
13.30485
20
20.6568322
40
11.4834347
50
249.6657147
51
253.273627
0
ARC
8
DEFAULT_255_2_778
10
13.5857531
20
21.5924028
40
12.4602656
50
253.2747325
51
256.7132081
0
ARC
8
DEFAULT_255_2_778
10
13.8343948
20
22.6381258
40
13.5351408
50
256.7062135
51
259.4556148
0
ARC
8
DEFAULT_255_2_778
10
14.0528021
20
23.8163596
40
14.7334462
50
259.4590927
51
262.3088672
0
ARC
8
DEFAULT_255_2_778
10
14.24065
20
25.2020061
40
16.1317676
50
262.3063347
51
264.852141
0
ARC
8
DEFAULT_255_2_778
10
14.3777257
20
26.718411
40
17.6543553
50
264.8506432
51
267.184351
0
ARC
8
DEFAULT_255_2_778
10
14.4598439
20
28.3782346
40
19.3162089
50
267.1829146
51
269.3251792
0
ARC
8
DEFAULT_255_2_778
10
14.4790157
20
29.574206
40
20.5123239
50
269.3109762
51
270.0017818
0
ARC
8
DEFAULT_255_2_778
10
14.4852556
20
28.9576956
40
19.8958145
50
269.9838673
51
272.111946
0
ARC
8
DEFAULT_255_2_778
10
14.5472269
20
27.2707479
40
18.2077287
50
272.1126959
51
274.2771079
0
ARC
8
DEFAULT_255_2_778
10
14.6629671
20
25.7352966
40
16.6679216
50
274.2740022
51
276.7488656
0
ARC
8
DEFAULT_255_2_778
10
14.8351185
20
24.2868846
40
15.2093151
50
276.7460616
51
279.5325968
0
ARC
8
DEFAULT_255_2_778
10
15.0467149
20
23.0241021
40
13.9289275
50
279.5344606
51
282.3386846
0
ARC
8
DEFAULT_255_2_778
10
15.2931144
20
21.9032759
40
12.7813376
50
282.3333113
51
285.6946618
0
ARC
8
DEFAULT_255_2_778
10
15.5745511
20
20.9020198
40
11.7412797
50
285.6942061
51
289.332548
0
ARC
8
DEFAULT_255_2_778
10
15.860419
20
20.0865526
40
10.8771575
50
289.3336658
51
293.1861862
0
ARC
8
DEFAULT_255_2_778
10
16.1451908
20
19.4230806
40
10.1551536
50
293.1830918
51
297.7318749
0
ARC
8
DEFAULT_255_2_778
10
16.4104239
20
18.9179748
40
9.5846447
50
297.7335254
51
302.8213247
0
ARC
8
DEFAULT_255_2_778
10
16.6075475
20
18.6107659
40
9.2196322
50
302.8266562
51
308.4695667
0
ARC
8
DEFAULT_255_2_778
10
16.6743361
20
18.523845
40
9.1100294
50
308.4807744
51
315.1626086
0
ARC
8
DEFAULT_255_2_778
10
16.457421
20
18.731807
40
9.4104812
50
315.1959625
51
323.4598684
0
ARC
8
DEFAULT_255_2_778
10
15.3295493
20
19.5263572
40
10.7897732
50
323.6358759
51
336.08398
0
ARC
8
DEFAULT_255_2_778
10
11.8786865
20
21.0242358
40
14.5516131
50
336.2009151
51
347.4818737
0
ARC
8
DEFAULT_255_2_778
10
8.2695511
20
21.9317918
40
18.2719559
50
347.1566771
51
348.8056722
0
ARC
8
DEFAULT_255_2_778
10
6.3460314
20
22.3051198
40
20.2313575
50
348.8260674
51
351.5109537
0
ARC
8
DEFAULT_255_2_778
10
3.7048081
20
22.7034256
40
22.9024423
50
351.5008372
51
353.4740253
0
ARC
8
DEFAULT_255_2_778
10
0.9867779
20
23.0159826
40
25.6383841
50
353.47041
51
355.0785664
0
ARC
8
DEFAULT_255_2_778
10
-1.950846
20
23.2705833
40
28.5870201
50
355.0752707
51
356.3522801
0
ARC
8
DEFAULT_255_2_778
10
-4.9780929
20
23.4658161
40
31.6205552
50
356.3482236
51
357.2666534
0
ARC
8
DEFAULT_255_2_778
10
-8.4419699
20
23.6304656
40
35.0883431
50
357.2678333
51
358.1437696
0
ARC
8
DEFAULT_255_2_778
10
-12.4422391
20
23.7626069
40
39.0907937
50
358.1401103
51
358.7155501
0
ARC
8
DEFAULT_255_2_778
10
-17.2285583
20
23.8688273
40
43.8782912
50
358.7169818
51
359.2792839
0
ARC
8
DEFAULT_255_2_778
10
-23.6844875
20
23.9515559
40
50.3347504
50
359.2775584
51
359.6749485
0
ARC
8
DEFAULT_255_2_778
10
-32.345558
20
24.0003791
40
58.9959586
50
359.6752529
51
0.0049961
0
ARC
8
DEFAULT_255_2_778
10
-41.4426706
20
24.0044706
40
68.0930708
50
0.0008859
51
0.1156061
0
ARC
8
DEFAULT_255_2_778
10
-50.0226768
20
23.9861836
40
76.6730964
50
0.1163347
51
0.2480355
0
ARC
8
DEFAULT_255_2_778
10
-63.4030564
20
23.9284478
40
90.0536005
50
0.2479154
51
0.3523471
0
ARC
8
DEFAULT_255_2_778
10
-82.7187431
20
23.8101636
40
109.3696493
50
0.3520845
51
0.4275591
0
ARC
8
DEFAULT_255_2_778
10
-115.9836657
20
23.5610136
40
142.6355051
50
0.4279254
51
0.4918728
0
ARC
8
DEFAULT_255_2_778
10
-182.1441686
20
22.9947847
40
208.7984308
50
0.4913899
51
0.527135
0
ARC
8
DEFAULT_255_2_778
10
-370.8241346
20
21.2583438
40
397.486387
50
0.5272057
51
0.5456596
0
LINE
8
DEFAULT_255_2_778
10
26.6442269
20
25.0437708
11
26.6441907
21
25.047577
0
LINE
8
DEFAULT_255_2_778
10
26.6441907
20
25.047577
11
26.6430443
21
25.1678101
0
ARC
8
DEFAULT_255_2_778
10
466.0314018
20
29.3567508
40
439.4083248
50
180.5327281
51
180.5462169
0
ARC
8
DEFAULT_255_2_778
10
222.6716175
20
27.0971909
40
196.0380511
50
180.4947353
51
180.5336722
0
ARC
8
DEFAULT_255_2_778
10
141.8501847
20
26.3996576
40
115.2136082
50
180.4291349
51
180.4949132
0
ARC
8
DEFAULT_255_2_778
10
107.8299614
20
26.143567
40
81.1924211
50
180.3536407
51
180.4282313
0
ARC
8
DEFAULT_255_2_778
10
88.1490225
20
26.0227518
40
61.5111114
50
180.2458672
51
180.3542564
0
ARC
8
DEFAULT_255_2_778
10
75.3328975
20
25.9673025
40
48.6948664
50
180.1337117
51
180.2453348
0
ARC
8
DEFAULT_255_2_778
10
66.8939922
20
25.9478651
40
40.2559386
50
180.0018263
51
180.1340769
0
LINE
8
DEFAULT_255_2_778
10
26.6380536
20
25.9465819
11
26.6380536
21
25.9465819
0
ARC
8
DEFAULT_255_2_778
10
7.1494779
20
23.9216425
40
0.4353464
50
243.9146903
51
269.9027374
0
ARC
8
DEFAULT_255_2_778
10
7.1587553
20
24.0602226
40
0.5740132
50
269.0001441
51
270.002765
0
ARC
8
DEFAULT_255_2_778
10
7.151578
20
24.2574295
40
0.7712537
50
270.5352591
51
281.0019296
0
ARC
8
DEFAULT_255_2_778
10
7.0270269
20
24.9276585
40
1.452945
50
280.7792858
51
285.9295571
0
ARC
8
DEFAULT_255_2_778
10
6.5469214
20
26.6156132
40
3.2078499
50
285.9010026
51
288.6774906
0
ARC
8
DEFAULT_255_2_778
10
5.4143827
20
30.0471591
40
6.8214122
50
288.4588845
51
288.4779756
0
ARC
8
DEFAULT_255_2_778
10
5.4398994
20
29.9706749
40
6.7407838
50
288.4783132
51
288.4975065
0
ARC
8
DEFAULT_255_2_778
10
4.3895238
20
33.1038438
40
10.0453312
50
288.5093175
51
288.5221126
0
ARC
8
DEFAULT_255_2_778
10
5.488236
20
29.8235032
40
6.58588
50
288.5244413
51
288.5438296
0
ARC
8
DEFAULT_255_2_778
10
5.5135624
20
29.7488678
40
6.5070651
50
288.5414069
51
288.5609011
0
ARC
8
DEFAULT_255_2_778
10
5.5386751
20
29.6748904
40
6.4289418
50
288.558597
51
288.5781983
0
ARC
8
DEFAULT_255_2_778
10
5.561109
20
29.6054413
40
6.3559641
50
288.5859645
51
288.6056602
0
ARC
8
DEFAULT_255_2_778
10
5.5858074
20
29.5327545
40
6.2791962
50
288.6036829
51
288.6234877
0
ARC
8
DEFAULT_255_2_778
10
5.6102945
20
29.4607175
40
6.2031114
50
288.6216405
51
288.6415557
0
ARC
8
DEFAULT_255_2_778
10
5.6350064
20
29.3891816
40
6.1274296
50
288.6364199
51
288.6564475
0
ARC
8
DEFAULT_255_2_778
10
5.6595063
20
29.3182863
40
6.0524222
50
288.6513962
51
288.6715375
0
ARC
8
DEFAULT_255_2_778
10
138.8536014
20
-364.5979375
40
409.7728518
50
108.6816902
51
108.6819857
0
ARC
8
DEFAULT_255_2_778
10
129.5667963
20
-336.8052089
40
380.4698028
50
108.6971544
51
108.6974705
0
ARC
8
DEFAULT_255_2_778
10
1.8946544
20
40.4371958
40
17.791428
50
288.7078764
51
288.7145923
0
ARC
8
DEFAULT_255_2_778
10
5.7534543
20
29.0446316
40
5.7630924
50
288.7202854
51
288.7408797
0
ARC
8
DEFAULT_255_2_778
10
6.2468633
20
27.5926088
40
4.2295274
50
288.7309827
51
288.7588564
0
ARC
8
DEFAULT_255_2_778
10
6.2654754
20
27.5412585
40
4.1749196
50
288.7436243
51
288.7716734
0
ARC
8
DEFAULT_255_2_778
10
96.1964034
20
-237.0187734
40
275.2523202
50
108.7738675
51
108.7742901
0
ARC
8
DEFAULT_255_2_778
10
91.8114959
20
-223.9270273
40
261.4459007
50
108.786959
51
108.7874009
0
ARC
8
DEFAULT_255_2_778
10
2.2663333
20
39.299163
40
16.5943185
50
288.7951599
51
288.8020753
0
ARC
8
DEFAULT_255_2_778
10
2.3306063
20
39.1078969
40
16.3925436
50
288.8048777
51
288.811831
0
ARC
8
DEFAULT_255_2_778
10
5.9148744
20
28.5854374
40
5.2763782
50
288.8148545
51
288.8363112
0
ARC
8
DEFAULT_255_2_778
10
2.4468058
20
38.752168
40
16.0183478
50
288.8357687
51
288.8427887
0
ARC
8
DEFAULT_255_2_778
10
2.5093866
20
38.5660706
40
15.8220118
50
288.8459658
51
288.8530248
0
ARC
8
DEFAULT_255_2_778
10
2.5713936
20
38.3817093
40
15.6275044
50
288.8563043
51
288.8634026
0
ARC
8
DEFAULT_255_2_778
10
5.4459625
20
29.9682005
40
6.7364821
50
288.8635333
51
288.8880723
0
ARC
8
DEFAULT_255_2_778
10
4.9216122
20
31.5034823
40
8.3588363
50
288.8819953
51
288.9015697
0
ARC
8
DEFAULT_255_2_778
10
5.5325989
20
29.7220976
40
6.4755853
50
288.892965
51
288.9179736
0
ARC
8
DEFAULT_255_2_778
10
5.5753213
20
29.60171
40
6.3478495
50
288.9054877
51
288.930738
0
ARC
8
DEFAULT_255_2_778
10
-3.9043406
20
57.2399469
40
35.5666128
50
288.9313627
51
288.935823
0
ARC
8
DEFAULT_255_2_778
10
-3.7125832
20
56.6696963
40
34.9649958
50
288.9418391
51
288.9463294
0
ARC
8
DEFAULT_255_2_778
10
2.5929877
20
38.2926871
40
15.5362881
50
288.9564163
51
288.9664178
0
ARC
8
DEFAULT_255_2_778
10
-3.3523638
20
55.5929513
40
33.8296299
50
288.9659899
51
288.9705356
0
ARC
8
DEFAULT_255_2_778
10
-3.1837582
20
55.0860408
40
33.2954415
50
288.979724
51
288.9842949
0
ARC
8
DEFAULT_255_2_778
10
2.8771171
20
37.4642081
40
14.6604423
50
288.9894904
51
288.9997638
0
ARC
8
DEFAULT_255_2_778
10
2.968471
20
37.1980224
40
14.3790169
50
289.0008939
51
289.0112596
0
ARC
8
DEFAULT_255_2_778
10
3.0602774
20
36.9327927
40
14.0983482
50
289.0096376
51
289.0200996
0
ARC
8
DEFAULT_255_2_778
10
3.1507697
20
36.671418
40
13.8217521
50
289.0185663
51
289.0291264
0
ARC
8
DEFAULT_255_2_778
10
3.2416893
20
36.4109988
40
13.54592
50
289.02472
51
289.0353827
0
ARC
8
DEFAULT_255_2_778
10
20.4337519
20
-13.1686099
40
38.9298547
50
108.9110665
51
109.155283
0
ARC
8
DEFAULT_255_2_778
10
10.6718964
20
15.2767728
40
8.85607
50
108.4330532
51
108.8089433
0
ARC
8
DEFAULT_255_2_778
10
9.6356838
20
18.4062528
40
5.559509
50
106.6771892
51
108.4998536
0
ARC
8
DEFAULT_255_2_778
10
9.1535562
20
20.0145683
40
3.8804837
50
103.6534222
51
106.6728368
0
ARC
8
DEFAULT_255_2_778
10
8.9905311
20
20.6826632
40
3.1927866
50
99.5975899
51
103.6405817
0
ARC
8
DEFAULT_255_2_778
10
8.940172
20
20.9746103
40
2.8965298
50
95.033163
51
99.5782303
0
ARC
8
DEFAULT_255_2_778
10
8.9316817
20
21.0621136
40
2.8086192
50
90.3229652
51
95.0172374
0
ARC
8
DEFAULT_255_2_778
10
8.9317295
20
21.0565209
40
2.8142119
50
89.9996272
51
90.3232954
0
ARC
8
DEFAULT_255_2_778
10
8.9311652
20
21.0111913
40
2.8595417
50
85.5029522
51
89.9883272
0
ARC
8
DEFAULT_255_2_778
10
8.9188112
20
20.8599844
40
3.0112517
50
80.9760327
51
85.494196
0
ARC
8
DEFAULT_255_2_778
10
8.8801897
20
20.6179712
40
3.2563272
50
76.7691903
51
80.9727905
0
ARC
8
DEFAULT_255_2_778
10
8.8052901
20
20.2994393
40
3.5835466
50
72.9386751
51
76.7690667
0
ARC
8
DEFAULT_255_2_778
10
8.6871671
20
19.914141
40
3.9865452
50
69.4833632
51
72.9404014
0
ARC
8
DEFAULT_255_2_778
10
8.5183354
20
19.4627453
40
4.468481
50
66.3085949
51
69.4844154
0
ARC
8
DEFAULT_255_2_778
10
8.2912359
20
18.9447535
40
5.0340688
50
63.4202784
51
66.3105789
0
ARC
8
DEFAULT_255_2_778
10
8.1014758
20
18.5599303
40
5.4631285
50
62.4990018
51
63.4463031
0
ARC
8
DEFAULT_255_2_778
10
10.689243
20
23.5297064
40
0.1400157
50
242.2974015
51
253.284449
0
ARC
8
DEFAULT_255_2_778
10
10.6814119
20
23.503271
40
0.1124448
50
253.2318844
51
269.7947504
0
ARC
8
DEFAULT_255_2_778
10
10.6774211
20
23.5131616
40
0.1223873
50
271.6799437
51
316.3337654
0
ARC
8
DEFAULT_255_2_778
10
10.5902939
20
23.6060851
40
0.2496725
50
314.7131902
51
331.8847714
0
ARC
8
DEFAULT_255_2_778
10
10.4277887
20
23.6956125
40
0.4351983
50
331.5709883
51
343.2435348
0
ARC
8
DEFAULT_255_2_778
10
10.2142138
20
23.7617135
40
0.6587641
50
343.0939605
51
352.3182718
0
ARC
8
DEFAULT_255_2_778
10
10.0036628
20
23.7914973
40
0.8714078
50
352.2280586
51
0.1343026
0
ARC
8
DEFAULT_255_2_778
10
9.848251
20
23.7922941
40
1.0268181
50
0.0695096
51
6.6773153
0
ARC
8
DEFAULT_255_2_778
10
9.7504357
20
23.7812155
40
1.1252581
50
6.6584662
51
13.4001635
0
ARC
8
DEFAULT_255_2_778
10
9.6927773
20
23.767731
40
1.1844718
50
13.3883128
51
20.5233125
0
ARC
8
DEFAULT_255_2_778
10
9.6658286
20
23.7579786
40
1.213129
50
20.5084584
51
24.90179
0
ARC
8
DEFAULT_255_2_778
10
9.6367105
20
23.7436351
40
1.2455799
50
24.936261
51
36.9803782
0
ARC
8
DEFAULT_255_2_778
10
9.5754994
20
23.6968952
40
1.322594
50
37.0027657
51
48.1666311
0
ARC
8
DEFAULT_255_2_778
10
9.4787267
20
23.5882728
40
1.4680713
50
48.1800306
51
57.8876097
0
ARC
8
DEFAULT_255_2_778
10
9.3596269
20
23.3986998
40
1.6919522
50
57.8840609
51
66.0725173
0
ARC
8
DEFAULT_255_2_778
10
9.2367527
20
23.1228443
40
1.993936
50
66.0600807
51
72.9124113
0
ARC
8
DEFAULT_255_2_778
10
9.1230047
20
22.7540504
40
2.3798732
50
72.9036743
51
78.8400546
0
ARC
8
DEFAULT_255_2_778
10
9.0285696
20
22.2774045
40
2.8657839
50
78.8321507
51
84.0388339
0
ARC
8
DEFAULT_255_2_778
10
8.9665897
20
21.6914316
40
3.455025
50
84.0257518
51
88.4469246
0
ARC
8
DEFAULT_255_2_778
10
8.9497265
20
21.2151029
40
3.9316378
50
88.3894036
51
90.0098262
0
ARC
8
DEFAULT_255_2_778
10
8.9448988
20
21.3397427
40
3.807
50
89.9374912
51
94.5906561
0
ARC
8
DEFAULT_255_2_778
10
8.8985886
20
21.9094814
40
3.2353826
50
94.5807066
51
99.9373757
0
ARC
8
DEFAULT_255_2_778
10
8.8168551
20
22.3754633
40
2.7622868
50
99.9354669
51
105.7736567
0
ARC
8
DEFAULT_255_2_778
10
8.7097039
20
22.7525012
40
2.3703194
50
105.7585975
51
112.6970432
0
ARC
8
DEFAULT_255_2_778
10
8.584621
20
23.0509973
40
2.046675
50
112.690913
51
120.5214791
0
ARC
8
DEFAULT_255_2_778
10
8.4539566
20
23.2723818
40
1.7896064
50
120.5174181
51
129.2148475
0
ARC
8
DEFAULT_255_2_778
10
8.3211511
20
23.4348188
40
1.5797898
50
129.207682
51
138.7296149
0
ARC
8
DEFAULT_255_2_778
10
8.1962637
20
23.545583
40
1.4128626
50
138.7650423
51
146.2810464
0
ARC
8
DEFAULT_255_2_778
10
8.0778567
20
23.6246627
40
1.2704764
50
146.2831276
51
153.2661268
0
ARC
8
DEFAULT_255_2_778
10
7.9407393
20
23.6933079
40
1.1171364
50
153.24692
51
160.5842676
0
ARC
8
DEFAULT_255_2_778
10
7.7746842
20
23.7513748
40
0.9412219
50
160.5577678
51
168.3080493
0
ARC
8
DEFAULT_255_2_778
10
7.588489
20
23.7894193
40
0.7511805
50
168.2716477
51
176.6869158
0
ARC
8
DEFAULT_255_2_778
10
7.4617394
20
23.7985382
40
0.6241183
50
176.8501855
51
179.9727871
0
ARC
8
DEFAULT_255_2_778
10
7.3407335
20
23.7963721
40
0.5031184
50
179.7195657
51
190.0654548
0
ARC
8
DEFAULT_255_2_778
10
7.1841762
20
23.7677165
40
0.3439635
50
189.9234458
51
203.7027659
0
ARC
8
DEFAULT_255_2_778
10
7.0718668
20
23.7170625
40
0.2207692
50
203.3826329
51
225.4551831
0
ARC
8
DEFAULT_255_2_778
10
7.033292
20
23.6803579
40
0.16756
50
226.0519737
51
243.3184136
0
ARC
8
DEFAULT_255_2_778
10
21.8225282
20
23.9216354
40
0.4353392
50
270.0974567
51
296.0855241
0
ARC
8
DEFAULT_255_2_778
10
21.8132525
20
24.0601817
40
0.5739723
50
269.9972349
51
270.9998959
0
ARC
8
DEFAULT_255_2_778
10
21.8204288
20
24.2573608
40
0.7711851
50
258.99758
51
269.4647679
0
ARC
8
DEFAULT_255_2_778
10
21.9449669
20
24.9274861
40
1.452772
50
254.0695767
51
259.2202031
0
ARC
8
DEFAULT_255_2_778
10
22.4249935
20
26.615066
40
3.2072948
50
251.3213186
51
254.098128
0
ARC
8
DEFAULT_255_2_778
10
23.5575159
20
30.0467669
40
6.8209988
50
251.5220244
51
251.5411155
0
ARC
8
DEFAULT_255_2_778
10
23.5320006
20
29.9702869
40
6.7403747
50
251.5024935
51
251.5216868
0
ARC
8
DEFAULT_255_2_778
10
23.509206
20
29.8984152
40
6.6649842
50
251.4730207
51
251.492304
0
ARC
8
DEFAULT_255_2_778
10
23.4836666
20
29.8231232
40
6.5854792
50
251.4561704
51
251.4755587
0
ARC
8
DEFAULT_255_2_778
10
23.4587815
20
29.748627
40
6.5069366
50
251.4358055
51
251.4552989
0
ARC
8
DEFAULT_255_2_778
10
23.4336692
20
29.6746557
40
6.4288193
50
251.4184835
51
251.438084
0
ARC
8
DEFAULT_255_2_778
10
23.4112364
20
29.6052138
40
6.3558489
50
251.390995
51
251.4106898
0
ARC
8
DEFAULT_255_2_778
10
22.8773057
20
28.0212902
40
4.6843541
50
251.3714559
51
251.3980019
0
ARC
8
DEFAULT_255_2_778
10
23.3616148
20
29.4603574
40
6.2027314
50
251.3584443
51
251.3783595
0
ARC
8
DEFAULT_255_2_778
10
23.3369042
20
29.3888253
40
6.1270535
50
251.3435525
51
251.3635801
0
ARC
8
DEFAULT_255_2_778
10
22.8187197
20
27.855741
40
4.5087635
50
251.3232914
51
251.3503268
0
ARC
8
DEFAULT_255_2_778
10
27.206581
20
40.8329781
40
18.2077418
50
251.3131
51
251.3197502
0
ARC
8
DEFAULT_255_2_778
10
27.1427871
20
40.6357153
40
18.0004389
50
251.2975965
51
251.3042785
0
ARC
8
DEFAULT_255_2_778
10
-92.2626481
20
-311.8762436
40
354.1854547
50
71.2868342
51
71.2871715
0
ARC
8
DEFAULT_255_2_778
10
22.7438592
20
27.6441849
40
4.2843741
50
251.2537901
51
251.2814906
0
ARC
8
DEFAULT_255_2_778
10
22.7250843
20
27.5923611
40
4.2292658
50
251.2411436
51
251.2690173
0
ARC
8
DEFAULT_255_2_778
10
22.7064733
20
27.5410138
40
4.1746612
50
251.2283266
51
251.2563757
0
ARC
8
DEFAULT_255_2_778
10
26.8331241
20
39.6819056
40
16.9977068
50
251.2206831
51
251.2275258
0
ARC
8
DEFAULT_255_2_778
10
26.7702205
20
39.4912129
40
16.7969155
50
251.2075507
51
251.2144286
0
ARC
8
DEFAULT_255_2_778
10
26.7053667
20
39.298187
40
16.5932875
50
251.1979247
51
251.2048401
0
ARC
8
DEFAULT_255_2_778
10
-55.6490862
20
-202.4793987
40
238.8253042
50
71.1895499
51
71.1900271
0
ARC
8
DEFAULT_255_2_778
10
22.6167959
20
27.2933766
40
3.9113361
50
251.1580734
51
251.1870167
0
ARC
8
DEFAULT_255_2_778
10
-47.9955983
20
-179.638515
40
214.7365955
50
71.1585741
51
71.1590977
0
ARC
8
DEFAULT_255_2_778
10
-45.4117693
20
-171.9461062
40
206.6219321
50
71.1483351
51
71.1488756
0
ARC
8
DEFAULT_255_2_778
10
26.4003236
20
38.3807852
40
15.6265279
50
251.1365974
51
251.1436957
0
ARC
8
DEFAULT_255_2_778
10
24.1035994
20
31.6567614
40
8.5210766
50
251.1132133
51
251.1326118
0
ARC
8
DEFAULT_255_2_778
10
24.0502513
20
31.5029864
40
8.3583122
50
251.0984303
51
251.1180047
0
ARC
8
DEFAULT_255_2_778
10
23.9976346
20
31.351379
40
8.1978352
50
251.0833407
51
251.1030941
0
ARC
8
DEFAULT_255_2_778
10
23.9451763
20
31.2014168
40
8.0389658
50
251.0705908
51
251.090528
0
ARC
8
DEFAULT_255_2_778
10
26.5720044
20
38.8603916
40
16.1358862
50
251.0601486
51
251.0699794
0
ARC
8
DEFAULT_255_2_778
10
26.4717863
20
38.5678047
40
15.8266117
50
251.049598
51
251.0595178
0
ARC
8
DEFAULT_255_2_778
10
26.3787272
20
38.2917581
40
15.5353059
50
251.0335822
51
251.0435837
0
ARC
8
DEFAULT_255_2_778
10
26.2794685
20
38.0044246
40
15.2313115
50
251.0253014
51
251.0353972
0
ARC
8
DEFAULT_255_2_778
10
26.187278
20
37.7333931
40
14.9450314
50
251.0114957
51
251.0216784
0
ARC
8
DEFAULT_255_2_778
10
31.9891883
20
54.5851364
40
32.7675848
50
251.0016561
51
251.0062521
0
ARC
8
DEFAULT_255_2_778
10
-38.2034328
20
-149.211758
40
182.7786476
50
70.9938574
51
70.9948088
0
ARC
8
DEFAULT_255_2_778
10
24.2618403
20
32.1465964
40
9.0357499
50
250.9772952
51
250.9935893
0
ARC
8
DEFAULT_255_2_778
10
25.8029421
20
36.6208871
40
13.7680084
50
250.9726287
51
250.9832108
0
ARC
8
DEFAULT_255_2_778
10
14.125285
20
2.7690759
40
22.0413871
50
70.9641462
51
70.9706872
0
ARC
8
DEFAULT_255_2_778
10
8.6437017
20
-12.8598526
40
38.6036007
50
70.8427719
51
71.0885804
0
ARC
8
DEFAULT_255_2_778
10
18.303934
20
15.2886568
40
8.8436008
50
71.1901701
51
71.5658285
0
ARC
8
DEFAULT_255_2_778
10
19.3363633
20
18.4066507
40
5.559133
50
71.4988017
51
73.3214541
0
ARC
8
DEFAULT_255_2_778
10
19.8185864
20
20.0151409
40
3.879913
50
73.3258297
51
76.3454475
0
ARC
8
DEFAULT_255_2_778
10
19.9816069
20
20.6831674
40
3.1922834
50
76.3582578
51
80.4015422
0
ARC
8
DEFAULT_255_2_778
10
20.0319726
20
20.9751254
40
2.8960147
50
80.420909
51
84.9663771
0
ARC
8
DEFAULT_255_2_778
10
20.0404633
20
21.0626271
40
2.8081057
50
84.9823028
51
89.6769995
0
ARC
8
DEFAULT_255_2_778
10
20.0404159
20
21.0570672
40
2.8136657
50
89.676672
51
90.0003729
0
ARC
8
DEFAULT_255_2_778
10
20.0409799
20
21.011733
40
2.859
50
90.0116701
51
94.4974758
0
ARC
8
DEFAULT_255_2_778
10
20.0533332
20
20.8605465
40
3.0106896
50
94.506229
51
99.0248165
0
ARC
8
DEFAULT_255_2_778
10
20.0919579
20
20.6185373
40
3.2557617
50
99.0280628
51
103.2320114
0
ARC
8
DEFAULT_255_2_778
10
20.166848
20
20.3000766
40
3.5829096
50
103.2321367
51
107.0628726
0
ARC
8
DEFAULT_255_2_778
10
20.2849861
20
19.9147598
40
3.9859303
50
107.0611198
51
110.5183995
0
ARC
8
DEFAULT_255_2_778
10
20.4537869
20
19.4634854
40
4.4677416
50
110.5173309
51
113.6934209
0
ARC
8
DEFAULT_255_2_778
10
20.6809294
20
18.9454351
40
5.0334004
50
113.6913912
51
116.5818538
0
ARC
8
DEFAULT_255_2_778
10
20.8707711
20
18.5604953
40
5.4626007
50
116.555877
51
117.5031997
0
ARC
8
DEFAULT_255_2_778
10
18.2830614
20
23.5297064
40
0.1400157
50
286.715551
51
297.7025985
0
ARC
8
DEFAULT_255_2_778
10
18.2908925
20
23.503271
40
0.1124448
50
270.2052496
51
286.7681156
0
ARC
8
DEFAULT_255_2_778
10
18.2948833
20
23.5131616
40
0.1223873
50
223.6662346
51
268.3200563
0
ARC
8
DEFAULT_255_2_778
10
18.3820105
20
23.6060851
40
0.2496725
50
208.1152286
51
225.2868098
0
ARC
8
DEFAULT_255_2_778
10
18.5445157
20
23.6956125
40
0.4351983
50
196.7564652
51
208.4290117
0
ARC
8
DEFAULT_255_2_778
10
18.7580906
20
23.7617135
40
0.6587641
50
187.6817282
51
196.9060395
0
ARC
8
DEFAULT_255_2_778
10
18.9686416
20
23.7914973
40
0.8714078
50
179.8656974
51
187.7719414
0
ARC
8
DEFAULT_255_2_778
10
19.1240534
20
23.7922941
40
1.0268181
50
173.3226847
51
179.9304904
0
ARC
8
DEFAULT_255_2_778
10
19.2218687
20
23.7812155
40
1.1252581
50
166.5998365
51
173.3415338
0
ARC
8
DEFAULT_255_2_778
10
19.2795271
20
23.767731
40
1.1844718
50
159.4766875
51
166.6116872
0
ARC
8
DEFAULT_255_2_778
10
19.3064758
20
23.7579786
40
1.213129
50
155.09821
51
159.4915416
0
ARC
8
DEFAULT_255_2_778
10
19.3355939
20
23.7436351
40
1.2455799
50
143.0196218
51
155.063739
0
ARC
8
DEFAULT_255_2_778
10
19.396805
20
23.6968952
40
1.322594
50
131.8333689
51
142.9972343
0
ARC
8
DEFAULT_255_2_778
10
19.4935777
20
23.5882728
40
1.4680713
50
122.1123903
51
131.8199694
0
ARC
8
DEFAULT_255_2_778
10
19.6126775
20
23.3986998
40
1.6919522
50
113.9274827
51
122.1159391
0
ARC
8
DEFAULT_255_2_778
10
19.7355517
20
23.1228443
40
1.993936
50
107.0875887
51
113.9399193
0
ARC
8
DEFAULT_255_2_778
10
19.8492997
20
22.7540504
40
2.3798732
50
101.1599454
51
107.0963257
0
ARC
8
DEFAULT_255_2_778
10
19.9437348
20
22.2774045
40
2.8657839
50
95.9611661
51
101.1678493
0
ARC
8
DEFAULT_255_2_778
10
20.0057147
20
21.6914316
40
3.455025
50
91.5530754
51
95.9742482
0
ARC
8
DEFAULT_255_2_778
10
20.0225779
20
21.2151029
40
3.9316378
50
89.9901738
51
91.6105964
0
ARC
8
DEFAULT_255_2_778
10
20.0274046
20
21.3408688
40
3.8058739
50
85.4086642
51
90.0625126
0
ARC
8
DEFAULT_255_2_778
10
20.0737038
20
21.9103891
40
3.2344751
50
80.0612093
51
85.4186108
0
ARC
8
DEFAULT_255_2_778
10
20.15541
20
22.376155
40
2.7615968
50
74.2242356
51
80.0630908
0
ARC
8
DEFAULT_255_2_778
10
20.2625356
20
22.7530518
40
2.3697721
50
67.3000994
51
74.2392846
0
ARC
8
DEFAULT_255_2_778
10
20.3875586
20
23.0513654
40
2.0463191
50
59.4751261
51
67.3062032
0
ARC
8
DEFAULT_255_2_778
10
20.518164
20
23.2726208
40
1.7893918
50
50.7814703
51
59.479168
0
ARC
8
DEFAULT_255_2_778
10
20.6509038
20
23.4349569
40
1.5796948
50
41.2667469
51
50.7886144
0
ARC
8
DEFAULT_255_2_778
10
20.7757597
20
23.5456782
40
1.4128195
50
33.715481
51
41.2313576
0
ARC
8
DEFAULT_255_2_778
10
20.8941166
20
23.6247114
40
1.2705008
50
26.7310773
51
33.7135007
0
ARC
8
DEFAULT_255_2_778
10
21.0312025
20
23.6933358
40
1.117198
50
19.4135408
51
26.7501276
0
ARC
8
DEFAULT_255_2_778
10
21.1972407
20
23.7513892
40
0.9413043
50
11.6907269
51
19.440059
0
ARC
8
DEFAULT_255_2_778
10
21.3834191
20
23.7894302
40
0.7512799
50
3.3128576
51
11.7268166
0
ARC
8
DEFAULT_255_2_778
10
21.5102813
20
23.7985522
40
0.6241052
50
0.027227
51
3.1498454
0
ARC
8
DEFAULT_255_2_778
10
21.6312447
20
23.7963851
40
0.5031476
50
349.9347092
51
0.2805562
0
ARC
8
DEFAULT_255_2_778
10
21.7878137
20
23.7677242
40
0.3439805
50
336.2979596
51
350.0773159
0
ARC
8
DEFAULT_255_2_778
10
21.9001287
20
23.7170696
40
0.2207807
50
314.5456697
51
336.6180481
0
ARC
8
DEFAULT_255_2_778
10
21.9387168
20
23.6803524
40
0.167553
50
296.6810955
51
313.9489012
0
LINE
8
DEFAULT_255_2_778
10
6.9580522
20
23.5306404
11
6.9580522
21
23.5306404
0
LINE
8
DEFAULT_255_2_778
10
22.0139522
20
23.5306404
11
22.0139522
21
23.5306404
0
ARC
8
DEFAULT_255_2_778
10
14.180142
20
16.9666537
40
1.653992
50
261.1635601
51
270.0639305
0
ARC
8
DEFAULT_255_2_778
10
14.1707426
20
16.8991638
40
1.5858597
50
251.0019456
51
261.1245566
0
ARC
8
DEFAULT_255_2_778
10
14.196195
20
16.9674586
40
1.6587212
50
240.7632934
51
250.9386115
0
ARC
8
DEFAULT_255_2_778
10
14.3088128
20
17.1669489
40
1.8878031
50
232.4077014
51
240.7379023
0
ARC
8
DEFAULT_255_2_778
10
14.5020493
20
17.4216995
40
2.2075432
50
227.945053
51
232.4672045
0
ARC
8
DEFAULT_255_2_778
10
14.646875
20
17.5854859
40
2.4261664
50
227.8993959
51
227.996481
0
ARC
8
DEFAULT_255_2_778
10
14.6249938
20
17.5612422
40
2.3935086
50
227.8011119
51
227.8989487
0
ARC
8
DEFAULT_255_2_778
10
14.7501365
20
17.6990644
40
2.579669
50
227.7079358
51
227.7981831
0
ARC
8
DEFAULT_255_2_778
10
14.5817904
20
17.5140333
40
2.3295153
50
227.6090828
51
227.7084383
0
ARC
8
DEFAULT_255_2_778
10
14.5605691
20
17.4909179
40
2.298136
50
227.5111813
51
227.6113055
0
ARC
8
DEFAULT_255_2_778
10
14.6798797
20
17.621404
40
2.4749457
50
227.4223577
51
227.5147858
0
ARC
8
DEFAULT_255_2_778
10
14.6568958
20
17.5964627
40
2.4410293
50
227.3303527
51
227.4235169
0
ARC
8
DEFAULT_255_2_778
10
14.6229168
20
17.5596607
40
2.3909397
50
227.2367656
51
227.3313249
0
ARC
8
DEFAULT_255_2_778
10
14.7595891
20
17.7073521
40
2.5921661
50
227.1486864
51
227.2353941
0
ARC
8
DEFAULT_255_2_778
10
14.7355077
20
17.6811383
40
2.5565704
50
227.0574023
51
227.1448018
0
ARC
8
DEFAULT_255_2_778
10
14.7117867
20
17.6556334
40
2.5217395
50
226.9690652
51
227.0571518
0
ARC
8
DEFAULT_255_2_778
10
14.6882689
20
17.6304026
40
2.4872477
50
226.8796796
51
226.9684632
0
ARC
8
DEFAULT_255_2_778
10
15.0561208
20
18.0224803
40
3.0248717
50
226.7975501
51
226.8701245
0
ARC
8
DEFAULT_255_2_778
10
15.0275647
20
17.990996
40
2.9823727
50
226.7101997
51
226.7833751
0
ARC
8
DEFAULT_255_2_778
10
14.795118
20
17.7436778
40
2.6429651
50
226.6197346
51
226.7018208
0
ARC
8
DEFAULT_255_2_778
10
14.7596295
20
17.7059817
40
2.5911923
50
226.5343422
51
226.617575
0
ARC
8
DEFAULT_255_2_778
10
14.5747079
20
17.5111123
40
2.3225474
50
226.4459564
51
226.5382686
0
ARC
8
DEFAULT_255_2_778
10
14.7115073
20
17.6552257
40
2.5212499
50
226.3650056
51
226.4495404
0
ARC
8
DEFAULT_255_2_778
10
14.8897822
20
17.8421271
40
2.7795406
50
226.2876878
51
226.3639139
0
ARC
8
DEFAULT_255_2_778
10
14.8631411
20
17.813696
40
2.74058
50
226.2026742
51
226.2795267
0
ARC
8
DEFAULT_255_2_778
10
14.6411654
20
17.5823575
40
2.4199702
50
226.1187322
51
226.2052511
0
ARC
8
DEFAULT_255_2_778
10
14.8109178
20
17.7590228
40
2.6649733
50
226.0428844
51
226.1209836
0
ARC
8
DEFAULT_255_2_778
10
14.7853983
20
17.732525
40
2.628185
50
225.9636779
51
226.0424006
0
ARC
8
DEFAULT_255_2_778
10
14.9872024
20
17.9406886
40
2.9181104
50
225.885748
51
225.9562283
0
ARC
8
DEFAULT_255_2_778
10
14.7349587
20
17.6806048
40
2.5557979
50
225.807035
51
225.8870286
0
ARC
8
DEFAULT_255_2_778
10
14.9314777
20
17.8824786
40
2.8375294
50
225.7317422
51
225.803365
0
ARC
8
DEFAULT_255_2_778
10
14.9040684
20
17.8542481
40
2.798182
50
225.6579442
51
225.7301418
0
ARC
8
DEFAULT_255_2_778
10
14.8769749
20
17.8260715
40
2.7590938
50
225.5785746
51
225.6513588
0
ARC
8
DEFAULT_255_2_778
10
15.1300612
20
18.0839561
40
3.1204207
50
225.5099059
51
225.5738784
0
ARC
8
DEFAULT_255_2_778
10
14.8239024
20
17.7719652
40
2.6833035
50
225.430965
51
225.5049148
0
ARC
8
DEFAULT_255_2_778
10
14.8010789
20
17.7489057
40
2.6508589
50
225.3582242
51
225.4326321
0
ARC
8
DEFAULT_255_2_778
10
14.7719957
20
17.7195464
40
2.6095333
50
225.2844759
51
225.3596102
0
ARC
8
DEFAULT_255_2_778
10
15.0085764
20
17.958396
40
2.9457171
50
225.2170549
51
225.2832162
0
ARC
8
DEFAULT_255_2_778
10
14.9793901
20
17.928702
40
2.9040814
50
225.1463759
51
225.2130838
0
ARC
8
DEFAULT_255_2_778
10
14.6966704
20
17.6447189
40
2.5033611
50
225.0724373
51
225.1493596
0
ARC
8
DEFAULT_255_2_778
10
14.9217915
20
17.8705986
40
2.8222671
50
225.0073212
51
225.0751423
0
ARC
8
DEFAULT_255_2_778
10
14.6476808
20
17.5965663
40
2.4346714
50
224.9316449
51
225.009791
0
ARC
8
DEFAULT_255_2_778
10
14.8655501
20
17.8143956
40
2.7427567
50
224.8697814
51
224.9387328
0
ARC
8
DEFAULT_255_2_778
10
14.8379799
20
17.7869176
40
2.7038318
50
224.7997649
51
224.8692883
0
ARC
8
DEFAULT_255_2_778
10
14.8129676
20
17.7623528
40
2.6687747
50
224.7339144
51
224.8039271
0
ARC
8
DEFAULT_255_2_778
10
15.0937726
20
18.0406683
40
3.0641365
50
224.6747186
51
224.7353304
0
ARC
8
DEFAULT_255_2_778
10
15.0628738
20
18.0096507
40
3.0203562
50
224.6072912
51
224.6684108
0
ARC
8
DEFAULT_255_2_778
10
14.7313581
20
17.682713
40
2.5547481
50
224.5364966
51
224.6083193
0
ARC
8
DEFAULT_255_2_778
10
15.0022917
20
17.9497143
40
2.9351357
50
224.4801497
51
224.5422869
0
ARC
8
DEFAULT_255_2_778
10
14.972605
20
17.9204169
40
2.8934268
50
224.4154553
51
224.4781073
0
ARC
8
DEFAULT_255_2_778
10
14.9435529
20
17.892153
40
2.8528948
50
224.355187
51
224.4183447
0
ARC
8
DEFAULT_255_2_778
10
15.3114301
20
18.2514152
40
3.3670959
50
224.2968078
51
224.3499965
0
ARC
8
DEFAULT_255_2_778
10
15.277228
20
18.2173879
40
3.3188527
50
224.2350847
51
224.2887196
0
ARC
8
DEFAULT_255_2_778
10
14.8579835
20
17.8091629
40
2.7336916
50
224.1699482
51
224.2346691
0
ARC
8
DEFAULT_255_2_778
10
15.2102388
20
18.1513025
40
3.2247551
50
224.1147216
51
224.1692539
0
ARC
8
DEFAULT_255_2_778
10
15.1774392
20
18.1192224
40
3.1788759
50
224.0561308
51
224.1111142
0
ARC
8
DEFAULT_255_2_778
10
15.1449447
20
18.0874867
40
3.1334557
50
223.9968197
51
224.052261
0
ARC
8
DEFAULT_255_2_778
10
14.7488856
20
17.7053143
40
2.5830754
50
223.9340419
51
224.0008871
0
ARC
8
DEFAULT_255_2_778
10
14.7225708
20
17.6807071
40
2.5470521
50
223.8787524
51
223.9461303
0
ARC
8
DEFAULT_255_2_778
10
14.696496
20
17.6563599
40
2.5113813
50
223.8227813
51
223.8906998
0
ARC
8
DEFAULT_255_2_778
10
15.5116588
20
18.43878
40
3.6412801
50
223.7771854
51
223.823743
0
ARC
8
DEFAULT_255_2_778
10
14.6454061
20
17.6087837
40
2.441577
50
223.7089919
51
223.7780025
0
ARC
8
DEFAULT_255_2_778
10
14.9592409
20
17.9093861
40
2.8761503
50
223.6594229
51
223.7176486
0
ARC
8
DEFAULT_255_2_778
10
15.397679
20
18.328042
40
3.4823687
50
223.61483
51
223.6626257
0
ARC
8
DEFAULT_255_2_778
10
14.9007301
20
17.8543779
40
2.7958442
50
223.5529797
51
223.6121476
0
ARC
8
DEFAULT_255_2_778
10
15.3241605
20
18.2571734
40
3.3802563
50
223.5071691
51
223.5558078
0
ARC
8
DEFAULT_255_2_778
10
14.8437096
20
17.8013031
40
2.7179491
50
223.4497234
51
223.5098438
0
ARC
8
DEFAULT_255_2_778
10
15.0328646
20
17.9808081
40
2.9787203
50
223.3724392
51
223.4541747
0
ARC
8
DEFAULT_255_2_778
10
15.210532
20
18.1489503
40
3.2233374
50
223.301379
51
223.3762166
0
ARC
8
DEFAULT_255_2_778
10
15.1600413
20
18.1014912
40
3.1540433
50
223.2272306
51
223.3030079
0
ARC
8
DEFAULT_255_2_778
10
15.3755039
20
18.3039489
40
3.4497007
50
223.1577645
51
223.2264083
0
ARC
8
DEFAULT_255_2_778
10
15.0620032
20
18.0101922
40
3.0200779
50
223.0829234
51
223.1606083
0
ARC
8
DEFAULT_255_2_778
10
15.2491585
20
18.1854441
40
3.2764766
50
223.0147856
51
223.0857295
0
ARC
8
DEFAULT_255_2_778
10
15.5049389
20
18.4239729
40
3.6262188
50
222.9499618
51
223.0134702
0
ARC
8
DEFAULT_255_2_778
10
15.1645962
20
18.1073102
40
3.1613441
50
222.87987
51
222.9520424
0
ARC
8
DEFAULT_255_2_778
10
15.3890219
20
18.3155246
40
3.4674814
50
222.8124047
51
222.877595
0
ARC
8
DEFAULT_255_2_778
10
15.3335055
20
18.2644088
40
3.3920173
50
222.7502877
51
222.8163098
0
ARC
8
DEFAULT_255_2_778
10
15.6432724
20
18.5505206
40
3.8136989
50
222.6895013
51
222.7476777
0
ARC
8
DEFAULT_255_2_778
10
15.5811509
20
18.4927596
40
3.7288739
50
222.6253823
51
222.6843286
0
ARC
8
DEFAULT_255_2_778
10
15.5206613
20
18.4369856
40
3.6465955
50
222.564494
51
222.624209
0
ARC
8
DEFAULT_255_2_778
10
15.4615037
20
18.3825553
40
3.5662072
50
222.5028221
51
222.563314
0
ARC
8
DEFAULT_255_2_778
10
15.4362446
20
18.3596081
40
3.5320813
50
222.4447157
51
222.5052222
0
ARC
8
DEFAULT_255_2_778
10
15.3794518
20
18.3078215
40
3.4552226
50
222.3853215
51
222.4465962
0
ARC
8
DEFAULT_255_2_778
10
15.3407848
20
18.2728621
40
3.4030955
50
222.3175465
51
222.389429
0
ARC
8
DEFAULT_255_2_778
10
15.5799187
20
18.490825
40
3.7266582
50
222.2552819
51
222.3202066
0
ARC
8
DEFAULT_255_2_778
10
15.5093437
20
18.4270751
40
3.6315542
50
222.1936791
51
222.2595759
0
ARC
8
DEFAULT_255_2_778
10
15.4403917
20
18.3649251
40
3.5387268
50
222.1310883
51
222.1979738
0
ARC
8
DEFAULT_255_2_778
10
15.7313062
20
18.6286262
40
3.931371
50
222.0775172
51
222.137063
0
ARC
8
DEFAULT_255_2_778
10
15.6558605
20
18.5604901
40
3.8297118
50
222.0168459
51
222.077302
0
ARC
8
DEFAULT_255_2_778
10
15.5825455
20
18.4947543
40
3.7312423
50
221.9590848
51
222.0204552
0
ARC
8
DEFAULT_255_2_778
10
15.8253306
20
18.7133985
40
4.0579682
50
221.9030071
51
221.9627935
0
ARC
8
DEFAULT_255_2_778
10
15.7419915
20
18.6390084
40
3.9462578
50
221.8465079
51
221.9072621
0
ARC
8
DEFAULT_255_2_778
10
15.6606785
20
18.5665753
40
3.8373621
50
221.7890817
51
221.8508227
0
ARC
8
DEFAULT_255_2_778
10
15.7278315
20
18.6269985
40
3.9276969
50
221.73189
51
221.7934808
0
ARC
8
DEFAULT_255_2_778
10
16.1253
20
18.9818137
40
4.4604961
50
221.6802052
51
221.7346383
0
ARC
8
DEFAULT_255_2_778
10
16.1303533
20
18.9863204
40
4.4672671
50
221.6257519
51
221.6802769
0
ARC
8
DEFAULT_255_2_778
10
16.0316908
20
18.8990962
40
4.3355774
50
221.5747443
51
221.6302152
0
ARC
8
DEFAULT_255_2_778
10
16.475894
20
19.2929421
40
4.9292364
50
221.5249528
51
221.5731256
0
ARC
8
DEFAULT_255_2_778
10
16.3666791
20
19.196706
40
4.7836716
50
221.4801922
51
221.529202
0
ARC
8
DEFAULT_255_2_778
10
16.9731245
20
19.7321297
40
5.5926549
50
221.4331221
51
221.4745109
0
ARC
8
DEFAULT_255_2_778
10
16.8456392
20
19.6191042
40
5.4222815
50
221.3870057
51
221.429153
0
ARC
8
DEFAULT_255_2_778
10
16.7236163
20
19.5116348
40
5.25968
50
221.3445897
51
221.3874878
0
ARC
8
DEFAULT_255_2_778
10
16.7006572
20
19.4914189
40
5.2290891
50
221.3018731
51
221.3444732
0
ARC
8
DEFAULT_255_2_778
10
17.4303685
20
20.1322166
40
6.2002225
50
221.26424
51
221.2997101
0
ARC
8
DEFAULT_255_2_778
10
17.2899899
20
20.0091319
40
6.0135251
50
221.2287491
51
221.2648543
0
ARC
8
DEFAULT_255_2_778
10
17.2922725
20
20.0105772
40
6.0161941
50
221.1891457
51
221.2247744
0
ARC
8
DEFAULT_255_2_778
10
18.4351222
20
21.010331
40
7.5346186
50
221.1590398
51
221.187125
0
ARC
8
DEFAULT_255_2_778
10
18.2560428
20
20.8524526
40
7.2958844
50
221.1225292
51
221.1511626
0
ARC
8
DEFAULT_255_2_778
10
18.3193627
20
20.9070856
40
7.3795142
50
221.0907908
51
221.1187374
0
ARC
8
DEFAULT_255_2_778
10
16.7759976
20
19.5615153
40
5.3319462
50
221.0554913
51
221.0936746
0
ARC
8
DEFAULT_255_2_778
10
16.6585459
20
19.4604896
40
5.1770263
50
221.027297
51
221.0661188
0
ARC
8
DEFAULT_255_2_778
10
17.8312299
20
20.4822223
40
6.7323798
50
221.0065119
51
221.0359818
0
ARC
8
DEFAULT_255_2_778
10
20.1828733
20
22.525612
40
9.8477717
50
220.9807755
51
221.0006637
0
LINE
8
DEFAULT_255_2_778
10
12.7484983
20
16.0673865
11
12.6837421
21
16.1422851
0
ARC
8
DEFAULT_255_2_778
10
11.2472831
20
14.9052386
40
1.8957053
50
40.7342992
51
42.9838617
0
ARC
8
DEFAULT_255_2_778
10
12.3330577
20
15.9223629
40
0.4079614
50
42.4501333
51
50.3043424
0
ARC
8
DEFAULT_255_2_778
10
12.5491794
20
16.1886331
40
0.0651508
50
46.9827409
51
78.3333717
0
ARC
8
DEFAULT_255_2_778
10
12.5604287
20
16.2305768
40
0.0219457
50
84.9670229
51
89.9483131
0
ARC
8
DEFAULT_255_2_778
10
12.5610342
20
16.2326729
40
0.0198581
50
91.690089
51
158.623737
0
ARC
8
DEFAULT_255_2_778
10
12.6079199
20
16.2079011
40
0.0727934
50
153.9129392
51
169.3509222
0
ARC
8
DEFAULT_255_2_778
10
12.7316718
20
16.1822354
40
0.1991707
50
168.6733805
51
176.0994621
0
ARC
8
DEFAULT_255_2_778
10
12.9716741
20
16.1638586
40
0.4398717
50
175.8378958
51
179.7790571
0
ARC
8
DEFAULT_255_2_778
10
13.1866955
20
16.1606724
40
0.6549079
50
179.572842
51
180.0008405
0
ARC
8
DEFAULT_255_2_778
10
13.4487294
20
16.1626975
40
0.9169442
50
180.1271438
51
187.9378099
0
ARC
8
DEFAULT_255_2_778
10
13.5706112
20
16.1789482
40
1.0399027
50
187.897221
51
196.1495184
0
ARC
8
DEFAULT_255_2_778
10
13.6304102
20
16.1958664
40
1.1020478
50
196.1296466
51
205.1028692
0
ARC
8
DEFAULT_255_2_778
10
13.6572707
20
16.2079429
40
1.1314948
50
205.0795965
51
209.3370419
0
ARC
8
DEFAULT_255_2_778
10
13.7003993
20
16.2339688
40
1.1818445
50
209.4125472
51
222.7611862
0
ARC
8
DEFAULT_255_2_778
10
13.8038062
20
16.3303529
40
1.3232044
50
222.7852953
51
234.2046298
0
ARC
8
DEFAULT_255_2_778
10
13.9486093
20
16.5317489
40
1.5712531
50
234.2171545
51
244.1135283
0
ARC
8
DEFAULT_255_2_778
10
14.1112032
20
16.8652936
40
1.9423171
50
244.0941388
51
252.1820409
0
ARC
8
DEFAULT_255_2_778
10
14.2641807
20
17.3379177
40
2.4390815
50
252.1580895
51
258.7832738
0
ARC
8
DEFAULT_255_2_778
10
14.3863079
20
17.9460776
40
3.0593813
50
258.75528
51
264.0783489
0
ARC
8
DEFAULT_255_2_778
10
14.465351
20
18.7004641
40
3.8178971
50
264.0664571
51
268.662695
0
ARC
8
DEFAULT_255_2_778
10
14.4853189
20
19.3085337
40
4.426271
50
268.5879905
51
270.0086559
0
ARC
8
DEFAULT_255_2_778
10
14.4916631
20
18.9993729
40
4.1171141
50
269.9210167
51
274.2902985
0
ARC
8
DEFAULT_255_2_778
10
14.5553207
20
18.1671992
40
3.2825103
50
274.2689259
51
279.599106
0
ARC
8
DEFAULT_255_2_778
10
14.6698552
20
17.4946505
40
2.6002794
50
279.5818952
51
285.8980078
0
ARC
8
DEFAULT_255_2_778
10
14.816122
20
16.9835731
40
2.0686842
50
285.8793131
51
293.4257452
0
ARC
8
DEFAULT_255_2_778
10
14.9778791
20
16.6122835
40
1.6636899
50
293.397698
51
302.822471
0
ARC
8
DEFAULT_255_2_778
10
15.1326901
20
16.3724178
40
1.3782042
50
302.8191517
51
314.1291403
0
ARC
8
DEFAULT_255_2_778
10
15.2503702
20
16.250242
40
1.2085718
50
314.1576279
51
327.083822
0
ARC
8
DEFAULT_255_2_778
10
15.2987246
20
16.2167953
40
1.149806
50
327.1735686
51
330.6810508
0
ARC
8
DEFAULT_255_2_778
10
15.3240911
20
16.2030444
40
1.1209553
50
330.6589817
51
339.7645535
0
ARC
8
DEFAULT_255_2_778
10
15.3678783
20
16.1871196
40
1.0743625
50
339.7537179
51
348.3594323
0
ARC
8
DEFAULT_255_2_778
10
15.4560902
20
16.16946
40
0.984402
50
348.3302013
51
356.2321429
0
ARC
8
DEFAULT_255_2_778
10
15.5679293
20
16.1611434
40
0.8722585
50
356.294491
51
359.9684253
0
ARC
8
DEFAULT_255_2_778
10
16.197044
20
16.1620194
40
0.2431473
50
359.6803252
51
5.8654934
0
ARC
8
DEFAULT_255_2_778
10
16.3227453
20
16.1755614
40
0.1167219
50
5.5585492
51
16.4088401
0
ARC
8
DEFAULT_255_2_778
10
16.3883329
20
16.1956694
40
0.0481315
50
15.5026388
51
38.6383837
0
ARC
8
DEFAULT_255_2_778
10
16.4058108
20
16.2090105
40
0.0261537
50
39.7174822
51
91.794412
0
ARC
8
DEFAULT_255_2_778
10
16.4112004
20
16.1561789
40
0.0792164
50
94.4951299
51
122.743303
0
ARC
8
DEFAULT_255_2_778
10
16.5468835
20
15.9201499
40
0.3513895
50
120.5351459
51
129.7798648
0
ARC
8
DEFAULT_255_2_778
10
16.7366122
20
15.6765316
40
0.660085
50
128.9058739
51
129.1504706
0
ARC
8
DEFAULT_255_2_778
10
16.7681425
20
15.6377642
40
0.7100554
50
129.1484757
51
129.3767646
0
ARC
8
DEFAULT_255_2_778
10
16.8036517
20
15.5945785
40
0.7659652
50
129.3805478
51
129.5929582
0
ARC
8
DEFAULT_255_2_778
10
16.8178935
20
15.5774456
40
0.7882444
50
129.5969759
51
129.8040932
0
ARC
8
DEFAULT_255_2_778
10
16.8266871
20
15.5668696
40
0.8019986
50
129.8030372
51
130.0072506
0
ARC
8
DEFAULT_255_2_778
10
16.8692616
20
15.5162055
40
0.8681759
50
130.0098456
51
130.199046
0
ARC
8
DEFAULT_255_2_778
10
16.924565
20
15.4508787
40
0.9537683
50
130.2036261
51
130.3763108
0
ARC
8
DEFAULT_255_2_778
10
16.8926265
20
15.4884481
40
0.9044579
50
130.3767363
51
130.5592827
0
ARC
8
DEFAULT_255_2_778
10
16.9502558
20
15.4210114
40
0.9931644
50
130.5554312
51
130.7220432
0
ARC
8
DEFAULT_255_2_778
10
16.9592216
20
15.4105979
40
1.0069058
50
130.7221238
51
130.8867915
0
ARC
8
DEFAULT_255_2_778
10
17.0205991
20
15.3396601
40
1.1007109
50
130.8851311
51
131.0360351
0
ARC
8
DEFAULT_255_2_778
10
17.0299782
20
15.3289369
40
1.114957
50
131.0378066
51
131.187018
0
ARC
8
DEFAULT_255_2_778
10
17.0463042
20
15.3102002
40
1.1398086
50
131.1843992
51
131.3305585
0
ARC
8
DEFAULT_255_2_778
10
17.1221107
20
15.2238685
40
1.2546989
50
131.3264657
51
131.4593984
0
ARC
8
DEFAULT_255_2_778
10
17.2141094
20
15.1200315
40
1.3934282
50
131.467488
51
131.5873045
0
ARC
8
DEFAULT_255_2_778
10
17.1487468
20
15.1938058
40
1.294864
50
131.590883
51
131.7199235
0
ARC
8
DEFAULT_255_2_778
10
17.2445469
20
15.0863202
40
1.4388459
50
131.7189389
51
131.8351392
0
ARC
8
DEFAULT_255_2_778
10
17.2640293
20
15.0646799
40
1.4679638
50
131.8383329
51
131.9522794
0
ARC
8
DEFAULT_255_2_778
10
17.2723815
20
15.0553323
40
1.4804993
50
131.9508323
51
132.0638454
0
ARC
8
DEFAULT_255_2_778
10
17.2801183
20
15.0465092
40
1.4922329
50
132.0574186
51
132.1695556
0
ARC
8
DEFAULT_255_2_778
10
17.2973524
20
15.0272503
40
1.5180764
50
132.1636773
51
132.2738999
0
ARC
8
DEFAULT_255_2_778
10
17.5651909
20
14.7326675
40
1.9162177
50
132.2746516
51
132.3619547
0
ARC
8
DEFAULT_255_2_778
10
17.4334824
20
14.8772733
40
1.7206214
50
132.3658593
51
132.463052
0
ARC
8
DEFAULT_255_2_778
10
17.5998876
20
14.6954182
40
1.9671209
50
132.4626535
51
132.5476238
0
ARC
8
DEFAULT_255_2_778
10
17.6231239
20
14.6702549
40
2.0013716
50
132.5505728
51
132.6340345
0
ARC
8
DEFAULT_255_2_778
10
17.6302604
20
14.6624268
40
2.0119643
50
132.6325597
51
132.7155161
0
ARC
8
DEFAULT_255_2_778
10
17.6370282
20
14.6550294
40
2.0219904
50
132.7142228
51
132.7966911
0
ARC
8
DEFAULT_255_2_778
10
17.6569865
20
14.6331445
40
2.0516085
50
132.7904429
51
132.8716342
0
ARC
8
DEFAULT_255_2_778
10
17.8967925
20
14.3750258
40
2.4039324
50
132.8748708
51
132.9440798
0
ARC
8
DEFAULT_255_2_778
10
17.90313
20
14.368273
40
2.4131932
50
132.9449976
51
133.0138499
0
ARC
8
DEFAULT_255_2_778
10
17.6834896
20
14.6033178
40
2.0914979
50
133.0068108
51
133.0861385
0
ARC
8
DEFAULT_255_2_778
10
17.9319766
20
14.3372527
40
2.4555533
50
133.079806
51
133.147267
0
ARC
8
DEFAULT_255_2_778
10
17.9348413
20
14.3336467
40
2.4601435
50
133.1385107
51
133.2057324
0
ARC
8
DEFAULT_255_2_778
10
17.9384424
20
14.3296332
40
2.4655342
50
133.2028775
51
133.2698316
0
ARC
8
DEFAULT_255_2_778
10
18.2962639
20
13.9491195
40
2.9878626
50
133.2645478
51
133.3196917
0
ARC
8
DEFAULT_255_2_778
10
18.2995819
20
13.9454514
40
2.9928076
50
133.3177274
51
133.3726691
0
ARC
8
DEFAULT_255_2_778
10
18.3266482
20
13.9166949
40
3.0322982
50
133.3712771
51
133.425388
0
ARC
8
DEFAULT_255_2_778
10
18.3286933
20
13.9144711
40
3.0353191
50
133.4245678
51
133.4785042
0
ARC
8
DEFAULT_255_2_778
10
18.9061798
20
13.3051404
40
3.8748276
50
133.4751523
51
133.5173045
0
ARC
8
DEFAULT_255_2_778
10
18.9093885
20
13.3022975
40
3.8790986
50
133.5227603
51
133.5647638
0
ARC
8
DEFAULT_255_2_778
10
18.3489994
20
13.8912938
40
3.0661087
50
133.5622467
51
133.6152534
0
ARC
8
DEFAULT_255_2_778
10
18.3462017
20
13.8933912
40
3.0626603
50
133.6044279
51
133.6573551
0
ARC
8
DEFAULT_255_2_778
10
19.9663919
20
12.1955433
40
5.4095101
50
133.6581793
51
133.6880633
0
ARC
8
DEFAULT_255_2_778
10
20.035998
20
12.1236492
40
5.5095768
50
133.6950656
51
133.7243247
0
ARC
8
DEFAULT_255_2_778
10
20.0373526
20
12.1232682
40
5.5107884
50
133.7317655
51
133.7609335
0
ARC
8
DEFAULT_255_2_778
10
20.0386479
20
12.1229935
40
5.5118828
50
133.7686822
51
133.7977575
0
ARC
8
DEFAULT_255_2_778
10
20.0353156
20
12.1267622
40
5.5068563
50
133.7998719
51
133.8288847
0
ARC
8
DEFAULT_255_2_778
10
20.0942649
20
12.0657027
40
5.5917281
50
133.8313697
51
133.8598523
0
ARC
8
DEFAULT_255_2_778
10
20.0883552
20
12.0722541
40
5.5829095
50
133.862709
51
133.8911446
0
ARC
8
DEFAULT_255_2_778
10
20.0823453
20
12.0789377
40
5.5739263
50
133.8942548
51
133.9226422
0
ARC
8
DEFAULT_255_2_778
10
20.0717545
20
12.0895647
40
5.5589253
50
133.9199983
51
133.948366
0
ARC
8
DEFAULT_255_2_778
10
22.891755
20
9.1642309
40
9.622173
50
133.9489184
51
133.9652504
0
ARC
8
DEFAULT_255_2_778
10
18.9301419
20
13.2713682
40
3.9157769
50
133.9630616
51
134.0030522
0
ARC
8
DEFAULT_255_2_778
10
20.08988
20
12.0690178
40
5.5862972
50
133.9921186
51
134.0200496
0
ARC
8
DEFAULT_255_2_778
10
22.8793185
20
9.1827899
40
9.6001829
50
134.0212861
51
134.0374793
0
ARC
8
DEFAULT_255_2_778
10
22.8664204
20
9.1971254
40
9.5809115
50
134.0416217
51
134.0577867
0
ARC
8
DEFAULT_255_2_778
10
23.0176024
20
9.0419748
40
9.7975382
50
134.0622087
51
134.0779561
0
ARC
8
DEFAULT_255_2_778
10
23.0016073
20
9.059694
40
9.7736821
50
134.082853
51
134.0985777
0
ARC
8
DEFAULT_255_2_778
10
22.9734541
20
9.0884801
40
9.733418
50
134.0974835
51
134.1132111
0
ARC
8
DEFAULT_255_2_778
10
23.10865
20
8.948812
40
9.9278019
50
134.1123224
51
134.1276803
0
ARC
8
DEFAULT_255_2_778
10
20.0034836
20
12.1494808
40
5.4683916
50
134.1239001
51
134.151669
0
ARC
8
DEFAULT_255_2_778
10
23.0541616
20
9.0062046
40
9.848668
50
134.1480378
51
134.1633926
0
ARC
8
DEFAULT_255_2_778
10
23.0210198
20
9.0402286
40
9.8011708
50
134.162985
51
134.1783497
0
ARC
8
DEFAULT_255_2_778
10
22.9761509
20
9.0847976
40
9.7379384
50
134.1717663
51
134.1871652
0
ARC
8
DEFAULT_255_2_778
10
53.2500703
20
-22.056619
40
53.1694711
50
134.19009
51
134.1928981
0
ARC
8
DEFAULT_255_2_778
10
-4.0824905
20
36.8229761
40
29.0122585
50
314.0542908
51
314.3187151
0
ARC
8
DEFAULT_255_2_778
10
12.290848
20
19.8990707
40
5.4643334
50
312.1613741
51
314.0611206
0
ARC
8
DEFAULT_255_2_778
10
13.4283026
20
18.6520361
40
3.7764814
50
310.9228987
51
312.0686655
0
ARC
8
DEFAULT_255_2_778
10
14.1738984
20
17.7726571
40
2.6236634
50
304.1179487
51
311.199477
0
ARC
8
DEFAULT_255_2_778
10
14.8757937
20
16.6798792
40
1.3256598
50
278.2471933
51
305.4946108
0
ARC
8
DEFAULT_255_2_778
10
14.9607081
20
16.2934626
40
0.9314983
50
270.0264323
51
276.4873205
0
ARC
8
DEFAULT_255_2_778
10
14.9609202
20
16.2614652
40
0.8995009
50
259.4738174
51
270.0138648
0
ARC
8
DEFAULT_255_2_778
10
14.9677248
20
16.295002
40
0.9337166
50
251.1461748
51
259.4392383
0
ARC
8
DEFAULT_255_2_778
10
14.9963594
20
16.3786043
40
1.0220867
50
244.3353791
51
251.1415935
0
ARC
8
DEFAULT_255_2_778
10
15.032824
20
16.4568784
40
1.1084322
50
242.0141047
51
244.3888042
0
LINE
8
DEFAULT_255_2_778
10
14.5126876
20
15.4780628
11
14.1819876
21
15.3126628
0
ARC
8
DEFAULT_255_2_778
10
9.4863686
20
20.186359
40
1.6557422
50
161.082611
51
180.1907439
0
ARC
8
DEFAULT_255_2_778
10
9.2304901
20
20.2790643
40
1.3836372
50
139.0977999
51
161.2789352
0
ARC
8
DEFAULT_255_2_778
10
8.9248764
20
20.5710419
40
0.9616876
50
91.1166161
51
140.3239156
0
ARC
8
DEFAULT_255_2_778
10
8.8860689
20
20.5668089
40
0.9659464
50
38.7332064
51
88.8096412
0
ARC
8
DEFAULT_255_2_778
10
8.5718069
20
20.2733532
40
1.3950792
50
18.103
51
40.0591975
0
ARC
8
DEFAULT_255_2_778
10
8.3230452
20
20.1859418
40
1.6586982
50
359.8240057
51
18.3029222
0
ARC
8
DEFAULT_255_2_778
10
8.3262232
20
20.1753708
40
1.6555215
50
341.0811827
51
0.189519
0
ARC
8
DEFAULT_255_2_778
10
8.5814516
20
20.0828682
40
1.3840969
50
319.1020204
51
341.2779515
0
ARC
8
DEFAULT_255_2_778
10
8.88735
20
19.790623
40
0.9617597
50
271.119204
51
320.3308401
0
ARC
8
DEFAULT_255_2_778
10
8.9262302
20
19.7946442
40
0.9658065
50
218.7283491
51
268.8078176
0
ARC
8
DEFAULT_255_2_778
10
9.2407069
20
20.0882733
40
1.3952135
50
198.1007909
51
220.0557396
0
ARC
8
DEFAULT_255_2_778
10
9.4896817
20
20.1757466
40
1.6590539
50
179.8238619
51
198.3007682
0
ARC
8
DEFAULT_255_2_778
10
20.9071873
20
20.3406967
40
1.5671602
50
159.3665345
51
180.1882804
0
ARC
8
DEFAULT_255_2_778
10
20.6989796
20
20.4247415
40
1.3427021
50
133.6454668
51
159.5920002
0
ARC
8
DEFAULT_255_2_778
10
20.490893
20
20.6546193
40
1.0327684
50
90.5080407
51
134.0939383
0
ARC
8
DEFAULT_255_2_778
10
20.4601313
20
20.6137821
40
1.0737821
50
34.4432758
51
88.8471387
0
ARC
8
DEFAULT_255_2_778
10
20.1759384
20
20.3770074
40
1.4424827
50
12.1436942
51
35.8148777
0
ARC
8
DEFAULT_255_2_778
10
20.0224879
20
20.3373797
40
1.6008488
50
359.9343995
51
12.3749208
0
ARC
8
DEFAULT_255_2_778
10
20.0581462
20
20.3303032
40
1.5651982
50
339.0578108
51
0.1919494
0
ARC
8
DEFAULT_255_2_778
10
20.2681024
20
20.244164
40
1.338334
50
313.0742412
51
339.2892157
0
ARC
8
DEFAULT_255_2_778
10
20.4729935
20
20.0144156
40
1.0306058
50
270.4860188
51
313.4766908
0
ARC
8
DEFAULT_255_2_778
10
20.5033052
20
20.0575404
40
1.0739102
50
214.4479751
51
268.8491295
0
ARC
8
DEFAULT_255_2_778
10
20.7872482
20
20.2941312
40
1.4423029
50
192.1454107
51
215.8181389
0
ARC
8
DEFAULT_255_2_778
10
20.9405051
20
20.3337154
40
1.6004706
50
179.9344371
51
192.3764578
0
LINE
8
DEFAULT_255_2_778
10
7.8306356
20
20.1808468
11
7.8306356
21
20.1808468
0
LINE
8
DEFAULT_255_2_778
10
19.3400356
20
20.3355468
11
19.3400356
21
20.3355468
0
ARC
8
DEFAULT_255_2_778
10
8.509292
20
20.588508
40
0.3796637
50
89.8736529
51
180.1263471
0
ARC
8
DEFAULT_255_2_778
10
8.510888
20
20.5885295
40
0.3796421
50
359.8704124
51
90.11452
0
ARC
8
DEFAULT_255_2_778
10
8.5109092
20
20.5868908
40
0.3796207
50
269.8822664
51
0.1177305
0
ARC
8
DEFAULT_255_2_778
10
8.5092707
20
20.586912
40
0.3796422
50
179.88548
51
270.1295619
0
LINE
8
DEFAULT_255_2_778
10
8.1296292
20
20.5876708
11
8.1296292
21
20.5876708
0
ARC
8
DEFAULT_255_2_778
10
19.952492
20
20.654708
40
0.3796637
50
89.8736529
51
180.1263471
0
ARC
8
DEFAULT_255_2_778
10
19.954088
20
20.6547295
40
0.3796421
50
359.8704124
51
90.11452
0
ARC
8
DEFAULT_255_2_778
10
19.9541092
20
20.6530908
40
0.3796207
50
269.8822664
51
0.1177305
0
ARC
8
DEFAULT_255_2_778
10
19.9524707
20
20.653112
40
0.3796422
50
179.88548
51
270.1295619
0
LINE
8
DEFAULT_255_2_778
10
19.5728292
20
20.6538708
11
19.5728292
21
20.6538708
0
ARC
8
DEFAULT_255_2_778
10
14.3481149
20
13.1107014
40
1.9664398
50
265.1225039
51
270.0557777
0
ARC
8
DEFAULT_255_2_778
10
14.3282423
20
12.8781091
40
1.7330002
50
259.7713387
51
265.1233064
0
ARC
8
DEFAULT_255_2_778
10
14.2988843
20
12.7134617
40
1.5657563
50
254.6245794
51
259.7586727
0
ARC
8
DEFAULT_255_2_778
10
14.2747801
20
12.6242144
40
1.4733122
50
249.7377997
51
254.6081781
0
ARC
8
DEFAULT_255_2_778
10
14.2726885
20
12.6178142
40
1.4665838
50
248.7163231
51
249.7278625
0
ARC
8
DEFAULT_255_2_778
10
14.2682416
20
12.6063067
40
1.454247
50
248.5793165
51
248.7150041
0
ARC
8
DEFAULT_255_2_778
10
14.2696445
20
12.6100916
40
1.4582829
50
248.4488696
51
248.5823162
0
ARC
8
DEFAULT_255_2_778
10
14.3054457
20
12.7007464
40
1.5557511
50
248.3255793
51
248.4489424
0
ARC
8
DEFAULT_255_2_778
10
14.286316
20
12.6522272
40
1.5035969
50
248.194261
51
248.3201462
0
ARC
8
DEFAULT_255_2_778
10
14.2907115
20
12.6628395
40
1.5150826
50
248.0657954
51
248.1890081
0
ARC
8
DEFAULT_255_2_778
10
14.2962879
20
12.6767054
40
1.530028
50
247.945716
51
248.0660484
0
ARC
8
DEFAULT_255_2_778
10
14.2536772
20
12.5713986
40
1.4164269
50
247.8155639
51
247.9437624
0
ARC
8
DEFAULT_255_2_778
10
14.2840037
20
12.646122
40
1.4970699
50
247.7010345
51
247.8206629
0
ARC
8
DEFAULT_255_2_778
10
14.2653487
20
12.6009191
40
1.448169
50
247.5833431
51
247.7053154
0
ARC
8
DEFAULT_255_2_778
10
14.3146776
20
12.7201991
40
1.5772465
50
247.4686993
51
247.5791553
0
ARC
8
DEFAULT_255_2_778
10
14.3268968
20
12.7493383
40
1.6088439
50
247.3575945
51
247.4643986
0
ARC
8
DEFAULT_255_2_778
10
14.3064111
20
12.6997536
40
1.5551943
50
247.2419034
51
247.3508803
0
ARC
8
DEFAULT_255_2_778
10
14.2866432
20
12.6527223
40
1.5041775
50
247.1321165
51
247.2432491
0
ARC
8
DEFAULT_255_2_778
10
14.3001378
20
12.6846459
40
1.538836
50
247.0239189
51
247.1310644
0
ARC
8
DEFAULT_255_2_778
10
14.3039649
20
12.6935628
40
1.5485393
50
246.8650368
51
247.0223353
0
ARC
8
DEFAULT_255_2_778
10
14.3310053
20
12.7563351
40
1.6168876
50
246.7102797
51
246.8578515
0
ARC
8
DEFAULT_255_2_778
10
14.2940626
20
12.6702671
40
1.5232263
50
246.5531768
51
246.706626
0
ARC
8
DEFAULT_255_2_778
10
14.3058645
20
12.6975584
40
1.5529601
50
246.4069038
51
246.5543466
0
ARC
8
DEFAULT_255_2_778
10
14.2944694
20
12.6717947
40
1.5247894
50
246.2647196
51
246.4118281
0
ARC
8
DEFAULT_255_2_778
10
14.3043821
20
12.6944364
40
1.5495058
50
246.1243546
51
246.2661712
0
ARC
8
DEFAULT_255_2_778
10
14.294954
20
12.6733661
40
1.5264226
50
245.9868124
51
246.1278473
0
ARC
8
DEFAULT_255_2_778
10
14.2864594
20
12.6549098
40
1.5061069
50
245.8562385
51
245.9962731
0
ARC
8
DEFAULT_255_2_778
10
14.3641142
20
12.8281871
40
1.6959891
50
245.7146585
51
245.8566945
0
ARC
8
DEFAULT_255_2_778
10
14.3688685
20
12.8383158
40
1.7071769
50
245.571253
51
245.7090243
0
ARC
8
DEFAULT_255_2_778
10
14.3522031
20
12.8016571
40
1.6669079
50
245.4339243
51
245.5716938
0
ARC
8
DEFAULT_255_2_778
10
14.393343
20
12.8911923
40
1.765442
50
245.2916429
51
245.4276798
0
ARC
8
DEFAULT_255_2_778
10
14.3757044
20
12.8526525
40
1.7230576
50
245.1484167
51
245.288788
0
ARC
8
DEFAULT_255_2_778
10
14.3787614
20
12.8593038
40
1.7303777
50
245.0086191
51
245.1491249
0
ARC
8
DEFAULT_255_2_778
10
14.4055086
20
12.9164289
40
1.7934543
50
244.8732226
51
245.0051497
0
ARC
8
DEFAULT_255_2_778
10
14.4117929
20
12.9300269
40
1.8084342
50
244.7485681
51
244.8758962
0
ARC
8
DEFAULT_255_2_778
10
14.4598719
20
13.0318602
40
1.9210468
50
244.6306127
51
244.7472686
0
ARC
8
DEFAULT_255_2_778
10
14.4794119
20
13.072649
40
1.966274
50
244.5144534
51
244.6253792
0
ARC
8
DEFAULT_255_2_778
10
14.5067856
20
13.1298928
40
2.0297261
50
244.4076354
51
244.5122241
0
ARC
8
DEFAULT_255_2_778
10
14.5437244
20
13.2063983
40
2.1146819
50
244.3026916
51
244.4004012
0
ARC
8
DEFAULT_255_2_778
10
14.4822937
20
13.078919
40
1.9731733
50
244.2030257
51
244.3049533
0
ARC
8
DEFAULT_255_2_778
10
14.5930812
20
13.3080169
40
2.2276527
50
244.1139352
51
244.2018168
0
ARC
8
DEFAULT_255_2_778
10
14.6708912
20
13.4682183
40
2.4057506
50
244.0332542
51
244.1124676
0
ARC
8
DEFAULT_255_2_778
10
14.6850283
20
13.4967918
40
2.4376295
50
243.9524735
51
244.028576
0
ARC
8
DEFAULT_255_2_778
10
14.7056055
20
13.5382594
40
2.4839209
50
243.8733536
51
243.946058
0
ARC
8
DEFAULT_255_2_778
10
14.6338658
20
13.3923288
40
2.3213101
50
243.8012708
51
243.8770086
0
ARC
8
DEFAULT_255_2_778
10
14.9120449
20
13.9577677
40
2.9514726
50
243.7439008
51
243.8018928
0
ARC
8
DEFAULT_255_2_778
10
14.7000066
20
13.5282197
40
2.4724406
50
243.679655
51
243.7470547
0
ARC
8
DEFAULT_255_2_778
10
15.058608
20
14.2531932
40
3.2812555
50
243.6060528
51
243.6800191
0
ARC
8
DEFAULT_255_2_778
10
15.2379001
20
14.6137903
40
3.6839661
50
243.5380629
51
243.6013493
0
ARC
8
DEFAULT_255_2_778
10
15.2132959
20
14.5645242
40
3.628898
50
243.4774984
51
243.5392203
0
ARC
8
DEFAULT_255_2_778
10
12.362856
20
8.8973961
40
2.7147502
50
63.0594998
51
64.3237289
0
ARC
8
DEFAULT_255_2_778
10
13.4624133
20
11.1945816
40
0.1680306
50
62.8386549
51
75.9242698
0
ARC
8
DEFAULT_255_2_778
10
13.4962973
20
11.3226491
40
0.0356092
50
78.693
51
89.3405932
0
ARC
8
DEFAULT_255_2_778
10
13.4959737
20
11.3440742
40
0.0142008
50
87.0393684
51
186.3610642
0
ARC
8
DEFAULT_255_2_778
10
13.5346154
20
11.3375527
40
0.0529865
50
174.6416399
51
180.2055911
0
ARC
8
DEFAULT_255_2_778
10
13.5867919
20
11.3397494
40
0.1051898
50
181.3001835
51
210.0776086
0
ARC
8
DEFAULT_255_2_778
10
13.659099
20
11.3796065
40
0.1877441
50
209.5441183
51
226.842993
0
ARC
8
DEFAULT_255_2_778
10
13.7291357
20
11.4494844
40
0.2866428
50
226.1845457
51
232.5588935
0
ARC
8
DEFAULT_255_2_778
10
13.8343262
20
11.5953236
40
0.4664143
50
233.1907283
51
246.0254211
0
ARC
8
DEFAULT_255_2_778
10
14.0003829
20
11.9570263
40
0.8643985
50
245.7099628
51
253.732425
0
ARC
8
DEFAULT_255_2_778
10
14.1675932
20
12.5214703
40
1.4530857
50
253.6377198
51
259.631763
0
ARC
8
DEFAULT_255_2_778
10
14.3191536
20
13.3319534
40
2.2776139
50
259.5507641
51
263.8924724
0
ARC
8
DEFAULT_255_2_778
10
14.4352627
20
14.3965379
40
3.3485098
50
263.8551031
51
267.2530281
0
ARC
8
DEFAULT_255_2_778
10
14.5026525
20
15.7630819
40
4.7167136
50
267.2309169
51
269.9907858
0
ARC
8
DEFAULT_255_2_778
10
14.5098196
20
16.6549114
40
5.6085488
50
269.9190334
51
270.0000983
0
ARC
8
DEFAULT_255_2_778
10
14.5155687
20
15.8294333
40
4.7830742
50
269.9312475
51
272.6111733
0
ARC
8
DEFAULT_255_2_778
10
14.5793215
20
14.4628909
40
3.4150466
50
272.587182
51
275.9347392
0
ARC
8
DEFAULT_255_2_778
10
14.6932237
20
13.3821401
40
2.3283117
50
275.8966735
51
280.1946983
0
ARC
8
DEFAULT_255_2_778
10
14.8436206
20
12.5570798
40
1.4896594
50
280.1180858
51
286.0070924
0
ARC
8
DEFAULT_255_2_778
10
15.0136239
20
11.9714335
40
0.8798426
50
285.8823056
51
294.147481
0
ARC
8
DEFAULT_255_2_778
10
15.1843356
20
11.5966795
40
0.4680518
50
293.8455176
51
306.800083
0
ARC
8
DEFAULT_255_2_778
10
15.3149465
20
11.4209337
40
0.2490885
50
306.9592625
51
321.0372554
0
ARC
8
DEFAULT_255_2_778
10
15.4004959
20
11.3530283
40
0.1398726
50
320.6298168
51
342.9136642
0
ARC
8
DEFAULT_255_2_778
10
15.4457102
20
11.3379137
40
0.0922205
50
343.6362307
51
359.6575534
0
ARC
8
DEFAULT_255_2_778
10
15.5233051
20
11.3393479
40
0.0147583
50
352.2689234
51
90.3755039
0
ARC
8
DEFAULT_255_2_778
10
15.5195409
20
11.3178773
40
0.0364137
50
84.2195303
51
90.1668114
0
ARC
8
DEFAULT_255_2_778
10
15.5261086
20
11.2368409
40
0.1176395
50
93.252141
51
109.576047
0
ARC
8
DEFAULT_255_2_778
10
15.6730534
20
10.7753014
40
0.6019538
50
108.0347224
51
112.2911485
0
ARC
8
DEFAULT_255_2_778
10
15.9474413
20
10.0778028
40
1.3514484
50
111.8380163
51
111.9925204
0
ARC
8
DEFAULT_255_2_778
10
16.028957
20
9.8757323
40
1.5693413
50
111.9892923
51
112.1214479
0
ARC
8
DEFAULT_255_2_778
10
16.1125807
20
9.6699972
40
1.791422
50
112.1212587
51
112.2361589
0
ARC
8
DEFAULT_255_2_778
10
16.1709956
20
9.5272883
40
1.9456235
50
112.2381049
51
112.3430227
0
ARC
8
DEFAULT_255_2_778
10
16.3038219
20
9.2042564
40
2.2948975
50
112.344358
51
112.4325091
0
ARC
8
DEFAULT_255_2_778
10
16.3200979
20
9.1646752
40
2.3376943
50
112.431048
51
112.5167517
0
ARC
8
DEFAULT_255_2_778
10
-215.0122609
20
560.5468948
40
595.6063144
50
292.75344
51
292.7614373
0
ARC
8
DEFAULT_255_2_778
10
14.2538081
20
13.9120458
40
2.8394253
50
290.6446302
51
292.6704184
0
ARC
8
DEFAULT_255_2_778
10
14.6014258
20
12.9879966
40
1.8521541
50
286.2575643
51
290.6600102
0
ARC
8
DEFAULT_255_2_778
10
14.7198709
20
12.5788106
40
1.426171
50
278.8002477
51
286.2915181
0
ARC
8
DEFAULT_255_2_778
10
14.7577793
20
12.3388565
40
1.1832424
50
270.1030372
51
278.7638528
0
ARC
8
DEFAULT_255_2_778
10
14.7591003
20
12.2234059
40
1.06779
50
262.4026197
51
270.0432987
0
ARC
8
DEFAULT_255_2_778
10
14.7548612
20
12.1875352
40
1.0316738
50
257.0595074
51
262.3725971
0
LINE
8
DEFAULT_255_2_778
10
14.5238292
20
11.1820626
11
14.3500292
21
11.1442626
0
ARC
8
DEFAULT_255_2_778
10
17.9839323
20
12.7073187
40
8.9629693
50
223.0752435
51
225.7543521
0
ARC
8
DEFAULT_255_2_778
10
17.0450023
20
11.7418483
40
7.6162245
50
225.7465558
51
228.9040157
0
ARC
8
DEFAULT_255_2_778
10
16.2670169
20
10.8489709
40
6.4319564
50
228.8985715
51
232.495744
0
ARC
8
DEFAULT_255_2_778
10
15.6361043
20
10.0246285
40
5.3938867
50
232.4812091
51
236.9057332
0
ARC
8
DEFAULT_255_2_778
10
15.1563197
20
9.2877512
40
4.5145794
50
236.9006863
51
241.9449569
0
ARC
8
DEFAULT_255_2_778
10
14.8126541
20
8.6395001
40
3.780868
50
241.9206863
51
248.4563297
0
ARC
8
DEFAULT_255_2_778
10
14.5927021
20
8.0788704
40
3.1786367
50
248.4331976
51
256.9924324
0
ARC
8
DEFAULT_255_2_778
10
14.4968879
20
7.658802
40
2.7477816
50
256.9675512
51
269.9002528
0
ARC
8
DEFAULT_255_2_778
10
14.4879395
20
7.6025228
40
2.6915015
50
270.0886587
51
287.4703213
0
ARC
8
DEFAULT_255_2_778
10
14.362663
20
8.0135492
40
3.1211803
50
287.3987798
51
296.2299774
0
ARC
8
DEFAULT_255_2_778
10
14.1051217
20
8.5393927
40
3.7067034
50
296.208519
51
302.9651788
0
ARC
8
DEFAULT_255_2_778
10
13.706053
20
9.157623
40
4.4425446
50
302.9448279
51
308.2909312
0
ARC
8
DEFAULT_255_2_778
10
13.1608666
20
9.8500967
40
5.3238771
50
308.2781048
51
312.7201843
0
ARC
8
DEFAULT_255_2_778
10
12.4524595
20
10.6187126
40
6.369157
50
312.7112446
51
316.5049981
0
ARC
8
DEFAULT_255_2_778
10
11.5673044
20
11.4600073
40
7.5903349
50
316.4969999
51
319.7514555
0
ARC
8
DEFAULT_255_2_778
10
10.8658272
20
12.0618644
40
8.5146015
50
319.7101444
51
320.7148375
0
LINE
8
DEFAULT_255_2_778
10
11.4368647
20
9.7233851
11
11.4368647
21
6.5859851
0
LINE
8
DEFAULT_255_2_778
10
17.4561647
20
6.6705851
11
17.4561647
21
9.5534851
0
LINE
8
DEFAULT_255_2_778
10
17.4561647
20
9.5534851
11
11.4368647
21
9.7233851
0
ARC
8
DEFAULT_255_2_778
10
17.2442341
20
12.411715
40
0.2219929
50
63.9181582
51
90.0121987
0
ARC
8
DEFAULT_255_2_778
10
17.2441661
20
12.4167202
40
0.2169877
50
89.994505
51
90.5445664
0
ARC
8
DEFAULT_255_2_778
10
17.2441825
20
12.4111937
40
0.2225141
50
90.5352653
51
112.9454487
0
ARC
8
DEFAULT_255_2_778
10
14.5663902
20
18.9202825
40
6.815879
50
270.5358552
51
292.3428632
0
ARC
8
DEFAULT_255_2_778
10
14.6346564
20
18.0926181
40
5.9879181
50
265.162861
51
269.9567303
0
ARC
8
DEFAULT_255_2_778
10
14.6800269
20
18.651938
40
6.5490722
50
261.6124621
51
265.1799655
0
ARC
8
DEFAULT_255_2_778
10
14.7396485
20
19.0633854
40
6.9648158
50
258.7407814
51
261.6209599
0
ARC
8
DEFAULT_255_2_778
10
14.7878656
20
19.3094054
40
7.2155153
50
256.4573158
51
258.7467043
0
ARC
8
DEFAULT_255_2_778
10
14.8041703
20
19.3790505
40
7.2870421
50
254.4616522
51
256.4609124
0
ARC
8
DEFAULT_255_2_778
10
14.7739356
20
19.2703108
40
7.1741772
50
254.3997501
51
254.4616525
0
ARC
8
DEFAULT_255_2_778
10
14.7685978
20
19.2528014
40
7.1558773
50
252.7366862
51
254.4032128
0
ARC
8
DEFAULT_255_2_778
10
14.6866566
20
18.9885574
40
6.87922
50
251.6909013
51
252.7352863
0
ARC
8
DEFAULT_255_2_778
10
14.5546187
20
18.5914408
40
6.4607284
50
250.4164786
51
251.69624
0
ARC
8
DEFAULT_255_2_778
10
14.3271797
20
17.9527114
40
5.7827138
50
249.2915587
51
250.4183896
0
ARC
8
DEFAULT_255_2_778
10
14.0245732
20
17.1524498
40
4.9271501
50
248.350456
51
249.2924082
0
ARC
8
DEFAULT_255_2_778
10
13.6962937
20
16.3246493
40
4.0366327
50
247.6769079
51
248.3465224
0
ARC
8
DEFAULT_255_2_778
10
13.2738062
20
15.2985675
40
2.926976
50
246.8091859
51
247.6982281
0
ARC
8
DEFAULT_255_2_778
10
12.6606543
20
13.8695197
40
1.3719418
50
246.0339858
51
246.8449828
0
ARC
8
DEFAULT_255_2_778
10
12.1855672
20
12.7998107
40
0.2014787
50
245.7557168
51
245.9253803
0
ARC
8
DEFAULT_255_2_778
10
12.0180661
20
12.4194962
40
0.2141013
50
66.6762617
51
90.1635068
0
ARC
8
DEFAULT_255_2_778
10
12.0156924
20
12.3908419
40
0.2427612
50
89.5839677
51
89.9999964
0
ARC
8
DEFAULT_255_2_778
10
12.012502
20
12.4259526
40
0.207675
50
89.1197688
51
116.9335136
0
ARC
8
DEFAULT_255_2_778
10
11.9528056
20
12.5342892
40
0.0841519
50
114.1070835
51
166.4399715
0
ARC
8
DEFAULT_255_2_778
10
11.9243875
20
12.5454564
40
0.0540705
50
170.8875183
51
179.9819391
0
ARC
8
DEFAULT_255_2_778
10
11.9239345
20
12.5454745
40
0.0536173
50
180.0010377
51
183.0349106
0
ARC
8
DEFAULT_255_2_778
10
11.9352497
20
12.548052
40
0.0650831
50
184.7736965
51
227.3256156
0
ARC
8
DEFAULT_255_2_778
10
12.3950267
20
13.0012784
40
0.7106233
50
224.8394741
51
226.6729078
0
ARC
8
DEFAULT_255_2_778
10
12.8466603
20
13.4771659
40
1.3667024
50
226.5888917
51
228.3081244
0
ARC
8
DEFAULT_255_2_778
10
13.2247018
20
13.9016125
40
1.9350952
50
228.3085395
51
230.4956348
0
ARC
8
DEFAULT_255_2_778
10
13.5325446
20
14.2737417
40
2.4180515
50
230.4767007
51
232.5730997
0
ARC
8
DEFAULT_255_2_778
10
13.7700586
20
14.583956
40
2.8087507
50
232.5713775
51
234.9743685
0
ARC
8
DEFAULT_255_2_778
10
13.9692837
20
14.868229
40
3.1558844
50
234.9745855
51
237.8156548
0
ARC
8
DEFAULT_255_2_778
10
14.1262677
20
15.1172443
40
3.4502524
50
237.8119203
51
240.8497917
0
ARC
8
DEFAULT_255_2_778
10
14.2271709
20
15.2967051
40
3.6561338
50
240.8386991
51
243.0204626
0
ARC
8
DEFAULT_255_2_778
10
14.3115009
20
15.4637547
40
3.8432614
50
243.0299063
51
246.6164048
0
ARC
8
DEFAULT_255_2_778
10
14.3930894
20
15.6522367
40
4.0486442
50
246.6152474
51
250.3369442
0
ARC
8
DEFAULT_255_2_778
10
14.461487
20
15.8439722
40
4.2522142
50
250.3383938
51
254.3643592
0
ARC
8
DEFAULT_255_2_778
10
14.5189316
20
16.0487509
40
4.4648974
50
254.3627277
51
258.1702786
0
ARC
8
DEFAULT_255_2_778
10
14.5673524
20
16.2810289
40
4.7021686
50
258.1730257
51
262.1976039
0
ARC
8
DEFAULT_255_2_778
10
14.6054799
20
16.5594271
40
4.9831656
50
262.1978333
51
266.0985135
0
ARC
8
DEFAULT_255_2_778
10
14.6279972
20
16.8924995
40
5.3169982
50
266.1006423
51
270.0230298
0
ARC
8
DEFAULT_255_2_778
10
14.6324012
20
16.8868331
40
5.3113319
50
269.9755465
51
274.0241057
0
ARC
8
DEFAULT_255_2_778
10
14.6555753
20
16.5521989
40
4.9758965
50
274.0283248
51
277.8717778
0
ARC
8
DEFAULT_255_2_778
10
14.694317
20
16.272838
40
4.6938619
50
277.8703576
51
282.0206714
0
ARC
8
DEFAULT_255_2_778
10
14.7449907
20
16.0338972
40
4.4496069
50
282.0232508
51
285.9890347
0
ARC
8
DEFAULT_255_2_778
10
14.803883
20
15.8283216
40
4.235762
50
285.9892034
51
289.9360713
0
ARC
8
DEFAULT_255_2_778
10
14.8715442
20
15.6414297
40
4.0369993
50
289.937751
51
293.5447122
0
ARC
8
DEFAULT_255_2_778
10
14.9511221
20
15.4589441
40
3.8379174
50
293.5438704
51
296.9769337
0
ARC
8
DEFAULT_255_2_778
10
15.0521041
20
15.2608407
40
3.6155611
50
296.9749039
51
300.2206776
0
ARC
8
DEFAULT_255_2_778
10
15.1848956
20
15.0332038
40
3.3520233
50
300.2178176
51
303.2337504
0
ARC
8
DEFAULT_255_2_778
10
15.35355
20
14.7757983
40
3.0442866
50
303.2338077
51
305.8015817
0
ARC
8
DEFAULT_255_2_778
10
15.5680591
20
14.4789387
40
2.6780358
50
305.794731
51
308.2532985
0
ARC
8
DEFAULT_255_2_778
10
15.8240357
20
14.1539368
40
2.2643327
50
308.2585568
51
310.1597138
0
ARC
8
DEFAULT_255_2_778
10
16.1348342
20
13.7866112
40
1.7831641
50
310.1394116
51
312.170709
0
ARC
8
DEFAULT_255_2_778
10
16.5154297
20
13.3665117
40
1.2162985
50
312.168484
51
313.7933354
0
ARC
8
DEFAULT_255_2_778
10
16.9484705
20
12.9159009
40
0.5913399
50
313.7219161
51
315.3743997
0
ARC
8
DEFAULT_255_2_778
10
17.3241062
20
12.5487763
40
0.0661515
50
313.133869
51
354.2472116
0
ARC
8
DEFAULT_255_2_778
10
17.336372
20
12.5458821
40
0.0536828
50
356.0086881
51
359.9944605
0
ARC
8
DEFAULT_255_2_778
10
17.3143416
20
12.5398303
40
0.0759542
50
4.5660378
51
63.8184068
0
ARC
8
DEFAULT_255_2_778
10
17.2739607
20
12.4869026
40
0.1418547
50
58.6068325
51
61.2762132
0
ARC
8
DEFAULT_255_2_778
10
7.2688021
20
16.0106148
40
1.6527511
50
153.3293916
51
180.1133265
0
ARC
8
DEFAULT_255_2_778
10
7.2656398
20
16.0110592
40
1.6497263
50
99.1870744
51
153.2938879
0
ARC
8
DEFAULT_255_2_778
10
7.2689471
20
15.9823578
40
1.6785881
50
89.9758624
51
99.1420994
0
ARC
8
DEFAULT_255_2_778
10
7.2729341
20
16.0079715
40
1.6529775
50
63.3312497
51
90.1136889
0
ARC
8
DEFAULT_255_2_778
10
7.2734981
20
16.0113608
40
1.6496962
50
9.1872228
51
63.2959193
0
ARC
8
DEFAULT_255_2_778
10
7.2447666
20
16.0080505
40
1.6785879
50
359.9759464
51
9.1421852
0
ARC
8
DEFAULT_255_2_778
10
7.270413
20
16.0040628
40
1.6529445
50
333.3307916
51
0.1137972
0
ARC
8
DEFAULT_255_2_778
10
7.2737466
20
16.0035504
40
1.6497359
50
279.1852252
51
333.2947299
0
ARC
8
DEFAULT_255_2_778
10
7.2703602
20
16.0325547
40
1.6789093
50
269.975907
51
279.1413077
0
ARC
8
DEFAULT_255_2_778
10
7.2663821
20
16.0063606
40
1.6527181
50
243.3289334
51
270.1134347
0
ARC
8
DEFAULT_255_2_778
10
7.2659892
20
16.003254
40
1.649766
50
189.1850768
51
243.2926984
0
ARC
8
DEFAULT_255_2_778
10
7.2949636
20
16.0066373
40
1.6789094
50
179.975823
51
189.1412219
0
LINE
8
DEFAULT_255_2_778
10
5.6160542
20
16.0073458
11
5.6160542
21
16.0073458
0
ARC
8
DEFAULT_255_2_778
10
22.2178021
20
16.0106148
40
1.6527511
50
153.3293916
51
180.1133265
0
ARC
8
DEFAULT_255_2_778
10
22.2146398
20
16.0110592
40
1.6497263
50
99.1870744
51
153.2938879
0
ARC
8
DEFAULT_255_2_778
10
22.2179471
20
15.9823578
40
1.6785881
50
89.9758624
51
99.1420994
0
ARC
8
DEFAULT_255_2_778
10
22.2219341
20
16.0079715
40
1.6529775
50
63.3312497
51
90.1136889
0
ARC
8
DEFAULT_255_2_778
10
22.2224981
20
16.0113608
40
1.6496962
50
9.1872228
51
63.2959193
0
ARC
8
DEFAULT_255_2_778
10
22.1937666
20
16.0080505
40
1.6785879
50
359.9759464
51
9.1421852
0
ARC
8
DEFAULT_255_2_778
10
22.219413
20
16.0040628
40
1.6529445
50
333.3307916
51
0.1137972
0
ARC
8
DEFAULT_255_2_778
10
22.2227466
20
16.0035504
40
1.6497359
50
279.1852252
51
333.2947299
0
ARC
8
DEFAULT_255_2_778
10
22.2193602
20
16.0325547
40
1.6789093
50
269.975907
51
279.1413077
0
ARC
8
DEFAULT_255_2_778
10
22.2153821
20
16.0063606
40
1.6527181
50
243.3289334
51
270.1134347
0
ARC
8
DEFAULT_255_2_778
10
22.2149892
20
16.003254
40
1.649766
50
189.1850768
51
243.2926984
0
ARC
8
DEFAULT_255_2_778
10
22.2439636
20
16.0066373
40
1.6789094
50
179.975823
51
189.1412219
0
LINE
8
DEFAULT_255_2_778
10
20.5650542
20
16.0073458
11
20.5650542
21
16.0073458
0
ARC
8
DEFAULT_255_2_778
10
17.9307296
20
36.9912244
40
0.878946
50
64.9142657
51
65.2688289
0
ARC
8
DEFAULT_255_2_778
10
17.3274663
20
35.6830813
40
2.3194894
50
65.2526228
51
65.6944701
0
ARC
8
DEFAULT_255_2_778
10
16.755998
20
34.4191358
40
3.7066209
50
65.6856217
51
66.1153541
0
ARC
8
DEFAULT_255_2_778
10
16.2624562
20
33.3053313
40
4.9248754
50
66.1118579
51
66.5248892
0
ARC
8
DEFAULT_255_2_778
10
15.8504933
20
32.3573046
40
5.9585426
50
66.5227835
51
66.9205841
0
ARC
8
DEFAULT_255_2_778
10
15.4880566
20
31.5070834
40
6.8827916
50
66.9194543
51
67.3000473
0
ARC
8
DEFAULT_255_2_778
10
15.189762
20
30.7941894
40
7.6555772
50
67.299458
51
67.6648158
0
ARC
8
DEFAULT_255_2_778
10
14.8659359
20
30.0052372
40
8.5084014
50
67.6667648
51
68.1930435
0
ARC
8
DEFAULT_255_2_778
10
14.5262616
20
29.1564039
40
9.4226753
50
68.1927857
51
68.7665525
0
ARC
8
DEFAULT_255_2_778
10
14.2206588
20
28.3701008
40
10.2662781
50
68.7660963
51
69.3689107
0
ARC
8
DEFAULT_255_2_778
10
13.972863
20
27.7126417
40
10.9688841
50
69.3676104
51
69.9112835
0
ARC
8
DEFAULT_255_2_778
10
13.7851926
20
27.1998608
40
11.5149285
50
69.9106588
51
70.3991201
0
ARC
8
DEFAULT_255_2_778
10
13.6147789
20
26.7207159
40
12.023476
50
70.4000648
51
71.0603919
0
ARC
8
DEFAULT_255_2_778
10
13.445624
20
26.2277715
40
12.5446358
50
71.0603855
51
71.800877
0
ARC
8
DEFAULT_255_2_778
10
13.3208836
20
25.849238
40
12.943193
50
71.7996518
51
72.3728544
0
ARC
8
DEFAULT_255_2_778
10
13.2244687
20
25.545412
40
13.26195
50
72.3733602
51
73.1502314
0
ARC
8
DEFAULT_255_2_778
10
13.1397184
20
25.2659261
40
13.554003
50
73.1498124
51
73.9258836
0
ARC
8
DEFAULT_255_2_778
10
13.0950986
20
25.11176
40
13.7144962
50
73.9250908
51
74.1897333
0
ARC
8
DEFAULT_255_2_778
10
13.0669169
20
25.0116567
40
13.8184908
50
74.190388
51
74.9493571
0
ARC
8
DEFAULT_255_2_778
10
13.0350019
20
24.893209
40
13.9411629
50
74.9490999
51
75.6838919
0
ARC
8
DEFAULT_255_2_778
10
13.017283
20
24.8240545
40
14.0125514
50
75.6836107
51
76.3937778
0
ARC
8
DEFAULT_255_2_778
10
13.0077334
20
24.7847658
40
14.0529839
50
76.3936188
51
77.4281904
0
ARC
8
DEFAULT_255_2_778
10
13.0098543
20
24.7947187
40
14.042808
50
77.4277975
51
78.5693626
0
ARC
8
DEFAULT_255_2_778
10
13.0235553
20
24.8628647
40
13.9732984
50
78.5690509
51
79.7837913
0
ARC
8
DEFAULT_255_2_778
10
13.0439364
20
24.975892
40
13.8584482
50
79.7838371
51
80.892598
0
ARC
8
DEFAULT_255_2_778
10
13.0697084
20
25.1379093
40
13.6943941
50
80.8917699
51
82.3499065
0
ARC
8
DEFAULT_255_2_778
10
13.0993533
20
25.3591169
40
13.4712089
50
82.3496227
51
83.8796594
0
ARC
8
DEFAULT_255_2_778
10
13.1254324
20
25.6019644
40
13.2269652
50
83.879827
51
85.3113305
0
ARC
8
DEFAULT_255_2_778
10
13.1468663
20
25.8659268
40
12.9621341
50
85.3103828
51
86.9971948
0
ARC
8
DEFAULT_255_2_778
10
13.1626525
20
26.1692978
40
12.6583527
50
86.9966175
51
88.8430958
0
ARC
8
DEFAULT_255_2_778
10
13.1683087
20
26.423523
40
12.4040653
50
88.8455076
51
89.9985353
0
ARC
8
DEFAULT_255_2_778
10
13.1675592
20
26.6924282
40
12.1351603
50
89.994964
51
92.1535621
0
ARC
8
DEFAULT_255_2_778
10
13.1546095
20
27.0344205
40
11.7929231
50
92.1531284
51
94.467654
0
ARC
8
DEFAULT_255_2_778
10
13.1284369
20
27.3680856
40
11.4582331
50
94.4671454
51
96.9990949
0
ARC
8
DEFAULT_255_2_778
10
13.0904299
20
27.678207
40
11.1457914
50
96.9994321
51
99.6229164
0
ARC
8
DEFAULT_255_2_778
10
13.046822
20
27.9369295
40
10.8834196
50
99.6242563
51
102.1010848
0
ARC
8
DEFAULT_255_2_778
10
13.0006503
20
28.1520345
40
10.6634152
50
102.1008066
51
104.8945043
0
ARC
8
DEFAULT_255_2_778
10
12.9557531
20
28.3216725
40
10.4879364
50
104.8956793
51
107.6133348
0
ARC
8
DEFAULT_255_2_778
10
12.9192057
20
28.4372027
40
10.3667632
50
107.6140226
51
110.5084768
0
ARC
8
DEFAULT_255_2_778
10
12.8977701
20
28.495164
40
10.3049657
50
110.5097528
51
113.0353296
0
ARC
8
DEFAULT_255_2_778
10
12.8925662
20
28.5076386
40
10.2914495
50
113.0358436
51
113.8897178
0
ARC
8
DEFAULT_255_2_778
10
12.9005881
20
28.4899328
40
10.3108872
50
113.8906303
51
117.1257798
0
ARC
8
DEFAULT_255_2_778
10
12.9440832
20
28.4057523
40
10.4056398
50
117.1275926
51
120.4664815
0
ARC
8
DEFAULT_255_2_778
10
13.034508
20
28.2523621
40
10.5836995
50
120.4673771
51
123.5522877
0
ARC
8
DEFAULT_255_2_778
10
13.1764594
20
28.038814
40
10.8401227
50
123.5537261
51
126.6272827
0
ARC
8
DEFAULT_255_2_778
10
13.3733566
20
27.7739419
40
11.1701617
50
126.6272421
51
129.4253719
0
ARC
8
DEFAULT_255_2_778
10
13.6142256
20
27.4807905
40
11.5495767
50
129.4248135
51
131.9463593
0
ARC
8
DEFAULT_255_2_778
10
13.9161206
20
27.1454212
40
12.0008117
50
131.9481173
51
134.5884571
0
ARC
8
DEFAULT_255_2_778
10
14.2934163
20
26.7626351
40
12.5382847
50
134.5883576
51
137.0737737
0
ARC
8
DEFAULT_255_2_778
10
14.7291597
20
26.3571789
40
13.133488
50
137.0732419
51
139.3753963
0
ARC
8
DEFAULT_255_2_778
10
15.1977858
20
25.9545887
40
13.7512979
50
139.3735622
51
141.3524495
0
ARC
8
DEFAULT_255_2_778
10
15.7303825
20
25.5292681
40
14.4328817
50
141.3542167
51
143.4759343
0
ARC
8
DEFAULT_255_2_778
10
16.3685032
20
25.056705
40
15.2269308
50
143.4760438
51
145.5314696
0
ARC
8
DEFAULT_255_2_778
10
17.0863185
20
24.5638366
40
16.097665
50
145.5311531
51
147.4813137
0
ARC
8
DEFAULT_255_2_778
10
17.8440567
20
24.0801235
40
16.9966341
50
147.4795142
51
149.1775867
0
ARC
8
DEFAULT_255_2_778
10
18.6570291
20
23.5952416
40
17.9432252
50
149.1780749
51
150.884879
0
ARC
8
DEFAULT_255_2_778
10
19.5517428
20
23.0966672
40
18.9674756
50
150.8841563
51
152.4703779
0
ARC
8
DEFAULT_255_2_778
10
20.5181212
20
22.5929604
40
20.0572498
50
152.4703606
51
154.0137186
0
ARC
8
DEFAULT_255_2_778
10
3.7598621
20
30.8592951
40
1.3741364
50
157.6800016
51
157.9491924
0
ARC
8
DEFAULT_255_2_778
10
5.6869736
20
30.0778076
40
3.453675
50
157.935424
51
158.2341651
0
ARC
8
DEFAULT_255_2_778
10
7.5306593
20
29.3410686
40
5.4391124
50
158.2283709
51
158.5203128
0
ARC
8
DEFAULT_255_2_778
10
9.3242659
20
28.6352651
40
7.3665933
50
158.5201865
51
158.8519841
0
ARC
8
DEFAULT_255_2_778
10
11.1343619
20
27.9349173
40
9.3074525
50
158.851143
51
159.2064125
0
ARC
8
DEFAULT_255_2_778
10
12.8233989
20
27.2932276
40
11.1142761
50
159.2049616
51
159.5577557
0
ARC
8
DEFAULT_255_2_778
10
14.317192
20
26.7361397
40
12.7085673
50
159.5565001
51
159.8948641
0
ARC
8
DEFAULT_255_2_778
10
15.6297304
20
26.2553574
40
14.1063903
50
159.8936133
51
160.2174179
0
ARC
8
DEFAULT_255_2_778
10
16.7904149
20
25.8376999
40
15.3399324
50
160.2167715
51
160.5260055
0
ARC
8
DEFAULT_255_2_778
10
17.8026977
20
25.4796167
40
16.4136829
50
160.5255706
51
160.8207191
0
ARC
8
DEFAULT_255_2_778
10
18.884288
20
25.1037462
40
17.5587228
50
160.8217689
51
161.2459804
0
ARC
8
DEFAULT_255_2_778
10
19.9839699
20
24.7300386
40
18.7201692
50
161.2450244
51
161.6390963
0
ARC
8
DEFAULT_255_2_778
10
21.0236566
20
24.3849904
40
19.8156173
50
161.639156
51
162.0962268
0
ARC
8
DEFAULT_255_2_778
10
21.9780009
20
24.0765595
40
20.8185643
50
162.0959213
51
162.5373604
0
ARC
8
DEFAULT_255_2_778
10
22.7473707
20
23.8343496
40
21.6251593
50
162.5369056
51
162.9324205
0
ARC
8
DEFAULT_255_2_778
10
23.3702834
20
23.6430225
40
22.2767929
50
162.9322241
51
163.2853193
0
ARC
8
DEFAULT_255_2_778
10
23.9549273
20
23.46771
40
22.8871558
50
163.2859243
51
163.7600285
0
ARC
8
DEFAULT_255_2_778
10
24.5701401
20
23.2885637
40
23.5279213
50
163.7601574
51
164.2876631
0
ARC
8
DEFAULT_255_2_778
10
25.0480945
20
23.1538606
40
24.0244948
50
164.2871005
51
164.6926408
0
ARC
8
DEFAULT_255_2_778
10
25.4867173
20
23.0340404
40
24.479189
50
164.6931689
51
165.3077846
0
ARC
8
DEFAULT_255_2_778
10
25.9163629
20
22.9213253
40
24.9233737
50
165.3076466
51
165.9519287
0
ARC
8
DEFAULT_255_2_778
10
27.6660108
20
22.482762
40
26.727149
50
165.9503326
51
165.9600992
0
ARC
8
DEFAULT_255_2_778
10
26.2555358
20
22.8363957
40
25.2730184
50
165.962121
51
166.635494
0
ARC
8
DEFAULT_255_2_778
10
26.4898705
20
22.7806341
40
25.513896
50
166.6353003
51
167.2869266
0
ARC
8
DEFAULT_255_2_778
10
26.6332124
20
22.7482475
40
25.6608508
50
167.2868205
51
167.9163046
0
ARC
8
DEFAULT_255_2_778
10
26.7042067
20
22.7330276
40
25.7334581
50
167.9162584
51
168.5233629
0
ARC
8
DEFAULT_255_2_778
10
26.721459
20
22.7294692
40
25.7510737
50
168.5232415
51
169.1077869
0
ARC
8
DEFAULT_255_2_778
10
26.685967
20
22.7362299
40
25.7149436
50
169.107636
51
169.9556491
0
ARC
8
DEFAULT_255_2_778
10
26.5687484
20
22.7568998
40
25.5959167
50
169.9554452
51
170.8865068
0
ARC
8
DEFAULT_255_2_778
10
26.370558
20
22.7886166
40
25.3952044
50
170.8863376
51
171.8720717
0
ARC
8
DEFAULT_255_2_778
10
26.1184302
20
22.8246446
40
25.1405156
50
171.8721156
51
172.7675854
0
ARC
8
DEFAULT_255_2_778
10
25.8539046
20
22.858223
40
24.8738673
50
172.7676059
51
173.5773613
0
ARC
8
DEFAULT_255_2_778
10
25.53266
20
22.8940767
40
24.5506282
50
173.5766467
51
174.6777468
0
ARC
8
DEFAULT_255_2_778
10
25.1029789
20
22.9339026
40
24.1191055
50
174.6772672
51
175.9214444
0
ARC
8
DEFAULT_255_2_778
10
24.6806871
20
22.9643649
40
23.6957165
50
175.9222907
51
176.8917697
0
ARC
8
DEFAULT_255_2_778
10
24.2004744
20
22.9897647
40
23.2148331
50
176.8901018
51
178.3569425
0
ARC
8
DEFAULT_255_2_778
10
23.6015553
20
23.0067474
40
22.6156733
50
178.3564435
51
179.9437799
0
ARC
8
DEFAULT_255_2_778
10
23.6661173
20
23.0082882
40
22.6802337
50
179.9478324
51
179.9994475
0
ARC
8
DEFAULT_255_2_778
10
22.9916141
20
23.0073401
40
22.0057305
50
179.996962
51
181.4598987
0
ARC
8
DEFAULT_255_2_778
10
22.416393
20
22.9924804
40
21.4303175
50
181.4593644
51
183.0750392
0
ARC
8
DEFAULT_255_2_778
10
21.8249404
20
22.9605989
40
20.8380062
50
183.0747429
51
184.7941578
0
ARC
8
DEFAULT_255_2_778
10
21.2760417
20
22.9148733
40
20.2872065
50
184.7950311
51
186.3631672
0
ARC
8
DEFAULT_255_2_778
10
20.7176725
20
22.8518987
40
19.7252978
50
186.3611265
51
188.41955
0
ARC
8
DEFAULT_255_2_778
10
20.129651
20
22.7648572
40
19.1308689
50
188.4195353
51
190.5721487
0
ARC
8
DEFAULT_255_2_778
10
19.5849993
20
22.6631987
40
18.5768112
50
190.5721373
51
192.8324965
0
ARC
8
DEFAULT_255_2_778
10
19.103449
20
22.5536943
40
18.0829672
50
192.8330786
51
195.0908507
0
ARC
8
DEFAULT_255_2_778
10
18.6808191
20
22.4397082
40
17.6452356
50
195.0907749
51
197.5361161
0
ARC
8
DEFAULT_255_2_778
10
18.3837885
20
22.346839
40
17.334027
50
197.5392365
51
199.0508068
0
ARC
8
DEFAULT_255_2_778
10
18.1222329
20
22.2555666
40
17.0570048
50
199.047784
51
201.880473
0
ARC
8
DEFAULT_255_2_778
10
17.8762249
20
22.1572388
40
16.7920746
50
201.8819592
51
204.5337671
0
ARC
8
DEFAULT_255_2_778
10
17.7302046
20
22.0909359
40
16.6317065
50
204.5348523
51
207.0007283
0
ARC
8
DEFAULT_255_2_778
10
17.6619666
20
22.0563826
40
16.555219
50
207.0013967
51
209.6651286
0
ARC
8
DEFAULT_255_2_778
10
17.6697311
20
22.0611103
40
16.5643058
50
209.6660459
51
212.3400519
0
ARC
8
DEFAULT_255_2_778
10
17.750325
20
22.112352
40
16.6598101
50
212.340672
51
214.7984484
0
ARC
8
DEFAULT_255_2_778
10
17.8930244
20
22.2117852
40
16.8337354
50
214.7991759
51
217.2394261
0
ARC
8
DEFAULT_255_2_778
10
18.0924923
20
22.3635943
40
17.0844014
50
217.2399287
51
219.5813773
0
ARC
8
DEFAULT_255_2_778
10
18.3439803
20
22.571746
40
17.4108571
50
219.581987
51
221.9065601
0
ARC
8
DEFAULT_255_2_778
10
18.622843
20
22.821653
40
17.785314
50
221.9056973
51
223.8406312
0
ARC
8
DEFAULT_255_2_778
10
18.9293224
20
23.1164491
40
18.21056
50
223.8417103
51
225.9293542
0
ARC
8
DEFAULT_255_2_778
10
19.2785889
20
23.4771514
40
18.7126487
50
225.9291784
51
227.8734902
0
ARC
8
DEFAULT_255_2_778
10
19.6605786
20
23.899851
40
19.2823776
50
227.8741605
51
229.8616037
0
ARC
8
DEFAULT_255_2_778
10
20.0528559
20
24.3643809
40
19.8903822
50
229.8603386
51
231.5321878
0
ARC
8
DEFAULT_255_2_778
10
20.3074883
20
24.6827591
40
20.2980595
50
231.5284862
51
232.081715
0
ARC
8
DEFAULT_255_2_778
10
9.9047868
20
10.4061283
40
2.7026865
50
219.7304327
51
219.9726516
0
ARC
8
DEFAULT_255_2_778
10
12.9817144
20
12.9652068
40
6.7047316
50
219.4540467
51
219.7422756
0
ARC
8
DEFAULT_255_2_778
10
15.6823306
20
15.1891524
40
10.2031972
50
219.1742088
51
219.4599643
0
ARC
8
DEFAULT_255_2_778
10
17.8731965
20
16.9750811
40
13.0297559
50
218.8961591
51
219.1767439
0
ARC
8
DEFAULT_255_2_778
10
19.6184105
20
18.3834894
40
15.272385
50
218.6223555
51
218.8973018
0
ARC
8
DEFAULT_255_2_778
10
21.2857341
20
19.7149372
40
17.4060958
50
218.2129078
51
218.6207492
0
ARC
8
DEFAULT_255_2_778
10
22.7497782
20
20.8682255
40
19.2698282
50
217.8218947
51
218.2144614
0
ARC
8
DEFAULT_255_2_778
10
23.8404797
20
21.7148229
40
20.650537
50
217.3231727
51
217.8216643
0
ARC
8
DEFAULT_255_2_778
10
24.5778168
20
22.2775101
40
21.5780513
50
216.848634
51
217.3242611
0
ARC
8
DEFAULT_255_2_778
10
24.9175749
20
22.532413
40
22.0027994
50
216.4059192
51
216.8492201
0
ARC
8
DEFAULT_255_2_778
10
25.010183
20
22.6009622
40
22.1180176
50
215.7826598
51
216.4064567
0
ARC
8
DEFAULT_255_2_778
10
24.7933833
20
22.4451646
40
21.8510439
50
215.0476064
51
215.7836459
0
ARC
8
DEFAULT_255_2_778
10
24.2034406
20
22.0321004
40
21.1308675
50
214.1355474
51
215.0492692
0
ARC
8
DEFAULT_255_2_778
10
23.3457684
20
21.4505744
40
20.0946367
50
213.2937905
51
214.1354013
0
ARC
8
DEFAULT_255_2_778
10
22.3716616
20
20.8112335
40
18.9294582
50
212.3692913
51
213.2947432
0
ARC
8
DEFAULT_255_2_778
10
21.1405261
20
20.0322868
40
17.4725947
50
211.1498062
51
212.3732529
0
ARC
8
DEFAULT_255_2_778
10
19.4006338
20
18.9849632
40
15.4418075
50
209.2444002
51
211.1634939
0
ARC
8
DEFAULT_255_2_778
10
16.2705166
20
17.2602609
40
11.868089
50
204.5151444
51
209.3616975
0
ARC
8
DEFAULT_255_2_778
10
14.0323416
20
16.209793
40
9.395846
50
203.4866794
51
204.3500375
0
ARC
8
DEFAULT_255_2_778
10
12.9116452
20
15.7302967
40
8.1769028
50
200.4916081
51
203.5347919
0
ARC
8
DEFAULT_255_2_778
10
11.456938
20
15.1859767
40
6.6236943
50
197.3546161
51
200.4861786
0
ARC
8
DEFAULT_255_2_778
10
10.3110463
20
14.8276121
40
5.4230724
50
194.0467342
51
197.3519891
0
ARC
8
DEFAULT_255_2_778
10
9.3817808
20
14.5952405
40
4.4651939
50
190.4149365
51
194.0482974
0
ARC
8
DEFAULT_255_2_778
10
8.5753193
20
14.4482321
40
3.645444
50
185.8738426
51
190.4338305
0
ARC
8
DEFAULT_255_2_778
10
7.8794444
20
14.3772192
40
2.9459554
50
180.4906235
51
185.8850209
0
ARC
8
DEFAULT_255_2_778
10
7.569547
20
14.3701018
40
2.6360122
50
180.000919
51
180.3936043
0
ARC
8
DEFAULT_255_2_778
10
7.367682
20
14.3722044
40
2.434148
50
175.7261526
51
180.0504878
0
ARC
8
DEFAULT_255_2_778
10
7.0500058
20
14.3962192
40
2.1155655
50
170.6402125
51
175.7335622
0
ARC
8
DEFAULT_255_2_778
10
6.7776908
20
14.4417146
40
1.8394769
50
164.0236203
51
170.6589689
0
ARC
8
DEFAULT_255_2_778
10
6.6044531
20
14.4898765
40
1.6596749
50
159.3430426
51
163.9759639
0
ARC
8
DEFAULT_255_2_778
10
5.8607709
20
15.5216443
40
0.9241854
50
208.8743967
51
209.4547648
0
ARC
8
DEFAULT_255_2_778
10
7.0399489
20
16.1859054
40
2.2775894
50
209.4184634
51
210.0529266
0
ARC
8
DEFAULT_255_2_778
10
8.2448407
20
16.8835676
40
3.6698886
50
210.060126
51
211.0103379
0
ARC
8
DEFAULT_255_2_778
10
9.3780783
20
17.5640643
40
4.9917445
50
211.0034568
51
212.0878753
0
ARC
8
DEFAULT_255_2_778
10
10.2473136
20
18.1084218
40
6.0173638
50
212.0825797
51
213.2768401
0
ARC
8
DEFAULT_255_2_778
10
10.8721389
20
18.5181857
40
6.7645672
50
213.2746577
51
214.6970866
0
ARC
8
DEFAULT_255_2_778
10
11.2611929
20
18.7869837
40
7.2374469
50
214.6933999
51
216.2725528
0
ARC
8
DEFAULT_255_2_778
10
11.4308394
20
18.9110024
40
7.4475907
50
216.2696131
51
218.1594941
0
ARC
8
DEFAULT_255_2_778
10
11.4037214
20
18.8889189
40
7.4126236
50
218.1547852
51
220.5365339
0
ARC
8
DEFAULT_255_2_778
10
11.198759
20
18.7126295
40
7.1422775
50
220.5303831
51
223.3462622
0
ARC
8
DEFAULT_255_2_778
10
10.9495111
20
18.4784781
40
6.8002969
50
223.3530521
51
225.2313614
0
ARC
8
DEFAULT_255_2_778
10
10.6515818
20
18.1752579
40
6.3752089
50
225.2131645
51
228.7734647
0
ARC
8
DEFAULT_255_2_778
10
10.2336832
20
17.6951674
40
5.7387174
50
228.7525765
51
233.6633865
0
ARC
8
DEFAULT_255_2_778
10
9.7993123
20
17.0999466
40
5.0018612
50
233.631569
51
240.4416727
0
ARC
8
DEFAULT_255_2_778
10
9.4580199
20
16.4959052
40
4.3080708
50
240.4269798
51
248.9603238
0
ARC
8
DEFAULT_255_2_778
10
9.3308605
20
16.1839258
40
3.971244
50
249.0566558
51
251.2352795
0
ARC
8
DEFAULT_255_2_778
10
8.8053618
20
13.2346034
40
1.1058655
50
226.6693443
51
227.1568193
0
ARC
8
DEFAULT_255_2_778
10
10.0191293
20
14.522812
40
2.8758124
50
226.0779414
51
226.6908062
0
ARC
8
DEFAULT_255_2_778
10
11.1597448
20
15.708562
40
4.5211106
50
225.4881787
51
226.0901434
0
ARC
8
DEFAULT_255_2_778
10
12.1127797
20
16.6786993
40
5.8810524
50
224.90588
51
225.4931113
0
ARC
8
DEFAULT_255_2_778
10
12.9054295
20
17.4691716
40
7.0004895
50
224.3369697
51
224.9083286
0
ARC
8
DEFAULT_255_2_778
10
13.5660077
20
18.1149268
40
7.9242662
50
223.7839112
51
224.3384759
0
ARC
8
DEFAULT_255_2_778
10
14.2386598
20
18.7589504
40
8.8555166
50
222.9687375
51
223.7808093
0
ARC
8
DEFAULT_255_2_778
10
14.8719754
20
19.3494369
40
9.7214051
50
222.2004886
51
222.9711347
0
ARC
8
DEFAULT_255_2_778
10
15.4113904
20
19.8383771
40
10.4494374
50
221.2377034
51
222.1997583
0
ARC
8
DEFAULT_255_2_778
10
15.8476636
20
20.2212848
40
11.0299134
50
220.338066
51
221.2395472
0
ARC
8
DEFAULT_255_2_778
10
16.1417765
20
20.4713634
40
11.4159726
50
219.5140431
51
220.3392768
0
ARC
8
DEFAULT_255_2_778
10
16.370145
20
20.6595554
40
11.7118921
50
218.3756729
51
219.5134603
0
ARC
8
DEFAULT_255_2_778
10
16.5310657
20
20.7871516
40
11.9172608
50
217.0684199
51
218.3762881
0
ARC
8
DEFAULT_255_2_778
10
16.5898198
20
20.8317826
40
11.9910437
50
215.6324374
51
217.0693598
0
ARC
8
DEFAULT_255_2_778
10
16.5494091
20
20.803032
40
11.9414496
50
214.171673
51
215.6332769
0
ARC
8
DEFAULT_255_2_778
10
16.4256643
20
20.7192174
40
11.7919917
50
212.6159577
51
214.1724482
0
ARC
8
DEFAULT_255_2_778
10
16.2063536
20
20.5794693
40
11.5319407
50
210.5429855
51
212.6184398
0
ARC
8
DEFAULT_255_2_778
10
15.8739989
20
20.3838603
40
11.1462953
50
208.164638
51
210.5451939
0
ARC
8
DEFAULT_255_2_778
10
15.4622696
20
20.1638347
40
10.6794633
50
205.5300251
51
208.1665993
0
ARC
8
DEFAULT_255_2_778
10
14.980955
20
19.9347153
40
10.1463975
50
202.3833144
51
205.533926
0
ARC
8
DEFAULT_255_2_778
10
14.4558222
20
19.718807
40
9.5786117
50
198.8908434
51
202.3852885
0
ARC
8
DEFAULT_255_2_778
10
13.918085
20
19.5354868
40
9.0104859
50
194.7448742
51
198.8950092
0
ARC
8
DEFAULT_255_2_778
10
13.4020728
20
19.3998707
40
8.4769503
50
190.0595074
51
194.7461109
0
ARC
8
DEFAULT_255_2_778
10
12.9786473
20
19.3241885
40
8.0468147
50
185.2046086
51
190.0555301
0
ARC
8
DEFAULT_255_2_778
10
12.6849558
20
19.2968315
40
7.7518524
50
180.0948616
51
185.2001538
0
ARC
8
DEFAULT_255_2_778
10
12.6858877
20
19.2951346
40
7.7527817
50
179.9999896
51
180.0823096
0
ARC
8
DEFAULT_255_2_778
10
12.546107
20
19.2955112
40
7.6130011
50
176.482412
51
180.0028235
0
ARC
8
DEFAULT_255_2_778
10
12.5176354
20
19.2969932
40
7.5844921
50
173.3400581
51
176.4803905
0
ARC
8
DEFAULT_255_2_778
10
12.5518891
20
19.292777
40
7.6190037
50
170.1010993
51
173.3384398
0
ARC
8
DEFAULT_255_2_778
10
12.6461703
20
19.2761422
40
7.7147408
50
166.9950768
51
170.0997682
0
ARC
8
DEFAULT_255_2_778
10
12.7894467
20
19.2430067
40
7.8617991
50
164.2080265
51
166.9947607
0
ARC
8
DEFAULT_255_2_778
10
12.9802071
20
19.1888277
40
8.0601041
50
161.3323523
51
164.2064657
0
ARC
8
DEFAULT_255_2_778
10
13.2229401
20
19.1067531
40
8.3163375
50
158.6012773
51
161.3319168
0
ARC
8
DEFAULT_255_2_778
10
13.5043403
20
18.9964975
40
8.6185665
50
156.0640262
51
158.6013807
0
ARC
8
DEFAULT_255_2_778
10
13.650887
20
18.9328349
40
8.7783392
50
155.9038242
51
156.0723072
0
ARC
8
DEFAULT_255_2_778
10
-6.7439594
20
28.8840019
40
13.9227068
50
332.7852014
51
332.8403163
0
ARC
8
DEFAULT_255_2_778
10
-25.5602257
20
38.5398908
40
35.0718928
50
332.8368676
51
332.8982975
0
ARC
8
DEFAULT_255_2_778
10
-40.3433973
20
46.1064995
40
51.6789915
50
332.8971888
51
332.9592743
0
ARC
8
DEFAULT_255_2_778
10
-52.8456905
20
52.488736
40
65.7160951
50
332.9586514
51
333.0194021
0
ARC
8
DEFAULT_255_2_778
10
-61.2024018
20
56.7433537
40
75.0935358
50
333.0192495
51
333.0799486
0
ARC
8
DEFAULT_255_2_778
10
-69.7927309
20
61.1050224
40
84.7277409
50
333.0800902
51
333.1704556
0
ARC
8
DEFAULT_255_2_778
10
-76.5437286
20
64.5199033
40
92.2932799
50
333.1702694
51
333.273786
0
ARC
8
DEFAULT_255_2_778
10
-80.9595761
20
66.743875
40
97.2375452
50
333.273523
51
333.3878196
0
ARC
8
DEFAULT_255_2_778
10
-82.3889687
20
67.4603087
40
98.8364324
50
333.3876812
51
333.4964711
0
ARC
8
DEFAULT_255_2_778
10
-81.747185
20
67.1407396
40
98.1194871
50
333.4962297
51
333.6530307
0
ARC
8
DEFAULT_255_2_778
10
-78.5402371
20
65.5533809
40
94.5411885
50
333.6525495
51
333.8434119
0
ARC
8
DEFAULT_255_2_778
10
-72.5830465
20
62.629238
40
87.9050204
50
333.8425028
51
334.0887509
0
ARC
8
DEFAULT_255_2_778
10
-62.1128929
20
57.549509
40
76.2676789
50
334.0841256
51
334.5203191
0
ARC
8
DEFAULT_255_2_778
10
-54.4463117
20
53.8860896
40
67.7707962
50
334.5279394
51
334.5995205
0
ARC
8
DEFAULT_255_2_778
10
-48.7060442
20
51.1652017
40
61.4183258
50
334.5954331
51
334.9345078
0
ARC
8
DEFAULT_255_2_778
10
-36.0233524
20
45.2494613
40
47.4238132
50
334.9170473
51
335.7000083
0
ARC
8
DEFAULT_255_2_778
10
-24.405985
20
39.9940894
40
34.6730468
50
335.7149656
51
336.2746984
0
ARC
8
DEFAULT_255_2_778
10
-17.4134363
20
36.920836
40
27.0349433
50
336.2748062
51
336.8774613
0
ARC
8
DEFAULT_255_2_778
10
-11.9260268
20
34.5775946
40
21.0681652
50
336.8777392
51
337.5221167
0
ARC
8
DEFAULT_255_2_778
10
-7.6567
20
32.8109571
40
16.4477583
50
337.5226154
51
338.2069744
0
ARC
8
DEFAULT_255_2_778
10
-3.6414751
20
31.2097734
40
12.1250507
50
338.1884373
51
339.3223168
0
ARC
8
DEFAULT_255_2_778
10
0.0268222
20
29.8267834
40
8.204711
50
339.3124418
51
340.7512438
0
ARC
8
DEFAULT_255_2_778
10
2.7084127
20
28.8911369
40
5.3645771
50
340.743767
51
342.4967311
0
ARC
8
DEFAULT_255_2_778
10
4.6795832
20
28.2719143
40
3.2984355
50
342.4568281
51
345.0217444
0
ARC
8
DEFAULT_255_2_778
10
6.0931742
20
27.8956023
40
1.8356148
50
344.9649447
51
348.6734553
0
ARC
8
DEFAULT_255_2_778
10
7.0126443
20
27.7139497
40
0.8983792
50
348.5159497
51
354.6293752
0
ARC
8
DEFAULT_255_2_778
10
8.428763
20
28.032525
40
0.6590066
50
217.6627915
51
218.9988085
0
ARC
8
DEFAULT_255_2_778
10
9.2267446
20
28.6755262
40
1.6838104
50
218.9151349
51
220.3418777
0
ARC
8
DEFAULT_255_2_778
10
9.95134
20
29.289383
40
2.6334725
50
220.3160766
51
221.6875432
0
ARC
8
DEFAULT_255_2_778
10
10.6631223
20
29.923452
40
3.5867183
50
221.6895912
51
223.3282133
0
ARC
8
DEFAULT_255_2_778
10
11.3784974
20
30.5975915
40
4.5696858
50
223.3221817
51
225.0166035
0
ARC
8
DEFAULT_255_2_778
10
12.0465557
20
31.2654394
40
5.5143142
50
225.0122136
51
226.7317951
0
ARC
8
DEFAULT_255_2_778
10
12.639993
20
31.8948326
40
6.3793596
50
226.7253456
51
228.3077087
0
ARC
8
DEFAULT_255_2_778
10
13.2080574
20
32.5330837
40
7.2337959
50
228.3103258
51
230.1272652
0
ARC
8
DEFAULT_255_2_778
10
13.761978
20
33.1954603
40
8.09726
50
230.1238813
51
231.8559591
0
ARC
8
DEFAULT_255_2_778
10
14.2427109
20
33.8065435
40
8.8747731
50
231.8517781
51
233.3818509
0
ARC
8
DEFAULT_255_2_778
10
14.7195855
20
34.4493209
40
9.6751301
50
233.3857007
51
235.2413195
0
ARC
8
DEFAULT_255_2_778
10
15.1975078
20
35.1370296
40
10.5125979
50
235.2382413
51
236.925777
0
ARC
8
DEFAULT_255_2_778
10
15.6584893
20
35.8453655
40
11.3577273
50
236.9271418
51
238.7635329
0
ARC
8
DEFAULT_255_2_778
10
16.1336282
20
36.6289188
40
12.2740858
50
238.7638513
51
240.6629123
0
ARC
8
DEFAULT_255_2_778
10
16.5961403
20
37.4511995
40
13.2175172
50
240.6615156
51
242.475417
0
ARC
8
DEFAULT_255_2_778
10
17.0412196
20
38.3051683
40
14.1805117
50
242.4751823
51
244.2865241
0
ARC
8
DEFAULT_255_2_778
10
17.428794
20
39.1073197
40
15.0713874
50
244.2820967
51
245.6697861
0
ARC
8
DEFAULT_255_2_778
10
17.7654446
20
39.8519062
40
15.8885426
50
245.6698383
51
247.0716831
0
ARC
8
DEFAULT_255_2_778
10
18.1008059
20
40.6446049
40
16.7492623
50
247.0715243
51
248.4623533
0
ARC
8
DEFAULT_255_2_778
10
18.4164805
20
41.4435183
40
17.6082809
50
248.4612403
51
249.71428
0
ARC
8
DEFAULT_255_2_778
10
18.7218797
20
42.2702748
40
18.4896406
50
249.7148412
51
251.0307587
0
ARC
8
DEFAULT_255_2_778
10
19.0340735
20
43.1787143
40
19.4502277
50
251.0309304
51
252.3596614
0
ARC
8
DEFAULT_255_2_778
10
19.324494
20
44.0904567
40
20.4071071
50
252.3583444
51
253.511073
0
ARC
8
DEFAULT_255_2_778
10
19.5729612
20
44.9284914
40
21.2811999
50
253.5100245
51
254.5105953
0
ARC
8
DEFAULT_255_2_778
10
19.8380897
20
45.8885629
40
22.2772067
50
254.5129047
51
255.8134548
0
ARC
8
DEFAULT_255_2_778
10
20.1215656
20
47.0089937
40
23.4329418
50
255.812878
51
257.0316733
0
ARC
8
DEFAULT_255_2_778
10
20.3736957
20
48.1018198
40
24.5544756
50
257.0306101
51
258.1066298
0
ARC
8
DEFAULT_255_2_778
10
20.6181193
20
49.2645788
40
25.7426469
50
258.1076484
51
259.3035224
0
ARC
8
DEFAULT_255_2_778
10
20.8432404
20
50.452392
40
26.951605
50
259.3019408
51
260.2863084
0
ARC
8
DEFAULT_255_2_778
10
21.0390256
20
51.5960903
40
28.1119401
50
260.2862924
51
261.258945
0
ARC
8
DEFAULT_255_2_778
10
16.544968
20
22.3043849
40
1.5225372
50
80.9375215
51
81.6192105
0
ARC
8
DEFAULT_255_2_778
10
16.1992207
20
20.1204432
40
3.7336771
50
80.1963381
51
80.9768723
0
ARC
8
DEFAULT_255_2_778
10
15.887171
20
18.3066167
40
5.5741501
50
79.4314466
51
80.2102345
0
ARC
8
DEFAULT_255_2_778
10
15.6242713
20
16.8935902
40
7.0114251
50
78.6666637
51
79.4373782
0
ARC
8
DEFAULT_255_2_778
10
15.4086443
20
15.8154116
40
8.1109541
50
77.9087862
51
78.6698963
0
ARC
8
DEFAULT_255_2_778
10
15.194262
20
14.8177657
40
9.1313739
50
76.767968
51
77.904703
0
ARC
8
DEFAULT_255_2_778
10
14.9922235
20
13.9571833
40
10.0153545
50
75.4743288
51
76.769733
0
ARC
8
DEFAULT_255_2_778
10
14.8463632
20
13.3925701
40
10.5985037
50
74.0491391
51
75.4765711
0
ARC
8
DEFAULT_255_2_778
10
14.7640025
20
13.1031557
40
10.8994087
50
72.3493903
51
74.0509539
0
ARC
8
DEFAULT_255_2_778
10
14.753855
20
13.0695751
40
10.9344853
50
70.4618993
51
72.3520739
0
ARC
8
DEFAULT_255_2_778
10
14.823863
20
13.2649302
40
10.7269658
50
68.2034725
51
70.4653372
0
ARC
8
DEFAULT_255_2_778
10
14.9900093
20
13.6775061
40
10.2821937
50
65.3617956
51
68.2094572
0
ARC
8
DEFAULT_255_2_778
10
15.2761936
20
14.2971457
40
9.5996608
50
61.6560832
51
65.3725983
0
ARC
8
DEFAULT_255_2_778
10
15.5556449
20
14.821892
40
9.0051518
50
59.7655833
51
61.6358427
0
ARC
8
DEFAULT_255_2_778
10
15.8229777
20
15.2760369
40
8.4781709
50
56.2933093
51
59.7810489
0
ARC
8
DEFAULT_255_2_778
10
16.1994671
20
15.8386521
40
7.8012078
50
52.0758065
51
56.3004996
0
ARC
8
DEFAULT_255_2_778
10
16.620623
20
16.3771375
40
7.1175873
50
46.7942215
51
52.0859097
0
ARC
8
DEFAULT_255_2_778
10
17.0269195
20
16.8104352
40
6.523598
50
41.1483288
51
46.7898729
0
ARC
8
DEFAULT_255_2_778
10
17.3251506
20
17.0734545
40
6.125958
50
36.3529487
51
41.1313383
0
ARC
8
DEFAULT_255_2_778
10
21.5855955
20
20.5538167
40
0.6899758
50
12.6283461
51
14.1394351
0
ARC
8
DEFAULT_255_2_778
10
20.5613914
20
20.2984693
40
1.7455297
50
14.0546265
51
15.820583
0
ARC
8
DEFAULT_255_2_778
10
19.6614622
20
20.0450338
40
2.680463
50
15.7883344
51
17.527767
0
ARC
8
DEFAULT_255_2_778
10
18.9251955
20
19.8133813
40
3.4523122
50
17.5137796
51
19.2129838
0
ARC
8
DEFAULT_255_2_778
10
18.2491945
20
19.5775521
40
4.168268
50
19.2162159
51
21.2899181
0
ARC
8
DEFAULT_255_2_778
10
17.5870861
20
19.3195138
40
4.8788812
50
21.2902159
51
23.688138
0
ARC
8
DEFAULT_255_2_778
10
17.0171841
20
19.0703485
40
5.5008708
50
23.6799018
51
25.9464795
0
ARC
8
DEFAULT_255_2_778
10
16.513643
20
18.8250482
40
6.060983
50
25.9489354
51
28.620653
0
ARC
8
DEFAULT_255_2_778
10
16.0545145
20
18.5750319
40
6.5837707
50
28.6166548
51
31.2293891
0
ARC
8
DEFAULT_255_2_778
10
15.6316778
20
18.3184004
40
7.0783923
50
31.2311606
51
34.1888782
0
ARC
8
DEFAULT_255_2_778
10
15.2182559
20
18.0376533
40
7.5781288
50
34.1882728
51
37.2458935
0
ARC
8
DEFAULT_255_2_778
10
14.8260479
20
17.7397109
40
8.07067
50
37.2444512
51
40.2565513
0
ARC
8
DEFAULT_255_2_778
10
14.4400825
20
17.4128195
40
8.5764638
50
40.2569173
51
43.3428893
0
ARC
8
DEFAULT_255_2_778
10
14.0507589
20
17.0455719
40
9.111668
50
43.3420525
51
46.3409766
0
ARC
8
DEFAULT_255_2_778
10
13.642761
20
16.6175287
40
9.7030082
50
46.3429576
51
49.4926865
0
ARC
8
DEFAULT_255_2_778
10
13.293997
20
16.2122609
40
10.2376807
50
49.4818653
51
51.376502
0
ARC
8
DEFAULT_255_2_778
10
13.0359046
20
15.889576
40
10.6508842
50
51.3753266
51
53.0443141
0
ARC
8
DEFAULT_255_2_778
10
12.7687749
20
15.5339588
40
11.0956557
50
53.0460313
51
54.9320523
0
ARC
8
DEFAULT_255_2_778
10
12.4827116
20
15.1266484
40
11.5933844
50
54.9314819
51
56.699283
0
ARC
8
DEFAULT_255_2_778
10
12.2143715
20
14.7186867
40
12.0816867
50
56.6978872
51
58.2357007
0
ARC
8
DEFAULT_255_2_778
10
11.9430704
20
14.2800989
40
12.5974032
50
58.2366936
51
59.9063119
0
ARC
8
DEFAULT_255_2_778
10
11.6492116
20
13.7729162
40
13.1835664
50
59.9065756
51
61.5811367
0
ARC
8
DEFAULT_255_2_778
10
11.3543437
20
13.2282825
40
13.8028991
50
61.5805748
51
63.1509469
0
ARC
8
DEFAULT_255_2_778
10
11.0765332
20
12.6801462
40
14.4174169
50
63.1497498
51
64.5361568
0
ARC
8
DEFAULT_255_2_778
10
10.7922574
20
12.0823892
40
15.0793277
50
64.5374493
51
66.0776693
0
ARC
8
DEFAULT_255_2_778
10
10.5129078
20
11.4539419
40
15.7670644
50
66.075786
51
67.3423268
0
ARC
8
DEFAULT_255_2_778
10
10.2557824
20
10.8379997
40
16.4345208
50
67.3423085
51
68.5924274
0
ARC
8
DEFAULT_255_2_778
10
16.2649639
20
25.9092344
40
0.229673
50
92.4008065
51
92.6413095
0
ARC
8
DEFAULT_255_2_778
10
16.2864454
20
25.402372
40
0.7369903
50
92.1750781
51
92.4187073
0
ARC
8
DEFAULT_255_2_778
10
16.3001597
20
25.045758
40
1.0938679
50
91.9822353
51
92.183975
0
ARC
8
DEFAULT_255_2_778
10
16.3154524
20
24.602403
40
1.5374866
50
91.7216258
51
91.9803001
0
ARC
8
DEFAULT_255_2_778
10
16.3283291
20
24.1738383
40
1.9662447
50
91.4681111
51
91.721488
0
ARC
8
DEFAULT_255_2_778
10
16.3401768
20
23.7102484
40
2.4299859
50
91.3887912
51
91.4673189
0
ARC
8
DEFAULT_255_2_778
10
16.3405112
20
23.6840767
40
2.456158
50
91.1280784
51
91.3817919
0
ARC
8
DEFAULT_255_2_778
10
16.3485787
20
23.2749895
40
2.8653248
50
90.8525296
51
91.1283207
0
ARC
8
DEFAULT_255_2_778
10
16.3540681
20
22.904078
40
3.2362769
50
90.6448982
51
90.8519977
0
ARC
8
DEFAULT_255_2_778
10
16.3571202
20
22.6160006
40
3.5243705
50
90.3639625
51
90.6418016
0
ARC
8
DEFAULT_255_2_778
10
16.3591154
20
22.2880824
40
3.8522947
50
90.0901397
51
90.3626551
0
ARC
8
DEFAULT_255_2_778
10
16.3597736
20
21.8041358
40
4.3362418
50
90.002825
51
90.0887777
0
ARC
8
DEFAULT_255_2_778
10
16.3576008
20
21.4371819
40
4.7031961
50
88.8475242
51
89.9761345
0
ARC
8
DEFAULT_255_2_778
10
16.3376434
20
20.4212439
40
5.7193301
50
87.653099
51
88.8523365
0
ARC
8
DEFAULT_255_2_778
10
16.305464
20
19.622768
40
6.5184539
50
86.4703351
51
87.6578881
0
ARC
8
DEFAULT_255_2_778
10
16.264544
20
18.9611913
40
7.1812948
50
84.9952776
51
86.4694402
0
ARC
8
DEFAULT_255_2_778
10
16.2179681
20
18.4260127
40
7.7184963
50
83.4045128
51
84.9974266
0
ARC
8
DEFAULT_255_2_778
10
16.1747982
20
18.0502549
40
8.0967258
50
81.7128815
51
83.4064588
0
ARC
8
DEFAULT_255_2_778
10
16.1398165
20
17.8088699
40
8.3406324
50
79.8007931
51
81.7140856
0
ARC
8
DEFAULT_255_2_778
10
16.1175961
20
17.6840734
40
8.4673914
50
77.7160758
51
79.8023396
0
ARC
8
DEFAULT_255_2_778
10
16.1125687
20
17.6598498
40
8.49213
50
75.2647896
51
77.7177047
0
ARC
8
DEFAULT_255_2_778
10
16.1292349
20
17.7223015
40
8.427493
50
72.5889076
51
75.2663755
0
ARC
8
DEFAULT_255_2_778
10
16.1700838
20
17.8515884
40
8.2919068
50
69.4578045
51
72.590921
0
ARC
8
DEFAULT_255_2_778
10
16.234962
20
18.024148
40
8.1075539
50
65.96418
51
69.4592338
0
ARC
8
DEFAULT_255_2_778
10
16.3136185
20
18.2006268
40
7.91434
50
62.3725282
51
65.9638545
0
ARC
8
DEFAULT_255_2_778
10
16.3931833
20
18.3527804
40
7.7426389
50
58.5339406
51
62.3720558
0
ARC
8
DEFAULT_255_2_778
10
16.4601882
20
18.4627084
40
7.6139
50
54.649162
51
58.5322107
0
ARC
8
DEFAULT_255_2_778
10
16.4993254
20
18.5183665
40
7.5458597
50
50.7396068
51
54.6470244
0
ARC
8
DEFAULT_255_2_778
10
16.4987962
20
18.5181942
40
7.546328
50
46.916688
51
50.7373239
0
ARC
8
DEFAULT_255_2_778
10
16.447845
20
18.4641922
40
7.6205717
50
43.0471591
51
46.9142362
0
ARC
8
DEFAULT_255_2_778
10
16.3359268
20
18.3600427
40
7.7734532
50
39.2837166
51
43.0450672
0
ARC
8
DEFAULT_255_2_778
10
16.1542223
20
18.2117637
40
8.0079807
50
35.5978302
51
39.2817332
0
ARC
8
DEFAULT_255_2_778
10
15.9002477
20
18.0300461
40
8.3202697
50
32.1776727
51
35.5972939
0
ARC
8
DEFAULT_255_2_778
10
15.5703606
20
17.8227245
40
8.7098949
50
28.843085
51
32.1763368
0
ARC
8
DEFAULT_255_2_778
10
15.1604468
20
17.5969178
40
9.1778883
50
25.7568188
51
28.8433754
0
ARC
8
DEFAULT_255_2_778
10
14.6746873
20
17.3625478
40
9.7172321
50
22.8370661
51
25.7567984
0
ARC
8
DEFAULT_255_2_778
10
14.1062502
20
17.1231224
40
10.3340347
50
20.082182
51
22.8372888
0
ARC
8
DEFAULT_255_2_778
10
13.6770421
20
16.9636102
40
10.7919189
50
19.1918537
51
20.0951251
0
ARC
8
DEFAULT_255_2_778
10
26.4184921
20
20.0725204
40
2.5867911
50
170.2349165
51
170.3746741
0
ARC
8
DEFAULT_255_2_778
10
30.004356
20
19.4638215
40
6.2239514
50
170.3695464
51
170.5274825
0
ARC
8
DEFAULT_255_2_778
10
33.2387146
20
18.9235843
40
9.5031178
50
170.5239986
51
170.6788435
0
ARC
8
DEFAULT_255_2_778
10
36.1116588
20
18.4516019
40
12.4145736
50
170.676883
51
170.8258725
0
ARC
8
DEFAULT_255_2_778
10
38.5650472
20
18.055034
40
14.8998061
50
170.8245722
51
170.9679496
0
ARC
8
DEFAULT_255_2_778
10
41.273961
20
17.6246534
40
17.6426953
50
170.9686639
51
171.1751761
0
ARC
8
DEFAULT_255_2_778
10
44.1118833
20
17.184111
40
20.5146075
50
171.1753147
51
171.401361
0
ARC
8
DEFAULT_255_2_778
10
46.6210304
20
16.8045771
40
23.0522965
50
171.4010611
51
171.6403374
0
ARC
8
DEFAULT_255_2_778
10
48.6679296
20
16.5035057
40
25.1212188
50
171.6396966
51
171.8569755
0
ARC
8
DEFAULT_255_2_778
10
50.2379457
20
16.27859
40
26.7072634
50
171.8564098
51
172.0526485
0
ARC
8
DEFAULT_255_2_778
10
51.6702992
20
16.0788782
40
28.1534726
50
172.0531532
51
172.319931
0
ARC
8
DEFAULT_255_2_778
10
53.0245458
20
15.8962518
40
29.5199778
50
172.3199219
51
172.6217235
0
ARC
8
DEFAULT_255_2_778
10
54.0069994
20
15.7686784
40
30.5106795
50
172.6210648
51
172.8565097
0
ARC
8
DEFAULT_255_2_778
10
54.7652139
20
15.6737872
40
31.2748088
50
172.8567531
51
173.2017797
0
ARC
8
DEFAULT_255_2_778
10
55.3285731
20
15.6065578
40
31.8421651
50
173.2016534
51
173.5612473
0
ARC
8
DEFAULT_255_2_778
10
55.9637936
20
15.5347826
40
32.4814278
50
173.5610918
51
173.6132376
0
ARC
8
DEFAULT_255_2_778
10
55.636938
20
15.5717641
40
32.152487
50
173.6139376
51
173.8980746
0
ARC
8
DEFAULT_255_2_778
10
55.6222397
20
15.5733295
40
32.1377056
50
173.898064
51
174.3170484
0
ARC
8
DEFAULT_255_2_778
10
55.3756746
20
15.5976931
40
31.8899398
50
174.3167395
51
174.7859777
0
ARC
8
DEFAULT_255_2_778
10
54.8614268
20
15.6444462
40
31.3735712
50
174.7856611
51
175.293396
0
ARC
8
DEFAULT_255_2_778
10
54.1647135
20
15.701811
40
30.6745003
50
175.293403
51
175.764804
0
ARC
8
DEFAULT_255_2_778
10
53.1893078
20
15.7734684
40
29.6964662
50
175.7636988
51
176.4248561
0
ARC
8
DEFAULT_255_2_778
10
51.820022
20
15.8584701
40
28.3245448
50
176.4237456
51
177.2002675
0
ARC
8
DEFAULT_255_2_778
10
50.0768895
20
15.9427798
40
26.5793749
50
177.1982531
51
178.1568961
0
ARC
8
DEFAULT_255_2_778
10
47.7754232
20
16.0144035
40
24.2767958
50
178.1511499
51
179.4967336
0
ARC
8
DEFAULT_255_2_778
10
45.9934876
20
16.0344248
40
22.4947535
50
179.5078614
51
179.9983095
0
ARC
8
DEFAULT_255_2_778
10
44.7199387
20
16.0329743
40
21.2212047
50
179.9942917
51
180.9137998
0
ARC
8
DEFAULT_255_2_778
10
43.0864263
20
16.0066574
40
19.5874803
50
180.9130334
51
181.9134219
0
ARC
8
DEFAULT_255_2_778
10
39.4661024
20
15.8569087
40
15.964201
50
181.8101116
51
186.0097276
0
ARC
8
DEFAULT_255_2_778
10
35.4627276
20
15.4494304
40
11.9401743
50
186.0764456
51
189.2749851
0
ARC
8
DEFAULT_255_2_778
10
33.0591561
20
15.0580958
40
9.5049543
50
189.2820517
51
192.5660935
0
ARC
8
DEFAULT_255_2_778
10
31.1660788
20
14.6343935
40
7.5650414
50
192.5533386
51
196.4907165
0
ARC
8
DEFAULT_255_2_778
10
29.6270613
20
14.1778733
40
5.9597425
50
196.4822932
51
201.049
0
ARC
8
DEFAULT_255_2_778
10
28.4376645
20
13.7191958
40
4.6849684
50
201.0382326
51
206.4120942
0
ARC
8
DEFAULT_255_2_778
10
27.5296882
20
13.2664116
40
3.6703598
50
206.3866223
51
213.1468377
0
ARC
8
DEFAULT_255_2_778
10
26.8593967
20
12.8262861
40
2.8684894
50
213.1069209
51
222.0988601
0
ARC
8
DEFAULT_255_2_778
10
26.5238273
20
12.5307196
40
2.4213559
50
222.2328541
51
227.6313511
0
ARC
8
DEFAULT_255_2_778
10
28.1090565
20
9.477326
40
0.3207944
50
242.9824295
51
244.4661416
0
ARC
8
DEFAULT_255_2_778
10
28.3354672
20
9.9234582
40
0.8210897
50
241.1591266
51
243.0494057
0
ARC
8
DEFAULT_255_2_778
10
28.5488711
20
10.3127055
40
1.2649975
50
239.3361113
51
241.1967535
0
ARC
8
DEFAULT_255_2_778
10
28.7453641
20
10.6442152
40
1.6503651
50
237.1123488
51
239.3379171
0
ARC
8
DEFAULT_255_2_778
10
28.9258104
20
10.9240388
40
1.9833245
50
234.9126465
51
237.1243366
0
ARC
8
DEFAULT_255_2_778
10
29.0878053
20
11.1546585
40
2.2651538
50
232.3631057
51
234.9128826
0
ARC
8
DEFAULT_255_2_778
10
29.2393696
20
11.3514459
40
2.5135426
50
229.6454616
51
232.3664328
0
ARC
8
DEFAULT_255_2_778
10
29.3810141
20
11.5181613
40
2.7323054
50
226.5917724
51
229.6456761
0
ARC
8
DEFAULT_255_2_778
10
29.5131946
20
11.6581286
40
2.9248216
50
223.5288725
51
226.5948758
0
ARC
8
DEFAULT_255_2_778
10
29.6424706
20
11.7808459
40
3.1030684
50
220.1174268
51
223.5277369
0
ARC
8
DEFAULT_255_2_778
10
29.7790162
20
11.8959169
40
3.2816352
50
216.5820132
51
220.117666
0
ARC
8
DEFAULT_255_2_778
10
29.8753647
20
11.9685376
40
3.4022836
50
216.3588545
51
216.5970629
0
ARC
8
DEFAULT_255_2_778
10
29.9330424
20
12.0098683
40
3.4732352
50
212.9445479
51
216.3438547
0
ARC
8
DEFAULT_255_2_778
10
30.0975914
20
12.1162923
40
3.6692006
50
209.2671543
51
212.9418085
0
ARC
8
DEFAULT_255_2_778
10
30.29688
20
12.2279076
40
3.8976168
50
205.5887775
51
209.2662561
0
ARC
8
DEFAULT_255_2_778
10
30.5245106
20
12.3370881
40
4.150077
50
202.2330384
51
205.5909307
0
ARC
8
DEFAULT_255_2_778
10
30.7913138
20
12.4459069
40
4.4382185
50
198.7447733
51
202.2301574
0
ARC
8
DEFAULT_255_2_778
10
31.1004183
20
12.5510718
40
4.7647231
50
195.6474083
51
198.7478421
0
ARC
8
DEFAULT_255_2_778
10
31.4510282
20
12.6491463
40
5.1287916
50
192.5487325
51
195.6460067
0
ARC
8
DEFAULT_255_2_778
10
31.8703404
20
12.7423325
40
5.5583337
50
189.4616793
51
192.5472505
0
ARC
8
DEFAULT_255_2_778
10
32.3594312
20
12.8239198
40
6.0541828
50
186.5426937
51
189.4624056
0
ARC
8
DEFAULT_255_2_778
10
32.8870537
20
12.8849193
40
6.5853196
50
184.023608
51
186.5468966
0
ARC
8
DEFAULT_255_2_778
10
33.468002
20
12.9255696
40
7.1676881
50
181.4711351
51
184.0219005
0
ARC
8
DEFAULT_255_2_778
10
33.9998853
20
12.9408317
40
7.6997881
50
179.9932336
51
181.4830552
0
ARC
8
DEFAULT_255_2_778
10
34.5488332
20
12.9395749
40
8.2487364
50
177.824807
51
179.9849536
0
ARC
8
DEFAULT_255_2_778
10
35.2454511
20
12.9134835
40
8.9458428
50
175.9004039
51
177.8271619
0
ARC
8
DEFAULT_255_2_778
10
35.9893561
20
12.860124
40
9.6916589
50
174.0108361
51
175.9001623
0
ARC
8
DEFAULT_255_2_778
10
36.8143915
20
12.7736178
40
10.5212171
50
172.1927856
51
174.0111106
0
ARC
8
DEFAULT_255_2_778
10
37.6737514
20
12.6562592
40
11.3885534
50
170.603838
51
172.1951249
0
ARC
8
DEFAULT_255_2_778
10
38.5907416
20
12.5043002
40
12.3180494
50
168.9787182
51
170.6028496
0
ARC
8
DEFAULT_255_2_778
10
39.6153417
20
12.3047787
40
13.3618953
50
167.4108791
51
168.978868
0
ARC
8
DEFAULT_255_2_778
10
40.665417
20
12.0709041
40
14.4376999
50
166.0656349
51
167.4133412
0
ARC
8
DEFAULT_255_2_778
10
41.6629023
20
11.8240159
40
15.4652846
50
164.9259304
51
166.0677906
0
ARC
8
DEFAULT_255_2_778
10
42.5928737
20
11.5740056
40
16.4282757
50
163.9565422
51
164.9274921
0
ARC
8
DEFAULT_255_2_778
10
43.6558376
20
11.2673481
40
17.5345896
50
162.7180077
51
163.9534496
0
ARC
8
DEFAULT_255_2_778
10
44.9524941
20
10.8639072
40
18.8925594
50
161.5073463
51
162.7179371
0
ARC
8
DEFAULT_255_2_778
10
46.2177858
20
10.4417101
40
20.226431
50
160.5534531
51
161.5099875
0
ARC
8
DEFAULT_255_2_778
10
47.4966755
20
9.9897253
40
21.5828413
50
159.5096124
51
160.5523305
0
ARC
8
DEFAULT_255_2_778
10
48.8136842
20
9.498397
40
22.9885137
50
158.6690988
51
159.5115483
0
ARC
8
DEFAULT_255_2_778
10
50.0728653
20
9.0066745
40
24.3403007
50
157.8499991
51
158.6690861
0
ARC
8
DEFAULT_255_2_778
10
25.8070476
20
18.9483875
40
1.8839736
50
336.0551473
51
336.2871215
0
ARC
8
DEFAULT_255_2_778
10
22.9890005
20
20.1878348
40
4.9625476
50
336.2696216
51
336.5145543
0
ARC
8
DEFAULT_255_2_778
10
20.253035
20
21.3770648
40
7.9457967
50
336.5117457
51
336.7938344
0
ARC
8
DEFAULT_255_2_778
10
17.4965679
20
22.5592583
40
10.9450787
50
336.7918177
51
337.1035232
0
ARC
8
DEFAULT_255_2_778
10
14.9859327
20
23.6201148
40
13.6706438
50
337.1015752
51
337.4054614
0
ARC
8
DEFAULT_255_2_778
10
12.884032
20
24.4951527
40
15.947413
50
337.4043463
51
337.6983051
0
ARC
8
DEFAULT_255_2_778
10
11.1161705
20
25.2205266
40
17.8583032
50
337.6975334
51
337.9814301
0
ARC
8
DEFAULT_255_2_778
10
9.6107069
20
25.8295477
40
19.4822882
50
337.9808667
51
338.2543532
0
ARC
8
DEFAULT_255_2_778
10
8.3629773
20
26.3273689
40
20.8256625
50
338.2540019
51
338.5174101
0
ARC
8
DEFAULT_255_2_778
10
7.0414394
20
26.8471426
40
22.2457425
50
338.5182011
51
338.8998878
0
ARC
8
DEFAULT_255_2_778
10
5.6932891
20
27.367437
40
23.6908085
50
338.8996997
51
339.3187309
0
ARC
8
DEFAULT_255_2_778
10
4.520971
20
27.8101364
40
24.9439297
50
339.3183973
51
339.7618884
0
ARC
8
DEFAULT_255_2_778
10
3.6404982
20
28.1350159
40
25.8824278
50
339.7613411
51
340.1645612
0
ARC
8
DEFAULT_255_2_778
10
3.0184736
20
28.3595838
40
26.5437487
50
340.1641743
51
340.5290713
0
ARC
8
DEFAULT_255_2_778
10
2.505594
20
28.5408234
40
27.0877094
50
340.5292465
51
341.0261998
0
ARC
8
DEFAULT_255_2_778
10
2.0844769
20
28.6856741
40
27.5330421
50
341.0260742
51
341.5887796
0
ARC
8
DEFAULT_255_2_778
10
1.8632251
20
28.75943
40
27.7662636
50
341.5885698
51
342.0281939
0
ARC
8
DEFAULT_255_2_778
10
1.8116167
20
28.7761734
40
27.8205201
50
342.0281882
51
342.71815
0
ARC
8
DEFAULT_255_2_778
10
1.9346809
20
28.7380678
40
27.6916916
50
342.7177908
51
343.4467013
0
ARC
8
DEFAULT_255_2_778
10
2.2253636
20
28.6516957
40
27.3884481
50
343.4466487
51
344.1064292
0
ARC
8
DEFAULT_255_2_778
10
2.6073683
20
28.5429516
40
26.991267
50
344.106375
51
344.7549379
0
ARC
8
DEFAULT_255_2_778
10
3.199474
20
28.3821972
40
26.3777275
50
344.7536442
51
345.7188988
0
ARC
8
DEFAULT_255_2_778
10
4.0683386
20
28.1614817
40
25.4812675
50
345.717918
51
346.8120699
0
ARC
8
DEFAULT_255_2_778
10
5.1220453
20
27.9149568
40
24.3991065
50
346.8111883
51
348.0104287
0
ARC
8
DEFAULT_255_2_778
10
6.4420678
20
27.6360973
40
23.0499512
50
348.0068571
51
349.5771978
0
ARC
8
DEFAULT_255_2_778
10
8.1389744
20
27.3261296
40
21.3249679
50
349.5714611
51
351.603187
0
ARC
8
DEFAULT_255_2_778
10
10.2298504
20
27.0210366
40
19.2119534
50
351.5927372
51
354.2943637
0
ARC
8
DEFAULT_255_2_778
10
13.2709521
20
26.737332
40
16.157725
50
354.2233008
51
359.6568413
0
ARC
8
DEFAULT_255_2_778
10
15.1378252
20
26.699124
40
14.2906822
50
359.7651981
51
359.9999981
0
ARC
8
DEFAULT_255_2_778
10
16.9736611
20
26.7343177
40
12.454896
50
359.8380975
51
7.3256981
0
ARC
8
DEFAULT_255_2_778
10
19.6179251
20
27.065626
40
9.7899752
50
7.3758232
51
14.6925767
0
ARC
8
DEFAULT_255_2_778
10
21.6223162
20
27.6133274
40
7.7122412
50
14.5334959
51
28.0865582
0
ARC
8
DEFAULT_255_2_778
10
22.6161078
20
28.1163506
40
6.5986994
50
28.2957827
51
37.690051
0
ARC
8
DEFAULT_255_2_778
10
22.791121
20
28.2444344
40
6.3818997
50
37.7407284
51
40.0706223
0
ARC
8
DEFAULT_255_2_778
10
27.175332
20
32.0314898
40
0.5938862
50
32.7381163
51
33.7671984
0
ARC
8
DEFAULT_255_2_778
10
24.7277734
20
30.409493
40
3.5301071
50
33.5719275
51
34.1579929
0
ARC
8
DEFAULT_255_2_778
10
22.6395158
20
28.9943321
40
6.0527046
50
34.1440465
51
34.7266224
0
ARC
8
DEFAULT_255_2_778
10
20.8875602
20
27.7808567
40
8.1838712
50
34.7217838
51
35.3237487
0
ARC
8
DEFAULT_255_2_778
10
19.4497699
20
26.7627488
40
9.9456272
50
35.3199916
51
35.9054915
0
ARC
8
DEFAULT_255_2_778
10
18.310465
20
25.9383717
40
11.3519035
50
35.9034123
51
36.4734358
0
ARC
8
DEFAULT_255_2_778
10
17.40841
20
25.2718591
40
12.4734835
50
36.4722317
51
37.0267704
0
ARC
8
DEFAULT_255_2_778
10
16.6974054
20
24.7358037
40
13.3639232
50
37.0259285
51
37.5647552
0
ARC
8
DEFAULT_255_2_778
10
16.0219956
20
24.2157755
40
14.2163358
50
37.5665256
51
38.3574037
0
ARC
8
DEFAULT_255_2_778
10
15.3964708
20
23.7209165
40
15.0139365
50
38.3568975
51
39.2380662
0
ARC
8
DEFAULT_255_2_778
10
14.9465408
20
23.3537227
40
15.5946843
50
39.2373314
51
40.1858005
0
ARC
8
DEFAULT_255_2_778
10
14.6755662
20
23.125258
40
15.949118
50
40.1846712
51
41.0602937
0
ARC
8
DEFAULT_255_2_778
10
14.5380303
20
23.0054955
40
16.1314888
50
41.0601597
51
42.2795856
0
ARC
8
DEFAULT_255_2_778
10
14.5387827
20
23.0065922
40
16.1301945
50
42.2785016
51
43.651401
0
ARC
8
DEFAULT_255_2_778
10
14.6855672
20
23.1470133
40
15.9270598
50
43.6503889
51
45.0942192
0
ARC
8
DEFAULT_255_2_778
10
14.9557693
20
23.4188077
40
15.543809
50
45.0923921
51
46.8077385
0
ARC
8
DEFAULT_255_2_778
10
15.3307203
20
23.8187502
40
14.995592
50
46.8062944
51
48.6686117
0
ARC
8
DEFAULT_255_2_778
10
15.8048322
20
24.35953
40
14.2764095
50
48.6640914
51
51.0437543
0
ARC
8
DEFAULT_255_2_778
10
16.3861384
20
25.0809517
40
13.3499304
50
51.0371532
51
54.0328871
0
ARC
8
DEFAULT_255_2_778
10
17.0290103
20
25.9702928
40
12.2525665
50
54.0234532
51
57.7988245
0
ARC
8
DEFAULT_255_2_778
10
17.6589779
20
26.9742509
40
11.0673296
50
57.7888042
51
62.4141346
0
ARC
8
DEFAULT_255_2_778
10
18.2149109
20
28.0453498
40
9.8605561
50
62.3951433
51
68.5203694
0
ARC
8
DEFAULT_255_2_778
10
18.6031822
20
29.0315265
40
8.8006981
50
68.5216472
51
75.5030848
0
ARC
8
DEFAULT_255_2_778
10
18.7847316
20
29.7222247
40
8.0865447
50
75.5234064
51
82.4388469
0
ARC
8
DEFAULT_255_2_778
10
18.8339227
20
30.0722933
40
7.7330479
50
82.4588506
51
88.7831327
0
ARC
8
DEFAULT_255_2_778
10
18.8371001
20
30.1509221
40
7.6543694
50
88.7944121
51
89.9999729
0
ARC
8
DEFAULT_255_2_778
10
18.8371148
20
30.153521
40
7.6517705
50
90.0000825
51
91.4890699
0
ARC
8
DEFAULT_255_2_778
10
18.8372915
20
30.1474605
40
7.6578336
50
91.4892137
51
92.7388549
0
ARC
8
DEFAULT_255_2_778
10
18.8381895
20
30.1289791
40
7.6763369
50
92.7389577
51
93.9950274
0
LINE
8
DEFAULT_255_2_778
10
24.8920799
20
10.7417633
11
27.9707799
21
9.1878633
0
LINE
8
DEFAULT_255_2_778
10
18.3033799
20
37.7866633
11
18.3033799
21
37.7872633
0
ARC
8
DEFAULT_255_2_778
10
9.7759452
20
25.7168648
40
2.1949144
50
267.0126782
51
269.6979872
0
ARC
8
DEFAULT_255_2_778
10
9.801825
20
27.8740394
40
4.3522195
50
269.5069829
51
270.0136354
0
ARC
8
DEFAULT_255_2_778
10
9.7970716
20
31.0231527
40
7.501335
50
270.0442182
51
270.6567812
0
ARC
8
DEFAULT_255_2_778
10
9.6336761
20
45.8712997
40
22.3503805
50
270.6393089
51
270.8052511
0
ARC
8
DEFAULT_255_2_778
10
10.140121
20
11.1449438
40
12.379677
50
90.3392512
51
90.8902109
0
ARC
8
DEFAULT_255_2_778
10
10.0824963
20
19.3177825
40
4.2066505
50
90.0032558
51
90.2135066
0
ARC
8
DEFAULT_255_2_778
10
9.1565342
20
11.7578943
40
11.8028979
50
83.9315002
51
85.5015662
0
ARC
8
DEFAULT_255_2_778
10
8.8103218
20
8.4711414
40
15.1078337
50
82.8066878
51
83.9436154
0
ARC
8
DEFAULT_255_2_778
10
8.214237
20
3.7936831
40
19.8231183
50
81.4498042
51
82.7902306
0
ARC
8
DEFAULT_255_2_778
10
7.1236671
20
-3.4825278
40
27.1806029
50
80.4591075
51
81.4568602
0
ARC
8
DEFAULT_255_2_778
10
5.389073
20
-13.821359
40
37.6639344
50
79.7528555
51
80.4637872
0
ARC
8
DEFAULT_255_2_778
10
2.4764641
20
-29.9644288
40
54.0676526
50
79.3312319
51
79.7588024
0
ARC
8
DEFAULT_255_2_778
10
-0.1853645
20
-44.1832357
40
68.53346
50
79.29749
51
79.3450477
0
ARC
8
DEFAULT_255_2_778
10
0.3697979
20
-41.2501436
40
65.5482911
50
79.2934656
51
79.2981906
0
ARC
8
DEFAULT_255_2_778
10
0.4261657
20
-40.9479302
40
65.2408668
50
79.2880624
51
79.2927997
0
ARC
8
DEFAULT_255_2_778
10
0.4825523
20
-40.6712403
40
64.958518
50
79.2868209
51
79.2915688
0
ARC
8
DEFAULT_255_2_778
10
0.5386238
20
-40.3707373
40
64.6528294
50
79.281381
51
79.2861412
0
ARC
8
DEFAULT_255_2_778
10
0.5945474
20
-40.0711284
40
64.3480469
50
79.2759181
51
79.2806907
0
ARC
8
DEFAULT_255_2_778
10
0.6504889
20
-39.7968278
40
64.0681277
50
79.2746428
51
79.2794262
0
ARC
8
DEFAULT_255_2_778
10
30.5236106
20
117.8704865
40
96.4042548
50
259.2692134
51
259.2726121
0
ARC
8
DEFAULT_255_2_778
10
0.7656734
20
-39.1980655
40
63.458389
50
79.2662441
51
79.2710522
0
ARC
8
DEFAULT_255_2_778
10
0.8209947
20
-38.9019571
40
63.157158
50
79.2607015
51
79.2655223
0
ARC
8
DEFAULT_255_2_778
10
0.8761682
20
-38.6067397
40
62.8568301
50
79.2551353
51
79.2599689
0
ARC
8
DEFAULT_255_2_778
10
30.3005833
20
116.4316666
40
94.9490748
50
259.2528526
51
259.2562737
0
ARC
8
DEFAULT_255_2_778
10
30.2421083
20
116.055359
40
94.5684636
50
259.2485792
51
259.2520062
0
ARC
8
DEFAULT_255_2_778
10
44.0718024
20
188.8084834
40
168.6243705
50
259.2454228
51
259.2473404
0
ARC
8
DEFAULT_255_2_778
10
43.9869914
20
188.2639736
40
168.0735991
50
259.2411132
51
259.2430326
0
ARC
8
DEFAULT_255_2_778
10
1.1648022
20
-37.1143253
40
61.3367702
50
79.2341089
51
79.2390067
0
ARC
8
DEFAULT_255_2_778
10
-4.484256
20
-66.8503817
40
91.6046558
50
79.2339416
51
79.2372141
0
ARC
8
DEFAULT_255_2_778
10
1.2724596
20
-36.5683819
40
60.7803264
50
79.2278205
51
79.2327421
0
LINE
8
DEFAULT_255_2_778
10
12.632566
20
23.1408809
11
12.6354908
21
23.1403245
0
LINE
8
DEFAULT_255_2_778
10
12.6354908
20
23.1403245
11
12.638412
21
23.1397686
0
LINE
8
DEFAULT_255_2_778
10
12.638412
20
23.1397686
11
12.6413296
21
23.1392133
0
ARC
8
DEFAULT_255_2_778
10
47.7596042
20
207.5845132
40
187.7587864
50
259.2199479
51
259.2217581
0
ARC
8
DEFAULT_255_2_778
10
1.4783094
20
-35.5167944
40
59.7087955
50
79.214046
51
79.2190146
0
ARC
8
DEFAULT_255_2_778
10
-0.113263
20
-43.8817767
40
68.2238427
50
79.2110536
51
79.2157026
0
ARC
8
DEFAULT_255_2_778
10
-0.049545
20
-43.5534922
40
67.8894336
50
79.2073542
51
79.2120154
0
ARC
8
DEFAULT_255_2_778
10
3.1772815
20
-26.6324311
40
50.6634441
50
79.2024693
51
79.2087009
0
ARC
8
DEFAULT_255_2_778
10
31.2372922
20
120.4819111
40
99.1030203
50
259.2007542
51
259.2040915
0
ARC
8
DEFAULT_255_2_778
10
0.1450749
20
-42.5632132
40
66.8802275
50
79.1979096
51
79.2026079
0
ARC
8
DEFAULT_255_2_778
10
0.2080346
20
-42.2390972
40
66.5500548
50
79.1941452
51
79.1988559
0
ARC
8
DEFAULT_255_2_778
10
44.8143105
20
191.4107662
40
171.3196125
50
259.190717
51
259.1926035
0
ARC
8
DEFAULT_255_2_778
10
3.4251925
20
-25.3987119
40
49.4051231
50
79.1845902
51
79.1909059
0
ARC
8
DEFAULT_255_2_778
10
3.4733243
20
-25.1582433
40
49.1598943
50
79.1807683
51
79.1871007
0
ARC
8
DEFAULT_255_2_778
10
30.268419
20
115.0393072
40
93.5752808
50
259.1794405
51
259.1828701
0
ARC
8
DEFAULT_255_2_778
10
46.4834575
20
199.8110295
40
179.883868
50
259.1773328
51
259.17917
0
ARC
8
DEFAULT_255_2_778
10
0.5909482
20
-40.2735989
40
64.5476177
50
79.1713728
51
79.176161
0
ARC
8
DEFAULT_255_2_778
10
0.652582
20
-39.9568186
40
64.224899
50
79.1674836
51
79.1722846
0
ARC
8
DEFAULT_255_2_778
10
28.9108684
20
107.7133974
40
86.1247715
50
259.1662934
51
259.1698653
0
ARC
8
DEFAULT_255_2_778
10
3.156672
20
-26.9061925
40
50.9362098
50
79.1628112
51
79.1690375
0
ARC
8
DEFAULT_255_2_778
10
45.9339122
20
196.5234972
40
176.5516329
50
259.1610802
51
259.16293
0
ARC
8
DEFAULT_255_2_778
10
0.1005759
20
-42.8908725
40
67.2104133
50
79.1565208
51
79.1612164
0
ARC
8
DEFAULT_255_2_778
10
44.7013683
20
189.902548
40
169.817027
50
259.15322
51
259.1551038
0
ARC
8
DEFAULT_255_2_778
10
0.2340145
20
-42.2114282
40
66.517997
50
79.1497761
51
79.1544975
0
ARC
8
DEFAULT_255_2_778
10
45.481922
20
193.8365644
40
173.8276457
50
259.1482008
51
259.1500613
0
ARC
8
DEFAULT_255_2_778
10
3.4666558
20
-25.3680157
40
49.3671806
50
79.1417781
51
79.1481085
0
ARC
8
DEFAULT_255_2_778
10
30.4408672
20
115.25651
40
93.8210356
50
259.141465
51
259.1448816
0
ARC
8
DEFAULT_255_2_778
10
30.2347021
20
114.1214363
40
92.6674468
50
259.1379023
51
259.1413394
0
ARC
8
DEFAULT_255_2_778
10
3.3220077
20
-26.1735935
40
50.1855843
50
79.1338327
51
79.1401137
0
ARC
8
DEFAULT_255_2_778
10
44.9074375
20
190.4513067
40
170.3947761
50
259.1329434
51
259.1348181
0
ARC
8
DEFAULT_255_2_778
10
44.7885024
20
189.7564911
40
169.6899976
50
259.130034
51
259.1319116
0
ARC
8
DEFAULT_255_2_778
10
44.6484545
20
188.9423107
40
168.8640154
50
259.1264908
51
259.128372
0
ARC
8
DEFAULT_255_2_778
10
3.2347485
20
-26.6845113
40
50.7037906
50
79.1207334
51
79.1269859
0
ARC
8
DEFAULT_255_2_778
10
3.2880451
20
-26.426277
40
50.4401385
50
79.1185528
51
79.1248221
0
ARC
8
DEFAULT_255_2_778
10
3.3411674
20
-26.1689307
40
50.1773912
50
79.1163611
51
79.1226475
0
ARC
8
DEFAULT_255_2_778
10
3.3941157
20
-25.9124713
40
49.9155475
50
79.1141585
51
79.1204619
0
ARC
8
DEFAULT_255_2_778
10
3.4468903
20
-25.6568976
40
49.6546062
50
79.1119448
51
79.1182653
0
ARC
8
DEFAULT_255_2_778
10
43.973269
20
184.9986851
40
164.8638358
50
259.1098798
51
259.1117787
0
ARC
8
DEFAULT_255_2_778
10
43.8497561
20
184.2938908
40
164.1483991
50
259.1076453
51
259.1095477
0
ARC
8
DEFAULT_255_2_778
10
43.7266594
20
183.5914559
40
163.4353585
50
259.1053995
51
259.1073053
0
ARC
8
DEFAULT_255_2_778
10
43.6039784
20
182.8913773
40
162.7247107
50
259.1031422
51
259.1050515
0
ARC
8
DEFAULT_255_2_778
10
43.4817113
20
182.1936444
40
162.0164451
50
259.1008735
51
259.1027862
0
ARC
8
DEFAULT_255_2_778
10
3.7597748
20
-24.1241281
40
48.0903266
50
79.0942516
51
79.1006794
0
ARC
8
DEFAULT_255_2_778
10
3.8106795
20
-23.8817568
40
47.842702
50
79.0927531
51
79.0991978
0
ARC
8
DEFAULT_255_2_778
10
3.8620746
20
-23.6332571
40
47.5889667
50
79.0904389
51
79.0969015
0
ARC
8
DEFAULT_255_2_778
10
0.92684
20
-38.883852
40
63.1194604
50
79.0893281
51
79.0941882
0
ARC
8
DEFAULT_255_2_778
10
3.9636948
20
-23.1458065
40
47.0910933
50
79.0865873
51
79.0930851
0
ARC
8
DEFAULT_255_2_778
10
4.0139238
20
-22.9068152
40
46.8469149
50
79.0850542
51
79.0915693
0
ARC
8
DEFAULT_255_2_778
10
42.6663197
20
177.4990844
40
157.252405
50
259.0828773
51
259.0848133
0
ARC
8
DEFAULT_255_2_778
10
42.5395499
20
176.791429
40
156.5335477
50
259.0813279
51
259.0832678
0
ARC
8
DEFAULT_255_2_778
10
42.4132081
20
176.086156
40
155.8171111
50
259.0797706
51
259.0817145
0
ARC
8
DEFAULT_255_2_778
10
70.2004418
20
320.0103743
40
302.3992064
50
259.0772199
51
259.0787182
0
ARC
8
DEFAULT_255_2_778
10
42.1030448
20
174.3472933
40
154.0509785
50
259.0754293
51
259.0773829
0
ARC
8
DEFAULT_255_2_778
10
41.978193
20
173.6503218
40
153.3429764
50
259.0738429
51
259.0758005
0
ARC
8
DEFAULT_255_2_778
10
4.3861787
20
-21.1133799
40
45.015434
50
79.0677504
51
79.074402
0
ARC
8
DEFAULT_255_2_778
10
69.2686739
20
314.8184477
40
297.1247871
50
259.0684878
51
259.0699953
0
ARC
8
DEFAULT_255_2_778
10
4.5075985
20
-20.5385001
40
44.4279604
50
79.0641153
51
79.0708118
0
ARC
8
DEFAULT_255_2_778
10
4.5559981
20
-20.3086624
40
44.1931147
50
79.0624802
51
79.069195
0
ARC
8
DEFAULT_255_2_778
10
267.6654996
20
1341.1276377
40
1342.4342358
50
259.061915
51
259.0623558
0
ARC
8
DEFAULT_255_2_778
10
41.0949
20
168.6605421
40
148.2762369
50
259.0585729
51
259.0605589
0
ARC
8
DEFAULT_255_2_778
10
28.0773094
20
101.2810097
40
79.6507389
50
259.0564829
51
259.0601704
0
ARC
8
DEFAULT_255_2_778
10
40.8450353
20
167.2803448
40
146.8737036
50
259.0560838
51
259.0580784
0
ARC
8
DEFAULT_255_2_778
10
40.7169262
20
166.5797639
40
146.1615425
50
259.0552561
51
259.0572552
0
ARC
8
DEFAULT_255_2_778
10
4.8882601
20
-18.7254456
40
42.5756131
50
79.0489359
51
79.0557814
0
ARC
8
DEFAULT_255_2_778
10
67.0512692
20
302.5814858
40
284.6893924
50
259.0505135
51
259.0520449
0
ARC
8
DEFAULT_255_2_778
10
5.0041638
20
-18.1848558
40
42.0228498
50
79.0468004
51
79.0536912
0
ARC
8
DEFAULT_255_2_778
10
66.5106496
20
299.6268027
40
281.6858125
50
259.0468966
51
259.0484343
0
ARC
8
DEFAULT_255_2_778
10
40.0155336
20
162.65661
40
142.1765845
50
259.0448533
51
259.0468769
0
ARC
8
DEFAULT_255_2_778
10
65.9749158
20
296.6985789
40
278.7091402
50
259.0432327
51
259.0447769
0
ARC
8
DEFAULT_255_2_778
10
39.70348
20
160.9503188
40
140.4420855
50
259.0426646
51
259.0447
0
ARC
8
DEFAULT_255_2_778
10
5.2781683
20
-16.8907476
40
40.7002534
50
79.0370377
51
79.0440428
0
ARC
8
DEFAULT_255_2_778
10
65.1905537
20
292.453812
40
274.3926701
50
259.039212
51
259.0407663
0
ARC
8
DEFAULT_255_2_778
10
5.3901119
20
-16.3729044
40
40.1705726
50
79.035658
51
79.0427095
0
ARC
8
DEFAULT_255_2_778
10
262.8245794
20
1312.5089314
40
1313.4170451
50
259.0363356
51
259.0367656
0
ARC
8
DEFAULT_255_2_778
10
38.9321451
20
156.7000142
40
136.1226574
50
259.0349176
51
259.0369824
0
ARC
8
DEFAULT_255_2_778
10
1885.6666417
20
9677.8737874
40
9834.7399943
50
259.023354
51
259.0251379
0
ARC
8
DEFAULT_255_2_778
10
35.493236
20
137.2234706
40
116.3476323
50
259.0263448
51
259.1518177
0
ARC
8
DEFAULT_255_2_778
10
22.4376107
20
69.0363943
40
46.9219423
50
259.1383949
51
259.5195128
0
ARC
8
DEFAULT_255_2_778
10
18.0855089
20
45.4949833
40
22.9816248
50
259.5127745
51
260.1822334
0
ARC
8
DEFAULT_255_2_778
10
16.3112699
20
35.2348993
40
12.5692647
50
260.1765653
51
261.1517811
0
ARC
8
DEFAULT_255_2_778
10
15.4664806
20
29.7959561
40
7.0651058
50
261.1366267
51
262.5626914
0
ARC
8
DEFAULT_255_2_778
10
15.0389525
20
26.494778
40
3.7363618
50
262.5109001
51
264.8703866
0
ARC
8
DEFAULT_255_2_778
10
14.8645101
20
24.5200629
40
1.753961
50
264.778471
51
268.6647602
0
ARC
8
DEFAULT_255_2_778
10
14.8428085
20
23.810195
40
1.0437928
50
268.9476831
51
269.9834221
0
ARC
8
DEFAULT_255_2_778
10
14.8425876
20
23.671111
40
0.9047087
50
269.9948647
51
270.6465647
0
ARC
8
DEFAULT_255_2_778
10
14.8435879
20
23.5816104
40
0.8152026
50
270.6472462
51
271.3474252
0
ARC
8
DEFAULT_255_2_778
10
14.7010255
20
29.0781007
40
6.3135394
50
271.4678873
51
275.3928532
0
ARC
8
DEFAULT_255_2_778
10
14.3996415
20
32.2918197
40
9.5413589
50
275.3809116
51
278.3342018
0
ARC
8
DEFAULT_255_2_778
10
13.4929861
20
38.4628921
40
15.7786786
50
278.3436542
51
280.5530169
0
ARC
8
DEFAULT_255_2_778
10
9.4659471
20
59.9111046
40
37.6016588
50
280.5999278
51
281.8924932
0
ARC
8
DEFAULT_255_2_778
10
-34.7418801
20
272.6021548
40
254.8383193
50
281.7639867
51
281.8286005
0
ARC
8
DEFAULT_255_2_778
10
57.6823266
20
-168.8395762
40
196.1750251
50
101.7628407
51
101.8206613
0
ARC
8
DEFAULT_255_2_778
10
25.4090589
20
-13.3575507
40
37.3790231
50
100.4937446
51
101.9179997
0
ARC
8
DEFAULT_255_2_778
10
21.5498255
20
7.3435276
40
16.3213177
50
98.3712618
51
100.4079577
0
ARC
8
DEFAULT_255_2_778
10
20.7005991
20
13.1065663
40
10.4960453
50
95.697842
51
98.3649524
0
ARC
8
DEFAULT_255_2_778
10
20.4850486
20
15.137873
40
8.4533843
50
95.149906
51
95.6109987
0
ARC
8
DEFAULT_255_2_778
10
20.8250756
20
9.3594537
40
14.2519389
50
92.2863405
51
93.2384684
0
ARC
8
DEFAULT_255_2_778
10
20.9267688
20
6.7612531
40
16.8521281
50
91.1154975
51
92.2794069
0
ARC
8
DEFAULT_255_2_778
10
20.9903069
20
3.5034526
40
20.110548
50
89.9847857
51
91.1157927
0
ARC
8
DEFAULT_255_2_778
10
20.9925046
20
0.5208446
40
23.0931554
50
89.1765349
51
89.9922034
0
ARC
8
DEFAULT_255_2_778
10
20.933516
20
-3.0274501
40
26.6419326
50
87.4895547
51
89.159357
0
ARC
8
DEFAULT_255_2_778
10
20.8608857
20
-4.8755251
40
28.4914166
50
86.4001445
51
87.5064226
0
ARC
8
DEFAULT_255_2_778
10
20.948579
20
-3.5089272
40
27.1220091
50
85.565732
51
86.403766
0
ARC
8
DEFAULT_255_2_778
10
21.1649618
20
-0.7159989
40
24.3207112
50
84.9088037
51
85.5652584
0
ARC
8
DEFAULT_255_2_778
10
21.4986228
20
3.0036031
40
20.5861748
50
84.1082099
51
84.9151006
0
ARC
8
DEFAULT_255_2_778
10
21.9443231
20
7.3225093
40
16.2443321
50
83.3340292
51
84.1082459
0
ARC
8
DEFAULT_255_2_778
10
22.4304198
20
11.468082
40
12.070358
50
82.4077311
51
83.3415715
0
ARC
8
DEFAULT_255_2_778
10
22.8155362
20
14.3813757
40
9.1317219
50
81.8621744
51
82.3878304
0
ARC
8
DEFAULT_255_2_778
10
23.1006823
20
16.365981
40
7.1267371
50
81.0604185
51
81.8729825
0
ARC
8
DEFAULT_255_2_778
10
23.4076191
20
18.3147006
40
5.1539933
50
80.1086274
51
81.0647683
0
ARC
8
DEFAULT_255_2_778
10
23.6734112
20
19.83805
40
3.6076302
50
79.0259286
51
80.1111527
0
ARC
8
DEFAULT_255_2_778
10
23.9137019
20
21.0710478
40
2.3514372
50
77.4247002
51
79.0546146
0
ARC
8
DEFAULT_255_2_778
10
24.1323141
20
22.0468551
40
1.3514422
50
75.1164366
51
77.4633907
0
ARC
8
DEFAULT_255_2_778
10
24.2835558
20
22.6176842
40
0.7609174
50
72.7138992
51
75.0823243
0
ARC
8
DEFAULT_255_2_778
10
21.9996468
20
15.3561464
40
8.3731524
50
71.8657765
51
72.5562785
0
ARC
8
DEFAULT_255_2_778
10
23.3481525
20
19.4675666
40
4.0462324
50
70.544414
51
71.8922561
0
ARC
8
DEFAULT_255_2_778
10
24.0040789
20
21.3199205
40
2.0811752
50
68.1951081
51
70.5856616
0
ARC
8
DEFAULT_255_2_778
10
24.3177344
20
22.107159
40
1.2337544
50
65.7229929
51
68.1392541
0
ARC
8
DEFAULT_255_2_778
10
24.5972084
20
22.7032302
40
0.5755711
50
53.9352219
51
66.6872236
0
ARC
8
DEFAULT_255_2_778
10
24.7605946
20
22.9385676
40
0.2892226
50
3.3722478
51
52.6534822
0
ARC
8
DEFAULT_255_2_778
10
23.6686552
20
22.7790042
40
1.3919069
50
1.5809044
51
7.2881392
0
ARC
8
DEFAULT_255_2_778
10
18.7896577
20
22.5809176
40
6.2748325
50
1.4585271
51
2.1598873
0
ARC
8
DEFAULT_255_2_778
10
22.5578109
20
22.6733064
40
2.5055511
50
0.0185902
51
1.5397823
0
ARC
8
DEFAULT_255_2_778
10
23.5403897
20
22.6515997
40
1.5231388
50
347.6668275
51
0.8471497
0
ARC
8
DEFAULT_255_2_778
10
24.4015838
20
22.4522663
40
0.6393335
50
318.0728426
51
348.6334555
0
ARC
8
DEFAULT_255_2_778
10
24.5351986
20
22.3552712
40
0.4754222
50
287.2091472
51
316.0096984
0
ARC
8
DEFAULT_255_2_778
10
24.8237614
20
21.4169065
40
0.5063112
50
106.9849739
51
150.2076058
0
ARC
8
DEFAULT_255_2_778
10
25.260425
20
21.1373977
40
1.024458
50
148.7753488
51
158.1506842
0
ARC
8
DEFAULT_255_2_778
10
26.1075424
20
20.7898257
40
1.9400921
50
157.9340481
51
162.8569057
0
ARC
8
DEFAULT_255_2_778
10
27.8002614
20
20.2630847
40
3.7128707
50
162.7890931
51
165.7580325
0
ARC
8
DEFAULT_255_2_778
10
29.5089842
20
19.8134088
40
5.4797265
50
165.5961771
51
165.6306852
0
ARC
8
DEFAULT_255_2_778
10
30.7034529
20
19.513598
40
6.7112346
50
165.6819182
51
166.8439565
0
ARC
8
DEFAULT_255_2_778
10
34.6301966
20
18.5926428
40
10.7445297
50
166.8277378
51
167.5199954
0
ARC
8
DEFAULT_255_2_778
10
38.1640005
20
17.8034285
40
14.3653849
50
167.4924139
51
167.507152
0
ARC
8
DEFAULT_255_2_778
10
41.27021
20
17.1158827
40
17.5467771
50
167.5093121
51
167.5213564
0
ARC
8
DEFAULT_255_2_778
10
38.1280134
20
17.8118315
40
14.3284321
50
167.5235791
51
167.5383023
0
ARC
8
DEFAULT_255_2_778
10
38.1078991
20
17.8163456
40
14.3078175
50
167.5385719
51
167.5532897
0
ARC
8
DEFAULT_255_2_778
10
38.0878127
20
17.8208635
40
14.2872294
50
167.5536201
51
167.5683323
0
ARC
8
DEFAULT_255_2_778
10
41.1939445
20
17.1368893
40
17.4677757
50
167.5707449
51
167.5827563
0
ARC
8
DEFAULT_255_2_778
10
41.1736181
20
17.1423469
40
17.4467515
50
167.5859061
51
167.5979098
0
ARC
8
DEFAULT_255_2_778
10
41.1361871
20
17.1496674
40
17.4086219
50
167.5949824
51
167.6069902
0
ARC
8
DEFAULT_255_2_778
10
41.1159382
20
17.155128
40
17.3876727
50
167.6102447
51
167.6222446
0
ARC
8
DEFAULT_255_2_778
10
37.9751161
20
17.8447315
40
14.1720364
50
167.6235367
51
167.6382319
0
ARC
8
DEFAULT_255_2_778
10
41.0699515
20
17.1668722
40
17.3402378
50
167.6395867
51
167.6515744
0
ARC
8
DEFAULT_255_2_778
10
41.0325599
20
17.1742099
40
17.3021422
50
167.6488308
51
167.6608222
0
ARC
8
DEFAULT_255_2_778
10
41.0125469
20
17.1796645
40
17.2814258
50
167.6643097
51
167.6762926
0
ARC
8
DEFAULT_255_2_778
10
40.9694634
20
17.1878401
40
17.2375902
50
167.6722764
51
167.684267
0
ARC
8
DEFAULT_255_2_778
10
40.949551
20
17.1932922
40
17.2169729
50
167.6878589
51
167.6998408
0
ARC
8
DEFAULT_255_2_778
10
40.923995
20
17.1995706
40
17.1906661
50
167.7021404
51
167.7141176
0
ARC
8
DEFAULT_255_2_778
10
40.8866887
20
17.2069206
40
17.1526503
50
167.71159
51
167.7235705
0
ARC
8
DEFAULT_255_2_778
10
40.8612403
20
17.2131937
40
17.12645
50
167.7259743
51
167.7379497
0
ARC
8
DEFAULT_255_2_778
10
45.734817
20
16.1532662
40
22.1139541
50
167.7361853
51
167.7454417
0
ARC
8
DEFAULT_255_2_778
10
45.7103693
20
16.1606405
40
22.0884982
50
167.750674
51
167.7599229
0
ARC
8
DEFAULT_255_2_778
10
40.7556917
20
17.2349963
40
17.0186789
50
167.7582394
51
167.7702199
0
ARC
8
DEFAULT_255_2_778
10
40.7127527
20
17.2431813
40
16.9749805
50
167.7665185
51
167.778506
0
ARC
8
DEFAULT_255_2_778
10
40.6875783
20
17.2494363
40
16.9490524
50
167.7811565
51
167.7931384
0
ARC
8
DEFAULT_255_2_778
10
40.6446977
20
17.2576189
40
16.9054113
50
167.7895147
51
167.8015035
0
ARC
8
DEFAULT_255_2_778
10
32.1312433
20
19.0970688
40
8.1955042
50
167.7947367
51
167.8194172
0
ARC
8
DEFAULT_255_2_778
10
40.5768443
20
17.2720407
40
16.8360425
50
167.8126967
51
167.8246865
0
ARC
8
DEFAULT_255_2_778
10
40.5340591
20
17.2802173
40
16.7924953
50
167.8211691
51
167.8331657
0
ARC
8
DEFAULT_255_2_778
10
45.3588579
20
16.2388946
40
21.7283878
50
167.830363
51
167.8396155
0
ARC
8
DEFAULT_255_2_778
10
45.3354176
20
16.2461518
40
21.7039447
50
167.8453089
51
167.8545529
0
ARC
8
DEFAULT_255_2_778
10
45.2851589
20
16.256715
40
21.6525887
50
167.8538985
51
167.8631454
0
ARC
8
DEFAULT_255_2_778
10
45.2266721
20
16.2685198
40
21.5929273
50
167.8611398
51
167.8703931
0
ARC
8
DEFAULT_255_2_778
10
45.1765279
20
16.2790678
40
21.5416862
50
167.8697974
51
167.8790536
0
ARC
8
DEFAULT_255_2_778
10
45.1264474
20
16.2896072
40
21.490509
50
167.8784904
51
167.8877493
0
ARC
8
DEFAULT_255_2_778
10
45.0952894
20
16.2980378
40
21.4582757
50
167.892302
51
167.9015554
0
ARC
8
DEFAULT_255_2_778
10
45.04538
20
16.3085535
40
21.407271
50
167.9010777
51
167.9103338
0
ARC
8
DEFAULT_255_2_778
10
44.9872296
20
16.320309
40
21.3479483
50
167.9084971
51
167.9177594
0
ARC
8
DEFAULT_255_2_778
10
44.937462
20
16.330804
40
21.2970865
50
167.9173432
51
167.9266079
0
ARC
8
DEFAULT_255_2_778
10
44.8794547
20
16.3425373
40
21.2379082
50
167.9248294
51
167.9341002
0
ARC
8
DEFAULT_255_2_778
10
53.7531439
20
14.4458926
40
30.3120265
50
167.9344442
51
167.9409259
0
ARC
8
DEFAULT_255_2_778
10
44.771984
20
16.3647187
40
21.1281751
50
167.9413004
51
167.9505797
0
ARC
8
DEFAULT_255_2_778
10
44.7142091
20
16.3764148
40
21.0692316
50
167.9488872
51
167.9581724
0
ARC
8
DEFAULT_255_2_778
10
53.5550523
20
14.4907254
40
30.1089402
50
167.9586127
51
167.9650962
0
ARC
8
DEFAULT_255_2_778
10
53.4846381
20
14.5063662
40
30.0368125
50
167.9662695
51
167.9727545
0
ARC
8
DEFAULT_255_2_778
10
53.4143806
20
14.5219794
40
29.9648439
50
167.97396
51
167.9804465
0
ARC
8
DEFAULT_255_2_778
10
44.4922791
20
16.4218119
40
20.8427138
50
167.9809805
51
167.9902855
0
ARC
8
DEFAULT_255_2_778
10
44.4349398
20
16.4334359
40
20.7842109
50
167.988738
51
167.9980488
0
ARC
8
DEFAULT_255_2_778
10
53.2187409
20
14.5663888
40
29.7642459
50
167.9986514
51
168.0051388
0
ARC
8
DEFAULT_255_2_778
10
53.0991638
20
14.5889756
40
29.6425859
50
167.9998092
51
168.0063089
0
ARC
8
DEFAULT_255_2_778
10
53.0296658
20
14.6044521
40
29.5713888
50
168.0076588
51
168.0141597
0
ARC
8
DEFAULT_255_2_778
10
52.9603474
20
14.6198965
40
29.5003742
50
168.0155434
51
168.0220455
0
ARC
8
DEFAULT_255_2_778
10
52.8912127
20
14.6353082
40
29.4295462
50
168.0234632
51
168.0299665
0
ARC
8
DEFAULT_255_2_778
10
52.8222651
20
14.6506863
40
29.3589084
50
168.0314185
51
168.0379229
0
ARC
8
DEFAULT_255_2_778
10
75.1544576
20
9.9213274
40
52.1863845
50
168.0401228
51
168.0437738
0
ARC
8
DEFAULT_255_2_778
10
74.9519904
20
9.9619894
40
51.979886
50
168.0413884
51
168.0450457
0
ARC
8
DEFAULT_255_2_778
10
52.5518925
20
14.7060363
40
29.082935
50
168.0472864
51
168.0538083
0
ARC
8
DEFAULT_255_2_778
10
52.4836172
20
14.7212891
40
29.012981
50
168.0553683
51
168.061891
0
ARC
8
DEFAULT_255_2_778
10
52.4155476
20
14.7365048
40
28.9432363
50
168.0634867
51
168.0700103
0
ARC
8
DEFAULT_255_2_778
10
52.2970853
20
14.758863
40
28.8227112
50
168.0648164
51
168.0713524
0
ARC
8
DEFAULT_255_2_778
10
74.4617001
20
10.0786392
40
51.4760693
50
168.0737141
51
168.0773654
0
ARC
8
DEFAULT_255_2_778
10
74.4003858
20
10.0957709
40
51.4125387
50
168.0819292
51
168.0855766
0
ARC
8
DEFAULT_255_2_778
10
52.0295658
20
14.8136622
40
28.5496414
50
168.0811353
51
168.0876884
0
ARC
8
DEFAULT_255_2_778
10
74.102915
20
10.1593512
40
51.1083503
50
168.0901314
51
168.0937836
0
ARC
8
DEFAULT_255_2_778
10
74.043218
20
10.1761793
40
51.046466
50
168.0984416
51
168.1020897
0
ARC
8
DEFAULT_255_2_778
10
51.7635924
20
14.8681612
40
28.278146
50
168.0976826
51
168.1042528
0
ARC
8
DEFAULT_255_2_778
10
73.7479528
20
10.2393206
40
50.7445267
50
168.1067791
51
168.1104319
0
ARC
8
DEFAULT_255_2_778
10
73.5480754
20
10.2794208
40
50.5406757
50
168.1082326
51
168.1118915
0
ARC
8
DEFAULT_255_2_778
10
51.4992418
20
14.9223445
40
28.0083033
50
168.1144633
51
168.1210504
0
ARC
8
DEFAULT_255_2_778
10
73.3970125
20
10.3185091
40
50.3848011
50
168.123662
51
168.127315
0
ARC
8
DEFAULT_255_2_778
10
73.197905
20
10.358444
40
50.1817372
50
168.1251647
51
168.1288238
0
ARC
8
DEFAULT_255_2_778
10
73.1055575
20
10.3808887
40
50.0867477
50
168.1322186
51
168.135876
0
ARC
8
DEFAULT_255_2_778
10
72.9070532
20
10.4206973
40
49.8842997
50
168.1337482
51
168.1374118
0
ARC
8
DEFAULT_255_2_778
10
72.8156298
20
10.4429603
40
49.7902522
50
168.1408572
51
168.1445189
0
ARC
8
DEFAULT_255_2_778
10
72.6177478
20
10.4826388
40
49.5884397
50
168.1424142
51
168.146082
0
ARC
8
DEFAULT_255_2_778
10
72.5272726
20
10.5047155
40
49.4953591
50
168.1495788
51
168.1532447
0
ARC
8
DEFAULT_255_2_778
10
72.330032
20
10.5442599
40
49.2942015
50
168.1511638
51
168.1548358
0
ARC
8
DEFAULT_255_2_778
10
72.2405311
20
10.5661453
40
49.2021141
50
168.1583848
51
168.1620549
0
ARC
8
DEFAULT_255_2_778
10
72.0439449
20
10.6055529
40
49.0016249
50
168.1599981
51
168.1636743
0
ARC
8
DEFAULT_255_2_778
10
71.9554483
20
10.6272412
40
48.9105613
50
168.1672764
51
168.1709505
0
ARC
8
DEFAULT_255_2_778
10
71.7595361
20
10.6665081
40
48.7107604
50
168.1689185
51
168.1725987
0
ARC
8
DEFAULT_255_2_778
10
71.5276296
20
10.7120145
40
48.4744502
50
168.1690619
51
168.172751
0
ARC
8
DEFAULT_255_2_778
10
284.8541806
20
-33.9319518
40
266.4223818
50
168.1786796
51
168.1793491
0
ARC
8
DEFAULT_255_2_778
10
71.2455787
20
10.7724869
40
48.1859925
50
168.1780928
51
168.1817859
0
ARC
8
DEFAULT_255_2_778
10
286.9932182
20
-34.342423
40
268.6001456
50
168.187779
51
168.1884398
0
ARC
8
DEFAULT_255_2_778
10
70.9653025
20
10.8326025
40
47.8993454
50
168.1872128
51
168.1909097
0
ARC
8
DEFAULT_255_2_778
10
285.4130455
20
-34.0091951
40
266.985222
50
168.189687
51
168.1903486
0
ARC
8
DEFAULT_255_2_778
10
288.0644741
20
-34.5307009
40
269.6872612
50
168.1971847
51
168.197838
0
ARC
8
DEFAULT_255_2_778
10
70.4574532
20
10.9373305
40
47.380812
50
168.1966387
51
168.2003483
0
ARC
8
DEFAULT_255_2_778
10
286.5097347
20
-34.2026826
40
268.0982991
50
168.1991537
51
168.1998076
0
ARC
8
DEFAULT_255_2_778
10
-28.9711504
20
31.6976937
40
54.1920185
50
348.2033686
51
348.2082111
0
ARC
8
DEFAULT_255_2_778
10
69.8575708
20
11.0604729
40
46.7684244
50
168.2070991
51
168.2108246
0
ARC
8
DEFAULT_255_2_778
10
287.5972064
20
-34.3903618
40
269.2011721
50
168.209661
51
168.2103066
0
ARC
8
DEFAULT_255_2_778
10
290.5158071
20
-34.9654408
40
272.1757045
50
168.2173337
51
168.2179706
0
ARC
8
DEFAULT_255_2_778
10
69.3580448
20
11.1634959
40
46.2583865
50
168.2168319
51
168.22057
0
ARC
8
DEFAULT_255_2_778
10
289.0239359
20
-34.65027
40
270.6509106
50
168.2194366
51
168.2200738
0
ARC
8
DEFAULT_255_2_778
10
287.826802
20
-34.4023307
40
269.428372
50
168.2197163
51
168.2203549
0
ARC
8
DEFAULT_255_2_778
10
291.8282518
20
-35.1943623
40
273.507246
50
168.2290565
51
168.2296839
0
ARC
8
DEFAULT_255_2_778
10
290.6302735
20
-34.9462984
40
272.2838552
50
168.2293627
51
168.2299913
0
ARC
8
DEFAULT_255_2_778
10
289.4352129
20
-34.6988403
40
271.0634443
50
168.2296705
51
168.2303004
0
ARC
8
DEFAULT_255_2_778
10
289.186425
20
-34.6409511
40
270.8080789
50
168.2315539
51
168.2321827
0
ARC
8
DEFAULT_255_2_778
10
34.619782
20
18.3907928
40
10.7762701
50
168.2280873
51
168.2438494
0
ARC
8
DEFAULT_255_2_778
10
292.2179606
20
-35.2307087
40
273.89618
50
168.2413604
51
168.2419789
0
LINE
8
DEFAULT_255_2_778
10
24.0689564
20
20.583529
11
24.0677536
21
20.5777504
0
ARC
8
DEFAULT_255_2_778
10
289.635469
20
-34.6894935
40
271.2575892
50
168.2439864
51
168.2446062
0
ARC
8
DEFAULT_255_2_778
10
288.453444
20
-34.4448034
40
270.050504
50
168.2443387
51
168.2449596
0
LINE
8
DEFAULT_255_2_778
10
24.0665597
20
20.5720128
11
24.0653701
21
20.5662939
0
ARC
8
DEFAULT_255_2_778
10
290.5593863
20
-34.8414943
40
272.1930999
50
168.2547496
51
168.2553608
0
ARC
8
DEFAULT_255_2_778
10
-38.1632667
20
33.4983472
40
63.5581718
50
348.2549409
51
348.2575514
0
ARC
8
DEFAULT_255_2_778
10
-137.6427102
20
54.1723086
40
165.1631536
50
348.2559391
51
348.2579443
0
ARC
8
DEFAULT_255_2_778
10
287.928402
20
-34.2832353
40
269.5035636
50
168.2595512
51
168.260162
0
ARC
8
DEFAULT_255_2_778
10
-321.2032279
20
92.2878
40
352.6391609
50
348.2618635
51
348.2626786
0
ARC
8
DEFAULT_255_2_778
10
320.1127774
20
-40.9545032
40
302.3720834
50
168.264292
51
168.2651029
0
ARC
8
DEFAULT_255_2_778
10
-78.9950316
20
41.9439273
40
105.2542075
50
348.2657877
51
348.2684951
0
ARC
8
DEFAULT_255_2_778
10
44.9585348
20
16.1962159
40
21.3452841
50
168.2632561
51
168.2746441
0
ARC
8
DEFAULT_255_2_778
10
-60.2837928
20
38.0409652
40
86.1402525
50
348.269896
51
348.2736446
0
ARC
8
DEFAULT_255_2_778
10
-16708.3366943
20
3490.147648
40
17088.3373415
50
348.2845783
51
348.2852027
0
ARC
8
DEFAULT_255_2_778
10
-56.8042333
20
37.1070313
40
82.5435404
50
348.1268263
51
348.2843359
0
ARC
8
DEFAULT_255_2_778
10
-25.5174694
20
30.53375
40
50.5737172
50
347.8908982
51
348.1217528
0
ARC
8
DEFAULT_255_2_778
10
-16.3593111
20
28.5699072
40
41.2073655
50
347.5869066
51
347.8895143
0
ARC
8
DEFAULT_255_2_778
10
19.4786613
20
20.6164041
40
4.4979516
50
336.691224
51
348.4008808
0
ARC
8
DEFAULT_255_2_778
10
21.2341565
20
19.8666472
40
2.5890685
50
313.7076893
51
336.5571379
0
ARC
8
DEFAULT_255_2_778
10
21.2195397
20
19.9114651
40
2.6316451
50
301.7621112
51
313.2634922
0
ARC
8
DEFAULT_255_2_778
10
20.9051971
20
20.4178538
40
3.2276656
50
293.421458
51
301.7746648
0
ARC
8
DEFAULT_255_2_778
10
20.5432696
20
21.2474884
40
4.132807
50
287.1272151
51
293.453816
0
ARC
8
DEFAULT_255_2_778
10
20.1934575
20
22.3709672
40
5.309482
50
282.4333133
51
287.1643473
0
ARC
8
DEFAULT_255_2_778
10
19.8745813
20
23.8100206
40
6.7834408
50
278.5046697
51
282.4465319
0
ARC
8
DEFAULT_255_2_778
10
19.5962153
20
25.6590335
40
8.6532893
50
275.2296455
51
278.5169485
0
ARC
8
DEFAULT_255_2_778
10
19.4486212
20
27.1583981
40
10.1598708
50
274.2929986
51
275.2878211
0
ARC
8
DEFAULT_255_2_778
10
20.0437402
20
18.3445661
40
1.3278765
50
270.7112967
51
277.1560796
0
ARC
8
DEFAULT_255_2_778
10
19.9885249
20
20.4569555
40
3.4409107
50
269.9230867
51
271.193983
0
ARC
8
DEFAULT_255_2_778
10
19.9913405
20
26.7437601
40
9.727715
50
269.6368047
51
269.9562104
0
ARC
8
DEFAULT_255_2_778
10
19.8692213
20
7.8441051
40
9.1723347
50
89.622353
51
89.9310624
0
ARC
8
DEFAULT_255_2_778
10
19.7264796
20
22.4011142
40
5.3868764
50
270.8369929
51
271.635829
0
ARC
8
DEFAULT_255_2_778
10
19.7286434
20
22.2542947
40
5.240041
50
270.028159
51
270.8367872
0
LINE
8
DEFAULT_255_2_778
10
19.7312187
20
17.0142543
11
19.7288514
21
17.0142538
0
ARC
8
DEFAULT_255_2_778
10
19.7246527
20
21.8374441
40
4.8231921
50
265.6276357
51
270.0498773
0
ARC
8
DEFAULT_255_2_778
10
19.6795121
20
21.2498269
40
4.2338436
50
260.7001379
51
265.6304821
0
ARC
8
DEFAULT_255_2_778
10
19.600649
20
20.7711019
40
3.7486665
50
254.9017171
51
260.7072285
0
ARC
8
DEFAULT_255_2_778
10
19.5035884
20
20.4104131
40
3.3751466
50
248.5501773
51
254.8976336
0
ARC
8
DEFAULT_255_2_778
10
19.4138253
20
20.1803412
40
3.1281847
50
241.865131
51
248.5394044
0
ARC
8
DEFAULT_255_2_778
10
19.3546831
20
20.0682528
40
3.0014524
50
234.6644743
51
241.8517453
0
ARC
8
DEFAULT_255_2_778
10
19.354064
20
20.0655988
40
2.9989294
50
227.3354709
51
234.6447977
0
ARC
8
DEFAULT_255_2_778
10
19.4379822
20
20.1555473
40
3.1219436
50
220.8578319
51
227.3217174
0
ARC
8
DEFAULT_255_2_778
10
19.5970045
20
20.2936168
40
3.3325406
50
216.3152106
51
220.8646555
0
ARC
8
DEFAULT_255_2_778
10
19.8182742
20
20.4562624
40
3.6071566
50
212.6526421
51
216.315421
0
ARC
8
DEFAULT_255_2_778
10
20.1447876
20
20.6656874
40
3.995061
50
209.9676638
51
212.6549128
0
ARC
8
DEFAULT_255_2_778
10
20.7127512
20
20.9928553
40
4.650516
50
208.018761
51
209.9642608
0
ARC
8
DEFAULT_255_2_778
10
22.1849931
20
21.7748663
40
6.3175601
50
206.7931987
51
208.0074528
0
ARC
8
DEFAULT_255_2_778
10
35.5037665
20
28.4899248
40
21.2333806
50
206.4692348
51
206.7672964
0
ARC
8
DEFAULT_255_2_778
10
7.4976676
20
14.5301306
40
10.0590756
50
26.5469389
51
26.7316837
0
ARC
8
DEFAULT_255_2_778
10
19.7595744
20
20.6262972
40
3.6351396
50
195.4963374
51
205.6134942
0
ARC
8
DEFAULT_255_2_778
10
24.1829285
20
21.9910395
40
8.2633966
50
196.2774732
51
196.4207286
0
ARC
8
DEFAULT_255_2_778
10
35.0205186
20
25.0930364
40
19.5361167
50
195.2719534
51
196.1014874
0
ARC
8
DEFAULT_255_2_778
10
-31.8501388
20
6.673852
40
49.8249718
50
15.4501361
51
15.4715942
0
ARC
8
DEFAULT_255_2_778
10
10.3139831
20
18.4209048
40
6.0555554
50
14.7747587
51
19.4838167
0
ARC
8
DEFAULT_255_2_778
10
14.2697044
20
19.8236215
40
1.858495
50
19.3914024
51
32.3831178
0
ARC
8
DEFAULT_255_2_778
10
15.0038238
20
20.2932701
40
0.9870142
50
32.183813
51
65.1354853
0
ARC
8
DEFAULT_255_2_778
10
14.9539919
20
20.1600242
40
1.1289136
50
65.6843267
51
78.8965634
0
ARC
8
DEFAULT_255_2_778
10
14.8688907
20
19.7355474
40
1.5618346
50
78.831919
51
88.0201901
0
ARC
8
DEFAULT_255_2_778
10
14.8463169
20
19.3266295
40
1.9713063
50
87.7750758
51
90.0201607
0
ARC
8
DEFAULT_255_2_778
10
14.8455079
20
19.3914671
40
1.9064685
50
89.9965354
51
90.0946873
0
ARC
8
DEFAULT_255_2_778
10
14.8379729
20
19.5718373
40
1.7261014
50
89.8544639
51
98.3849264
0
ARC
8
DEFAULT_255_2_778
10
14.7682597
20
20.0347904
40
1.257932
50
98.3184784
51
110.5150304
0
ARC
8
DEFAULT_255_2_778
10
14.6878004
20
20.2533779
40
1.0250108
50
110.5847972
51
131.118361
0
ARC
8
DEFAULT_255_2_778
10
14.9514495
20
19.9976002
40
1.391414
50
132.3709745
51
154.5605824
0
ARC
8
DEFAULT_255_2_778
10
16.8893759
20
19.0292023
40
3.5576691
50
153.8833065
51
161.1955504
0
ARC
8
DEFAULT_255_2_778
10
25.0630229
20
16.1237213
40
12.2321394
50
160.6535443
51
161.6670013
0
ARC
8
DEFAULT_255_2_778
10
-16.9740955
20
30.0269963
40
32.044498
50
341.2273972
51
341.711192
0
ARC
8
DEFAULT_255_2_778
10
3.7431981
20
23.0131513
40
10.1721848
50
340.8593235
51
341.0789045
0
ARC
8
DEFAULT_255_2_778
10
9.5297342
20
20.9370497
40
4.0253279
50
332.2617299
51
341.7701488
0
ARC
8
DEFAULT_255_2_778
10
10.9284356
20
20.2468032
40
2.466423
50
330.2957342
51
331.3306905
0
ARC
8
DEFAULT_255_2_778
10
1.9545933
20
25.3735121
40
12.8014595
50
329.8374175
51
330.2676113
0
ARC
8
DEFAULT_255_2_778
10
7.8037523
20
21.9761599
40
6.0372405
50
328.6497133
51
329.822419
0
ARC
8
DEFAULT_255_2_778
10
8.8489227
20
21.3404824
40
4.8139393
50
326.9353229
51
328.6390096
0
ARC
8
DEFAULT_255_2_778
10
9.2627995
20
21.0712945
40
4.3202227
50
324.6280502
51
326.9325271
0
ARC
8
DEFAULT_255_2_778
10
9.4995831
20
20.9031362
40
4.0298029
50
321.5531408
51
324.6287376
0
ARC
8
DEFAULT_255_2_778
10
9.6617245
20
20.7744373
40
3.8227926
50
317.8436801
51
321.5528028
0
ARC
8
DEFAULT_255_2_778
10
9.7566939
20
20.689286
40
3.6952405
50
315.3784742
51
317.8341417
0
ARC
8
DEFAULT_255_2_778
10
9.8360485
20
20.6098293
40
3.582947
50
309.6693977
51
315.3914901
0
ARC
8
DEFAULT_255_2_778
10
9.8903045
20
20.5451835
40
3.4985517
50
303.3857601
51
309.661275
0
ARC
8
DEFAULT_255_2_778
10
9.8847439
20
20.5549968
40
3.5098055
50
296.7515521
51
303.3734028
0
ARC
8
DEFAULT_255_2_778
10
9.8301776
20
20.664812
40
3.6324283
50
290.3873971
51
296.7404416
0
ARC
8
DEFAULT_255_2_778
10
9.7486697
20
20.885457
40
3.8676465
50
284.4688035
51
290.3805364
0
ARC
8
DEFAULT_255_2_778
10
9.6608722
20
21.227482
40
4.2207603
50
278.8595837
51
284.4627907
0
ARC
8
DEFAULT_255_2_778
10
9.5873778
20
21.6988525
40
4.6978259
50
273.7965578
51
278.8598289
0
ARC
8
DEFAULT_255_2_778
10
9.5497916
20
22.2429546
40
5.2432228
50
269.9665082
51
273.8126926
0
LINE
8
DEFAULT_255_2_778
10
9.5467268
20
16.9997328
11
9.5448573
21
16.9997331
0
ARC
8
DEFAULT_255_2_778
10
9.640672
20
20.7904182
40
3.7918958
50
266.0396931
51
268.5520797
0
ARC
8
DEFAULT_255_2_778
10
9.1437228
20
13.6231405
40
3.3925894
50
86.0269953
51
89.5670678
0
ARC
8
DEFAULT_255_2_778
10
9.8178923
20
26.2526136
40
9.2597195
50
262.9957298
51
265.9838131
0
ARC
8
DEFAULT_255_2_778
10
9.5626446
20
24.1991743
40
7.1904798
50
259.1450159
51
263.0191531
0
ARC
8
DEFAULT_255_2_778
10
9.2381092
20
22.5186896
40
5.4789468
50
254.2844976
51
259.1685777
0
ARC
8
DEFAULT_255_2_778
10
8.8758798
20
21.2388511
40
4.1488374
50
248.1015024
51
254.3125392
0
ARC
8
DEFAULT_255_2_778
10
8.5087624
20
20.3299066
40
3.1685557
50
240.1275969
51
248.130893
0
ARC
8
DEFAULT_255_2_778
10
8.1739057
20
19.7499212
40
2.4988475
50
229.021718
51
240.1618331
0
ARC
8
DEFAULT_255_2_778
10
7.9887499
20
19.5298688
40
2.2113014
50
210.9469641
51
228.904615
0
ARC
8
DEFAULT_255_2_778
10
8.733763
20
19.9196979
40
3.0511147
50
191.2225917
51
210.030821
0
ARC
8
DEFAULT_255_2_778
10
11.2435184
20
20.5157787
40
5.6297123
50
188.4940434
51
192.2020239
0
ARC
8
DEFAULT_255_2_778
10
39.7297767
20
24.9238355
40
34.4549458
50
188.7415867
51
188.7469705
0
ARC
8
DEFAULT_255_2_778
10
39.5129772
20
24.8917988
40
34.235796
50
188.7383334
51
188.743736
0
ARC
8
DEFAULT_255_2_778
10
39.2972138
20
24.8599258
40
34.0176949
50
188.7350611
51
188.7404828
0
ARC
8
DEFAULT_255_2_778
10
39.0824833
20
24.8282159
40
33.8006394
50
188.7317699
51
188.7372106
0
ARC
8
DEFAULT_255_2_778
10
-22.1294298
20
15.4306729
40
28.1284503
50
8.7238473
51
8.7303664
0
ARC
8
DEFAULT_255_2_778
10
38.6096234
20
24.7533291
40
33.3218915
50
188.7169375
51
188.7224248
0
ARC
8
DEFAULT_255_2_778
10
29.1081255
20
23.2976428
40
23.7095307
50
188.7119273
51
188.7196171
0
ARC
8
DEFAULT_255_2_778
10
38.1851872
20
24.6901169
40
32.8927781
50
188.7090771
51
188.714604
0
ARC
8
DEFAULT_255_2_778
10
28.8209496
20
23.2567769
40
23.4194785
50
188.7040162
51
188.7117566
0
ARC
8
DEFAULT_255_2_778
10
-119.0033521
20
0.6332395
40
126.125995
50
8.7007094
51
8.7028587
0
ARC
8
DEFAULT_255_2_778
10
37.4503527
20
24.5803137
40
32.1497901
50
188.6942734
51
188.6998716
0
ARC
8
DEFAULT_255_2_778
10
28.3250479
20
23.1859626
40
22.9185712
50
188.6891199
51
188.6969505
0
ARC
8
DEFAULT_255_2_778
10
28.1849712
20
23.1658533
40
22.7770642
50
188.6844916
51
188.6923483
0
ARC
8
DEFAULT_255_2_778
10
28.0455508
20
23.1458477
40
22.6362215
50
188.6798367
51
188.6877197
0
ARC
8
DEFAULT_255_2_778
10
27.906783
20
23.1259452
40
22.4960395
50
188.675155
51
188.6830644
0
ARC
8
DEFAULT_255_2_778
10
-116.7630717
20
1.0616651
40
123.8467067
50
8.6709835
51
8.6731319
0
ARC
8
DEFAULT_255_2_778
10
27.5630415
20
23.0762532
40
22.1487352
50
188.6622118
51
188.670188
0
ARC
8
DEFAULT_255_2_778
10
27.426537
20
23.0567097
40
22.0108443
50
188.6574318
51
188.665435
0
ARC
8
DEFAULT_255_2_778
10
35.7093587
20
24.3186857
40
30.3892522
50
188.6531863
51
188.6589664
0
ARC
8
DEFAULT_255_2_778
10
27.1558356
20
23.0175519
40
21.7373331
50
188.64666
51
188.6547178
0
ARC
8
DEFAULT_255_2_778
10
-13.4244357
20
16.8473038
40
19.3093522
50
8.6444645
51
8.6535095
0
ARC
8
DEFAULT_255_2_778
10
-400.203021
20
-41.9367977
40
410.5295515
50
8.6424447
51
8.6430809
0
ARC
8
DEFAULT_255_2_778
10
26.7041737
20
22.9551362
40
21.281421
50
188.6347156
51
188.6428642
0
ARC
8
DEFAULT_255_2_778
10
26.5721131
20
22.9358605
40
21.1479632
50
188.628624
51
188.6368007
0
ARC
8
DEFAULT_255_2_778
10
-404.7901185
20
-42.5082374
40
415.1504494
50
8.6267474
51
8.6273703
0
ARC
8
DEFAULT_255_2_778
10
-19.0126212
20
16.0276432
40
24.9572582
50
8.618281
51
8.6251605
0
ARC
8
DEFAULT_255_2_778
10
-407.4615925
20
-42.8308464
40
417.8400968
50
8.6165668
51
8.6171813
0
ARC
8
DEFAULT_255_2_778
10
25.9365809
20
22.8461005
40
20.5061569
50
188.6052603
51
188.6135738
0
ARC
8
DEFAULT_255_2_778
10
-411.1553012
20
-43.3004336
40
421.5624772
50
8.6054692
51
8.6060739
0
ARC
8
DEFAULT_255_2_778
10
25.6322413
20
22.8044388
40
20.1990098
50
188.5965825
51
188.6049626
0
ARC
8
DEFAULT_255_2_778
10
25.5056762
20
22.7856226
40
20.0710541
50
188.5890681
51
188.5974778
0
ARC
8
DEFAULT_255_2_778
10
25.3946168
20
22.7722863
40
19.9592489
50
188.5903944
51
188.5988272
0
ARC
8
DEFAULT_255_2_778
10
25.2691907
20
22.7536499
40
19.8324461
50
188.5828202
51
188.5912829
0
ARC
8
DEFAULT_255_2_778
10
-418.0485619
20
-44.1601108
40
428.5068016
50
8.5833774
51
8.5839631
0
ARC
8
DEFAULT_255_2_778
10
24.9728947
20
22.7128014
40
19.5333721
50
188.5726673
51
188.5811989
0
ARC
8
DEFAULT_255_2_778
10
-17.5879538
20
16.2976198
40
23.50824
50
8.5707989
51
8.5778679
0
ARC
8
DEFAULT_255_2_778
10
-424.6348213
20
-45.0236001
40
435.1481847
50
8.5677111
51
8.5682822
0
ARC
8
DEFAULT_255_2_778
10
-427.3458458
20
-45.3781999
40
437.8817858
50
8.5613123
51
8.5618774
0
ARC
8
DEFAULT_255_2_778
10
24.3908734
20
22.6323153
40
18.9458553
50
188.5507324
51
188.559405
0
ARC
8
DEFAULT_255_2_778
10
24.2850459
20
22.619314
40
18.8392715
50
188.5507889
51
188.559486
0
ARC
8
DEFAULT_255_2_778
10
24.1649474
20
22.6015319
40
18.7178638
50
188.5428942
51
188.5516231
0
ARC
8
DEFAULT_255_2_778
10
24.0605132
20
22.5883376
40
18.6126286
50
188.541731
51
188.5504845
0
ARC
8
DEFAULT_255_2_778
10
-16.6510314
20
16.4749037
40
22.5553679
50
8.5385538
51
8.5457568
0
ARC
8
DEFAULT_255_2_778
10
23.8376284
20
22.558006
40
18.3877109
50
188.5337748
51
188.5425855
0
ARC
8
DEFAULT_255_2_778
10
-16.4266934
20
16.5179358
40
22.3271275
50
8.5293581
51
8.5365938
0
ARC
8
DEFAULT_255_2_778
10
23.6171958
20
22.5276559
40
18.1652151
50
188.5245176
51
188.5333862
0
ARC
8
DEFAULT_255_2_778
10
23.515158
20
22.5148046
40
18.0623998
50
188.5232875
51
188.5321815
0
ARC
8
DEFAULT_255_2_778
10
-16.0805371
20
16.5819987
40
21.9752983
50
8.5200275
51
8.5273173
0
ARC
8
DEFAULT_255_2_778
10
23.2977006
20
22.484903
40
17.8429121
50
188.5138925
51
188.5228454
0
ARC
8
DEFAULT_255_2_778
10
-15.8673808
20
16.623668
40
21.7583212
50
8.5093754
51
8.5166967
0
ARC
8
DEFAULT_255_2_778
10
23.0822398
20
22.4553076
40
17.6254442
50
188.5043901
51
188.5134027
0
ARC
8
DEFAULT_255_2_778
10
22.9825436
20
22.4427924
40
17.5249936
50
188.5030864
51
188.5121253
0
ARC
8
DEFAULT_255_2_778
10
-15.5348654
20
16.6859357
40
21.4202526
50
8.4985101
51
8.5058845
0
ARC
8
DEFAULT_255_2_778
10
-15.4202861
20
16.7063428
40
21.3039154
50
8.4971837
51
8.5045777
0
ARC
8
DEFAULT_255_2_778
10
22.6720836
20
22.4010023
40
17.2117668
50
188.4908596
51
188.4999858
0
ARC
8
DEFAULT_255_2_778
10
22.5741958
20
22.3887433
40
17.113142
50
188.4895031
51
188.4986562
0
ARC
8
DEFAULT_255_2_778
10
-15.0997255
20
16.7671171
40
20.9778941
50
8.4848486
51
8.4922946
0
ARC
8
DEFAULT_255_2_778
10
18.8129756
20
21.8297944
40
13.310617
50
188.4765594
51
188.4882616
0
ARC
8
DEFAULT_255_2_778
10
22.269725
20
22.3474715
40
16.8059142
50
188.4757743
51
188.4850168
0
ARC
8
DEFAULT_255_2_778
10
22.1736126
20
22.3354651
40
16.709082
50
188.4743596
51
188.4836297
0
ARC
8
DEFAULT_255_2_778
10
-24.8452654
20
15.3321925
40
30.8284897
50
8.4702495
51
8.4752599
0
ARC
8
DEFAULT_255_2_778
10
-14.5735425
20
16.865783
40
20.4429142
50
8.4669288
51
8.4744635
0
ARC
8
DEFAULT_255_2_778
10
18.4363039
20
21.7831561
40
12.9311853
50
188.458459
51
188.4703373
0
ARC
8
DEFAULT_255_2_778
10
21.7806679
20
22.2829542
40
16.3126887
50
188.4576093
51
188.4669992
0
ARC
8
DEFAULT_255_2_778
10
21.6871388
20
22.2709547
40
16.218412
50
188.4548574
51
188.4642755
0
ARC
8
DEFAULT_255_2_778
10
18.2185916
20
21.7572952
40
12.7120377
50
188.4514565
51
188.4634389
0
ARC
8
DEFAULT_255_2_778
10
21.5009134
20
22.2474308
40
16.0307519
50
188.4505788
51
188.4600542
0
ARC
8
DEFAULT_255_2_778
10
-13.9627778
20
16.9807667
40
19.8218792
50
8.4444281
51
8.4520698
0
ARC
8
DEFAULT_255_2_778
10
-13.8612286
20
16.9994954
40
19.7186804
50
8.4416113
51
8.4492716
0
ARC
8
DEFAULT_255_2_778
10
-13.7601232
20
17.018146
40
19.6159322
50
8.4387788
51
8.4464579
0
ARC
8
DEFAULT_255_2_778
10
-13.6594594
20
17.0367188
40
19.5136325
50
8.4359306
51
8.4436285
0
ARC
8
DEFAULT_255_2_778
10
-13.5592354
20
17.0552142
40
19.4117794
50
8.4330665
51
8.4407833
0
ARC
8
DEFAULT_255_2_778
10
-13.4594492
20
17.0736325
40
19.310371
50
8.4301864
51
8.4379222
0
ARC
8
DEFAULT_255_2_778
10
20.8504238
20
22.1615788
40
15.3747063
50
188.4219629
51
188.431652
0
ARC
8
DEFAULT_255_2_778
10
17.5801345
20
21.678967
40
12.0689987
50
188.4170906
51
188.4293992
0
ARC
8
DEFAULT_255_2_778
10
17.5113771
20
21.6707816
40
11.999784
50
188.4141389
51
188.4264842
0
ARC
8
DEFAULT_255_2_778
10
20.5838832
20
22.1272533
40
15.1060129
50
188.411821
51
188.4216006
0
ARC
8
DEFAULT_255_2_778
10
-22.283657
20
15.7865601
40
28.2279275
50
8.4148895
51
8.4201085
0
ARC
8
DEFAULT_255_2_778
10
-12.8813772
20
17.1816965
40
18.722705
50
8.4099474
51
8.4177942
0
ARC
8
DEFAULT_255_2_778
10
-22.0009076
20
15.8371724
40
27.9408157
50
8.4076006
51
8.4128441
0
ARC
8
DEFAULT_255_2_778
10
-12.6939481
20
17.2169821
40
18.5321308
50
8.4026119
51
8.4104956
0
ARC
8
DEFAULT_255_2_778
10
-21.7206166
20
15.8873589
40
27.6561993
50
8.4002304
51
8.4054985
0
ARC
8
DEFAULT_255_2_778
10
-12.5081494
20
17.2519758
40
18.343213
50
8.3951943
51
8.4031152
0
ARC
8
DEFAULT_255_2_778
10
-12.4187132
20
17.2691554
40
18.2522267
50
8.3907932
51
8.3987317
0
ARC
8
DEFAULT_255_2_778
10
16.916548
20
21.6009719
40
11.4011405
50
188.3891678
51
188.4018414
0
ARC
8
DEFAULT_255_2_778
10
16.8517542
20
21.5930696
40
11.3358872
50
188.3847222
51
188.3974336
0
ARC
8
DEFAULT_255_2_778
10
16.7872467
20
21.5852078
40
11.2709228
50
188.3802521
51
188.3930015
0
ARC
8
DEFAULT_255_2_778
10
16.7230242
20
21.5773863
40
11.2062462
50
188.3757574
51
188.388545
0
ARC
8
DEFAULT_255_2_778
10
-20.7513926
20
16.0580775
40
26.6724375
50
8.379517
51
8.3848748
0
ARC
8
DEFAULT_255_2_778
10
-20.6205815
20
16.081983
40
26.5395391
50
8.3749982
51
8.3803681
0
ARC
8
DEFAULT_255_2_778
10
-20.4903401
20
16.1057882
40
26.4072193
50
8.3704544
51
8.3758363
0
ARC
8
DEFAULT_255_2_778
10
16.474233
20
21.5490472
40
10.955981
50
188.3666975
51
188.3796338
0
ARC
8
DEFAULT_255_2_778
10
19.2492537
20
21.9587205
40
13.7610782
50
188.3627781
51
188.373049
0
ARC
8
DEFAULT_255_2_778
10
-11.5079227
20
17.4369826
40
17.326701
50
8.363852
51
8.3719869
0
ARC
8
DEFAULT_255_2_778
10
-19.9552667
20
16.1993191
40
25.8642306
50
8.3599067
51
8.3653413
0
ARC
8
DEFAULT_255_2_778
10
19.0177108
20
21.9306839
40
13.5279198
50
188.3567526
51
188.3671146
0
ARC
8
DEFAULT_255_2_778
10
16.1699886
20
21.5135681
40
10.6498117
50
188.3500299
51
188.3631562
0
ARC
8
DEFAULT_255_2_778
10
-19.5550964
20
16.2682732
40
25.4582873
50
8.3538287
51
8.3593046
0
ARC
8
DEFAULT_255_2_778
10
-19.4376467
20
16.2906954
40
25.3388263
50
8.347752
51
8.3532386
0
ARC
8
DEFAULT_255_2_778
10
18.7099738
20
21.8924497
40
13.217893
50
188.3445192
51
188.3550083
0
ARC
8
DEFAULT_255_2_778
10
15.9327726
20
21.4862805
40
10.4111478
50
188.33769
51
188.3509704
0
ARC
8
DEFAULT_255_2_778
10
-19.0524454
20
16.3579126
40
24.9479477
50
8.3401231
51
8.34565
0
ARC
8
DEFAULT_255_2_778
10
-84.5564833
20
6.7630723
40
91.1509679
50
8.3366494
51
8.3396654
0
ARC
8
DEFAULT_255_2_778
10
18.2657645
20
21.8363134
40
12.770239
50
188.3253458
51
188.3414061
0
ARC
8
DEFAULT_255_2_778
10
18.1580522
20
21.8231137
40
12.6617508
50
188.3206875
51
188.336819
0
ARC
8
DEFAULT_255_2_778
10
64.3890231
20
28.5932375
40
59.3858049
50
188.3255734
51
188.3289987
0
ARC
8
DEFAULT_255_2_778
10
63.8166771
20
28.5081827
40
58.8071748
50
188.3208776
51
188.3243225
0
ARC
8
DEFAULT_255_2_778
10
63.2484773
20
28.4237753
40
58.2327412
50
188.3161429
51
188.3196075
0
ARC
8
DEFAULT_255_2_778
10
-81.1407328
20
7.3272776
40
87.68952
50
8.3102215
51
8.3132761
0
ARC
8
DEFAULT_255_2_778
10
61.9272434
20
28.2267021
40
56.8968965
50
188.3039913
51
188.3075035
0
ARC
8
DEFAULT_255_2_778
10
61.4826792
20
28.1660312
40
56.4482311
50
188.3046997
51
188.3082254
0
ARC
8
DEFAULT_255_2_778
10
60.9203538
20
28.0816843
40
55.8796193
50
188.2988543
51
188.3024013
0
ARC
8
DEFAULT_255_2_778
10
-78.8288383
20
7.7050947
40
85.347298
50
8.2937002
51
8.2967834
0
ARC
8
DEFAULT_255_2_778
10
-78.15512
20
7.8161526
40
84.6646061
50
8.288204
51
8.2912952
0
ARC
8
DEFAULT_255_2_778
10
-150.8533534
20
-2.7570161
40
158.1276907
50
8.283738
51
8.2853842
0
ARC
8
DEFAULT_255_2_778
10
58.3713317
20
27.7088233
40
53.3034712
50
188.2793632
51
188.2830065
0
ARC
8
DEFAULT_255_2_778
10
-148.9635671
20
-2.4521148
40
156.2136938
50
8.2758464
51
8.277497
0
ARC
8
DEFAULT_255_2_778
10
57.2066085
20
27.5379303
40
52.1262786
50
188.2691964
51
188.2728868
0
ARC
8
DEFAULT_255_2_778
10
-147.2251628
20
-2.1673936
40
154.4524118
50
8.2670641
51
8.2687177
0
ARC
8
DEFAULT_255_2_778
10
-18.1769673
20
16.590594
40
24.0480455
50
8.2596559
51
8.2675796
0
ARC
8
DEFAULT_255_2_778
10
55.6313143
20
27.3096782
40
50.5345344
50
188.2573946
51
188.26115
0
ARC
8
DEFAULT_255_2_778
10
55.2043567
20
27.2497675
40
50.1033988
50
188.2559438
51
188.2597162
0
ARC
8
DEFAULT_255_2_778
10
-144.049703
20
-1.6486357
40
151.2353657
50
8.2510076
51
8.2526669
0
ARC
8
DEFAULT_255_2_778
10
-142.8506228
20
-1.4622176
40
150.0219446
50
8.2479413
51
8.2496051
0
ARC
8
DEFAULT_255_2_778
10
53.5795307
20
27.0166408
40
48.4619352
50
188.2448546
51
188.2486972
0
ARC
8
DEFAULT_255_2_778
10
-16.9899506
20
16.7941138
40
22.8441079
50
8.2371839
51
8.2453028
0
ARC
8
DEFAULT_255_2_778
10
-140.3625016
20
-1.0614248
40
147.502066
50
8.2367289
51
8.2383984
0
ARC
8
DEFAULT_255_2_778
10
-139.3175262
20
-0.8955611
40
146.444108
50
8.2327585
51
8.234431
0
ARC
8
DEFAULT_255_2_778
10
-138.2839971
20
-0.7314137
40
145.3977253
50
8.228745
51
8.2304204
0
ARC
8
DEFAULT_255_2_778
10
-137.3762778
20
-0.5835374
40
144.4781871
50
8.223913
51
8.2255901
0
ARC
8
DEFAULT_255_2_778
10
-136.4803819
20
-0.4374167
40
143.570603
50
8.219029
51
8.2207077
0
LINE
8
DEFAULT_255_2_778
10
5.6149783
20
20.0912623
11
5.6143804
21
20.0954032
0
ARC
8
DEFAULT_255_2_778
10
34.4211895
20
24.2535298
40
29.1053649
50
188.2074977
51
188.2136429
0
LINE
8
DEFAULT_255_2_778
10
5.6139345
20
20.0984929
11
5.6133427
21
20.1025952
0
ARC
8
DEFAULT_255_2_778
10
33.8636909
20
24.1781589
40
28.5428169
50
188.202984
51
188.2091919
0
LINE
8
DEFAULT_255_2_778
10
5.6129013
20
20.1056561
11
5.6123155
21
20.1097202
0
ARC
8
DEFAULT_255_2_778
10
62.7555787
20
28.3468498
40
57.7338967
50
188.1990655
51
188.2026124
0
LINE
8
DEFAULT_255_2_778
10
5.6118059
20
20.1132577
11
5.6112264
21
20.1172814
0
LINE
8
DEFAULT_255_2_778
10
5.6112264
20
20.1172814
11
5.6106503
21
20.1212837
0
ARC
8
DEFAULT_255_2_778
10
60.8378331
20
28.0715401
40
55.7964901
50
188.188151
51
188.1917652
0
LINE
8
DEFAULT_255_2_778
10
5.610149
20
20.1247674
11
5.6095791
21
20.1287299
0
LINE
8
DEFAULT_255_2_778
10
5.6095791
20
20.1287299
11
5.6090125
21
20.1326715
0
LINE
8
DEFAULT_255_2_778
10
5.6090125
20
20.1326715
11
5.6084491
21
20.1365921
0
LINE
8
DEFAULT_255_2_778
10
5.6084491
20
20.1365921
11
5.6078889
21
20.140492
0
LINE
8
DEFAULT_255_2_778
10
5.6078889
20
20.140492
11
5.607332
21
20.1443713
0
ARC
8
DEFAULT_255_2_778
10
57.1124109
20
27.5379564
40
52.0330496
50
188.1652799
51
188.1690363
0
LINE
8
DEFAULT_255_2_778
10
5.6068473
20
20.147748
11
5.6062963
21
20.1515889
0
LINE
8
DEFAULT_255_2_778
10
5.6062963
20
20.1515889
11
5.6057484
21
20.1554096
0
ARC
8
DEFAULT_255_2_778
10
55.3795677
20
27.2898874
40
50.2825404
50
188.1532701
51
188.1570984
0
LINE
8
DEFAULT_255_2_778
10
5.6052716
20
20.1587354
11
5.6047295
21
20.1625184
0
ARC
8
DEFAULT_255_2_778
10
118.6340316
20
36.3562146
40
114.1834442
50
188.1514886
51
188.153277
0
LINE
8
DEFAULT_255_2_778
10
5.6042241
20
20.1660464
11
5.6036879
21
20.1697909
0
ARC
8
DEFAULT_255_2_778
10
60.3021601
20
27.9999608
40
55.2560804
50
188.1429733
51
188.1466313
0
ARC
8
DEFAULT_255_2_778
10
59.7809033
20
27.9298751
40
54.7301521
50
188.1439609
51
188.1476358
0
ARC
8
DEFAULT_255_2_778
10
59.1538248
20
27.8384192
40
54.0964417
50
188.1384594
51
188.1421591
0
ARC
8
DEFAULT_255_2_778
10
119.3652746
20
36.4549241
40
114.9212954
50
188.1395843
51
188.141375
0
ARC
8
DEFAULT_255_2_778
10
117.909823
20
36.2432016
40
113.450529
50
188.1360023
51
188.137807
0
LINE
8
DEFAULT_255_2_778
10
5.6011821
20
20.187309
11
5.600663
21
20.190942
0
ARC
8
DEFAULT_255_2_778
10
118.5651224
20
36.3296298
40
114.1114645
50
188.1287492
51
188.1305536
0
ARC
8
DEFAULT_255_2_778
10
117.1734768
20
36.1290463
40
112.705439
50
188.1260206
51
188.127838
0
ARC
8
DEFAULT_255_2_778
10
118.4416017
20
36.3083715
40
113.9861791
50
188.123344
51
188.1251531
0
ARC
8
DEFAULT_255_2_778
10
117.9268342
20
36.2330942
40
113.4659397
50
188.1206286
51
188.1224436
0
ARC
8
DEFAULT_255_2_778
10
116.5956523
20
36.0430759
40
112.1212642
50
188.118764
51
188.1205912
0
ARC
8
DEFAULT_255_2_778
10
115.2144971
20
35.8441838
40
110.7258631
50
188.115969
51
188.1178096
0
ARC
8
DEFAULT_255_2_778
10
60.0937738
20
27.9831708
40
55.0474143
50
188.1117732
51
188.1154561
0
ARC
8
DEFAULT_255_2_778
10
112.4301242
20
35.4416946
40
107.9125555
50
188.1093712
51
188.1112401
0
ARC
8
DEFAULT_255_2_778
10
58.8556885
20
27.8074665
40
53.7969239
50
188.1050972
51
188.1088266
0
ARC
8
DEFAULT_255_2_778
10
58.347092
20
27.741056
40
53.284045
50
188.1077598
51
188.1115055
0
ARC
8
DEFAULT_255_2_778
10
108.7604292
20
34.9201658
40
104.2059869
50
188.1043647
51
188.1062701
0
ARC
8
DEFAULT_255_2_778
10
57.1211734
20
27.5654123
40
52.0456079
50
188.0990596
51
188.1028547
0
LINE
8
DEFAULT_255_2_778
10
5.5946698
20
20.2329677
11
5.593704
21
20.2397539
0
ARC
8
DEFAULT_255_2_778
10
55.5149337
20
27.3459058
40
50.4244641
50
188.0976159
51
188.1014723
0
LINE
8
DEFAULT_255_2_778
10
5.593226
20
20.243114
11
5.5922758
21
20.2497953
0
LINE
8
DEFAULT_255_2_778
10
5.5922758
20
20.2497953
11
5.5913359
21
20.2564077
0
LINE
8
DEFAULT_255_2_778
10
5.5913359
20
20.2564077
11
5.5904062
21
20.2629519
0
ARC
8
DEFAULT_255_2_778
10
51.7750915
20
26.8233261
40
46.6482976
50
188.0805612
51
188.0845813
0
ARC
8
DEFAULT_255_2_778
10
51.2952848
20
26.7582841
40
46.1641122
50
188.0803029
51
188.0843442
0
ARC
8
DEFAULT_255_2_778
10
50.8110986
20
26.6918046
40
45.6753885
50
188.0790468
51
188.0831104
0
ARC
8
DEFAULT_255_2_778
10
35.6337862
20
24.5397247
40
30.3462578
50
188.0772783
51
188.0833631
0
ARC
8
DEFAULT_255_2_778
10
49.8545921
20
26.5605132
40
44.7099236
50
188.0764957
51
188.0806045
0
ARC
8
DEFAULT_255_2_778
10
49.3822062
20
26.4956921
40
44.233116
50
188.0752003
51
188.079332
0
ARC
8
DEFAULT_255_2_778
10
34.6963565
20
24.4138092
40
29.4004354
50
188.0723694
51
188.0785538
0
ARC
8
DEFAULT_255_2_778
10
48.4410038
20
26.3657625
40
43.2829944
50
188.0715485
51
188.0757278
0
ARC
8
DEFAULT_255_2_778
10
47.9722382
20
26.300671
40
42.8097331
50
188.0691815
51
188.0733854
0
ARC
8
DEFAULT_255_2_778
10
-60.1125804
20
10.9791319
40
66.3556349
50
8.0675586
51
8.0716048
0
ARC
8
DEFAULT_255_2_778
10
-42.7571994
20
13.4463837
40
48.8257596
50
8.0646452
51
8.070102
0
ARC
8
DEFAULT_255_2_778
10
-58.245149
20
11.2583464
40
64.4674999
50
8.0630806
51
8.0671818
0
ARC
8
DEFAULT_255_2_778
10
-14.9844759
20
17.392571
40
20.7740848
50
8.0600875
51
8.06851
0
ARC
8
DEFAULT_255_2_778
10
-40.9000038
20
13.7260339
40
46.9476985
50
8.0597398
51
8.0653
0
ARC
8
DEFAULT_255_2_778
10
-5557.6125121
20
-766.4131705
40
5618.5483713
50
8.0491776
51
8.0510731
0
ARC
8
DEFAULT_255_2_778
10
-46.4233488
20
13.151739
40
52.4970388
50
8.042983
51
8.2529257
0
ARC
8
DEFAULT_255_2_778
10
-15.9496988
20
17.5706293
40
21.7046707
50
8.2559756
51
8.6448699
0
ARC
8
DEFAULT_255_2_778
10
-6.6627461
20
18.9836312
40
12.3108396
50
8.6400744
51
9.2731832
0
ARC
8
DEFAULT_255_2_778
10
-1.0649193
20
19.9057789
40
6.6375777
50
9.2036793
51
10.9372035
0
ARC
8
DEFAULT_255_2_778
10
2.2010407
20
20.5409889
40
3.3104236
50
10.8677739
51
14.1375166
0
ARC
8
DEFAULT_255_2_778
10
3.8163169
20
20.9524672
40
1.643573
50
13.9811931
51
20.2763387
0
ARC
8
DEFAULT_255_2_778
10
4.5970503
20
21.245173
40
0.8097931
50
19.9929206
51
32.1972786
0
ARC
8
DEFAULT_255_2_778
10
4.8978247
20
21.4381426
40
0.4524612
50
31.8134593
51
73.0866162
0
ARC
8
DEFAULT_255_2_778
10
5.1716221
20
22.3034919
40
0.4552268
50
192.2455925
51
251.8024423
0
ARC
8
DEFAULT_255_2_778
10
5.7803369
20
22.4847548
40
1.0895971
50
180.2015413
51
194.7719764
0
ARC
8
DEFAULT_255_2_778
10
6.3592929
20
22.5117959
40
1.6688319
50
179.9934335
51
181.0600466
0
ARC
8
DEFAULT_255_2_778
10
6.7491581
20
22.5076371
40
2.0587016
50
175.8068063
51
179.8789321
0
ARC
8
DEFAULT_255_2_778
10
7.2727623
20
22.4738045
40
2.5833819
50
174.789086
51
175.9075805
0
ARC
8
DEFAULT_255_2_778
10
15.6205018
20
21.7134137
40
10.9656815
50
174.6398016
51
174.793854
0
ARC
8
DEFAULT_255_2_778
10
11.7909252
20
22.0716642
40
7.1193847
50
174.5545057
51
174.6312512
0
ARC
8
DEFAULT_255_2_778
10
6.8981553
20
22.556378
40
2.2027728
50
171.3291273
51
175.0281223
0
ARC
8
DEFAULT_255_2_778
10
5.2374816
20
22.8179303
40
0.5217127
50
156.9105218
51
172.2299952
0
ARC
8
DEFAULT_255_2_778
10
5.0306818
20
22.8950136
40
0.3014217
50
119.3333788
51
154.972822
0
ARC
8
DEFAULT_255_2_778
10
5.2568588
20
22.5393013
40
0.7226913
50
113.6273423
51
121.1506083
0
ARC
8
DEFAULT_255_2_778
10
5.5545606
20
21.8753948
40
1.4502738
50
110.5608804
51
113.8905103
0
ARC
8
DEFAULT_255_2_778
10
6.0014169
20
20.6932111
40
2.7140908
50
108.7870299
51
110.6285518
0
ARC
8
DEFAULT_255_2_778
10
6.7301068
20
18.5625312
40
4.9659296
50
107.8756151
51
108.8294711
0
ARC
8
DEFAULT_255_2_778
10
8.0983886
20
14.3255439
40
9.4183734
50
107.3225806
51
107.8858239
0
ARC
8
DEFAULT_255_2_778
10
5.5347164
20
22.4765132
40
0.8740059
50
103.2449351
51
105.9829794
0
ARC
8
DEFAULT_255_2_778
10
5.6885986
20
21.8283581
40
1.5401768
50
101.4311684
51
103.2928221
0
ARC
8
DEFAULT_255_2_778
10
5.8596269
20
20.9894333
40
2.3963569
50
100.232566
51
101.4638922
0
ARC
8
DEFAULT_255_2_778
10
6.0524833
20
19.9219636
40
3.481108
50
99.1594739
51
100.2351877
0
ARC
8
DEFAULT_255_2_778
10
6.2569779
20
18.6613288
40
4.7582208
50
98.4485788
51
99.1741118
0
ARC
8
DEFAULT_255_2_778
10
6.4540542
20
17.3364421
40
6.0976848
50
97.8374482
51
98.4512377
0
ARC
8
DEFAULT_255_2_778
10
6.8061208
20
14.7366884
40
8.7211647
50
96.6222673
51
97.7997869
0
ARC
8
DEFAULT_255_2_778
10
7.3394148
20
10.1576207
40
13.3311822
50
95.6208053
51
96.629415
0
ARC
8
DEFAULT_255_2_778
10
7.8376648
20
5.1352503
40
18.3782058
50
94.8589529
51
95.6330947
0
ARC
8
DEFAULT_255_2_778
10
8.2074896
20
0.8193246
40
22.7099466
50
94.2700082
51
94.8663284
0
ARC
8
DEFAULT_255_2_778
10
8.5186452
20
-3.3755837
40
26.9163786
50
93.4329783
51
94.2656503
0
ARC
8
DEFAULT_255_2_778
10
8.7100687
20
-6.5154154
40
30.0620389
50
92.7270745
51
93.438818
0
ARC
8
DEFAULT_255_2_778
10
8.7616586
20
-7.5630257
40
31.1109174
50
91.6434482
51
92.7301828
0
ARC
8
DEFAULT_255_2_778
10
8.7078602
20
-5.5422165
40
29.0893968
50
90.4521492
51
91.6516811
0
ARC
8
DEFAULT_255_2_778
10
8.680879
20
-2.785222
40
26.3322758
50
90.0022383
51
90.4407828
0
ARC
8
DEFAULT_255_2_778
10
8.6875297
20
0.2772699
40
23.2697852
50
88.7913987
51
90.0189085
0
ARC
8
DEFAULT_255_2_778
10
8.75673
20
3.7935044
40
19.7528741
50
88.0680615
51
88.77695
0
ARC
8
DEFAULT_255_2_778
10
8.8387935
20
6.2133391
40
17.3316483
50
87.2780533
51
88.0695117
0
ARC
8
DEFAULT_255_2_778
10
9.1285949
20
10.2268611
40
12.9261641
50
86.1073414
51
87.6369514
0
ARC
8
DEFAULT_255_2_778
10
9.313238
20
12.5110628
40
10.634737
50
80.3883228
51
86.264382
0
ARC
8
DEFAULT_255_2_778
10
9.9033178
20
16.0363232
40
7.0604419
50
75.0388723
51
80.3330159
0
ARC
8
DEFAULT_255_2_778
10
10.5264965
20
18.3621215
40
4.6526034
50
68.8041166
51
75.0587871
0
ARC
8
DEFAULT_255_2_778
10
11.1435379
20
19.9433223
40
2.9552775
50
60.5522416
51
68.8739745
0
ARC
8
DEFAULT_255_2_778
10
11.7168094
20
20.9493115
40
1.7974264
50
48.4628978
51
60.6999288
0
ARC
8
DEFAULT_255_2_778
10
12.1209737
20
21.4127262
40
1.1825545
50
36.3793472
51
48.2320382
0
ARC
8
DEFAULT_255_2_778
10
12.175208
20
21.4585648
40
1.1117118
50
19.2458157
51
36.1352005
0
ARC
8
DEFAULT_255_2_778
10
11.9112539
20
21.3625117
40
1.3925804
50
10.1400953
51
19.3972261
0
ARC
8
DEFAULT_255_2_778
10
11.5817727
20
21.3023947
40
1.7274995
50
3.1351345
51
10.1789305
0
ARC
8
DEFAULT_255_2_778
10
11.2774079
20
21.2824737
40
2.0325009
50
359.9702829
51
3.2266162
0
ARC
8
DEFAULT_255_2_778
10
10.9127924
20
21.2859148
40
2.3971204
50
354.114147
51
359.8925543
0
ARC
8
DEFAULT_255_2_778
10
10.3545104
20
21.3427634
40
2.9582889
50
349.0970268
51
354.1277272
0
ARC
8
DEFAULT_255_2_778
10
9.7483478
20
21.4584948
40
3.5754001
50
344.7804679
51
349.1132297
0
ARC
8
DEFAULT_255_2_778
10
9.1029868
20
21.6341828
40
4.2442475
50
340.4320725
51
344.7790214
0
ARC
8
DEFAULT_255_2_778
10
8.6384784
20
21.7951165
40
4.7358305
50
338.6655969
51
340.4796933
0
ARC
8
DEFAULT_255_2_778
10
7.9746981
20
22.0684298
40
5.4535737
50
330.0379914
51
338.5280338
0
ARC
8
DEFAULT_255_2_778
10
7.7910388
20
22.1578789
40
5.6573793
50
321.6862975
51
330.1821008
0
ARC
8
DEFAULT_255_2_778
10
8.5098018
20
21.5902895
40
4.7415312
50
315.6652195
51
321.6831261
0
ARC
8
DEFAULT_255_2_778
10
9.2382609
20
20.8776713
40
3.7224745
50
309.6173812
51
315.6749178
0
ARC
8
DEFAULT_255_2_778
10
9.834453
20
20.1550434
40
2.7856538
50
302.6281404
51
309.6488628
0
ARC
8
DEFAULT_255_2_778
10
10.078563
20
19.7882973
40
2.3451776
50
301.869082
51
302.436535
0
ARC
8
DEFAULT_255_2_778
10
10.1601465
20
19.6553941
40
2.1892344
50
299.2010133
51
301.8922401
0
ARC
8
DEFAULT_255_2_778
10
10.276617
20
19.4467348
40
1.9502698
50
296.1876688
51
299.204863
0
ARC
8
DEFAULT_255_2_778
10
10.3570359
20
19.2844418
40
1.7691459
50
294.1576771
51
296.1701097
0
ARC
8
DEFAULT_255_2_778
10
9.800397
20
20.8349826
40
3.414049
50
281.1018542
51
292.0314088
0
ARC
8
DEFAULT_255_2_778
10
9.6116761
20
21.7009282
40
4.3001681
50
276.0119714
51
281.3476595
0
ARC
8
DEFAULT_255_2_778
10
9.578362
20
21.9918201
40
4.5929502
50
270.0086672
51
276.0452039
0
ARC
8
DEFAULT_255_2_778
10
9.5790258
20
21.898285
40
4.4994151
50
269.2719939
51
270.0003946
0
ARC
8
DEFAULT_255_2_778
10
9.5221362
20
23.1872821
40
5.788049
50
266.5124875
51
269.9972391
0
ARC
8
DEFAULT_255_2_778
10
9.4690989
20
22.6602932
40
5.2588511
50
254.1759386
51
266.7399976
0
ARC
8
DEFAULT_255_2_778
10
9.0574482
20
21.1916332
40
3.7336001
50
243.663795
51
254.1079573
0
ARC
8
DEFAULT_255_2_778
10
8.5270552
20
20.1293324
40
2.5462603
50
230.3696697
51
243.7552649
0
ARC
8
DEFAULT_255_2_778
10
7.9853964
20
19.4854386
40
1.7048741
50
208.8873256
51
230.587326
0
ARC
8
DEFAULT_255_2_778
10
9.1806802
20
20.0986438
40
3.0479325
50
202.7297277
51
208.1255392
0
ARC
8
DEFAULT_255_2_778
10
10.0079336
20
20.446957
40
3.9455227
50
198.0608304
51
202.7533166
0
ARC
8
DEFAULT_255_2_778
10
10.8829951
20
20.7334535
40
4.8662897
50
193.5958914
51
198.0736392
0
ARC
8
DEFAULT_255_2_778
10
11.734221
20
20.9377577
40
5.7416889
50
187.32263
51
193.5807177
0
ARC
8
DEFAULT_255_2_778
10
11.9684263
20
20.9732422
40
5.978509
50
184.9912537
51
187.3738466
0
ARC
8
DEFAULT_255_2_778
10
11.7753856
20
20.9579889
40
5.7848733
50
181.3136038
51
185.0070986
0
ARC
8
DEFAULT_255_2_778
10
11.4462978
20
20.9485628
40
5.4556563
50
180.0042361
51
181.2938663
0
ARC
8
DEFAULT_255_2_778
10
10.805248
20
20.9571078
40
4.8146149
50
174.2000347
51
180.1064892
0
ARC
8
DEFAULT_255_2_778
10
9.6846296
20
21.0712696
40
3.6881963
50
168.2900913
51
174.2052003
0
ARC
8
DEFAULT_255_2_778
10
8.7190553
20
21.2728417
40
2.7018077
50
161.4357615
51
168.3199319
0
ARC
8
DEFAULT_255_2_778
10
7.9588735
20
21.5300526
40
1.8992933
50
152.788738
51
161.4903715
0
ARC
8
DEFAULT_255_2_778
10
7.4210658
20
21.8091151
40
1.2934008
50
140.8545066
51
152.8885377
0
ARC
8
DEFAULT_255_2_778
10
7.0947721
20
22.0798106
40
0.8694663
50
120.1128034
51
141.1148077
0
ARC
8
DEFAULT_255_2_778
10
7.1293121
20
21.9768089
40
0.9761391
50
109.6492352
51
118.8332447
0
ARC
8
DEFAULT_255_2_778
10
7.5239275
20
20.8991575
40
2.1237514
50
104.271775
51
109.899175
0
ARC
8
DEFAULT_255_2_778
10
7.9487751
20
19.2636619
40
3.813515
50
100.7393086
51
104.4002422
0
ARC
8
DEFAULT_255_2_778
10
8.3413163
20
17.2201814
40
5.8943528
50
98.0246057
51
100.7867673
0
ARC
8
DEFAULT_255_2_778
10
8.6931385
20
14.7274512
40
8.4117886
50
95.364475
51
98.0273043
0
ARC
8
DEFAULT_255_2_778
10
8.9356999
20
12.2009497
40
10.9499028
50
93.2287545
51
95.3921752
0
ARC
8
DEFAULT_255_2_778
10
9.0535752
20
10.1241059
40
13.030089
50
90.7748581
51
93.2318983
0
ARC
8
DEFAULT_255_2_778
10
9.0713551
20
9.2260346
40
13.9283199
50
89.9986831
51
90.7980313
0
ARC
8
DEFAULT_255_2_778
10
9.0713766
20
9.0008888
40
14.1534659
50
88.8142118
51
89.9987913
0
ARC
8
DEFAULT_255_2_778
10
9.0724489
20
9.0334819
40
14.1208575
50
87.6077637
51
88.8158247
0
ARC
8
DEFAULT_255_2_778
10
20.7305981
20
8.765761
40
14.3938254
50
90.6871397
51
92.8299132
0
ARC
8
DEFAULT_255_2_778
10
20.7346831
20
8.5655864
40
14.5940346
50
90.0002696
51
90.6937517
0
ARC
8
DEFAULT_255_2_778
10
20.7387712
20
9.1229509
40
14.0366709
50
87.5721015
51
90.0169674
0
ARC
8
DEFAULT_255_2_778
10
20.8252216
20
11.1208216
40
12.0369316
50
85.4221477
51
87.5803776
0
ARC
8
DEFAULT_255_2_778
10
21.0422853
20
13.7951595
40
9.3538012
50
83.0395354
51
85.44005
0
ARC
8
DEFAULT_255_2_778
10
21.3801064
20
16.5464783
40
6.5818211
50
80.3459639
51
83.0562004
0
ARC
8
DEFAULT_255_2_778
10
21.7815102
20
18.8896101
40
4.2045582
50
76.9340232
51
80.3838387
0
ARC
8
DEFAULT_255_2_778
10
22.1994622
20
20.6747063
40
2.3711925
50
72.0950874
51
77.0202748
0
ARC
8
DEFAULT_255_2_778
10
22.5834567
20
21.8501665
40
1.1346146
50
64.4017807
51
72.2978627
0
ARC
8
DEFAULT_255_2_778
10
22.8014586
20
22.3179118
40
0.6186153
50
59.9046691
51
63.8934021
0
ARC
8
DEFAULT_255_2_778
10
22.7123854
20
22.1859992
40
0.7774868
50
36.2629398
51
59.0999726
0
ARC
8
DEFAULT_255_2_778
10
22.4122747
20
21.9568563
40
1.1550282
50
24.8706128
51
36.6224547
0
ARC
8
DEFAULT_255_2_778
10
21.9391222
20
21.7347142
40
1.6777287
50
16.3697683
51
24.9575794
0
ARC
8
DEFAULT_255_2_778
10
21.271807
20
21.5362006
40
2.3739421
50
9.7624742
51
16.4275368
0
ARC
8
DEFAULT_255_2_778
10
20.4352186
20
21.3900222
40
3.2232033
50
4.3745621
51
9.801692
0
ARC
8
DEFAULT_255_2_778
10
19.5126593
20
21.3170327
40
4.148643
50
359.9213081
51
4.407811
0
ARC
8
DEFAULT_255_2_778
10
18.7321265
20
21.3141933
40
4.9291728
50
356.9830417
51
359.9667734
0
ARC
8
DEFAULT_255_2_778
10
18.1031911
20
21.3475785
40
5.5589936
50
353.6128503
51
356.9805982
0
ARC
8
DEFAULT_255_2_778
10
17.6681376
20
21.3943951
40
5.9965551
50
351.159713
51
353.6307363
0
ARC
8
DEFAULT_255_2_778
10
17.5696626
20
21.4059276
40
6.0956337
50
343.0109546
51
351.1948501
0
ARC
8
DEFAULT_255_2_778
10
18.4390461
20
21.1432959
40
5.1874522
50
338.5185999
51
342.9794366
0
ARC
8
DEFAULT_255_2_778
10
19.335167
20
20.789663
40
4.2240789
50
333.9208768
51
338.5309386
0
ARC
8
DEFAULT_255_2_778
10
20.1647962
20
20.3831494
40
3.300208
50
329.03476
51
333.9280055
0
ARC
8
DEFAULT_255_2_778
10
21.3724625
20
19.7087825
40
1.9181694
50
308.4234242
51
327.7469509
0
ARC
8
DEFAULT_255_2_778
10
20.7776969
20
20.4399712
40
2.8606628
50
296.4265966
51
308.6548046
0
ARC
8
DEFAULT_255_2_778
10
20.2258316
20
21.5413281
40
4.0925438
50
286.1308642
51
296.4831344
0
ARC
8
DEFAULT_255_2_778
10
19.8755908
20
22.7304714
40
5.3321818
50
275.5272312
51
286.1960822
0
ARC
8
DEFAULT_255_2_778
10
19.8394307
20
22.9787001
40
5.5827524
50
271.1869205
51
275.6512377
0
ARC
8
DEFAULT_255_2_778
10
19.8434074
20
22.8501421
40
5.4541397
50
270.8714225
51
271.1731284
0
ARC
8
DEFAULT_255_2_778
10
19.8500818
20
21.6392555
40
4.243308
50
270.0001742
51
271.0299746
0
ARC
8
DEFAULT_255_2_778
10
19.8319316
20
21.3634237
40
3.9675177
50
247.9296442
51
270.2622982
0
LINE
8
DEFAULT_255_2_778
10
18.3411573
20
17.6866331
11
18.3409803
21
17.6867152
0
ARC
8
DEFAULT_255_2_778
10
19.1539342
20
19.4155356
40
1.9104225
50
234.9263513
51
244.8153939
0
ARC
8
DEFAULT_255_2_778
10
19.6030412
20
20.0601862
40
2.6960851
50
227.1196682
51
234.9875403
0
ARC
8
DEFAULT_255_2_778
10
20.2242793
20
20.7336176
40
3.6122945
50
220.5702033
51
227.1675817
0
ARC
8
DEFAULT_255_2_778
10
20.9446899
20
21.3515291
40
4.5614025
50
213.8210359
51
220.5806466
0
ARC
8
DEFAULT_255_2_778
10
21.4553883
20
21.7026874
40
5.181141
50
198.122881
51
213.9037572
0
ARC
8
DEFAULT_255_2_778
10
20.5692582
20
21.3962464
40
4.2436786
50
193.2400394
51
197.9122191
0
ARC
8
DEFAULT_255_2_778
10
19.9836406
20
21.2580949
40
3.6419864
50
188.8464267
51
193.2344606
0
ARC
8
DEFAULT_255_2_778
10
19.4275323
20
21.1722257
40
3.079288
50
183.9081787
51
188.8589726
0
ARC
8
DEFAULT_255_2_778
10
18.9788219
20
21.1399818
40
2.6294238
50
180.0436112
51
183.8736231
0
ARC
8
DEFAULT_255_2_778
10
18.5674553
20
21.1421328
40
2.2180605
50
173.7088282
51
180.1072618
0
ARC
8
DEFAULT_255_2_778
10
18.1445262
20
21.1897042
40
1.7924657
50
165.7287426
51
173.7388702
0
ARC
8
DEFAULT_255_2_778
10
17.7977195
20
21.2795543
40
1.4342133
50
154.4691022
51
165.7920603
0
ARC
8
DEFAULT_255_2_778
10
17.5861937
20
21.3793917
40
1.2003133
50
141.2599656
51
154.4176171
0
ARC
8
DEFAULT_255_2_778
10
17.8125274
20
21.1745285
40
1.5051625
50
123.7367596
51
140.568857
0
ARC
8
DEFAULT_255_2_778
10
18.3640699
20
20.3695866
40
2.4808922
50
113.9384299
51
124.0049974
0
ARC
8
DEFAULT_255_2_778
10
18.972805
20
19.0119312
40
3.9687657
50
106.626061
51
114.0177998
0
ARC
8
DEFAULT_255_2_778
10
19.6149686
20
16.8781386
40
6.1970901
50
100.9063613
51
106.6703163
0
ARC
8
DEFAULT_255_2_778
10
20.2409501
20
13.6307452
40
9.5042666
50
95.8599812
51
100.9078895
0
ARC
8
DEFAULT_255_2_778
10
20.6325521
20
10.0396029
40
13.1166445
50
93.0163626
51
95.9600477
0
ARC
8
DEFAULT_255_2_778
10
20.7362194
20
8.3335105
40
14.8258347
50
92.7691376
51
93.0694897
0
LINE
8
DEFAULT_255_2_778
10
19.7262573
20
23.5571331
11
20.0199573
21
23.5886331
0
LINE
8
DEFAULT_255_2_778
10
9.6618573
20
23.5254331
11
9.6615573
21
23.5249331
0
LINE
8
DEFAULT_255_2_778
10
9.6618573
20
23.1420331
11
9.6615573
21
23.1420331
0
LINE
8
DEFAULT_255_2_778
10
20.0199573
20
23.1420331
11
20.0199573
21
23.1420331
0
ENDSEC
0
EOF