0
SECTION
2
HEADER
9
$MEASUREMENT
70
1
0
ENDSEC
0
SECTION
2
TABLES
0
TABLE
2
LTYPE
0
LTYPE
72
65
70
64
2
CONTINUOUS
3
______
73
0
40
0
0
ENDTAB
0
TABLE
2
LAYER
0
LAYER
2
DEFAULT_255_2_778
70
0
62
255
6
CONTINUOUS
0
ENDTAB
0
ENDSEC
0
SECTION
2
ENTITIES
0
LINE
8
DEFAULT_255_2_778
10
13.5906209
20
2.7889239
11
12.2457209
21
2.7889239
0
LINE
8
DEFAULT_255_2_778
10
12.2457209
20
2.7889239
11
9.9954209
21
8.9719239
0
LINE
8
DEFAULT_255_2_778
10
11.6027522
20
4.5552553
11
13.2690522
21
3.7781553
0
LINE
8
DEFAULT_255_2_778
10
13.2690522
20
3.7781553
11
13.5905522
21
3.8950553
0
LINE
8
DEFAULT_255_2_778
10
13.5905522
20
71.4548553
11
8.5904522
21
69.6350553
0
LINE
8
DEFAULT_255_2_778
10
13.5905522
20
71.2418553
11
11.2169522
21
70.3779553
0
LINE
8
DEFAULT_255_2_778
10
11.2169522
20
70.3779553
11
10.4398522
21
68.7116553
0
LINE
8
DEFAULT_255_2_778
10
11.6109522
20
66.5306553
11
11.2778522
21
66.4095553
0
LINE
8
DEFAULT_255_2_778
10
13.5905522
20
64.8567083
11
8.5904522
21
63.0369083
0
LINE
8
DEFAULT_255_2_778
10
8.5904522
20
63.0369083
11
8.9873522
21
61.9463083
0
LINE
8
DEFAULT_255_2_778
10
8.9873522
20
61.9463083
11
13.5905522
21
63.6216083
0
ARC
8
DEFAULT_255_2_778
10
13.8400379
20
5.6956525
40
0.6482989
50
112.6291847
51
135.065862
0
ARC
8
DEFAULT_255_2_778
10
12.3424318
20
7.1898271
40
0.6671917
50
315.1443733
51
359.8505785
0
ARC
8
DEFAULT_255_2_778
10
12.3629489
20
7.1880671
40
0.6466723
50
0.0017772
51
0.5753211
0
ARC
8
DEFAULT_255_2_778
10
12.3983129
20
7.1913515
40
0.6112842
50
0.3007721
51
36.9585026
0
ARC
8
DEFAULT_255_2_778
10
12.38344
20
7.1785544
40
0.6308639
50
37.0750917
51
46.7876997
0
ARC
8
DEFAULT_255_2_778
10
13.8427829
20
8.6660231
40
0.6531331
50
225.0182023
51
247.2866791
0
LINE
8
DEFAULT_255_2_778
10
13.3810948
20
6.1535416
11
12.9214948
21
5.6939416
0
LINE
8
DEFAULT_255_2_778
10
12.9214948
20
5.6939416
11
12.3557948
21
6.2596416
0
LINE
8
DEFAULT_255_2_778
10
12.3557948
20
6.2596416
11
12.8153948
21
6.7192416
0
LINE
8
DEFAULT_255_2_778
10
12.8153948
20
7.6383416
11
12.3557948
21
8.0979416
0
LINE
8
DEFAULT_255_2_778
10
12.3557948
20
8.0979416
11
12.9214948
21
8.6636416
0
LINE
8
DEFAULT_255_2_778
10
12.9214948
20
8.6636416
11
13.3810948
21
8.2040416
0
LINE
8
DEFAULT_255_2_778
10
11.6109108
20
58.9104382
11
11.2778108
21
58.7892382
0
LINE
8
DEFAULT_255_2_778
10
27.5910108
20
82.7909382
11
0.1902108
21
82.7909382
0
ARC
8
DEFAULT_255_2_778
10
13.8400379
20
13.3159525
40
0.6482989
50
112.6291847
51
135.065862
0
ARC
8
DEFAULT_255_2_778
10
12.3424318
20
14.8101271
40
0.6671917
50
315.1443733
51
359.8505785
0
ARC
8
DEFAULT_255_2_778
10
12.3629489
20
14.8083671
40
0.6466723
50
0.0017772
51
0.5753211
0
ARC
8
DEFAULT_255_2_778
10
12.3983129
20
14.8116515
40
0.6112842
50
0.3007721
51
36.9585026
0
ARC
8
DEFAULT_255_2_778
10
12.38344
20
14.7988544
40
0.6308639
50
37.0750917
51
46.7876997
0
ARC
8
DEFAULT_255_2_778
10
13.8427829
20
16.2863231
40
0.6531331
50
225.0182023
51
247.2866791
0
LINE
8
DEFAULT_255_2_778
10
13.3810948
20
13.7738416
11
12.9214948
21
13.3142416
0
LINE
8
DEFAULT_255_2_778
10
12.9214948
20
13.3142416
11
12.3557948
21
13.8799416
0
LINE
8
DEFAULT_255_2_778
10
12.3557948
20
13.8799416
11
12.8153948
21
14.3395416
0
LINE
8
DEFAULT_255_2_778
10
12.8153948
20
15.2586416
11
12.3557948
21
15.7182416
0
LINE
8
DEFAULT_255_2_778
10
12.3557948
20
15.7182416
11
12.9214948
21
16.2839416
0
LINE
8
DEFAULT_255_2_778
10
12.9214948
20
16.2839416
11
13.3810948
21
15.8243416
0
LINE
8
DEFAULT_255_2_778
10
13.5905522
20
57.2364083
11
8.5904522
21
55.4166083
0
LINE
8
DEFAULT_255_2_778
10
8.5904522
20
55.4166083
11
8.9873522
21
54.3260083
0
LINE
8
DEFAULT_255_2_778
10
8.9873522
20
54.3260083
11
13.5905522
21
56.0013083
0
LINE
8
DEFAULT_255_2_778
10
11.6109448
20
51.2901896
11
11.2778448
21
51.1689896
0
ARC
8
DEFAULT_255_2_778
10
13.8400379
20
20.9362525
40
0.6482989
50
112.6291847
51
135.065862
0
ARC
8
DEFAULT_255_2_778
10
12.3424318
20
22.4304271
40
0.6671917
50
315.1443733
51
359.8505785
0
ARC
8
DEFAULT_255_2_778
10
12.3629489
20
22.4286671
40
0.6466723
50
0.0017772
51
0.5753211
0
ARC
8
DEFAULT_255_2_778
10
12.3983129
20
22.4319515
40
0.6112842
50
0.3007721
51
36.9585026
0
ARC
8
DEFAULT_255_2_778
10
12.38344
20
22.4191544
40
0.6308639
50
37.0750917
51
46.7876997
0
ARC
8
DEFAULT_255_2_778
10
13.8427829
20
23.9066231
40
0.6531331
50
225.0182023
51
247.2866791
0
LINE
8
DEFAULT_255_2_778
10
13.3810948
20
21.3941416
11
12.9214948
21
20.9345416
0
LINE
8
DEFAULT_255_2_778
10
12.9214948
20
20.9345416
11
12.3557948
21
21.5002416
0
LINE
8
DEFAULT_255_2_778
10
12.3557948
20
21.5002416
11
12.8153948
21
21.9598416
0
LINE
8
DEFAULT_255_2_778
10
12.8153948
20
22.8789416
11
12.3557948
21
23.3385416
0
LINE
8
DEFAULT_255_2_778
10
12.3557948
20
23.3385416
11
12.9214948
21
23.9042416
0
LINE
8
DEFAULT_255_2_778
10
12.9214948
20
23.9042416
11
13.3810948
21
23.4446416
0
ARC
8
DEFAULT_255_2_778
10
13.8400379
20
28.5562525
40
0.6482989
50
112.6291847
51
135.065862
0
ARC
8
DEFAULT_255_2_778
10
12.3424318
20
30.0504271
40
0.6671917
50
315.1443733
51
359.8505785
0
ARC
8
DEFAULT_255_2_778
10
12.3629489
20
30.0486671
40
0.6466723
50
0.0017772
51
0.5753211
0
ARC
8
DEFAULT_255_2_778
10
12.3983129
20
30.0519515
40
0.6112842
50
0.3007721
51
36.9585026
0
ARC
8
DEFAULT_255_2_778
10
12.38344
20
30.0391544
40
0.6308639
50
37.0750917
51
46.7876997
0
ARC
8
DEFAULT_255_2_778
10
13.8427829
20
31.5266231
40
0.6531331
50
225.0182023
51
247.2866791
0
LINE
8
DEFAULT_255_2_778
10
13.3810948
20
29.0141416
11
12.9214948
21
28.5545416
0
LINE
8
DEFAULT_255_2_778
10
12.9214948
20
28.5545416
11
12.3557948
21
29.1202416
0
LINE
8
DEFAULT_255_2_778
10
12.3557948
20
29.1202416
11
12.8153948
21
29.5798416
0
LINE
8
DEFAULT_255_2_778
10
12.8153948
20
30.4989416
11
12.3557948
21
30.9585416
0
LINE
8
DEFAULT_255_2_778
10
12.3557948
20
30.9585416
11
12.9214948
21
31.5242416
0
LINE
8
DEFAULT_255_2_778
10
12.9214948
20
31.5242416
11
13.3810948
21
31.0646416
0
LINE
8
DEFAULT_255_2_778
10
13.5905522
20
49.6164083
11
8.5904522
21
47.7966083
0
LINE
8
DEFAULT_255_2_778
10
8.5904522
20
47.7966083
11
8.9873522
21
46.7060083
0
LINE
8
DEFAULT_255_2_778
10
8.9873522
20
46.7060083
11
13.5905522
21
48.3813083
0
LINE
8
DEFAULT_255_2_778
10
11.6109448
20
43.6701896
11
11.2778448
21
43.5489896
0
ARC
8
DEFAULT_255_2_778
10
13.8400379
20
36.1764525
40
0.6482989
50
112.6291847
51
135.065862
0
ARC
8
DEFAULT_255_2_778
10
12.3424318
20
37.6706271
40
0.6671917
50
315.1443733
51
359.8505785
0
ARC
8
DEFAULT_255_2_778
10
12.3629489
20
37.6688671
40
0.6466723
50
0.0017772
51
0.5753211
0
ARC
8
DEFAULT_255_2_778
10
12.3983129
20
37.6721515
40
0.6112842
50
0.3007721
51
36.9585026
0
ARC
8
DEFAULT_255_2_778
10
12.38344
20
37.6593544
40
0.6308639
50
37.0750917
51
46.7876997
0
ARC
8
DEFAULT_255_2_778
10
13.8427829
20
39.1468231
40
0.6531331
50
225.0182023
51
247.2866791
0
LINE
8
DEFAULT_255_2_778
10
13.3810948
20
36.6343416
11
12.9214948
21
36.1747416
0
LINE
8
DEFAULT_255_2_778
10
12.9214948
20
36.1747416
11
12.3557948
21
36.7404416
0
LINE
8
DEFAULT_255_2_778
10
12.3557948
20
36.7404416
11
12.8153948
21
37.2000416
0
LINE
8
DEFAULT_255_2_778
10
12.8153948
20
38.1191416
11
12.3557948
21
38.5787416
0
LINE
8
DEFAULT_255_2_778
10
12.3557948
20
38.5787416
11
12.9214948
21
39.1444416
0
LINE
8
DEFAULT_255_2_778
10
12.9214948
20
39.1444416
11
13.3810948
21
38.6848416
0
ARC
8
DEFAULT_255_2_778
10
13.8400379
20
66.6572525
40
0.6482989
50
112.6291847
51
135.065862
0
ARC
8
DEFAULT_255_2_778
10
12.3424318
20
68.1514271
40
0.6671917
50
315.1443733
51
359.8505785
0
ARC
8
DEFAULT_255_2_778
10
12.3629489
20
68.1496671
40
0.6466723
50
0.0017772
51
0.5753211
0
ARC
8
DEFAULT_255_2_778
10
12.3983129
20
68.1529515
40
0.6112842
50
0.3007721
51
36.9585026
0
ARC
8
DEFAULT_255_2_778
10
12.38344
20
68.1401544
40
0.6308639
50
37.0750917
51
46.7876997
0
ARC
8
DEFAULT_255_2_778
10
13.8427829
20
69.6276231
40
0.6531331
50
225.0182023
51
247.2866791
0
LINE
8
DEFAULT_255_2_778
10
13.3810948
20
67.1151416
11
12.9214948
21
66.6555416
0
LINE
8
DEFAULT_255_2_778
10
12.9214948
20
66.6555416
11
12.3557948
21
67.2212416
0
LINE
8
DEFAULT_255_2_778
10
12.3557948
20
67.2212416
11
12.8153948
21
67.6808416
0
LINE
8
DEFAULT_255_2_778
10
12.8153948
20
68.5999416
11
12.3557948
21
69.0595416
0
LINE
8
DEFAULT_255_2_778
10
12.3557948
20
69.0595416
11
12.9214948
21
69.6252416
0
LINE
8
DEFAULT_255_2_778
10
12.9214948
20
69.6252416
11
13.3810948
21
69.1656416
0
LINE
8
DEFAULT_255_2_778
10
13.5905522
20
41.9962083
11
8.5904522
21
40.1764083
0
LINE
8
DEFAULT_255_2_778
10
8.5904522
20
40.1764083
11
8.9873522
21
39.0858083
0
LINE
8
DEFAULT_255_2_778
10
8.9873522
20
39.0858083
11
13.5905522
21
40.7611083
0
ARC
8
DEFAULT_255_2_778
10
13.8400379
20
43.7967525
40
0.6482989
50
112.6291847
51
135.065862
0
ARC
8
DEFAULT_255_2_778
10
12.3424318
20
45.2909271
40
0.6671917
50
315.1443733
51
359.8505785
0
ARC
8
DEFAULT_255_2_778
10
12.3629489
20
45.2891671
40
0.6466723
50
0.0017772
51
0.5753211
0
ARC
8
DEFAULT_255_2_778
10
12.3983129
20
45.2924515
40
0.6112842
50
0.3007721
51
36.9585026
0
ARC
8
DEFAULT_255_2_778
10
12.38344
20
45.2796544
40
0.6308639
50
37.0750917
51
46.7876997
0
ARC
8
DEFAULT_255_2_778
10
13.8427829
20
46.7671231
40
0.6531331
50
225.0182023
51
247.2866791
0
LINE
8
DEFAULT_255_2_778
10
13.3810948
20
44.2546416
11
12.9214948
21
43.7950416
0
LINE
8
DEFAULT_255_2_778
10
12.9214948
20
43.7950416
11
12.3557948
21
44.3607416
0
LINE
8
DEFAULT_255_2_778
10
12.3557948
20
44.3607416
11
12.8153948
21
44.8203416
0
LINE
8
DEFAULT_255_2_778
10
12.8153948
20
45.7394416
11
12.3557948
21
46.1990416
0
LINE
8
DEFAULT_255_2_778
10
12.3557948
20
46.1990416
11
12.9214948
21
46.7647416
0
LINE
8
DEFAULT_255_2_778
10
12.9214948
20
46.7647416
11
13.3810948
21
46.3051416
0
ARC
8
DEFAULT_255_2_778
10
13.8400379
20
59.0370525
40
0.6482989
50
112.6291847
51
135.065862
0
ARC
8
DEFAULT_255_2_778
10
12.3424318
20
60.5312271
40
0.6671917
50
315.1443733
51
359.8505785
0
ARC
8
DEFAULT_255_2_778
10
12.3629489
20
60.5294671
40
0.6466723
50
0.0017772
51
0.5753211
0
ARC
8
DEFAULT_255_2_778
10
12.3983129
20
60.5327515
40
0.6112842
50
0.3007721
51
36.9585026
0
ARC
8
DEFAULT_255_2_778
10
12.38344
20
60.5199544
40
0.6308639
50
37.0750917
51
46.7876997
0
ARC
8
DEFAULT_255_2_778
10
13.8427829
20
62.0074231
40
0.6531331
50
225.0182023
51
247.2866791
0
LINE
8
DEFAULT_255_2_778
10
13.3810948
20
59.4949416
11
12.9214948
21
59.0353416
0
LINE
8
DEFAULT_255_2_778
10
12.9214948
20
59.0353416
11
12.3557948
21
59.6010416
0
LINE
8
DEFAULT_255_2_778
10
12.3557948
20
59.6010416
11
12.8153948
21
60.0606416
0
LINE
8
DEFAULT_255_2_778
10
12.8153948
20
60.9797416
11
12.3557948
21
61.4393416
0
LINE
8
DEFAULT_255_2_778
10
12.3557948
20
61.4393416
11
12.9214948
21
62.0050416
0
LINE
8
DEFAULT_255_2_778
10
12.9214948
20
62.0050416
11
13.3810948
21
61.5454416
0
LINE
8
DEFAULT_255_2_778
10
13.5905522
20
34.3759083
11
8.5904522
21
32.5561083
0
LINE
8
DEFAULT_255_2_778
10
8.5904522
20
32.5561083
11
8.9873522
21
31.4655083
0
LINE
8
DEFAULT_255_2_778
10
8.9873522
20
31.4655083
11
13.5905522
21
33.1408083
0
ARC
8
DEFAULT_255_2_778
10
13.8400379
20
51.4167657
40
0.6482989
50
112.6291847
51
135.065862
0
ARC
8
DEFAULT_255_2_778
10
12.3424318
20
52.9109403
40
0.6671917
50
315.1443733
51
359.8505785
0
ARC
8
DEFAULT_255_2_778
10
12.3629489
20
52.9091803
40
0.6466723
50
0.0017772
51
0.5753211
0
ARC
8
DEFAULT_255_2_778
10
12.3983129
20
52.9124647
40
0.6112842
50
0.3007721
51
36.9585026
0
ARC
8
DEFAULT_255_2_778
10
12.38344
20
52.8996676
40
0.6308639
50
37.0750917
51
46.7876997
0
ARC
8
DEFAULT_255_2_778
10
13.8418652
20
54.3857676
40
0.6515162
50
224.990198
51
247.3146477
0
LINE
8
DEFAULT_255_2_778
10
13.3810948
20
51.8746549
11
12.9214948
21
51.4150549
0
LINE
8
DEFAULT_255_2_778
10
12.9214948
20
51.4150549
11
12.3557948
21
51.9807549
0
LINE
8
DEFAULT_255_2_778
10
12.3557948
20
51.9807549
11
12.8153948
21
52.4403549
0
LINE
8
DEFAULT_255_2_778
10
12.8153948
20
53.3594549
11
12.3557948
21
53.8190549
0
LINE
8
DEFAULT_255_2_778
10
12.3557948
20
53.8190549
11
12.9214948
21
54.3847549
0
LINE
8
DEFAULT_255_2_778
10
12.9214948
20
54.3847549
11
13.3810948
21
53.9251549
0
LINE
8
DEFAULT_255_2_778
10
11.6109448
20
28.4296896
11
11.2778448
21
28.3084896
0
LINE
8
DEFAULT_255_2_778
10
13.5905522
20
26.7559083
11
8.5904522
21
24.9361083
0
LINE
8
DEFAULT_255_2_778
10
8.5904522
20
24.9361083
11
8.9873522
21
23.8455083
0
LINE
8
DEFAULT_255_2_778
10
8.9873522
20
23.8455083
11
13.5905522
21
25.5208083
0
LINE
8
DEFAULT_255_2_778
10
13.5905522
20
17.9005083
11
8.9873522
21
16.2252083
0
LINE
8
DEFAULT_255_2_778
10
8.9873522
20
16.2252083
11
8.5904522
21
17.3158083
0
LINE
8
DEFAULT_255_2_778
10
8.5904522
20
17.3158083
11
13.5905522
21
19.1356083
0
LINE
8
DEFAULT_255_2_778
10
12.0475459
20
10.9539353
11
9.9954459
21
16.5922353
0
LINE
8
DEFAULT_255_2_778
10
12.0475459
20
18.5739353
11
9.9954459
21
24.2122353
0
ARC
8
DEFAULT_255_2_778
10
0.8903807
20
97.091059
40
0.7001699
50
90.0057163
51
179.9942837
0
ARC
8
DEFAULT_255_2_778
10
0.8904446
20
0.4889627
40
0.7002338
50
180.0109556
51
269.9890543
0
ARC
8
DEFAULT_255_2_778
10
26.8907129
20
0.4890269
40
0.700298
50
270.0161895
51
359.9837989
0
ARC
8
DEFAULT_255_2_778
10
26.890777
20
97.0909951
40
0.7002338
50
0.0109416
51
89.9890543
0
LINE
8
DEFAULT_255_2_778
10
0.1902108
20
97.0911288
11
0.1902108
21
0.4888288
0
LINE
8
DEFAULT_255_2_778
10
0.8903108
20
-0.2112712
11
26.8909108
21
-0.2112712
0
LINE
8
DEFAULT_255_2_778
10
27.5910108
20
0.4888288
11
27.5910108
21
97.0911288
0
LINE
8
DEFAULT_255_2_778
10
26.8909108
20
97.7912288
11
0.8903108
21
97.7912288
0
LINE
8
DEFAULT_255_2_778
10
11.6109448
20
20.8096896
11
11.2778448
21
20.6884896
0
LINE
8
DEFAULT_255_2_778
10
12.0475459
20
26.1941353
11
9.9954459
21
31.8324353
0
LINE
8
DEFAULT_255_2_778
10
12.0475459
20
33.8144353
11
9.9954459
21
39.4527353
0
LINE
8
DEFAULT_255_2_778
10
10.4399594
20
61.0914729
11
11.2170594
21
62.7577729
0
LINE
8
DEFAULT_255_2_778
10
10.4399594
20
53.4714729
11
11.2170594
21
55.1377729
0
LINE
8
DEFAULT_255_2_778
10
11.6109448
20
13.1893896
11
11.2778448
21
13.0681896
0
LINE
8
DEFAULT_255_2_778
10
12.0475459
20
41.4344353
11
9.9954459
21
47.0727353
0
LINE
8
DEFAULT_255_2_778
10
12.0475459
20
49.0547353
11
9.9954459
21
54.6930353
0
LINE
8
DEFAULT_255_2_778
10
12.0475459
20
56.6749353
11
9.9954459
21
62.3132353
0
LINE
8
DEFAULT_255_2_778
10
10.4399594
20
45.8511729
11
11.2170594
21
47.5174729
0
LINE
8
DEFAULT_255_2_778
10
10.4399594
20
38.2309729
11
11.2170594
21
39.8972729
0
LINE
8
DEFAULT_255_2_778
10
11.6109823
20
5.5692126
11
11.2778823
21
5.4480126
0
LINE
8
DEFAULT_255_2_778
10
12.0474823
20
64.2950126
11
9.9268823
21
70.1214126
0
LINE
8
DEFAULT_255_2_778
10
10.4399594
20
30.6109729
11
11.2170594
21
32.2772729
0
LINE
8
DEFAULT_255_2_778
10
10.4399594
20
22.9906729
11
11.2170594
21
24.6569729
0
LINE
8
DEFAULT_255_2_778
10
10.4399594
20
15.3703729
11
11.2170594
21
17.0366729
0
LINE
8
DEFAULT_255_2_778
10
10.4399594
20
7.7501729
11
11.2170594
21
9.4164729
0
LINE
8
DEFAULT_255_2_778
10
11.195345
20
1.2890115
11
12.245745
21
2.7889115
0
LINE
8
DEFAULT_255_2_778
10
26.590645
20
10.0393115
11
14.590445
21
10.0393115
0
LINE
8
DEFAULT_255_2_778
10
26.590645
20
5.5390115
11
14.590445
21
5.5390115
0
LINE
8
DEFAULT_255_2_778
10
26.590645
20
19.0393115
11
14.590445
21
19.0393115
0
LINE
8
DEFAULT_255_2_778
10
26.590645
20
14.5393115
11
14.590445
21
14.5393115
0
LINE
8
DEFAULT_255_2_778
10
26.590645
20
28.0397115
11
14.590445
21
28.0397115
0
LINE
8
DEFAULT_255_2_778
10
26.590645
20
23.5394115
11
14.590445
21
23.5394115
0
LINE
8
DEFAULT_255_2_778
10
26.590645
20
55.0401115
11
14.590445
21
55.0401115
0
LINE
8
DEFAULT_255_2_778
10
26.590645
20
50.5401115
11
14.590445
21
50.5401115
0
LINE
8
DEFAULT_255_2_778
10
26.590645
20
64.0405115
11
14.590445
21
64.0405115
0
LINE
8
DEFAULT_255_2_778
10
26.590645
20
59.5404115
11
14.590445
21
59.5404115
0
LINE
8
DEFAULT_255_2_778
10
26.590645
20
73.0408115
11
14.590445
21
73.0408115
0
LINE
8
DEFAULT_255_2_778
10
26.590645
20
68.5405115
11
14.590445
21
68.5405115
0
LINE
8
DEFAULT_255_2_778
10
13.5905522
20
10.2803083
11
8.9873522
21
8.6050083
0
LINE
8
DEFAULT_255_2_778
10
8.9873522
20
8.6050083
11
8.5904522
21
9.6956083
0
LINE
8
DEFAULT_255_2_778
10
8.5904522
20
9.6956083
11
13.5905522
21
11.5154083
0
LINE
8
DEFAULT_255_2_778
10
13.5906199
20
1.2888895
11
11.1953199
21
1.2888895
0
LINE
8
DEFAULT_255_2_778
10
11.1953199
20
1.2888895
11
8.5902199
21
8.4458895
0
LINE
8
DEFAULT_255_2_778
10
10.6378271
20
10.440953
11
8.5905271
21
16.066253
0
LINE
8
DEFAULT_255_2_778
10
11.6027271
20
12.1755406
11
13.2690271
21
11.3984406
0
LINE
8
DEFAULT_255_2_778
10
10.6378271
20
18.061153
11
8.5905271
21
23.686453
0
LINE
8
DEFAULT_255_2_778
10
11.6027271
20
19.7957406
11
13.2690271
21
19.0186406
0
LINE
8
DEFAULT_255_2_778
10
10.6378271
20
25.681153
11
8.5905271
21
31.306453
0
LINE
8
DEFAULT_255_2_778
10
11.6027271
20
27.4157406
11
13.2690271
21
26.6386406
0
LINE
8
DEFAULT_255_2_778
10
10.6378271
20
33.301453
11
8.5905271
21
38.926753
0
LINE
8
DEFAULT_255_2_778
10
11.6027271
20
35.0360406
11
13.2690271
21
34.2589406
0
LINE
8
DEFAULT_255_2_778
10
10.6378271
20
40.921653
11
8.5905271
21
46.546953
0
LINE
8
DEFAULT_255_2_778
10
11.6027271
20
42.6563406
11
13.2690271
21
41.8792406
0
LINE
8
DEFAULT_255_2_778
10
10.6378271
20
48.541653
11
8.5905271
21
54.166953
0
LINE
8
DEFAULT_255_2_778
10
11.6027271
20
50.2763406
11
13.2690271
21
49.4992406
0
LINE
8
DEFAULT_255_2_778
10
10.6378271
20
56.161953
11
8.5905271
21
61.787253
0
LINE
8
DEFAULT_255_2_778
10
11.6027271
20
57.8965406
11
13.2690271
21
57.1194406
0
ARC
8
DEFAULT_255_2_778
10
14.0906409
20
81.7911066
40
0.4997474
50
89.9887792
51
135.0206486
0
ARC
8
DEFAULT_255_2_778
10
14.0903862
20
81.7908519
40
0.4997474
50
134.9793514
51
180.0112208
0
ARC
8
DEFAULT_255_2_778
10
14.0907357
20
0.288851
40
0.5000969
50
179.9996485
51
270.0003515
0
ARC
8
DEFAULT_255_2_778
10
27.0912914
20
81.7908519
40
0.4997474
50
359.9887792
51
45.0206486
0
ARC
8
DEFAULT_255_2_778
10
27.0910607
20
81.7911643
40
0.4996897
50
44.9766167
51
90.0025073
0
ARC
8
DEFAULT_255_2_778
10
9.0906131
20
81.7909322
40
0.4999219
50
89.9970574
51
135.0123564
0
ARC
8
DEFAULT_255_2_778
10
9.0902862
20
81.7908519
40
0.4997474
50
134.9793514
51
180.0112208
0
ARC
8
DEFAULT_255_2_778
10
9.0906357
20
0.288851
40
0.5000969
50
179.9996485
51
270.0003515
0
LINE
8
DEFAULT_255_2_778
10
13.5906388
20
81.7907541
11
13.5906388
21
0.2888541
0
LINE
8
DEFAULT_255_2_778
10
27.0910388
20
82.2908541
11
9.0906388
21
82.2908541
0
LINE
8
DEFAULT_255_2_778
10
8.5905388
20
81.7907541
11
8.5905388
21
0.2888541
0
LINE
8
DEFAULT_255_2_778
10
26.5906388
20
1.0388541
11
26.5906388
21
81.0406541
0
LINE
8
DEFAULT_255_2_778
10
26.5906388
20
81.0406541
11
14.5905388
21
81.0406541
0
LINE
8
DEFAULT_255_2_778
10
14.5905388
20
81.0406541
11
14.5905388
21
1.0388541
0
LINE
8
DEFAULT_255_2_778
10
14.5905388
20
1.0388541
11
26.5906388
21
1.0388541
0
LINE
8
DEFAULT_255_2_778
10
26.5906116
20
46.0400166
11
14.5904116
21
46.0400166
0
LINE
8
DEFAULT_255_2_778
10
26.5906116
20
41.5400166
11
14.5904116
21
41.5400166
0
LINE
8
DEFAULT_255_2_778
10
10.6378271
20
63.782253
11
8.5905271
21
69.407553
0
LINE
8
DEFAULT_255_2_778
10
11.6027271
20
65.5168406
11
13.2690271
21
64.7397406
0
LINE
8
DEFAULT_255_2_778
10
17.5906
20
73.0404948
11
17.5906
21
1.0388948
0
LINE
8
DEFAULT_255_2_778
10
26.5906116
20
37.0397166
11
14.5904116
21
37.0397166
0
LINE
8
DEFAULT_255_2_778
10
26.5906116
20
32.5397166
11
14.5904116
21
32.5397166
0
ARC
8
DEFAULT_255_2_778
10
13.8377283
20
7.1848834
40
2.7440715
50
95.1675016
51
116.0915726
0
ARC
8
DEFAULT_255_2_778
10
13.8435115
20
7.1771473
40
2.7535632
50
116.128849
51
170.1358571
0
ARC
8
DEFAULT_255_2_778
10
13.8528835
20
7.1800223
40
2.7623078
50
170.2279107
51
180.0190891
0
ARC
8
DEFAULT_255_2_778
10
13.8341337
20
7.1765174
40
2.7435589
50
179.9460228
51
200.8736476
0
ARC
8
DEFAULT_255_2_778
10
13.8429211
20
7.1818899
40
2.7536844
50
200.9129507
51
254.9178283
0
ARC
8
DEFAULT_255_2_778
10
13.8410903
20
7.1918331
40
2.7628122
50
255.0081436
51
264.797638
0
LINE
8
DEFAULT_255_2_778
10
13.5905813
20
10.0587958
11
13.5191813
21
10.2545958
0
LINE
8
DEFAULT_255_2_778
10
12.2309104
20
9.4088229
11
12.1097104
21
9.7416229
0
LINE
8
DEFAULT_255_2_778
10
11.0976771
20
6.9787896
11
10.7648771
21
6.8575896
0
ARC
8
DEFAULT_255_2_778
10
13.8377283
20
14.8048834
40
2.7440715
50
95.1675016
51
116.0915726
0
ARC
8
DEFAULT_255_2_778
10
13.8435115
20
14.7971473
40
2.7535632
50
116.128849
51
170.1358571
0
ARC
8
DEFAULT_255_2_778
10
13.8528835
20
14.8000223
40
2.7623078
50
170.2279107
51
180.0190891
0
ARC
8
DEFAULT_255_2_778
10
13.8341337
20
14.7965174
40
2.7435589
50
179.9460228
51
200.8736476
0
ARC
8
DEFAULT_255_2_778
10
13.8429211
20
14.8018899
40
2.7536844
50
200.9129507
51
254.9178283
0
ARC
8
DEFAULT_255_2_778
10
13.8410903
20
14.8118331
40
2.7628122
50
255.0081436
51
264.797638
0
LINE
8
DEFAULT_255_2_778
10
13.5905813
20
17.6787958
11
13.5191813
21
17.8745958
0
LINE
8
DEFAULT_255_2_778
10
12.2309104
20
17.0288229
11
12.1097104
21
17.3616229
0
LINE
8
DEFAULT_255_2_778
10
11.0976771
20
14.5987896
11
10.7648771
21
14.4775896
0
ARC
8
DEFAULT_255_2_778
10
13.8377283
20
22.4251834
40
2.7440715
50
95.1675016
51
116.0915726
0
ARC
8
DEFAULT_255_2_778
10
13.8435115
20
22.4174473
40
2.7535632
50
116.128849
51
170.1358571
0
ARC
8
DEFAULT_255_2_778
10
13.8528835
20
22.4203223
40
2.7623078
50
170.2279107
51
180.0190891
0
ARC
8
DEFAULT_255_2_778
10
13.8341337
20
22.4168174
40
2.7435589
50
179.9460228
51
200.8736476
0
ARC
8
DEFAULT_255_2_778
10
13.8429211
20
22.4221899
40
2.7536844
50
200.9129507
51
254.9178283
0
ARC
8
DEFAULT_255_2_778
10
13.8410903
20
22.4321331
40
2.7628122
50
255.0081436
51
264.797638
0
LINE
8
DEFAULT_255_2_778
10
13.5905813
20
25.2990958
11
13.5191813
21
25.4948958
0
LINE
8
DEFAULT_255_2_778
10
12.2309104
20
24.6490229
11
12.1097104
21
24.9818229
0
LINE
8
DEFAULT_255_2_778
10
11.0976771
20
22.2190896
11
10.7648771
21
22.0978896
0
ARC
8
DEFAULT_255_2_778
10
13.8377283
20
30.0453834
40
2.7440715
50
95.1675016
51
116.0915726
0
ARC
8
DEFAULT_255_2_778
10
13.8435115
20
30.0376473
40
2.7535632
50
116.128849
51
170.1358571
0
ARC
8
DEFAULT_255_2_778
10
13.8528835
20
30.0405223
40
2.7623078
50
170.2279107
51
180.0190891
0
ARC
8
DEFAULT_255_2_778
10
13.8341337
20
30.0370174
40
2.7435589
50
179.9460228
51
200.8736476
0
ARC
8
DEFAULT_255_2_778
10
13.8429211
20
30.0423899
40
2.7536844
50
200.9129507
51
254.9178283
0
ARC
8
DEFAULT_255_2_778
10
13.8410903
20
30.0523331
40
2.7628122
50
255.0081436
51
264.797638
0
LINE
8
DEFAULT_255_2_778
10
13.5905813
20
32.9193958
11
13.5191813
21
33.1151958
0
LINE
8
DEFAULT_255_2_778
10
12.2309104
20
32.2693229
11
12.1097104
21
32.6021229
0
LINE
8
DEFAULT_255_2_778
10
11.0976771
20
29.8393896
11
10.7648771
21
29.7181896
0
ARC
8
DEFAULT_255_2_778
10
13.8377283
20
37.6656834
40
2.7440715
50
95.1675016
51
116.0915726
0
ARC
8
DEFAULT_255_2_778
10
13.8435115
20
37.6579473
40
2.7535632
50
116.128849
51
170.1358571
0
ARC
8
DEFAULT_255_2_778
10
13.8528835
20
37.6608223
40
2.7623078
50
170.2279107
51
180.0190891
0
ARC
8
DEFAULT_255_2_778
10
13.8341337
20
37.6573174
40
2.7435589
50
179.9460228
51
200.8736476
0
ARC
8
DEFAULT_255_2_778
10
13.8429211
20
37.6626899
40
2.7536844
50
200.9129507
51
254.9178283
0
ARC
8
DEFAULT_255_2_778
10
13.8410903
20
37.6726331
40
2.7628122
50
255.0081436
51
264.797638
0
LINE
8
DEFAULT_255_2_778
10
13.5905813
20
40.5393958
11
13.5191813
21
40.7351958
0
LINE
8
DEFAULT_255_2_778
10
12.2309104
20
39.8893229
11
12.1097104
21
40.2221229
0
LINE
8
DEFAULT_255_2_778
10
11.0976771
20
37.4595896
11
10.7648771
21
37.3383896
0
ARC
8
DEFAULT_255_2_778
10
13.8377283
20
45.2856834
40
2.7440715
50
95.1675016
51
116.0915726
0
ARC
8
DEFAULT_255_2_778
10
13.8435115
20
45.2779473
40
2.7535632
50
116.128849
51
170.1358571
0
ARC
8
DEFAULT_255_2_778
10
13.8528835
20
45.2808223
40
2.7623078
50
170.2279107
51
180.0190891
0
ARC
8
DEFAULT_255_2_778
10
13.8341337
20
45.2773174
40
2.7435589
50
179.9460228
51
200.8736476
0
ARC
8
DEFAULT_255_2_778
10
13.8429211
20
45.2826899
40
2.7536844
50
200.9129507
51
254.9178283
0
ARC
8
DEFAULT_255_2_778
10
13.8410903
20
45.2926331
40
2.7628122
50
255.0081436
51
264.797638
0
LINE
8
DEFAULT_255_2_778
10
13.5905813
20
48.1595958
11
13.5191813
21
48.3553958
0
LINE
8
DEFAULT_255_2_778
10
12.2309104
20
47.5096229
11
12.1097104
21
47.8424229
0
LINE
8
DEFAULT_255_2_778
10
11.0976771
20
45.0795896
11
10.7648771
21
44.9583896
0
ARC
8
DEFAULT_255_2_778
10
13.8377283
20
52.9059834
40
2.7440715
50
95.1675016
51
116.0915726
0
ARC
8
DEFAULT_255_2_778
10
13.8435115
20
52.8982473
40
2.7535632
50
116.128849
51
170.1358571
0
ARC
8
DEFAULT_255_2_778
10
13.8528835
20
52.9011223
40
2.7623078
50
170.2279107
51
180.0190891
0
ARC
8
DEFAULT_255_2_778
10
13.8341337
20
52.8976174
40
2.7435589
50
179.9460228
51
200.8736476
0
ARC
8
DEFAULT_255_2_778
10
13.8429211
20
52.9029899
40
2.7536844
50
200.9129507
51
254.9178283
0
ARC
8
DEFAULT_255_2_778
10
13.8410903
20
52.9129331
40
2.7628122
50
255.0081436
51
264.797638
0
LINE
8
DEFAULT_255_2_778
10
13.5905813
20
55.7798958
11
13.5191813
21
55.9756958
0
LINE
8
DEFAULT_255_2_778
10
12.2309104
20
55.1298229
11
12.1097104
21
55.4626229
0
LINE
8
DEFAULT_255_2_778
10
11.0976771
20
52.6998896
11
10.7648771
21
52.5786896
0
ARC
8
DEFAULT_255_2_778
10
13.8377283
20
60.5261834
40
2.7440715
50
95.1675016
51
116.0915726
0
ARC
8
DEFAULT_255_2_778
10
13.8435115
20
60.5184473
40
2.7535632
50
116.128849
51
170.1358571
0
ARC
8
DEFAULT_255_2_778
10
13.8528835
20
60.5213223
40
2.7623078
50
170.2279107
51
180.0190891
0
ARC
8
DEFAULT_255_2_778
10
13.8341337
20
60.5178174
40
2.7435589
50
179.9460228
51
200.8736476
0
ARC
8
DEFAULT_255_2_778
10
13.8429211
20
60.5231899
40
2.7536844
50
200.9129507
51
254.9178283
0
ARC
8
DEFAULT_255_2_778
10
13.8410903
20
60.5331331
40
2.7628122
50
255.0081436
51
264.797638
0
LINE
8
DEFAULT_255_2_778
10
13.5905813
20
63.4001958
11
13.5191813
21
63.5959958
0
LINE
8
DEFAULT_255_2_778
10
12.2309104
20
62.7498229
11
12.1097104
21
63.0826229
0
LINE
8
DEFAULT_255_2_778
10
11.0976771
20
60.3201896
11
10.7648771
21
60.1989896
0
ARC
8
DEFAULT_255_2_778
10
13.8377283
20
68.1461834
40
2.7440715
50
95.1675016
51
116.0915726
0
ARC
8
DEFAULT_255_2_778
10
13.8435115
20
68.1384473
40
2.7535632
50
116.128849
51
170.1358571
0
ARC
8
DEFAULT_255_2_778
10
13.8528835
20
68.1413223
40
2.7623078
50
170.2279107
51
180.0190891
0
ARC
8
DEFAULT_255_2_778
10
13.8341337
20
68.1378174
40
2.7435589
50
179.9460228
51
200.8736476
0
ARC
8
DEFAULT_255_2_778
10
13.8429211
20
68.1431899
40
2.7536844
50
200.9129507
51
254.9178283
0
ARC
8
DEFAULT_255_2_778
10
13.8410903
20
68.1531331
40
2.7628122
50
255.0081436
51
264.797638
0
LINE
8
DEFAULT_255_2_778
10
13.5905813
20
71.0201958
11
13.5191813
21
71.2159958
0
LINE
8
DEFAULT_255_2_778
10
12.2309104
20
70.3701229
11
12.1097104
21
70.7029229
0
LINE
8
DEFAULT_255_2_778
10
11.0976771
20
67.9401896
11
10.7648771
21
67.8189896
0
ARC
8
DEFAULT_255_2_778
10
13.8381476
20
78.2959619
40
1.7445902
50
98.1661573
51
128.1721956
0
ARC
8
DEFAULT_255_2_778
10
13.840246
20
78.2908659
40
1.7498939
50
128.1230881
51
174.1085308
0
ARC
8
DEFAULT_255_2_778
10
13.8525655
20
78.2910811
40
1.7621268
50
174.1566072
51
180.0071084
0
ARC
8
DEFAULT_255_2_778
10
13.8346378
20
78.289216
40
1.7442
50
179.9459153
51
210.1128954
0
ARC
8
DEFAULT_255_2_778
10
13.840056
20
78.2904682
40
1.7495161
50
210.059346
51
255.9048628
0
ARC
8
DEFAULT_255_2_778
10
13.8414111
20
78.302208
40
1.7612332
50
255.9551145
51
261.804282
0
ARC
8
DEFAULT_255_2_778
10
13.8403727
20
78.2975822
40
2.4932465
50
95.7508807
51
118.3393396
0
ARC
8
DEFAULT_255_2_778
10
13.8459699
20
78.2892573
40
2.503231
50
118.3616467
51
170.485882
0
ARC
8
DEFAULT_255_2_778
10
13.85509
20
78.2915517
40
2.5118491
50
170.5718851
51
180.0176005
0
ARC
8
DEFAULT_255_2_778
10
13.8366476
20
78.2883351
40
2.4934077
50
179.943816
51
202.5311358
0
ARC
8
DEFAULT_255_2_778
10
13.8453169
20
78.2929579
40
2.5031869
50
202.5528334
51
254.6778026
0
ARC
8
DEFAULT_255_2_778
10
13.8438991
20
78.3021408
40
2.5116717
50
254.7643515
51
264.210599
0
ARC
8
DEFAULT_255_2_778
10
13.8407148
20
78.2962746
40
2.9946482
50
94.7910539
51
114.477764
0
ARC
8
DEFAULT_255_2_778
10
13.8470831
20
78.2886842
40
3.0041962
50
114.5283227
51
169.8900312
0
ARC
8
DEFAULT_255_2_778
10
13.8574644
20
78.291821
40
3.0138696
50
169.9833811
51
180.0201839
0
ARC
8
DEFAULT_255_2_778
10
13.8383327
20
78.288066
40
2.9947388
50
179.9484709
51
199.6340783
0
ARC
8
DEFAULT_255_2_778
10
13.8463184
20
78.2936788
40
3.0041473
50
199.6837261
51
255.0453873
0
ARC
8
DEFAULT_255_2_778
10
13.843936
20
78.3039889
40
3.0134974
50
255.1397356
51
265.1775241
0
ARC
8
DEFAULT_255_2_778
10
13.8375367
20
78.2948492
40
3.2458139
50
94.36417
51
113.1421779
0
ARC
8
DEFAULT_255_2_778
10
13.8442157
20
78.2879862
40
3.2547516
50
113.2028109
51
168.6123017
0
ARC
8
DEFAULT_255_2_778
10
13.8513544
20
78.2922646
40
3.2609098
50
168.7107617
51
180.0248202
0
ARC
8
DEFAULT_255_2_778
10
13.8355962
20
78.2880464
40
3.2451526
50
179.9504648
51
198.7298747
0
ARC
8
DEFAULT_255_2_778
10
13.8434308
20
78.2942762
40
3.2545743
50
198.7894514
51
254.2031134
0
ARC
8
DEFAULT_255_2_778
10
13.8394898
20
78.3012653
40
3.2602317
50
254.3031947
51
265.6207428
0
ARC
8
DEFAULT_255_2_778
10
13.8397498
20
76.8079394
40
0.6477537
50
112.6196834
51
135.075485
0
ARC
8
DEFAULT_255_2_778
10
12.3559369
20
78.2907966
40
0.6499788
50
314.9843445
51
359.988543
0
ARC
8
DEFAULT_255_2_778
10
12.3561696
20
78.2905331
40
0.6497461
50
0.0117781
51
45.0241611
0
ARC
8
DEFAULT_255_2_778
10
13.8428038
20
79.7778482
40
0.6531331
50
225.0182023
51
247.2866791
0
ARC
8
DEFAULT_255_2_778
10
14.4747804
20
71.0253815
40
1.9797728
50
352.2708318
51
0.3526479
0
ARC
8
DEFAULT_255_2_778
10
15.3546052
20
70.9008042
40
1.0911988
50
339.2585695
51
352.5395239
0
ARC
8
DEFAULT_255_2_778
10
15.7648883
20
70.7489387
40
0.6537317
50
325.3409329
51
338.971151
0
ARC
8
DEFAULT_255_2_778
10
15.8937036
20
70.668489
40
0.5020735
50
275.6525322
51
324.53268
0
ARC
8
DEFAULT_255_2_778
10
15.8309229
20
70.9943445
40
0.8330822
50
269.8138067
51
277.742412
0
ARC
8
DEFAULT_255_2_778
10
15.8151757
20
70.854748
40
0.693604
50
249.6035247
51
271.0772443
0
ARC
8
DEFAULT_255_2_778
10
15.7457711
20
70.6517045
40
0.479136
50
215.6473229
51
248.9206405
0
ARC
8
DEFAULT_255_2_778
10
15.9581406
20
70.7933292
40
0.7343011
50
194.7280038
51
214.9699755
0
ARC
8
DEFAULT_255_2_778
10
16.5552876
20
70.9610516
40
1.3545082
50
184.0221151
51
195.16787
0
ARC
8
DEFAULT_255_2_778
10
17.25939
20
71.0261219
40
2.061499
50
180.6296774
51
184.4535601
0
ARC
8
DEFAULT_255_2_778
10
17.1321143
20
71.3531217
40
1.9341362
50
172.1825507
51
180.357115
0
ARC
8
DEFAULT_255_2_778
10
16.2731036
20
71.4761271
40
1.0663898
50
159.0218048
51
172.4523757
0
ARC
8
DEFAULT_255_2_778
10
15.8749341
20
71.625272
40
0.6412248
50
144.9778398
51
158.7277727
0
ARC
8
DEFAULT_255_2_778
10
15.7560262
20
71.6994609
40
0.501327
50
96.2941284
51
144.1223736
0
ARC
8
DEFAULT_255_2_778
10
15.8223335
20
71.3672395
40
0.8393333
50
89.7827747
51
98.3073181
0
ARC
8
DEFAULT_255_2_778
10
15.8386396
20
71.4865934
40
0.7200929
50
70.5843754
51
91.044294
0
ARC
8
DEFAULT_255_2_778
10
15.9169046
20
71.7204816
40
0.473505
50
36.2795619
51
70.1082805
0
ARC
8
DEFAULT_255_2_778
10
15.7315239
20
71.5984972
40
0.6952218
50
14.9549332
51
35.3434558
0
ARC
8
DEFAULT_255_2_778
10
15.12036
20
71.4238528
40
1.3307991
50
4.2866942
51
15.4290696
0
ARC
8
DEFAULT_255_2_778
10
14.3449388
20
71.3499316
40
2.1096355
50
0.4273533
51
4.7145599
0
ARC
8
DEFAULT_255_2_778
10
14.5596615
20
71.3953198
40
1.6418977
50
359.582877
51
7.4356281
0
ARC
8
DEFAULT_255_2_778
10
15.4246939
20
71.5137297
40
0.7688352
50
7.0281041
51
21.0135344
0
ARC
8
DEFAULT_255_2_778
10
15.749943
20
71.6326715
40
0.4226025
50
21.7726468
51
31.227836
0
ARC
8
DEFAULT_255_2_778
10
15.8469268
20
71.68863
40
0.3106687
50
31.6759471
51
93.9342727
0
ARC
8
DEFAULT_255_2_778
10
15.8042365
20
71.6926848
40
0.3066211
50
86.0205301
51
148.6373692
0
ARC
8
DEFAULT_255_2_778
10
16.030946
20
71.5711636
40
0.5636318
50
150.0836383
51
168.8073464
0
ARC
8
DEFAULT_255_2_778
10
16.697107
20
71.4265622
40
1.2452541
50
168.2301953
51
178.1787809
0
ARC
8
DEFAULT_255_2_778
10
17.3831464
20
71.3867977
40
1.9322942
50
177.6467763
51
179.5353833
0
ARC
8
DEFAULT_255_2_778
10
17.0450883
20
70.9852662
40
1.5942208
50
179.5543278
51
187.9801389
0
ARC
8
DEFAULT_255_2_778
10
16.214773
20
70.8632945
40
0.7550329
50
187.5613961
51
202.5269561
0
ARC
8
DEFAULT_255_2_778
10
15.9227704
20
70.7496835
40
0.4418381
50
203.4255322
51
211.1443456
0
ARC
8
DEFAULT_255_2_778
10
15.8125296
20
70.6768147
40
0.3098454
50
210.1550094
51
272.9018753
0
ARC
8
DEFAULT_255_2_778
10
15.8460346
20
70.6727386
40
0.3058914
50
266.6604833
51
328.3803901
0
ARC
8
DEFAULT_255_2_778
10
15.6347785
20
70.7920359
40
0.5484076
50
329.33843
51
348.3672487
0
ARC
8
DEFAULT_255_2_778
10
14.9705216
20
70.9431386
40
1.2295693
50
347.7120757
51
357.4335696
0
ARC
8
DEFAULT_255_2_778
10
14.2467176
20
70.9926931
40
1.9549409
50
356.9325533
51
359.3075348
0
ARC
8
DEFAULT_255_2_778
10
13.9650845
20
63.8545668
40
2.5843503
50
318.3085534
51
322.7037448
0
ARC
8
DEFAULT_255_2_778
10
15.2006724
20
62.9211011
40
1.0358211
50
322.3661335
51
330.7163858
0
ARC
8
DEFAULT_255_2_778
10
15.5990839
20
62.6880019
40
0.5743683
50
331.5578412
51
331.9564123
0
ARC
8
DEFAULT_255_2_778
10
15.6932126
20
62.644773
40
0.4710069
50
331.2142821
51
359.7680934
0
ARC
8
DEFAULT_255_2_778
10
15.8077606
20
62.6564504
40
0.3567138
50
357.8176392
51
42.7234671
0
ARC
8
DEFAULT_255_2_778
10
15.8328968
20
62.6682461
40
0.3303514
50
44.1784933
51
92.5644811
0
ARC
8
DEFAULT_255_2_778
10
15.8047447
20
62.5546543
40
0.4438138
50
88.2735603
51
117.0882546
0
ARC
8
DEFAULT_255_2_778
10
15.758234
20
62.6641736
40
0.325239
50
118.5791653
51
135.8128626
0
ARC
8
DEFAULT_255_2_778
10
15.8064482
20
62.629756
40
0.383905
50
137.1451116
51
177.0068812
0
ARC
8
DEFAULT_255_2_778
10
16.0534536
20
62.5930225
40
0.6329386
50
174.8532096
51
180.0865313
0
ARC
8
DEFAULT_255_2_778
10
15.79636
20
62.6068473
40
0.629018
50
151.1203654
51
181.3464622
0
ARC
8
DEFAULT_255_2_778
10
15.7288595
20
62.6320787
40
0.5578251
50
133.5513306
51
150.041074
0
ARC
8
DEFAULT_255_2_778
10
15.7650384
20
62.586738
40
0.615634
50
95.0268128
51
133.0842138
0
ARC
8
DEFAULT_255_2_778
10
15.8161928
20
62.2770351
40
0.9289334
50
89.8813963
51
96.4962227
0
ARC
8
DEFAULT_255_2_778
10
15.8309994
20
62.4313799
40
0.7746938
50
71.230126
51
90.9529103
0
ARC
8
DEFAULT_255_2_778
10
15.9065001
20
62.6689454
40
0.5254921
50
48.1476078
51
70.6898156
0
ARC
8
DEFAULT_255_2_778
10
15.923045
20
62.6939544
40
0.4958439
50
357.769536
51
47.6434913
0
ARC
8
DEFAULT_255_2_778
10
15.6749823
20
62.6727674
40
0.7435333
50
359.9999397
51
0.1455757
0
ARC
8
DEFAULT_255_2_778
10
15.8053052
20
62.6856484
40
0.6133458
50
336.1720212
51
358.7965602
0
ARC
8
DEFAULT_255_2_778
10
15.2666065
20
62.910425
40
1.1969954
50
324.9825144
51
336.7470389
0
ARC
8
DEFAULT_255_2_778
10
14.4643998
20
63.4620256
40
2.1705241
50
317.8453036
51
325.2089829
0
ARC
8
DEFAULT_255_2_778
10
13.872819
20
63.9756758
40
2.9538572
50
317.3046899
51
318.1603745
0
ARC
8
DEFAULT_255_2_778
10
15.7698321
20
58.2835766
40
0.4770467
50
269.2893939
51
295.3297221
0
ARC
8
DEFAULT_255_2_778
10
15.8259744
20
58.1465356
40
0.329256
50
296.7019632
51
311.7956791
0
ARC
8
DEFAULT_255_2_778
10
15.8337721
20
58.1339398
40
0.3146791
50
312.2657012
51
2.6459404
0
ARC
8
DEFAULT_255_2_778
10
15.6971673
20
58.1610144
40
0.4511229
50
358.4061459
51
21.8970067
0
ARC
8
DEFAULT_255_2_778
10
15.8629075
20
58.2165241
40
0.2768301
50
24.0305473
51
85.5451751
0
ARC
8
DEFAULT_255_2_778
10
15.8020882
20
57.9264951
40
0.5719777
50
81.7250036
51
90.2677139
0
ARC
8
DEFAULT_255_2_778
10
15.7848849
20
58.1193791
40
0.3793659
50
87.8048722
51
124.5704014
0
ARC
8
DEFAULT_255_2_778
10
15.7565033
20
58.176057
40
0.3167135
50
126.1607558
51
133.7690549
0
ARC
8
DEFAULT_255_2_778
10
15.7673758
20
58.1710553
40
0.327876
50
134.536467
51
182.5151966
0
ARC
8
DEFAULT_255_2_778
10
15.6944365
20
58.1677998
40
0.5077429
50
131.2113868
51
181.2564138
0
ARC
8
DEFAULT_255_2_778
10
15.7703608
20
58.0877216
40
0.6180217
50
90.7379283
51
131.6154132
0
ARC
8
DEFAULT_255_2_778
10
15.799188
20
57.832593
40
0.8738735
50
89.9850708
51
92.4126382
0
ARC
8
DEFAULT_255_2_778
10
15.8125295
20
57.9331031
40
0.7734747
50
71.2760651
51
90.9714652
0
ARC
8
DEFAULT_255_2_778
10
15.8907788
20
58.1785494
40
0.5159208
50
47.2606444
51
70.7560505
0
ARC
8
DEFAULT_255_2_778
10
15.8896355
20
58.1897228
40
0.50856
50
3.8326323
51
46.3116827
0
ARC
8
DEFAULT_255_2_778
10
15.606388
20
58.1444965
40
0.7946287
50
359.9041117
51
5.7215412
0
ARC
8
DEFAULT_255_2_778
10
15.963597
20
58.1494204
40
0.4374634
50
323.8672685
51
359.1809047
0
ARC
8
DEFAULT_255_2_778
10
15.9005344
20
58.1812896
40
0.5073172
50
291.6516806
51
325.1600847
0
ARC
8
DEFAULT_255_2_778
10
15.9535086
20
57.2390028
40
0.4895203
50
37.5683047
51
74.0880192
0
ARC
8
DEFAULT_255_2_778
10
15.9522672
20
57.258516
40
0.4788819
50
358.2110967
51
35.6268621
0
ARC
8
DEFAULT_255_2_778
10
15.8350949
20
57.2292476
40
0.5959928
50
332.2612062
51
1.3766926
0
ARC
8
DEFAULT_255_2_778
10
15.9182748
20
57.1973298
40
0.507624
50
311.7081775
51
331.0798663
0
ARC
8
DEFAULT_255_2_778
10
15.8449003
20
57.2872768
40
0.6236126
50
273.7572295
51
311.2425537
0
ARC
8
DEFAULT_255_2_778
10
15.8019142
20
57.5789144
40
0.9177485
50
269.925178
51
275.2421865
0
ARC
8
DEFAULT_255_2_778
10
15.7870935
20
57.4302782
40
0.7692322
50
248.5060573
51
271.0146896
0
ARC
8
DEFAULT_255_2_778
10
15.7267707
20
57.2551289
40
0.5842163
50
229.172004
51
247.7167998
0
ARC
8
DEFAULT_255_2_778
10
15.6724732
20
57.1956049
40
0.5036814
50
177.9449695
51
229.4187851
0
ARC
8
DEFAULT_255_2_778
10
15.7485325
20
57.1995264
40
0.3254241
50
177.509619
51
226.8606825
0
ARC
8
DEFAULT_255_2_778
10
15.7754184
20
57.2463388
40
0.3781697
50
228.7382996
51
269.7521439
0
ARC
8
DEFAULT_255_2_778
10
15.8006962
20
57.4656767
40
0.5981099
50
267.4209306
51
270.0210225
0
ARC
8
DEFAULT_255_2_778
10
15.8138342
20
57.3276466
40
0.4602613
50
268.3916188
51
293.6154044
0
ARC
8
DEFAULT_255_2_778
10
15.8727157
20
57.1756183
40
0.2974581
50
294.9544905
51
314.4753876
0
ARC
8
DEFAULT_255_2_778
10
15.8348401
20
57.1995537
40
0.3412272
50
316.1979126
51
357.0077956
0
ARC
8
DEFAULT_255_2_778
10
15.5882758
20
57.2372213
40
0.5899408
50
354.6037699
51
0.1015262
0
ARC
8
DEFAULT_255_2_778
10
15.8113795
20
57.2522316
40
0.3671019
50
357.8198733
51
32.3994845
0
ARC
8
DEFAULT_255_2_778
10
15.8804287
20
57.2852503
40
0.2912521
50
34.1937091
51
48.9717096
0
ARC
8
DEFAULT_255_2_778
10
15.8198022
20
57.1984944
40
0.3966551
50
50.591707
51
82.7937314
0
ARC
8
DEFAULT_255_2_778
10
15.7567404
20
56.8720458
40
0.7287562
50
81.0942043
51
89.4358568
0
ARC
8
DEFAULT_255_2_778
10
15.8991622
20
48.3465589
40
0.6415979
50
89.0396539
51
120.0771214
0
ARC
8
DEFAULT_255_2_778
10
15.9242107
20
48.3888841
40
0.599353
50
61.9334114
51
91.3666728
0
ARC
8
DEFAULT_255_2_778
10
15.9527863
20
48.4650592
40
0.5188002
50
41.3880317
51
60.7599107
0
ARC
8
DEFAULT_255_2_778
10
15.8623697
20
48.3938628
40
0.633739
50
7.5237068
51
40.812632
0
ARC
8
DEFAULT_255_2_778
10
15.5058767
20
48.3260955
40
0.9962473
50
359.768291
51
8.703117
0
ARC
8
DEFAULT_255_2_778
10
15.6567242
20
48.3091352
40
0.8454904
50
341.9413765
51
0.8763522
0
ARC
8
DEFAULT_255_2_778
10
15.9160513
20
48.2288614
40
0.5740683
50
317.0025674
51
341.5352329
0
ARC
8
DEFAULT_255_2_778
10
15.9306877
20
48.2268617
40
0.5620642
50
275.7946966
51
316.1341272
0
ARC
8
DEFAULT_255_2_778
10
15.8742785
20
48.5402725
40
0.8799093
50
269.8396355
51
277.3887804
0
ARC
8
DEFAULT_255_2_778
10
15.8579957
20
48.362884
40
0.7026533
50
246.409345
51
271.1269863
0
ARC
8
DEFAULT_255_2_778
10
15.8070385
20
48.2238947
40
0.5549585
50
228.7481625
51
245.4878648
0
ARC
8
DEFAULT_255_2_778
10
15.8189005
20
48.2274185
40
0.5654675
50
187.229074
51
228.0799567
0
ARC
8
DEFAULT_255_2_778
10
16.0767151
20
48.2853252
40
0.8288966
50
185.1121026
51
188.9576769
0
ARC
8
DEFAULT_255_2_778
10
15.9483969
20
48.2607547
40
0.4607252
50
186.1412171
51
212.3143269
0
ARC
8
DEFAULT_255_2_778
10
15.8199879
20
48.1888013
40
0.3138372
50
213.7445061
51
228.4957577
0
ARC
8
DEFAULT_255_2_778
10
15.8496281
20
48.2370101
40
0.3697114
50
230.0067715
51
270.3518509
0
ARC
8
DEFAULT_255_2_778
10
15.8717019
20
48.4455452
40
0.5785786
50
268.0385133
51
270.0112661
0
ARC
8
DEFAULT_255_2_778
10
15.8883478
20
48.2073414
40
0.340776
50
267.2193156
51
319.7959799
0
ARC
8
DEFAULT_255_2_778
10
15.8000513
20
48.2640426
40
0.4450244
50
321.5589074
51
354.2472668
0
ARC
8
DEFAULT_255_2_778
10
15.4878159
20
48.3170641
40
0.7613044
50
352.6321736
51
0.1958687
0
ARC
8
DEFAULT_255_2_778
10
15.7404129
20
48.333393
40
0.5088879
50
358.454354
51
26.915621
0
ARC
8
DEFAULT_255_2_778
10
15.8481416
20
48.3781053
40
0.3926897
50
28.2139511
51
41.9020451
0
ARC
8
DEFAULT_255_2_778
10
15.8665769
20
48.3916697
40
0.3699161
50
42.245334
51
92.3799539
0
ARC
8
DEFAULT_255_2_778
10
15.8384805
20
48.2669844
40
0.4944462
50
88.5241046
51
111.2623331
0
ARC
8
DEFAULT_255_2_778
10
15.7758877
20
48.446673
40
0.304367
50
112.5481331
51
127.306895
0
ARC
8
DEFAULT_255_2_778
10
16.1530343
20
44.1850056
40
0.7802617
50
90.074799
51
111.9440648
0
ARC
8
DEFAULT_255_2_778
10
16.0854808
20
44.3725854
40
0.581075
50
112.6776543
51
134.0296824
0
ARC
8
DEFAULT_255_2_778
10
16.1456235
20
44.3256125
40
0.6567341
50
134.9539613
51
167.3830973
0
ARC
8
DEFAULT_255_2_778
10
16.4976682
20
44.2262949
40
1.0221678
50
166.2607396
51
175.1134293
0
ARC
8
DEFAULT_255_2_778
10
15.8771234
20
43.9626738
40
0.5303923
50
90.2250682
51
138.6089109
0
ARC
8
DEFAULT_255_2_778
10
15.9083988
20
43.7039929
40
0.7897739
50
89.9842642
51
92.4208089
0
ARC
8
DEFAULT_255_2_778
10
15.9288849
20
43.977888
40
0.5162767
50
40.1482775
51
92.2500355
0
ARC
8
DEFAULT_255_2_778
10
15.8107959
20
43.8880789
40
0.6644896
50
4.8026462
51
39.5022727
0
ARC
8
DEFAULT_255_2_778
10
15.4986743
20
43.839431
40
0.979843
50
359.8968319
51
6.1093782
0
ARC
8
DEFAULT_255_2_778
10
15.6340774
20
43.8243004
40
0.844544
50
340.794428
51
0.9068368
0
ARC
8
DEFAULT_255_2_778
10
15.8631196
20
43.7508548
40
0.6041184
50
317.8653366
51
340.2265581
0
ARC
8
DEFAULT_255_2_778
10
15.8931723
20
43.7282605
40
0.5666844
50
270.3726409
51
317.520927
0
ARC
8
DEFAULT_255_2_778
10
15.8623306
20
43.9872287
40
0.8263622
50
269.9850962
51
272.394641
0
ARC
8
DEFAULT_255_2_778
10
15.8473191
20
43.7292617
40
0.5685876
50
217.87703
51
271.4911974
0
ARC
8
DEFAULT_255_2_778
10
16.0241143
20
43.8753185
40
0.7978402
50
187.1817228
51
218.361083
0
ARC
8
DEFAULT_255_2_778
10
16.3950574
20
43.9418003
40
1.1743476
50
179.8162434
51
188.1373642
0
ARC
8
DEFAULT_255_2_778
10
17.2628652
20
44.0551434
40
2.0421877
50
170.9763236
51
180.3500506
0
ARC
8
DEFAULT_255_2_778
10
16.4941236
20
44.1818816
40
1.2630906
50
156.2990543
51
171.1849081
0
ARC
8
DEFAULT_255_2_778
10
16.1476656
20
44.3289821
40
0.8867371
50
141.3530788
51
156.0037771
0
ARC
8
DEFAULT_255_2_778
10
16.0557209
20
44.3918274
40
0.7757242
50
100.8506293
51
140.7371772
0
ARC
8
DEFAULT_255_2_778
10
16.1636516
20
43.9513847
40
1.2288271
50
90.4912556
51
101.9272024
0
ARC
8
DEFAULT_255_2_778
10
15.8654325
20
43.8803179
40
0.4026497
50
89.8743256
51
126.2899147
0
ARC
8
DEFAULT_255_2_778
10
15.858133
20
43.8686085
40
0.4079687
50
124.4899892
51
159.8168765
0
ARC
8
DEFAULT_255_2_778
10
16.2669874
20
43.903675
40
0.7918751
50
179.0744274
51
197.6243938
0
ARC
8
DEFAULT_255_2_778
10
16.0068517
20
43.8264677
40
0.5205988
50
198.1944331
51
216.0817734
0
ARC
8
DEFAULT_255_2_778
10
15.8640965
20
43.7017697
40
0.3322078
50
213.1996398
51
269.692869
0
ARC
8
DEFAULT_255_2_778
10
15.8757017
20
43.6907896
40
0.3215018
50
267.6137405
51
322.5437677
0
ARC
8
DEFAULT_255_2_778
10
15.7428347
20
43.7833718
40
0.4833337
50
323.4103914
51
356.1622076
0
ARC
8
DEFAULT_255_2_778
10
15.4638523
20
43.8233903
40
0.7646644
50
354.5693126
51
0.0956334
0
ARC
8
DEFAULT_255_2_778
10
15.6337087
20
43.8379518
40
0.5949554
50
358.7204986
51
22.3764898
0
ARC
8
DEFAULT_255_2_778
10
15.7979945
20
43.8970366
40
0.4206212
50
23.453528
51
38.0293693
0
ARC
8
DEFAULT_255_2_778
10
15.875369
20
43.9648654
40
0.3179388
50
36.991168
51
91.6857963
0
ARC
8
DEFAULT_255_2_778
10
15.9512195
20
35.6513426
40
0.4620526
50
326.0748401
51
0.8958338
0
ARC
8
DEFAULT_255_2_778
10
15.8931212
20
35.6946747
40
0.5344565
50
295.3462971
51
325.6963785
0
ARC
8
DEFAULT_255_2_778
10
15.9049667
20
34.6842587
40
0.5702858
50
35.5915257
51
67.6402117
0
ARC
8
DEFAULT_255_2_778
10
15.9681888
20
34.7310123
40
0.4916653
50
359.283797
51
35.4488894
0
ARC
8
DEFAULT_255_2_778
10
15.9082615
20
34.7097656
40
0.5517609
50
328.3289524
51
1.5683153
0
ARC
8
DEFAULT_255_2_778
10
15.9550636
20
34.6932991
40
0.5033938
50
311.0144962
51
327.1270692
0
ARC
8
DEFAULT_255_2_778
10
15.8800909
20
34.7880267
40
0.6240957
50
275.2885311
51
310.5008527
0
ARC
8
DEFAULT_255_2_778
10
15.8286901
20
35.1015888
40
0.9413244
50
269.8737338
51
276.6448127
0
ARC
8
DEFAULT_255_2_778
10
15.8134671
20
34.9553078
40
0.7951499
50
250.3993374
51
270.9474831
0
ARC
8
DEFAULT_255_2_778
10
15.7432758
20
34.7396004
40
0.5684296
50
228.4855712
51
249.7705839
0
ARC
8
DEFAULT_255_2_778
10
15.7135947
20
34.7015346
40
0.5202623
50
178.31261
51
228.1545769
0
ARC
8
DEFAULT_255_2_778
10
15.9553766
20
34.7248731
40
0.7618609
50
180.000486
51
180.6030573
0
ARC
8
DEFAULT_255_2_778
10
15.7007011
20
34.7304472
40
0.5072161
50
145.7150464
51
180.6303991
0
ARC
8
DEFAULT_255_2_778
10
15.7336224
20
34.7057755
40
0.5483181
50
112.304971
51
145.5227708
0
ARC
8
DEFAULT_255_2_778
10
15.7519784
20
35.6853249
40
0.5237492
50
213.6946039
51
244.3808174
0
ARC
8
DEFAULT_255_2_778
10
15.7091675
20
35.651534
40
0.4694045
50
179.1415559
51
213.1618875
0
ARC
8
DEFAULT_255_2_778
10
15.8023914
20
35.6729237
40
0.5627589
50
151.5319274
51
181.4618892
0
ARC
8
DEFAULT_255_2_778
10
15.721914
20
35.7049763
40
0.4768428
50
132.2638103
51
150.3081325
0
ARC
8
DEFAULT_255_2_778
10
15.7824451
20
35.6295028
40
0.5734383
50
93.7994706
51
131.6680061
0
ARC
8
DEFAULT_255_2_778
10
15.8250933
20
35.3447795
40
0.8606878
50
89.9186292
51
95.3765363
0
ARC
8
DEFAULT_255_2_778
10
15.839837
20
35.5194018
40
0.686198
50
66.9160716
51
91.1290687
0
ARC
8
DEFAULT_255_2_778
10
15.8931012
20
35.6660318
40
0.5304929
50
47.6143445
51
65.9989452
0
ARC
8
DEFAULT_255_2_778
10
15.9078778
20
35.6881548
40
0.5042069
50
0.1654498
51
47.1598989
0
ARC
8
DEFAULT_255_2_778
10
15.6605384
20
35.6587629
40
0.7521773
50
359.9850516
51
2.3504436
0
ARC
8
DEFAULT_255_2_778
10
15.8399313
20
34.744036
40
0.3671464
50
357.8350806
51
44.6740623
0
ARC
8
DEFAULT_255_2_778
10
15.8399152
20
34.7322763
40
0.3755187
50
45.9483676
51
92.3960932
0
ARC
8
DEFAULT_255_2_778
10
15.8072608
20
34.7389469
40
0.3689096
50
87.3657817
51
134.1900697
0
ARC
8
DEFAULT_255_2_778
10
15.8176772
20
34.746299
40
0.3711124
50
136.134774
51
182.4914486
0
ARC
8
DEFAULT_255_2_778
10
15.8224182
20
34.7158492
40
0.3757753
50
177.8164408
51
213.8050189
0
ARC
8
DEFAULT_255_2_778
10
15.7622385
20
34.6863466
40
0.3094856
50
215.4653908
51
226.067902
0
ARC
8
DEFAULT_255_2_778
10
15.7926723
20
34.7305189
40
0.3625171
50
227.4477536
51
267.7275677
0
ARC
8
DEFAULT_255_2_778
10
15.8263815
20
34.9692108
40
0.6028446
50
265.4251819
51
270.0697751
0
ARC
8
DEFAULT_255_2_778
10
15.8404268
20
34.7981917
40
0.4320301
50
268.2343994
51
297.3971034
0
ARC
8
DEFAULT_255_2_778
10
15.8860668
20
34.6917765
40
0.3166619
50
298.9255739
51
313.9942017
0
ARC
8
DEFAULT_255_2_778
10
15.8590586
20
34.7092599
40
0.3480756
50
315.193665
51
1.5653642
0
ARC
8
DEFAULT_255_2_778
10
15.6590313
20
34.7298185
40
0.5480844
50
358.844769
51
0.0050366
0
ARC
8
DEFAULT_255_2_778
10
15.8130319
20
35.6714134
40
0.326336
50
87.6143571
51
134.2504873
0
ARC
8
DEFAULT_255_2_778
10
15.8269471
20
35.6747411
40
0.3338887
50
136.3598558
51
181.3888448
0
ARC
8
DEFAULT_255_2_778
10
16.0244144
20
35.6544163
40
0.5313987
50
178.6810063
51
180.005355
0
ARC
8
DEFAULT_255_2_778
10
15.8302746
20
35.6396695
40
0.337579
50
177.504732
51
223.156737
0
ARC
8
DEFAULT_255_2_778
10
15.8116933
20
35.6376847
40
0.3228631
50
225.1556565
51
272.6490917
0
ARC
8
DEFAULT_255_2_778
10
15.8417782
20
35.6370622
40
0.3222525
50
267.3031381
51
314.8921136
0
ARC
8
DEFAULT_255_2_778
10
15.8229567
20
35.6396695
40
0.337579
50
316.843263
51
2.495268
0
ARC
8
DEFAULT_255_2_778
10
15.8233995
20
35.6675583
40
0.3370744
50
357.7571154
51
44.0134235
0
ARC
8
DEFAULT_255_2_778
10
15.8365828
20
35.6755918
40
0.3220291
50
44.6152732
51
91.7736483
0
ARC
8
DEFAULT_255_2_778
10
15.7009088
20
30.9599629
40
0.6189226
50
297.4186513
51
320.0410166
0
ARC
8
DEFAULT_255_2_778
10
15.7498208
20
30.8671775
40
0.5140372
50
269.419812
51
297.3416415
0
ARC
8
DEFAULT_255_2_778
10
15.7323276
20
30.88362
40
0.5305956
50
237.1506677
51
271.3270333
0
ARC
8
DEFAULT_255_2_778
10
15.753162
20
30.8945991
40
0.5512414
50
203.3103458
51
235.9503356
0
ARC
8
DEFAULT_255_2_778
10
15.9890577
20
31.0059797
40
0.8120059
50
179.2811808
51
203.9413487
0
ARC
8
DEFAULT_255_2_778
10
16.0061538
20
31.0289934
40
0.8291374
50
155.2768698
51
180.8863986
0
ARC
8
DEFAULT_255_2_778
10
15.7599128
20
31.1467188
40
0.5562442
50
121.6039896
51
155.6835675
0
ARC
8
DEFAULT_255_2_778
10
15.7799367
20
31.0910769
40
0.6142466
50
88.7052842
51
120.4748122
0
ARC
8
DEFAULT_255_2_778
10
15.8154794
20
31.150098
40
0.5554913
50
36.9826551
51
92.2350609
0
ARC
8
DEFAULT_255_2_778
10
15.6270494
20
31.0118616
40
0.7891773
50
11.5839022
51
36.7700177
0
ARC
8
DEFAULT_255_2_778
10
15.1071138
20
30.8939086
40
1.3222549
50
359.4868575
51
12.0668837
0
ARC
8
DEFAULT_255_2_778
10
14.1274561
20
30.7957122
40
2.3018939
50
352.3907579
51
0.3124895
0
ARC
8
DEFAULT_255_2_778
10
15.0573331
20
30.6669239
40
1.363159
50
340.3091737
51
352.5808831
0
ARC
8
DEFAULT_255_2_778
10
15.584672
20
30.4743069
40
0.8017635
50
320.0954013
51
340.5714211
0
ARC
8
DEFAULT_255_2_778
10
15.6337528
20
30.456782
40
0.7530866
50
283.6083925
51
318.7225868
0
ARC
8
DEFAULT_255_2_778
10
15.5004984
20
30.9414019
40
1.2555498
50
270.2745929
51
284.3152784
0
ARC
8
DEFAULT_255_2_778
10
15.507265
20
30.8286348
40
0.9294745
50
270.2127141
51
286.5712935
0
ARC
8
DEFAULT_255_2_778
10
15.612389
20
30.4756872
40
0.5612044
50
286.5616732
51
312.5668548
0
ARC
8
DEFAULT_255_2_778
10
15.6147996
20
30.4476667
40
0.5392106
50
314.3925902
51
344.5942258
0
ARC
8
DEFAULT_255_2_778
10
15.1522809
20
30.5897474
40
1.0229519
50
343.8041228
51
357.4427254
0
ARC
8
DEFAULT_255_2_778
10
14.7564132
20
30.6239331
40
1.4200465
50
356.7774232
51
357.5070713
0
ARC
8
DEFAULT_255_2_778
10
15.7861536
20
30.9520513
40
0.389585
50
269.9208942
51
306.8903288
0
ARC
8
DEFAULT_255_2_778
10
15.7542548
20
31.016232
40
0.4602483
50
305.2699446
51
336.5893178
0
ARC
8
DEFAULT_255_2_778
10
15.3396496
20
30.9474472
40
0.8370667
50
359.1114703
51
17.247543
0
ARC
8
DEFAULT_255_2_778
10
15.6106169
20
31.0258076
40
0.5550774
50
17.8158064
51
34.3823097
0
ARC
8
DEFAULT_255_2_778
10
15.7797178
20
31.1573165
40
0.3415049
50
32.1941042
51
73.4258959
0
ARC
8
DEFAULT_255_2_778
10
15.7967919
20
31.1806283
40
0.3144413
50
75.1963603
51
90.2507583
0
ARC
8
DEFAULT_255_2_778
10
15.7858973
20
31.1701254
40
0.3250806
50
88.3221353
51
142.6676084
0
ARC
8
DEFAULT_255_2_778
10
15.9158809
20
31.073492
40
0.4870408
50
142.9018082
51
176.0114905
0
ARC
8
DEFAULT_255_2_778
10
16.2018118
20
31.0316518
40
0.7754974
50
174.3969011
51
180.1023381
0
ARC
8
DEFAULT_255_2_778
10
16.0320988
20
31.0167354
40
0.6059342
50
178.7204102
51
203.5746335
0
ARC
8
DEFAULT_255_2_778
10
15.888286
20
30.963432
40
0.4528885
50
204.6705805
51
216.4334423
0
ARC
8
DEFAULT_255_2_778
10
15.7775619
20
30.8719008
40
0.3095469
50
214.9741025
51
271.5464317
0
ARC
8
DEFAULT_255_2_778
10
15.9350387
20
21.5353701
40
1.142564
50
78.2606301
51
90.6229862
0
ARC
8
DEFAULT_255_2_778
10
16.05461
20
22.0800466
40
0.5849857
50
54.6095353
51
78.8728231
0
ARC
8
DEFAULT_255_2_778
10
16.1308937
20
22.2036734
40
0.4401234
50
50.6400345
51
53.3844846
0
ARC
8
DEFAULT_255_2_778
10
16.1205613
20
22.2007213
40
0.4490002
50
4.7133239
51
49.8594875
0
ARC
8
DEFAULT_255_2_778
10
15.8307943
20
22.1492652
40
0.7425238
50
359.8535012
51
6.8336387
0
ARC
8
DEFAULT_255_2_778
10
16.1687124
20
22.1412651
40
0.4046493
50
323.4817188
51
0.8639782
0
ARC
8
DEFAULT_255_2_778
10
16.0836681
20
22.2103489
40
0.5141305
50
292.210611
51
322.9342677
0
ARC
8
DEFAULT_255_2_778
10
16.1618757
20
21.286353
40
0.4628225
50
36.687528
51
75.4669406
0
ARC
8
DEFAULT_255_2_778
10
16.1350417
20
21.2738827
40
0.4918282
50
358.5650793
51
35.9848172
0
ARC
8
DEFAULT_255_2_778
10
16.0287784
20
21.2476743
40
0.5980986
50
333.8189871
51
1.330956
0
ARC
8
DEFAULT_255_2_778
10
16.13105
20
21.2085236
40
0.489148
50
311.179609
51
332.6488496
0
ARC
8
DEFAULT_255_2_778
10
16.0643302
20
21.2968564
40
0.5996141
50
280.3253204
51
310.4205404
0
ARC
8
DEFAULT_255_2_778
10
15.9703917
20
21.7205559
40
1.0334207
50
269.5522383
51
281.2387594
0
ARC
8
DEFAULT_255_2_778
10
15.9808368
20
21.3771956
40
0.4757127
50
268.4074157
51
295.1465283
0
ARC
8
DEFAULT_255_2_778
10
16.0329137
20
21.247191
40
0.3359979
50
296.5282903
51
311.7882274
0
ARC
8
DEFAULT_255_2_778
10
16.0297292
20
21.2405546
40
0.3332411
50
312.9569036
51
2.6671602
0
ARC
8
DEFAULT_255_2_778
10
15.8333501
20
21.2586644
40
0.5292655
50
359.7182331
51
0.0002371
0
ARC
8
DEFAULT_255_2_778
10
15.9367074
20
21.2715945
40
0.4261045
50
358.2614012
51
24.3497737
0
ARC
8
DEFAULT_255_2_778
10
16.0618841
20
21.3130777
40
0.2952824
50
27.0319582
51
80.9068718
0
ARC
8
DEFAULT_255_2_778
10
15.9779793
20
20.9822802
40
0.6359183
50
78.1513612
51
90.5733663
0
ARC
8
DEFAULT_255_2_778
10
15.9441805
20
22.290362
40
0.4617888
50
268.3415427
51
295.9999664
0
ARC
8
DEFAULT_255_2_778
10
15.9935101
20
22.169914
40
0.3320141
50
297.4607203
51
309.8629513
0
ARC
8
DEFAULT_255_2_778
10
16.0210204
20
22.1365382
40
0.2887628
50
309.9177013
51
2.4667932
0
ARC
8
DEFAULT_255_2_778
10
15.9636934
20
22.1618923
40
0.3460638
50
357.8594756
51
27.3213379
0
ARC
8
DEFAULT_255_2_778
10
16.0772697
20
22.2122153
40
0.2221839
50
29.2351367
51
52.1124794
0
ARC
8
DEFAULT_255_2_778
10
16.0051214
20
22.1001578
40
0.3551273
50
54.0287748
51
81.9226355
0
ARC
8
DEFAULT_255_2_778
10
15.9286409
20
21.6986467
40
0.7636455
50
80.4740125
51
90.4670796
0
ARC
8
DEFAULT_255_2_778
10
15.8684579
20
16.9067758
40
0.871722
50
334.0737784
51
354.1989306
0
ARC
8
DEFAULT_255_2_778
10
16.0837592
20
16.8090661
40
0.6353999
50
311.2389897
51
333.5095946
0
ARC
8
DEFAULT_255_2_778
10
16.0529445
20
16.8597796
40
0.6939237
50
277.6052563
51
310.3919166
0
ARC
8
DEFAULT_255_2_778
10
15.9851649
20
17.2186239
40
1.0587649
50
269.7808756
51
278.6709268
0
ARC
8
DEFAULT_255_2_778
10
15.9555364
20
16.8611528
40
0.7017526
50
219.7137184
51
272.0889233
0
ARC
8
DEFAULT_255_2_778
10
16.0991947
20
16.974521
40
0.8847099
50
190.9136604
51
219.4169343
0
ARC
8
DEFAULT_255_2_778
10
16.5720981
20
17.0800653
40
1.3691154
50
179.6023767
51
191.5037704
0
ARC
8
DEFAULT_255_2_778
10
16.429767
20
17.2943202
40
1.226825
50
163.5507548
51
180.6283254
0
ARC
8
DEFAULT_255_2_778
10
16.1680363
20
17.3623901
40
0.9565726
50
154.8405251
51
163.0219013
0
ARC
8
DEFAULT_255_2_778
10
15.9775749
20
17.4658374
40
0.7403094
50
122.1877368
51
155.8204204
0
ARC
8
DEFAULT_255_2_778
10
15.9881619
20
17.4223756
40
0.7828598
50
88.8103384
51
121.1489934
0
ARC
8
DEFAULT_255_2_778
10
16.0178313
20
17.3507038
40
0.8544681
50
70.4365193
51
90.8996113
0
ARC
8
DEFAULT_255_2_778
10
16.0883429
20
17.5684872
40
0.6256798
50
47.2673516
51
69.8427497
0
ARC
8
DEFAULT_255_2_778
10
16.035693
20
17.5242355
40
0.6939649
50
11.2491751
51
46.5536118
0
ARC
8
DEFAULT_255_2_778
10
15.71576
20
17.4376709
40
1.0248848
50
5.6215975
51
12.5065826
0
ARC
8
DEFAULT_255_2_778
10
15.6679843
20
17.4354754
40
0.8104509
50
7.2723213
51
22.3103673
0
ARC
8
DEFAULT_255_2_778
10
16.0397578
20
17.5891806
40
0.4081592
50
22.1608667
51
45.9557482
0
ARC
8
DEFAULT_255_2_778
10
16.051796
20
17.5773621
40
0.4086336
50
48.3217372
51
85.4070576
0
ARC
8
DEFAULT_255_2_778
10
16.0058824
20
17.2976421
40
0.6915267
50
83.4706229
51
90.1463835
0
ARC
8
DEFAULT_255_2_778
10
15.9843531
20
17.5197216
40
0.4698609
50
87.5893986
51
142.8967524
0
ARC
8
DEFAULT_255_2_778
10
16.139156
20
17.4119616
40
0.6583725
50
143.544365
51
168.2246289
0
ARC
8
DEFAULT_255_2_778
10
16.6731793
20
17.2887942
40
1.2063486
50
167.6739415
51
180.2559661
0
ARC
8
DEFAULT_255_2_778
10
17.0991491
20
17.2739816
40
1.6323334
50
179.6692343
51
180.0005238
0
ARC
8
DEFAULT_255_2_778
10
16.6298252
20
17.068329
40
1.1630803
50
179.3675773
51
193.2198298
0
ARC
8
DEFAULT_255_2_778
10
16.1729713
20
16.959504
40
0.6934478
50
193.0988516
51
214.6067625
0
ARC
8
DEFAULT_255_2_778
10
15.9641931
20
16.8119809
40
0.4378337
50
214.2340542
51
272.188883
0
ARC
8
DEFAULT_255_2_778
10
15.9933189
20
17.0370087
40
0.6626582
50
268.9275144
51
287.2434951
0
ARC
8
DEFAULT_255_2_778
10
16.0748594
20
16.7642585
40
0.3780075
50
287.6946755
51
309.7585777
0
ARC
8
DEFAULT_255_2_778
10
16.049848
20
16.7691492
40
0.3980891
50
312.0763721
51
340.6831978
0
ARC
8
DEFAULT_255_2_778
10
15.6065358
20
16.9425134
40
0.8739566
50
339.571197
51
351.8731673
0
ARC
8
DEFAULT_255_2_778
10
15.8486565
20
12.7535004
40
0.924387
50
64.8515969
51
90.9261059
0
ARC
8
DEFAULT_255_2_778
10
15.886095
20
12.8556573
40
0.816059
50
60.0817563
51
64.1829503
0
ARC
8
DEFAULT_255_2_778
10
15.9064015
20
12.8895332
40
0.7765697
50
26.510698
51
60.1337213
0
ARC
8
DEFAULT_255_2_778
10
15.6773437
20
12.7744131
40
1.0329281
50
2.3688895
51
26.5535187
0
ARC
8
DEFAULT_255_2_778
10
15.36446
20
12.7429703
40
1.3469709
50
0.2720806
51
3.1551407
0
ARC
8
DEFAULT_255_2_778
10
15.5623176
20
12.6084708
40
1.1491785
50
342.1902911
51
0.6778784
0
ARC
8
DEFAULT_255_2_778
10
15.7911313
20
12.5443916
40
0.9117753
50
332.8738524
51
341.6262415
0
ARC
8
DEFAULT_255_2_778
10
15.9178494
20
12.4708012
40
0.7654809
50
299.287417
51
333.451589
0
ARC
8
DEFAULT_255_2_778
10
15.8443031
20
12.6201996
40
0.9318037
50
272.7249044
51
298.7377599
0
ARC
8
DEFAULT_255_2_778
10
15.8111537
20
12.919332
40
1.2323187
50
270.5329243
51
273.6032604
0
ARC
8
DEFAULT_255_2_778
10
15.8238598
20
12.6186255
40
0.717083
50
268.9337252
51
291.5806861
0
ARC
8
DEFAULT_255_2_778
10
15.8844314
20
12.4448104
40
0.5332277
50
292.3979438
51
318.3252406
0
ARC
8
DEFAULT_255_2_778
10
15.79647
20
12.510883
40
0.6429253
50
319.1392597
51
348.6305769
0
ARC
8
DEFAULT_255_2_778
10
15.3397801
20
12.6175746
40
1.1117814
50
347.8797515
51
0.5200992
0
ARC
8
DEFAULT_255_2_778
10
15.375305
20
12.7565791
40
1.076287
50
359.3179177
51
14.0509877
0
ARC
8
DEFAULT_255_2_778
10
15.801488
20
12.8659157
40
0.6363153
50
13.8173918
51
39.5238927
0
ARC
8
DEFAULT_255_2_778
10
15.8828191
20
12.9178817
40
0.5406346
50
40.7612491
51
86.0203049
0
ARC
8
DEFAULT_255_2_778
10
15.8339185
20
12.6257382
40
0.8359538
50
84.0660632
51
89.5546795
0
LINE
8
DEFAULT_255_2_778
10
13.3811157
20
77.2653666
11
12.9215157
21
76.8057666
0
LINE
8
DEFAULT_255_2_778
10
12.9215157
20
76.8057666
11
12.3558157
21
77.3714666
0
LINE
8
DEFAULT_255_2_778
10
12.3558157
20
77.3714666
11
12.8154157
21
77.8310666
0
LINE
8
DEFAULT_255_2_778
10
12.8154157
20
78.7501666
11
12.3558157
21
79.2097666
0
LINE
8
DEFAULT_255_2_778
10
12.3558157
20
79.2097666
11
12.9215157
21
79.7754666
0
LINE
8
DEFAULT_255_2_778
10
12.9215157
20
79.7754666
11
13.3811157
21
79.3158666
0
LINE
8
DEFAULT_255_2_778
10
16.4545157
20
71.3656666
11
16.4545157
21
71.0375666
0
LINE
8
DEFAULT_255_2_778
10
15.1980157
20
71.0034666
11
15.1980157
21
71.3410666
0
LINE
8
DEFAULT_255_2_778
10
16.4545157
20
71.3656666
11
16.4545157
21
71.3656666
0
LINE
8
DEFAULT_255_2_778
10
16.2015157
20
70.9690666
11
16.2015157
21
71.3833666
0
LINE
8
DEFAULT_255_2_778
10
15.4509157
20
71.4024666
11
15.4509157
21
70.9976666
0
LINE
8
DEFAULT_255_2_778
10
16.2015157
20
70.9690666
11
16.2015157
21
70.9690666
0
LINE
8
DEFAULT_255_2_778
10
16.0756157
20
67.6294666
11
16.0756157
21
65.6292666
0
LINE
8
DEFAULT_255_2_778
10
16.0756157
20
65.6292666
11
15.8213157
21
65.6292666
0
LINE
8
DEFAULT_255_2_778
10
15.8213157
20
65.6292666
11
15.8213157
21
67.3148666
0
LINE
8
DEFAULT_255_2_778
10
15.8213157
20
67.3148666
11
15.3115157
21
67.1275666
0
LINE
8
DEFAULT_255_2_778
10
15.3115157
20
67.1275666
11
15.3115157
21
67.3572666
0
LINE
8
DEFAULT_255_2_778
10
15.3115157
20
67.3572666
11
16.0362157
21
67.6292666
0
LINE
8
DEFAULT_255_2_778
10
16.0362157
20
67.6292666
11
16.0758157
21
67.6292666
0
LINE
8
DEFAULT_255_2_778
10
16.0758157
20
67.6292666
11
16.0756157
21
67.6294666
0
LINE
8
DEFAULT_255_2_778
10
16.5103157
20
61.3945666
11
16.5103157
21
61.1882666
0
LINE
8
DEFAULT_255_2_778
10
16.5103157
20
61.1882666
11
15.2059157
21
61.1882666
0
LINE
8
DEFAULT_255_2_778
10
15.2059157
20
61.1882666
11
15.2059157
21
61.3699666
0
LINE
8
DEFAULT_255_2_778
10
15.2059157
20
61.3699666
11
15.8949157
21
62.1356666
0
LINE
8
DEFAULT_255_2_778
10
15.4205157
20
62.5920666
11
15.1675157
21
62.5920666
0
LINE
8
DEFAULT_255_2_778
10
16.0438157
20
61.9726666
11
15.5107157
21
61.3943666
0
LINE
8
DEFAULT_255_2_778
10
15.5107157
20
61.3943666
11
16.5100157
21
61.3943666
0
LINE
8
DEFAULT_255_2_778
10
16.5100157
20
61.3943666
11
16.5103157
21
61.3945666
0
LINE
8
DEFAULT_255_2_778
10
15.5739157
20
57.6001666
11
15.5739157
21
57.8065666
0
LINE
8
DEFAULT_255_2_778
10
15.5739157
20
57.8065666
11
15.7639157
21
57.8065666
0
LINE
8
DEFAULT_255_2_778
10
15.4398157
20
58.1566666
11
15.1868157
21
58.1566666
0
LINE
8
DEFAULT_255_2_778
10
15.1691157
20
57.2136666
11
15.4234157
21
57.2136666
0
LINE
8
DEFAULT_255_2_778
10
15.7639157
20
57.6007666
11
15.5739157
21
57.6007666
0
LINE
8
DEFAULT_255_2_778
10
15.5739157
20
57.6007666
11
15.5739157
21
57.6001666
0
LINE
8
DEFAULT_255_2_778
10
16.2737157
20
54.1786666
11
16.2737157
21
52.8564666
0
LINE
8
DEFAULT_255_2_778
10
16.2737157
20
52.8564666
11
16.5500157
21
52.8564666
0
LINE
8
DEFAULT_255_2_778
10
16.5500157
20
52.8564666
11
16.5500157
21
52.6501666
0
LINE
8
DEFAULT_255_2_778
10
16.5500157
20
52.6501666
11
16.2737157
21
52.6501666
0
LINE
8
DEFAULT_255_2_778
10
16.2737157
20
52.6501666
11
16.2737157
21
52.1878666
0
LINE
8
DEFAULT_255_2_778
10
16.2737157
20
52.1878666
11
16.0195157
21
52.1878666
0
LINE
8
DEFAULT_255_2_778
10
16.0195157
20
52.1878666
11
16.0195157
21
52.6501666
0
LINE
8
DEFAULT_255_2_778
10
16.0195157
20
52.6501666
11
15.1130157
21
52.6501666
0
LINE
8
DEFAULT_255_2_778
10
15.1130157
20
52.6501666
11
15.1130157
21
52.7990666
0
LINE
8
DEFAULT_255_2_778
10
15.1130157
20
52.7990666
11
16.0044157
21
54.1786666
0
LINE
8
DEFAULT_255_2_778
10
16.0044157
20
54.1786666
11
16.2737157
21
54.1786666
0
LINE
8
DEFAULT_255_2_778
10
16.2737157
20
54.1786666
11
16.2737157
21
54.1786666
0
LINE
8
DEFAULT_255_2_778
10
15.9893157
20
53.7780666
11
15.4001157
21
52.8564666
0
LINE
8
DEFAULT_255_2_778
10
15.4001157
20
52.8564666
11
16.0195157
21
52.8564666
0
LINE
8
DEFAULT_255_2_778
10
16.0195157
20
52.8564666
11
16.0195157
21
53.8325666
0
LINE
8
DEFAULT_255_2_778
10
16.0195157
20
53.8325666
11
15.9893157
21
53.7777666
0
LINE
8
DEFAULT_255_2_778
10
15.9893157
20
53.7777666
11
15.9893157
21
53.7780666
0
LINE
8
DEFAULT_255_2_778
10
15.5244157
20
48.6339666
11
15.3220157
21
48.6858666
0
LINE
8
DEFAULT_255_2_778
10
15.3220157
20
48.6858666
11
15.4231157
21
49.6783666
0
LINE
8
DEFAULT_255_2_778
10
15.4231157
20
49.6783666
11
16.4431157
21
49.6783666
0
LINE
8
DEFAULT_255_2_778
10
16.4431157
20
49.6783666
11
16.4431157
21
49.4444666
0
LINE
8
DEFAULT_255_2_778
10
16.4431157
20
49.4444666
11
15.6377157
21
49.4444666
0
LINE
8
DEFAULT_255_2_778
10
15.6377157
20
49.4444666
11
15.5776157
21
48.9017666
0
LINE
8
DEFAULT_255_2_778
10
15.2511157
20
48.2114666
11
15.4903157
21
48.2114666
0
LINE
8
DEFAULT_255_2_778
10
15.5914157
20
48.6887666
11
15.5244157
21
48.6339666
0
LINE
8
DEFAULT_255_2_778
10
15.5244157
20
48.6339666
11
15.5244157
21
48.6339666
0
LINE
8
DEFAULT_255_2_778
10
16.1534157
20
45.1798666
11
16.1986157
21
45.1798666
0
LINE
8
DEFAULT_255_2_778
10
16.1986157
20
45.1798666
11
16.1986157
21
44.9652666
0
LINE
8
DEFAULT_255_2_778
10
16.1986157
20
44.9652666
11
16.1520157
21
44.9652666
0
LINE
8
DEFAULT_255_2_778
10
15.2207157
20
43.9455666
11
15.2207157
21
44.0426666
0
LINE
8
DEFAULT_255_2_778
10
16.1531157
20
45.1801666
11
16.1534157
21
45.1798666
0
LINE
8
DEFAULT_255_2_778
10
15.4752157
20
44.0093666
11
15.4752157
21
43.9164666
0
LINE
8
DEFAULT_255_2_778
10
15.8660157
20
44.2826666
11
15.8663157
21
44.2829666
0
LINE
8
DEFAULT_255_2_778
10
16.4912157
20
40.6782666
11
16.4912157
21
40.5361666
0
LINE
8
DEFAULT_255_2_778
10
16.4912157
20
40.5361666
11
15.6668157
21
38.6877666
0
LINE
8
DEFAULT_255_2_778
10
15.6668157
20
38.6877666
11
15.4017157
21
38.6877666
0
LINE
8
DEFAULT_255_2_778
10
15.4017157
20
38.6877666
11
16.2235157
21
40.4705666
0
LINE
8
DEFAULT_255_2_778
10
16.2235157
20
40.4705666
11
15.1461157
21
40.4705666
0
LINE
8
DEFAULT_255_2_778
10
15.1461157
20
40.4705666
11
15.1461157
21
40.6782666
0
LINE
8
DEFAULT_255_2_778
10
15.1461157
20
40.6782666
11
16.4915157
21
40.6782666
0
LINE
8
DEFAULT_255_2_778
10
16.4915157
20
40.6782666
11
16.4912157
21
40.6782666
0
LINE
8
DEFAULT_255_2_778
10
16.4127157
20
35.6585666
11
16.4132157
21
35.6585666
0
LINE
8
DEFAULT_255_2_778
10
16.2071157
20
34.7298666
11
16.2068157
21
34.7301666
0
LINE
8
DEFAULT_255_2_778
10
15.8266157
20
35.9974666
11
15.8266157
21
35.9974666
0
LINE
8
DEFAULT_255_2_778
10
16.4293157
20
30.8820666
11
16.4293157
21
30.8082666
0
LINE
8
DEFAULT_255_2_778
10
15.5065157
20
29.6858666
11
15.4572157
21
29.6858666
0
LINE
8
DEFAULT_255_2_778
10
15.4572157
20
29.6858666
11
15.4572157
21
29.8991666
0
LINE
8
DEFAULT_255_2_778
10
15.4572157
20
29.8991666
11
15.5107157
21
29.8991666
0
LINE
8
DEFAULT_255_2_778
10
16.1751157
20
30.5621666
11
16.1753157
21
30.5624666
0
LINE
8
DEFAULT_255_2_778
10
16.1766157
20
30.8333666
11
16.1766157
21
30.9344666
0
LINE
8
DEFAULT_255_2_778
10
15.7859157
20
30.5624666
11
15.7856157
21
30.5624666
0
LINE
8
DEFAULT_255_2_778
10
16.5608157
20
25.1871666
11
16.3709157
21
25.7067666
0
LINE
8
DEFAULT_255_2_778
10
16.3709157
20
25.7067666
11
15.5369157
21
25.7067666
0
LINE
8
DEFAULT_255_2_778
10
15.5369157
20
25.7067666
11
15.3496157
21
25.1871666
0
LINE
8
DEFAULT_255_2_778
10
15.3496157
20
25.1871666
11
15.0789157
21
25.1871666
0
LINE
8
DEFAULT_255_2_778
10
15.0789157
20
25.1871666
11
15.8390157
21
27.1778666
0
LINE
8
DEFAULT_255_2_778
10
15.8390157
20
27.1778666
11
16.0687157
21
27.1778666
0
LINE
8
DEFAULT_255_2_778
10
16.0687157
20
27.1778666
11
16.8302157
21
25.1871666
0
LINE
8
DEFAULT_255_2_778
10
16.8302157
20
25.1871666
11
16.5608157
21
25.1871666
0
LINE
8
DEFAULT_255_2_778
10
16.5608157
20
25.1871666
11
16.5608157
21
25.1871666
0
LINE
8
DEFAULT_255_2_778
10
15.9539157
20
26.8537666
11
15.6163157
21
25.9226666
0
LINE
8
DEFAULT_255_2_778
10
15.6163157
20
25.9226666
11
16.2931157
21
25.9226666
0
LINE
8
DEFAULT_255_2_778
10
16.2931157
20
25.9226666
11
15.9541157
21
26.8537666
0
LINE
8
DEFAULT_255_2_778
10
15.9541157
20
26.8537666
11
15.9539157
21
26.8537666
0
LINE
8
DEFAULT_255_2_778
10
15.9623157
20
20.6871666
11
15.2718157
21
20.6871666
0
LINE
8
DEFAULT_255_2_778
10
15.2718157
20
20.6871666
11
15.2718157
21
22.6778666
0
LINE
8
DEFAULT_255_2_778
10
15.2718157
20
22.6778666
11
15.9226157
21
22.6778666
0
LINE
8
DEFAULT_255_2_778
10
15.9623157
20
20.6871666
11
15.9623157
21
20.6871666
0
LINE
8
DEFAULT_255_2_778
10
15.9719157
20
21.6181666
11
15.5342157
21
21.6181666
0
LINE
8
DEFAULT_255_2_778
10
15.5342157
20
21.6181666
11
15.5342157
21
20.9016666
0
LINE
8
DEFAULT_255_2_778
10
15.5342157
20
20.9016666
11
15.9676157
21
20.9016666
0
LINE
8
DEFAULT_255_2_778
10
15.9716157
20
21.6181666
11
15.9719157
21
21.6181666
0
LINE
8
DEFAULT_255_2_778
10
15.5342157
20
22.4616666
11
15.5342157
21
21.8287666
0
LINE
8
DEFAULT_255_2_778
10
15.5342157
20
21.8287666
11
15.9308157
21
21.8287666
0
LINE
8
DEFAULT_255_2_778
10
15.9224157
20
22.4622666
11
15.5340157
21
22.4622666
0
LINE
8
DEFAULT_255_2_778
10
15.5340157
20
22.4622666
11
15.5342157
21
22.4616666
0
LINE
8
DEFAULT_255_2_778
10
16.4719157
20
16.8186666
11
16.7357157
21
16.8186666
0
LINE
8
DEFAULT_255_2_778
10
15.2030157
20
17.0895666
11
15.2030157
21
17.2808666
0
LINE
8
DEFAULT_255_2_778
10
16.7357157
20
17.5380666
11
16.4719157
21
17.5380666
0
LINE
8
DEFAULT_255_2_778
10
15.4668157
20
17.2739666
11
15.4668157
21
17.0811666
0
LINE
8
DEFAULT_255_2_778
10
16.4717157
20
16.8189666
11
16.4719157
21
16.8186666
0
LINE
8
DEFAULT_255_2_778
10
15.8226157
20
11.6870666
11
15.2718157
21
11.6870666
0
LINE
8
DEFAULT_255_2_778
10
15.2718157
20
11.6870666
11
15.2718157
21
13.6777666
0
LINE
8
DEFAULT_255_2_778
10
15.2718157
20
13.6777666
11
15.8337157
21
13.6777666
0
LINE
8
DEFAULT_255_2_778
10
16.7114157
20
12.7493666
11
16.7114157
21
12.6220666
0
LINE
8
DEFAULT_255_2_778
10
15.8226157
20
11.6870666
11
15.8226157
21
11.6870666
0
LINE
8
DEFAULT_255_2_778
10
15.8404157
20
13.4616666
11
15.5342157
21
13.4616666
0
LINE
8
DEFAULT_255_2_778
10
15.5342157
20
13.4616666
11
15.5342157
21
11.9016666
0
LINE
8
DEFAULT_255_2_778
10
15.5342157
20
11.9016666
11
15.8105157
21
11.9016666
0
LINE
8
DEFAULT_255_2_778
10
16.4515157
20
12.6276666
11
16.4515157
21
12.7437666
0
LINE
8
DEFAULT_255_2_778
10
15.8404157
20
13.4616666
11
15.8404157
21
13.4616666
0
LINE
8
DEFAULT_255_2_778
10
16.3970157
20
8.3215666
11
16.3970157
21
8.1069666
0
LINE
8
DEFAULT_255_2_778
10
16.3970157
20
8.1069666
11
15.5342157
21
8.1069666
0
LINE
8
DEFAULT_255_2_778
10
15.5342157
20
8.1069666
11
15.5342157
21
7.4015666
0
LINE
8
DEFAULT_255_2_778
10
15.5342157
20
7.4015666
11
16.5365157
21
7.4015666
0
LINE
8
DEFAULT_255_2_778
10
16.5365157
20
7.4015666
11
16.5365157
21
7.1870666
0
LINE
8
DEFAULT_255_2_778
10
16.5365157
20
7.1870666
11
15.2718157
21
7.1870666
0
LINE
8
DEFAULT_255_2_778
10
15.2718157
20
7.1870666
11
15.2718157
21
9.1777666
0
LINE
8
DEFAULT_255_2_778
10
15.2718157
20
9.1777666
11
16.5227157
21
9.1777666
0
LINE
8
DEFAULT_255_2_778
10
16.5227157
20
9.1777666
11
16.5227157
21
8.9618666
0
LINE
8
DEFAULT_255_2_778
10
16.5227157
20
8.9618666
11
15.5342157
21
8.9618666
0
LINE
8
DEFAULT_255_2_778
10
15.5342157
20
8.9618666
11
15.5342157
21
8.3220666
0
LINE
8
DEFAULT_255_2_778
10
15.5342157
20
8.3220666
11
16.3970157
21
8.3220666
0
LINE
8
DEFAULT_255_2_778
10
16.3970157
20
8.3220666
11
16.3970157
21
8.3215666
0
LINE
8
DEFAULT_255_2_778
10
16.3695157
20
3.7805666
11
16.3695157
21
3.5659666
0
LINE
8
DEFAULT_255_2_778
10
16.3695157
20
3.5659666
11
15.5342157
21
3.5659666
0
LINE
8
DEFAULT_255_2_778
10
15.5342157
20
3.5659666
11
15.5342157
21
2.6867666
0
LINE
8
DEFAULT_255_2_778
10
15.5342157
20
2.6867666
11
15.2718157
21
2.6867666
0
LINE
8
DEFAULT_255_2_778
10
15.2718157
20
2.6867666
11
15.2718157
21
4.6774666
0
LINE
8
DEFAULT_255_2_778
10
15.2718157
20
4.6774666
11
16.5050157
21
4.6774666
0
LINE
8
DEFAULT_255_2_778
10
16.5050157
20
4.6774666
11
16.5050157
21
4.4615666
0
LINE
8
DEFAULT_255_2_778
10
16.5050157
20
4.4615666
11
15.5342157
21
4.4615666
0
LINE
8
DEFAULT_255_2_778
10
15.5342157
20
4.4615666
11
15.5342157
21
3.7807666
0
LINE
8
DEFAULT_255_2_778
10
15.5342157
20
3.7807666
11
16.3695157
21
3.7807666
0
LINE
8
DEFAULT_255_2_778
10
16.3695157
20
3.7807666
11
16.3695157
21
3.7805666
0
ARC
8
DEFAULT_255_2_778
10
2.4558578
20
95.8428299
40
0.7978478
50
342.5280997
51
0.927118
0
ARC
8
DEFAULT_255_2_778
10
2.6770304
20
95.7826451
40
0.5688806
50
336.3170216
51
341.6219843
0
ARC
8
DEFAULT_255_2_778
10
2.7676012
20
95.7331169
40
0.4661298
50
306.0479805
51
337.4205226
0
ARC
8
DEFAULT_255_2_778
10
2.7706596
20
95.7978788
40
0.5236455
50
269.7200583
51
283.6574667
0
ARC
8
DEFAULT_255_2_778
10
2.7596433
20
95.736017
40
0.4618549
50
238.0005342
51
271.049303
0
ARC
8
DEFAULT_255_2_778
10
2.7667512
20
95.7338316
40
0.4638238
50
204.1133535
51
237.112824
0
ARC
8
DEFAULT_255_2_778
10
2.9900513
20
95.8355408
40
0.7091929
50
180.0842219
51
204.2431202
0
ARC
8
DEFAULT_255_2_778
10
3.247242
20
95.8541871
40
0.9665833
50
180.5363148
51
181.1671625
0
ARC
8
DEFAULT_255_2_778
10
3.0279041
20
95.9458036
40
0.7473261
50
157.8454493
51
181.0399789
0
ARC
8
DEFAULT_255_2_778
10
2.8886384
20
95.9919841
40
0.6010065
50
155.602407
51
156.9162022
0
ARC
8
DEFAULT_255_2_778
10
2.7656112
20
96.0586863
40
0.4615199
50
123.2294911
51
156.8349481
0
ARC
8
DEFAULT_255_2_778
10
2.758282
20
96.0553147
40
0.460393
50
89.0144193
51
122.2365369
0
ARC
8
DEFAULT_255_2_778
10
2.7758552
20
96.0480636
40
0.4676756
50
58.0843782
51
91.1828182
0
ARC
8
DEFAULT_255_2_778
10
2.7744036
20
96.0626435
40
0.4561548
50
23.1586795
51
56.9613863
0
ARC
8
DEFAULT_255_2_778
10
2.5299929
20
95.9551331
40
0.7231574
50
0.8241046
51
23.3746199
0
ARC
8
DEFAULT_255_2_778
10
2.2421975
20
95.9329313
40
1.0114036
50
359.9891408
51
1.8472689
0
ARC
8
DEFAULT_255_2_778
10
2.365379
20
95.946297
40
0.7290285
50
359.020896
51
15.4429004
0
ARC
8
DEFAULT_255_2_778
10
2.688668
20
96.0332102
40
0.3942751
50
15.7785041
51
35.6380224
0
ARC
8
DEFAULT_255_2_778
10
2.7802304
20
96.0957603
40
0.2834267
50
36.1463692
51
92.837243
0
ARC
8
DEFAULT_255_2_778
10
2.7560083
20
96.0980794
40
0.2809452
50
87.9208327
51
143.8676005
0
ARC
8
DEFAULT_255_2_778
10
2.8976968
20
96.0012982
40
0.4524801
50
144.5490003
51
173.1649015
0
ARC
8
DEFAULT_255_2_778
10
3.2495162
20
95.9384532
40
0.8095388
50
171.7118929
51
179.5621488
0
ARC
8
DEFAULT_255_2_778
10
3.124345
20
95.843147
40
0.6844597
50
178.9458233
51
197.2299545
0
ARC
8
DEFAULT_255_2_778
10
2.8577424
20
95.7652722
40
0.4067799
50
197.8764214
51
215.5544111
0
ARC
8
DEFAULT_255_2_778
10
2.756936
20
95.6898595
40
0.2809301
50
214.99627
51
272.216487
0
ARC
8
DEFAULT_255_2_778
10
2.7814289
20
95.69071
40
0.2819
50
267.2290884
51
323.1477782
0
ARC
8
DEFAULT_255_2_778
10
2.65282
20
95.7728195
40
0.4342069
50
324.6563068
51
351.8468438
0
ARC
8
DEFAULT_255_2_778
10
2.2596319
20
95.8485436
40
0.8343808
50
350.5285051
51
359.6975823
0
ARC
8
DEFAULT_255_2_778
10
5.1205496
20
95.7943622
40
1.1170125
50
349.7951564
51
0.5989867
0
ARC
8
DEFAULT_255_2_778
10
5.7179619
20
95.6802428
40
0.5088738
50
328.8380445
51
350.5238553
0
ARC
8
DEFAULT_255_2_778
10
5.8680826
20
95.5998987
40
0.3389573
50
324.9295685
51
327.3283441
0
ARC
8
DEFAULT_255_2_778
10
5.8905275
20
95.5900437
40
0.3149621
50
270.4781308
51
324.0507769
0
ARC
8
DEFAULT_255_2_778
10
5.857739
20
95.8183823
40
0.5444428
50
269.9539177
51
273.7298078
0
ARC
8
DEFAULT_255_2_778
10
5.8436885
20
95.6523831
40
0.3786883
50
239.7323797
51
272.0600375
0
ARC
8
DEFAULT_255_2_778
10
5.8072222
20
95.5712057
40
0.2903493
50
215.587169
51
237.872891
0
ARC
8
DEFAULT_255_2_778
10
5.9706734
20
95.6753453
40
0.4839884
50
190.5556429
51
214.3524193
0
ARC
8
DEFAULT_255_2_778
10
6.4990161
20
95.7890079
40
1.0243212
50
180.1995955
51
191.392009
0
ARC
8
DEFAULT_255_2_778
10
6.5485788
20
96.0027188
40
1.0739479
50
169.2120111
51
180.6551188
0
ARC
8
DEFAULT_255_2_778
10
5.968731
20
96.1195588
40
0.4825189
50
147.082183
51
169.9531984
0
ARC
8
DEFAULT_255_2_778
10
5.8359655
20
96.1946802
40
0.3303702
50
144.5612453
51
145.5057377
0
ARC
8
DEFAULT_255_2_778
10
5.8201332
20
96.199335
40
0.3148181
50
91.1338343
51
143.5806623
0
ARC
8
DEFAULT_255_2_778
10
5.8551094
20
95.9665561
40
0.5490838
50
89.9382595
51
94.3037883
0
ARC
8
DEFAULT_255_2_778
10
5.8690662
20
96.1206427
40
0.3952229
50
61.8938706
51
91.9379115
0
ARC
8
DEFAULT_255_2_778
10
5.9135272
20
96.2223038
40
0.2847363
50
36.2670698
51
60.1479488
0
ARC
8
DEFAULT_255_2_778
10
5.7676041
20
96.1301934
40
0.4570365
50
10.9040851
51
34.7556222
0
ARC
8
DEFAULT_255_2_778
10
5.205455
20
96.0074963
40
1.0323429
50
359.9007861
51
11.6890384
0
LINE
8
DEFAULT_255_2_778
10
6.2377964
20
96.0057087
11
6.2378011
21
96.0052396
0
ARC
8
DEFAULT_255_2_778
10
5.1813175
20
96.0273383
40
0.9028569
50
359.2702634
51
10.0207374
0
ARC
8
DEFAULT_255_2_778
10
5.7274038
20
96.1278958
40
0.3476268
50
9.3611218
51
29.7206934
0
ARC
8
DEFAULT_255_2_778
10
5.8686786
20
96.2011671
40
0.1887192
50
31.666414
51
93.9431324
0
ARC
8
DEFAULT_255_2_778
10
5.8429052
20
96.2038941
40
0.1859862
50
86.0549219
51
148.6920255
0
ARC
8
DEFAULT_255_2_778
10
6.0191886
20
96.1137425
40
0.3837235
50
150.8694616
51
172.8695306
0
ARC
8
DEFAULT_255_2_778
10
6.5498151
20
96.0264582
40
0.9213144
50
171.5794297
51
179.9389721
0
ARC
8
DEFAULT_255_2_778
10
6.501697
20
95.769507
40
0.8732802
50
179.2039619
51
190.8718573
0
ARC
8
DEFAULT_255_2_778
10
5.993795
20
95.6697579
40
0.3556868
50
190.5236106
51
209.8837955
0
ARC
8
DEFAULT_255_2_778
10
5.8480544
20
95.5869797
40
0.1880825
50
210.1403893
51
272.9094605
0
ARC
8
DEFAULT_255_2_778
10
5.8685163
20
95.5839868
40
0.1851692
50
266.620622
51
328.5012402
0
ARC
8
DEFAULT_255_2_778
10
5.7040895
20
95.6728789
40
0.3719499
50
330.0596884
51
352.2719502
0
ARC
8
DEFAULT_255_2_778
10
5.1549112
20
95.768271
40
0.9291977
50
350.9968691
51
359.763749
0
LINE
8
DEFAULT_255_2_778
10
3.2536011
20
95.9330396
11
3.2536011
21
95.8557396
0
LINE
8
DEFAULT_255_2_778
10
3.0419011
20
95.3562396
11
3.2578011
21
95.1869396
0
LINE
8
DEFAULT_255_2_778
10
3.2578011
20
95.1869396
11
3.1491011
21
95.0863396
0
LINE
8
DEFAULT_255_2_778
10
3.1491011
20
95.0863396
11
2.8943011
21
95.2890396
0
LINE
8
DEFAULT_255_2_778
10
2.2807011
20
95.8451396
11
2.2807011
21
95.9322396
0
LINE
8
DEFAULT_255_2_778
10
3.2536011
20
95.9327396
11
3.2536011
21
95.9330396
0
LINE
8
DEFAULT_255_2_778
10
3.0943011
20
95.8441396
11
3.0943011
21
95.9338396
0
LINE
8
DEFAULT_255_2_778
10
2.4400011
20
95.9446396
11
2.4400011
21
95.8557396
0
LINE
8
DEFAULT_255_2_778
10
3.0940011
20
95.8441396
11
3.0943011
21
95.8441396
0
LINE
8
DEFAULT_255_2_778
10
3.6020011
20
96.4989396
11
3.8933011
21
96.0356396
0
LINE
8
DEFAULT_255_2_778
10
3.8933011
20
96.0356396
11
4.1831011
21
96.4989396
0
LINE
8
DEFAULT_255_2_778
10
4.1831011
20
96.4989396
11
4.3706011
21
96.4989396
0
LINE
8
DEFAULT_255_2_778
10
4.3706011
20
96.4989396
11
3.9888011
21
95.8997396
0
LINE
8
DEFAULT_255_2_778
10
3.9888011
20
95.8997396
11
4.3799011
21
95.2903396
0
LINE
8
DEFAULT_255_2_778
10
4.3799011
20
95.2903396
11
4.1907011
21
95.2903396
0
LINE
8
DEFAULT_255_2_778
10
4.1907011
20
95.2903396
11
3.8936011
21
95.7618396
0
LINE
8
DEFAULT_255_2_778
10
3.8936011
20
95.7618396
11
3.5949011
21
95.2903396
0
LINE
8
DEFAULT_255_2_778
10
3.5949011
20
95.2903396
11
3.4065011
21
95.2903396
0
LINE
8
DEFAULT_255_2_778
10
3.4065011
20
95.2903396
11
3.7983011
21
95.8997396
0
LINE
8
DEFAULT_255_2_778
10
3.7983011
20
95.8997396
11
3.4158011
21
96.4989396
0
LINE
8
DEFAULT_255_2_778
10
3.4158011
20
96.4989396
11
3.6026011
21
96.4989396
0
LINE
8
DEFAULT_255_2_778
10
3.6026011
20
96.4989396
11
3.6020011
21
96.4989396
0
LINE
8
DEFAULT_255_2_778
10
5.3054011
20
96.4989396
11
5.3054011
21
96.4127396
0
LINE
8
DEFAULT_255_2_778
10
5.3054011
20
96.4127396
11
4.8048011
21
95.2903396
0
LINE
8
DEFAULT_255_2_778
10
4.8048011
20
95.2903396
11
4.6437011
21
95.2903396
0
LINE
8
DEFAULT_255_2_778
10
4.6437011
20
95.2903396
11
5.1427011
21
96.3727396
0
LINE
8
DEFAULT_255_2_778
10
5.1427011
20
96.3727396
11
4.4886011
21
96.3727396
0
LINE
8
DEFAULT_255_2_778
10
4.4886011
20
96.3727396
11
4.4886011
21
96.4989396
0
LINE
8
DEFAULT_255_2_778
10
4.4886011
20
96.4989396
11
5.3054011
21
96.4989396
0
LINE
8
DEFAULT_255_2_778
10
5.3054011
20
96.4989396
11
5.3054011
21
96.4989396
0
LINE
8
DEFAULT_255_2_778
10
6.2375011
20
96.0052396
11
6.2375011
21
95.8060396
0
LINE
8
DEFAULT_255_2_778
10
5.4747011
20
95.7854396
11
5.4747011
21
95.9904396
0
LINE
8
DEFAULT_255_2_778
10
6.2378011
20
96.0052396
11
6.2375011
21
96.0052396
0
LINE
8
DEFAULT_255_2_778
10
6.0841011
20
95.7644396
11
6.0841011
21
96.0158396
0
LINE
8
DEFAULT_255_2_778
10
5.6285011
20
96.0274396
11
5.6285011
21
95.7816396
0
LINE
8
DEFAULT_255_2_778
10
6.0841011
20
95.7644396
11
6.0841011
21
95.7644396
0
LINE
8
DEFAULT_255_2_778
10
7.4033011
20
96.4989396
11
7.4033011
21
95.2903396
0
LINE
8
DEFAULT_255_2_778
10
7.4033011
20
95.2903396
11
7.2430011
21
95.2903396
0
LINE
8
DEFAULT_255_2_778
10
7.2430011
20
95.2903396
11
7.2430011
21
95.8489396
0
LINE
8
DEFAULT_255_2_778
10
7.2430011
20
95.8489396
11
6.6336011
21
95.8489396
0
LINE
8
DEFAULT_255_2_778
10
6.6336011
20
95.8489396
11
6.6336011
21
95.2903396
0
LINE
8
DEFAULT_255_2_778
10
6.6336011
20
95.2903396
11
6.4743011
21
95.2903396
0
LINE
8
DEFAULT_255_2_778
10
6.4743011
20
95.2903396
11
6.4743011
21
96.4989396
0
LINE
8
DEFAULT_255_2_778
10
6.4743011
20
96.4989396
11
6.6336011
21
96.4989396
0
LINE
8
DEFAULT_255_2_778
10
6.6336011
20
96.4989396
11
6.6336011
21
95.9793396
0
LINE
8
DEFAULT_255_2_778
10
6.6336011
20
95.9793396
11
7.2430011
21
95.9793396
0
LINE
8
DEFAULT_255_2_778
10
7.2430011
20
95.9793396
11
7.2430011
21
96.4989396
0
LINE
8
DEFAULT_255_2_778
10
7.2430011
20
96.4989396
11
7.4033011
21
96.4989396
0
LINE
8
DEFAULT_255_2_778
10
7.4033011
20
96.4989396
11
7.4033011
21
96.4989396
0
ARC
8
DEFAULT_255_2_778
10
24.091261
20
85.1816649
40
0.0284881
50
90.1463643
51
131.664736
0
ARC
8
DEFAULT_255_2_778
10
24.0911832
20
85.1824225
40
0.0277303
50
87.5092922
51
89.9895854
0
ARC
8
DEFAULT_255_2_778
10
24.0912374
20
85.1832053
40
0.026946
50
71.4204242
51
87.5521267
0
ARC
8
DEFAULT_255_2_778
10
24.0908542
20
85.1817737
40
0.0284251
50
12.3365275
51
71.6075983
0
ARC
8
DEFAULT_255_2_778
10
24.0915252
20
85.1820396
40
0.027713
50
8.3487944
51
12.095807
0
ARC
8
DEFAULT_255_2_778
10
24.0918582
20
85.1820907
40
0.0273761
50
0.0036375
51
8.3442817
0
ARC
8
DEFAULT_255_2_778
10
24.0907461
20
85.1823057
40
0.0284891
50
312.0377893
51
359.5710582
0
ARC
8
DEFAULT_255_2_778
10
23.5315645
20
85.3534942
40
0.0284062
50
18.3706791
51
77.6852819
0
ARC
8
DEFAULT_255_2_778
10
23.5318306
20
85.3542149
40
0.0276456
50
77.9055154
51
83.2111073
0
ARC
8
DEFAULT_255_2_778
10
23.5318501
20
85.3543385
40
0.0275205
50
83.2210392
51
90.0047708
0
ARC
8
DEFAULT_255_2_778
10
23.5320424
20
85.3530289
40
0.0288308
50
90.386726
51
137.3917073
0
ARC
8
DEFAULT_255_2_778
10
23.5307507
20
85.3540474
40
0.0271908
50
137.1285845
51
180.1782891
0
ARC
8
DEFAULT_255_2_778
10
23.5313122
20
85.3539598
40
0.0277524
50
179.9939089
51
183.0535297
0
ARC
8
DEFAULT_255_2_778
10
23.5315048
20
85.3539711
40
0.0279453
50
183.055669
51
198.6237049
0
ARC
8
DEFAULT_255_2_778
10
23.6647605
20
85.2380005
40
0.0561197
50
201.1555579
51
269.7676663
0
ARC
8
DEFAULT_255_2_778
10
23.6645299
20
85.2376137
40
0.0557325
50
270.0031006
51
274.4178994
0
ARC
8
DEFAULT_255_2_778
10
23.6647154
20
85.2378505
40
0.0559546
50
274.2098353
51
347.4025935
0
ARC
8
DEFAULT_255_2_778
10
23.9696548
20
85.1717726
40
0.0563721
50
163.4325067
51
172.5073902
0
ARC
8
DEFAULT_255_2_778
10
23.9690846
20
85.1718522
40
0.0557963
50
172.5121014
51
180.0008981
0
ARC
8
DEFAULT_255_2_778
10
23.9691875
20
85.1718771
40
0.0558993
50
180.0264198
51
240.4546649
0
ARC
8
DEFAULT_255_2_778
10
23.969326
20
85.1718613
40
0.0559537
50
240.3233124
51
267.2741275
0
ARC
8
DEFAULT_255_2_778
10
23.9693263
20
85.1719743
40
0.0560667
50
267.2792895
51
269.9988212
0
ARC
8
DEFAULT_255_2_778
10
23.9692776
20
85.1724954
40
0.0565877
50
270.0481861
51
316.6446948
0
ARC
8
DEFAULT_255_2_778
10
25.8499044
20
84.5296995
40
0.2398528
50
270.0283202
51
330.047865
0
ARC
8
DEFAULT_255_2_778
10
25.849777
20
84.5300161
40
0.2401211
50
329.9976069
51
359.9049798
0
ARC
8
DEFAULT_255_2_778
10
25.9220518
20
84.5298927
40
0.1678461
50
359.9061751
51
0.0312749
0
ARC
8
DEFAULT_255_2_778
10
25.8501846
20
84.5299871
40
0.2397134
50
359.9993373
51
30.0284358
0
ARC
8
DEFAULT_255_2_778
10
23.8184945
20
88.0509309
40
0.2402159
50
30.0022047
51
89.9932115
0
ARC
8
DEFAULT_255_2_778
10
23.8185585
20
88.0510921
40
0.2400548
50
90.00848
51
150.0200255
0
ARC
8
DEFAULT_255_2_778
10
21.7864775
20
84.5301916
40
0.2405547
50
150.0610738
51
179.9084951
0
ARC
8
DEFAULT_255_2_778
10
21.7137692
20
84.5303009
40
0.1678461
50
179.9061751
51
180.0312749
0
ARC
8
DEFAULT_255_2_778
10
21.7860666
20
84.5301919
40
0.2401436
50
179.9958375
51
209.9650878
0
ARC
8
DEFAULT_255_2_778
10
21.7860003
20
84.5302742
40
0.2401274
50
209.9899936
51
270.0054019
0
LINE
8
DEFAULT_255_2_778
10
23.506923
20
85.3410468
11
23.718323
21
84.6904468
0
LINE
8
DEFAULT_255_2_778
10
23.718323
20
84.6904468
11
24.107523
21
85.1566468
0
LINE
8
DEFAULT_255_2_778
10
23.914323
20
85.1815468
11
24.298223
21
86.4702468
0
LINE
8
DEFAULT_255_2_778
10
24.298223
20
86.4702468
11
23.498123
21
86.0302468
0
LINE
8
DEFAULT_255_2_778
10
23.498123
20
86.0302468
11
24.058323
21
87.2637468
0
LINE
8
DEFAULT_255_2_778
10
24.058323
20
87.2637468
11
23.818023
21
87.2637468
0
LINE
8
DEFAULT_255_2_778
10
23.818023
20
87.2637468
11
23.683923
21
87.4836468
0
LINE
8
DEFAULT_255_2_778
10
23.683923
20
87.4836468
11
23.098123
21
85.5902468
0
LINE
8
DEFAULT_255_2_778
10
23.098123
20
85.5902468
11
23.898223
21
86.0302468
0
LINE
8
DEFAULT_255_2_778
10
23.898223
20
86.0302468
11
23.719823
21
85.2280468
0
LINE
8
DEFAULT_255_2_778
10
23.719823
20
85.2280468
11
23.711623
21
85.2090468
0
LINE
8
DEFAULT_255_2_778
10
23.613023
20
85.2198468
11
23.559023
21
85.3603468
0
LINE
8
DEFAULT_255_2_778
10
24.077323
20
85.2050468
11
24.010923
21
85.1338468
0
LINE
8
DEFAULT_255_2_778
10
21.782323
20
84.2898468
11
25.850023
21
84.2898468
0
LINE
8
DEFAULT_255_2_778
10
24.026823
20
88.1675468
11
26.068623
21
84.6311468
0
LINE
8
DEFAULT_255_2_778
10
23.607923
20
88.1665468
11
21.579423
21
84.6533468
0
LINE
8
DEFAULT_255_2_778
10
25.746823
20
84.5901468
11
23.818323
21
87.9302468
0
LINE
8
DEFAULT_255_2_778
10
23.818323
20
87.9302468
11
21.890023
21
84.5901468
0
LINE
8
DEFAULT_255_2_778
10
21.890023
20
84.5901468
11
25.746823
21
84.5901468
0
LINE
8
DEFAULT_255_2_778
10
25.746823
20
84.5901468
11
23.818323
21
87.9302468
0
LINE
8
DEFAULT_255_2_778
10
23.818323
20
87.9302468
11
21.890023
21
84.5901468
0
LINE
8
DEFAULT_255_2_778
10
21.890023
20
84.5901468
11
25.746823
21
84.5901468
0
ENDSEC
0
EOF