0
SECTION
2
HEADER
9
$MEASUREMENT
70
1
0
ENDSEC
0
SECTION
2
TABLES
0
TABLE
2
LTYPE
0
LTYPE
72
65
70
64
2
CONTINUOUS
3
______
73
0
40
0
0
ENDTAB
0
TABLE
2
LAYER
0
LAYER
2
DEFAULT_255_2_778
70
0
62
255
6
CONTINUOUS
0
ENDTAB
0
ENDSEC
0
SECTION
2
ENTITIES
0
LINE
8
DEFAULT_255_2_778
10
13.5906209
20
2.7889239
11
12.2457209
21
2.7889239
0
LINE
8
DEFAULT_255_2_778
10
12.2457209
20
2.7889239
11
9.9954209
21
8.9719239
0
LINE
8
DEFAULT_255_2_778
10
11.6027522
20
4.5552553
11
13.2690522
21
3.7781553
0
LINE
8
DEFAULT_255_2_778
10
13.2690522
20
3.7781553
11
13.5905522
21
3.8950553
0
LINE
8
DEFAULT_255_2_778
10
13.5905522
20
71.4548553
11
8.5904522
21
69.6350553
0
LINE
8
DEFAULT_255_2_778
10
13.5905522
20
71.2418553
11
11.2169522
21
70.3779553
0
LINE
8
DEFAULT_255_2_778
10
11.2169522
20
70.3779553
11
10.4398522
21
68.7116553
0
LINE
8
DEFAULT_255_2_778
10
11.6109522
20
66.5306553
11
11.2778522
21
66.4095553
0
LINE
8
DEFAULT_255_2_778
10
13.5905522
20
64.8567083
11
8.5904522
21
63.0369083
0
LINE
8
DEFAULT_255_2_778
10
8.5904522
20
63.0369083
11
8.9873522
21
61.9463083
0
LINE
8
DEFAULT_255_2_778
10
8.9873522
20
61.9463083
11
13.5905522
21
63.6216083
0
ARC
8
DEFAULT_255_2_778
10
13.8400379
20
5.6956525
40
0.6482989
50
112.6291847
51
135.065862
0
ARC
8
DEFAULT_255_2_778
10
12.3424318
20
7.1898271
40
0.6671917
50
315.1443733
51
359.8505785
0
ARC
8
DEFAULT_255_2_778
10
12.3629489
20
7.1880671
40
0.6466723
50
0.0017772
51
0.5753211
0
ARC
8
DEFAULT_255_2_778
10
12.3983129
20
7.1913515
40
0.6112842
50
0.3007721
51
36.9585026
0
ARC
8
DEFAULT_255_2_778
10
12.38344
20
7.1785544
40
0.6308639
50
37.0750917
51
46.7876997
0
ARC
8
DEFAULT_255_2_778
10
13.8427829
20
8.6660231
40
0.6531331
50
225.0182023
51
247.2866791
0
LINE
8
DEFAULT_255_2_778
10
13.3810948
20
6.1535416
11
12.9214948
21
5.6939416
0
LINE
8
DEFAULT_255_2_778
10
12.9214948
20
5.6939416
11
12.3557948
21
6.2596416
0
LINE
8
DEFAULT_255_2_778
10
12.3557948
20
6.2596416
11
12.8153948
21
6.7192416
0
LINE
8
DEFAULT_255_2_778
10
12.8153948
20
7.6383416
11
12.3557948
21
8.0979416
0
LINE
8
DEFAULT_255_2_778
10
12.3557948
20
8.0979416
11
12.9214948
21
8.6636416
0
LINE
8
DEFAULT_255_2_778
10
12.9214948
20
8.6636416
11
13.3810948
21
8.2040416
0
LINE
8
DEFAULT_255_2_778
10
11.6109108
20
58.9104382
11
11.2778108
21
58.7892382
0
LINE
8
DEFAULT_255_2_778
10
27.5910108
20
82.7909382
11
0.1902108
21
82.7909382
0
ARC
8
DEFAULT_255_2_778
10
13.8400379
20
13.3159525
40
0.6482989
50
112.6291847
51
135.065862
0
ARC
8
DEFAULT_255_2_778
10
12.3424318
20
14.8101271
40
0.6671917
50
315.1443733
51
359.8505785
0
ARC
8
DEFAULT_255_2_778
10
12.3629489
20
14.8083671
40
0.6466723
50
0.0017772
51
0.5753211
0
ARC
8
DEFAULT_255_2_778
10
12.3983129
20
14.8116515
40
0.6112842
50
0.3007721
51
36.9585026
0
ARC
8
DEFAULT_255_2_778
10
12.38344
20
14.7988544
40
0.6308639
50
37.0750917
51
46.7876997
0
ARC
8
DEFAULT_255_2_778
10
13.8427829
20
16.2863231
40
0.6531331
50
225.0182023
51
247.2866791
0
LINE
8
DEFAULT_255_2_778
10
13.3810948
20
13.7738416
11
12.9214948
21
13.3142416
0
LINE
8
DEFAULT_255_2_778
10
12.9214948
20
13.3142416
11
12.3557948
21
13.8799416
0
LINE
8
DEFAULT_255_2_778
10
12.3557948
20
13.8799416
11
12.8153948
21
14.3395416
0
LINE
8
DEFAULT_255_2_778
10
12.8153948
20
15.2586416
11
12.3557948
21
15.7182416
0
LINE
8
DEFAULT_255_2_778
10
12.3557948
20
15.7182416
11
12.9214948
21
16.2839416
0
LINE
8
DEFAULT_255_2_778
10
12.9214948
20
16.2839416
11
13.3810948
21
15.8243416
0
LINE
8
DEFAULT_255_2_778
10
13.5905522
20
57.2364083
11
8.5904522
21
55.4166083
0
LINE
8
DEFAULT_255_2_778
10
8.5904522
20
55.4166083
11
8.9873522
21
54.3260083
0
LINE
8
DEFAULT_255_2_778
10
8.9873522
20
54.3260083
11
13.5905522
21
56.0013083
0
LINE
8
DEFAULT_255_2_778
10
11.6109448
20
51.2901896
11
11.2778448
21
51.1689896
0
ARC
8
DEFAULT_255_2_778
10
13.8400379
20
20.9362525
40
0.6482989
50
112.6291847
51
135.065862
0
ARC
8
DEFAULT_255_2_778
10
12.3424318
20
22.4304271
40
0.6671917
50
315.1443733
51
359.8505785
0
ARC
8
DEFAULT_255_2_778
10
12.3629489
20
22.4286671
40
0.6466723
50
0.0017772
51
0.5753211
0
ARC
8
DEFAULT_255_2_778
10
12.3983129
20
22.4319515
40
0.6112842
50
0.3007721
51
36.9585026
0
ARC
8
DEFAULT_255_2_778
10
12.38344
20
22.4191544
40
0.6308639
50
37.0750917
51
46.7876997
0
ARC
8
DEFAULT_255_2_778
10
13.8427829
20
23.9066231
40
0.6531331
50
225.0182023
51
247.2866791
0
LINE
8
DEFAULT_255_2_778
10
13.3810948
20
21.3941416
11
12.9214948
21
20.9345416
0
LINE
8
DEFAULT_255_2_778
10
12.9214948
20
20.9345416
11
12.3557948
21
21.5002416
0
LINE
8
DEFAULT_255_2_778
10
12.3557948
20
21.5002416
11
12.8153948
21
21.9598416
0
LINE
8
DEFAULT_255_2_778
10
12.8153948
20
22.8789416
11
12.3557948
21
23.3385416
0
LINE
8
DEFAULT_255_2_778
10
12.3557948
20
23.3385416
11
12.9214948
21
23.9042416
0
LINE
8
DEFAULT_255_2_778
10
12.9214948
20
23.9042416
11
13.3810948
21
23.4446416
0
ARC
8
DEFAULT_255_2_778
10
13.8400379
20
28.5562525
40
0.6482989
50
112.6291847
51
135.065862
0
ARC
8
DEFAULT_255_2_778
10
12.3424318
20
30.0504271
40
0.6671917
50
315.1443733
51
359.8505785
0
ARC
8
DEFAULT_255_2_778
10
12.3629489
20
30.0486671
40
0.6466723
50
0.0017772
51
0.5753211
0
ARC
8
DEFAULT_255_2_778
10
12.3983129
20
30.0519515
40
0.6112842
50
0.3007721
51
36.9585026
0
ARC
8
DEFAULT_255_2_778
10
12.38344
20
30.0391544
40
0.6308639
50
37.0750917
51
46.7876997
0
ARC
8
DEFAULT_255_2_778
10
13.8427829
20
31.5266231
40
0.6531331
50
225.0182023
51
247.2866791
0
LINE
8
DEFAULT_255_2_778
10
13.3810948
20
29.0141416
11
12.9214948
21
28.5545416
0
LINE
8
DEFAULT_255_2_778
10
12.9214948
20
28.5545416
11
12.3557948
21
29.1202416
0
LINE
8
DEFAULT_255_2_778
10
12.3557948
20
29.1202416
11
12.8153948
21
29.5798416
0
LINE
8
DEFAULT_255_2_778
10
12.8153948
20
30.4989416
11
12.3557948
21
30.9585416
0
LINE
8
DEFAULT_255_2_778
10
12.3557948
20
30.9585416
11
12.9214948
21
31.5242416
0
LINE
8
DEFAULT_255_2_778
10
12.9214948
20
31.5242416
11
13.3810948
21
31.0646416
0
LINE
8
DEFAULT_255_2_778
10
13.5905522
20
49.6164083
11
8.5904522
21
47.7966083
0
LINE
8
DEFAULT_255_2_778
10
8.5904522
20
47.7966083
11
8.9873522
21
46.7060083
0
LINE
8
DEFAULT_255_2_778
10
8.9873522
20
46.7060083
11
13.5905522
21
48.3813083
0
LINE
8
DEFAULT_255_2_778
10
11.6109448
20
43.6701896
11
11.2778448
21
43.5489896
0
ARC
8
DEFAULT_255_2_778
10
13.8400379
20
36.1764525
40
0.6482989
50
112.6291847
51
135.065862
0
ARC
8
DEFAULT_255_2_778
10
12.3424318
20
37.6706271
40
0.6671917
50
315.1443733
51
359.8505785
0
ARC
8
DEFAULT_255_2_778
10
12.3629489
20
37.6688671
40
0.6466723
50
0.0017772
51
0.5753211
0
ARC
8
DEFAULT_255_2_778
10
12.3983129
20
37.6721515
40
0.6112842
50
0.3007721
51
36.9585026
0
ARC
8
DEFAULT_255_2_778
10
12.38344
20
37.6593544
40
0.6308639
50
37.0750917
51
46.7876997
0
ARC
8
DEFAULT_255_2_778
10
13.8427829
20
39.1468231
40
0.6531331
50
225.0182023
51
247.2866791
0
LINE
8
DEFAULT_255_2_778
10
13.3810948
20
36.6343416
11
12.9214948
21
36.1747416
0
LINE
8
DEFAULT_255_2_778
10
12.9214948
20
36.1747416
11
12.3557948
21
36.7404416
0
LINE
8
DEFAULT_255_2_778
10
12.3557948
20
36.7404416
11
12.8153948
21
37.2000416
0
LINE
8
DEFAULT_255_2_778
10
12.8153948
20
38.1191416
11
12.3557948
21
38.5787416
0
LINE
8
DEFAULT_255_2_778
10
12.3557948
20
38.5787416
11
12.9214948
21
39.1444416
0
LINE
8
DEFAULT_255_2_778
10
12.9214948
20
39.1444416
11
13.3810948
21
38.6848416
0
ARC
8
DEFAULT_255_2_778
10
13.8400379
20
66.6572525
40
0.6482989
50
112.6291847
51
135.065862
0
ARC
8
DEFAULT_255_2_778
10
12.3424318
20
68.1514271
40
0.6671917
50
315.1443733
51
359.8505785
0
ARC
8
DEFAULT_255_2_778
10
12.3629489
20
68.1496671
40
0.6466723
50
0.0017772
51
0.5753211
0
ARC
8
DEFAULT_255_2_778
10
12.3983129
20
68.1529515
40
0.6112842
50
0.3007721
51
36.9585026
0
ARC
8
DEFAULT_255_2_778
10
12.38344
20
68.1401544
40
0.6308639
50
37.0750917
51
46.7876997
0
ARC
8
DEFAULT_255_2_778
10
13.8427829
20
69.6276231
40
0.6531331
50
225.0182023
51
247.2866791
0
LINE
8
DEFAULT_255_2_778
10
13.3810948
20
67.1151416
11
12.9214948
21
66.6555416
0
LINE
8
DEFAULT_255_2_778
10
12.9214948
20
66.6555416
11
12.3557948
21
67.2212416
0
LINE
8
DEFAULT_255_2_778
10
12.3557948
20
67.2212416
11
12.8153948
21
67.6808416
0
LINE
8
DEFAULT_255_2_778
10
12.8153948
20
68.5999416
11
12.3557948
21
69.0595416
0
LINE
8
DEFAULT_255_2_778
10
12.3557948
20
69.0595416
11
12.9214948
21
69.6252416
0
LINE
8
DEFAULT_255_2_778
10
12.9214948
20
69.6252416
11
13.3810948
21
69.1656416
0
LINE
8
DEFAULT_255_2_778
10
13.5905522
20
41.9962083
11
8.5904522
21
40.1764083
0
LINE
8
DEFAULT_255_2_778
10
8.5904522
20
40.1764083
11
8.9873522
21
39.0858083
0
LINE
8
DEFAULT_255_2_778
10
8.9873522
20
39.0858083
11
13.5905522
21
40.7611083
0
ARC
8
DEFAULT_255_2_778
10
13.8400379
20
43.7967525
40
0.6482989
50
112.6291847
51
135.065862
0
ARC
8
DEFAULT_255_2_778
10
12.3424318
20
45.2909271
40
0.6671917
50
315.1443733
51
359.8505785
0
ARC
8
DEFAULT_255_2_778
10
12.3629489
20
45.2891671
40
0.6466723
50
0.0017772
51
0.5753211
0
ARC
8
DEFAULT_255_2_778
10
12.3983129
20
45.2924515
40
0.6112842
50
0.3007721
51
36.9585026
0
ARC
8
DEFAULT_255_2_778
10
12.38344
20
45.2796544
40
0.6308639
50
37.0750917
51
46.7876997
0
ARC
8
DEFAULT_255_2_778
10
13.8427829
20
46.7671231
40
0.6531331
50
225.0182023
51
247.2866791
0
LINE
8
DEFAULT_255_2_778
10
13.3810948
20
44.2546416
11
12.9214948
21
43.7950416
0
LINE
8
DEFAULT_255_2_778
10
12.9214948
20
43.7950416
11
12.3557948
21
44.3607416
0
LINE
8
DEFAULT_255_2_778
10
12.3557948
20
44.3607416
11
12.8153948
21
44.8203416
0
LINE
8
DEFAULT_255_2_778
10
12.8153948
20
45.7394416
11
12.3557948
21
46.1990416
0
LINE
8
DEFAULT_255_2_778
10
12.3557948
20
46.1990416
11
12.9214948
21
46.7647416
0
LINE
8
DEFAULT_255_2_778
10
12.9214948
20
46.7647416
11
13.3810948
21
46.3051416
0
ARC
8
DEFAULT_255_2_778
10
13.8400379
20
59.0370525
40
0.6482989
50
112.6291847
51
135.065862
0
ARC
8
DEFAULT_255_2_778
10
12.3424318
20
60.5312271
40
0.6671917
50
315.1443733
51
359.8505785
0
ARC
8
DEFAULT_255_2_778
10
12.3629489
20
60.5294671
40
0.6466723
50
0.0017772
51
0.5753211
0
ARC
8
DEFAULT_255_2_778
10
12.3983129
20
60.5327515
40
0.6112842
50
0.3007721
51
36.9585026
0
ARC
8
DEFAULT_255_2_778
10
12.38344
20
60.5199544
40
0.6308639
50
37.0750917
51
46.7876997
0
ARC
8
DEFAULT_255_2_778
10
13.8427829
20
62.0074231
40
0.6531331
50
225.0182023
51
247.2866791
0
LINE
8
DEFAULT_255_2_778
10
13.3810948
20
59.4949416
11
12.9214948
21
59.0353416
0
LINE
8
DEFAULT_255_2_778
10
12.9214948
20
59.0353416
11
12.3557948
21
59.6010416
0
LINE
8
DEFAULT_255_2_778
10
12.3557948
20
59.6010416
11
12.8153948
21
60.0606416
0
LINE
8
DEFAULT_255_2_778
10
12.8153948
20
60.9797416
11
12.3557948
21
61.4393416
0
LINE
8
DEFAULT_255_2_778
10
12.3557948
20
61.4393416
11
12.9214948
21
62.0050416
0
LINE
8
DEFAULT_255_2_778
10
12.9214948
20
62.0050416
11
13.3810948
21
61.5454416
0
LINE
8
DEFAULT_255_2_778
10
13.5905522
20
34.3759083
11
8.5904522
21
32.5561083
0
LINE
8
DEFAULT_255_2_778
10
8.5904522
20
32.5561083
11
8.9873522
21
31.4655083
0
LINE
8
DEFAULT_255_2_778
10
8.9873522
20
31.4655083
11
13.5905522
21
33.1408083
0
ARC
8
DEFAULT_255_2_778
10
13.8400379
20
51.4167657
40
0.6482989
50
112.6291847
51
135.065862
0
ARC
8
DEFAULT_255_2_778
10
12.3424318
20
52.9109403
40
0.6671917
50
315.1443733
51
359.8505785
0
ARC
8
DEFAULT_255_2_778
10
12.3629489
20
52.9091803
40
0.6466723
50
0.0017772
51
0.5753211
0
ARC
8
DEFAULT_255_2_778
10
12.3983129
20
52.9124647
40
0.6112842
50
0.3007721
51
36.9585026
0
ARC
8
DEFAULT_255_2_778
10
12.38344
20
52.8996676
40
0.6308639
50
37.0750917
51
46.7876997
0
ARC
8
DEFAULT_255_2_778
10
13.8418652
20
54.3857676
40
0.6515162
50
224.990198
51
247.3146477
0
LINE
8
DEFAULT_255_2_778
10
13.3810948
20
51.8746549
11
12.9214948
21
51.4150549
0
LINE
8
DEFAULT_255_2_778
10
12.9214948
20
51.4150549
11
12.3557948
21
51.9807549
0
LINE
8
DEFAULT_255_2_778
10
12.3557948
20
51.9807549
11
12.8153948
21
52.4403549
0
LINE
8
DEFAULT_255_2_778
10
12.8153948
20
53.3594549
11
12.3557948
21
53.8190549
0
LINE
8
DEFAULT_255_2_778
10
12.3557948
20
53.8190549
11
12.9214948
21
54.3847549
0
LINE
8
DEFAULT_255_2_778
10
12.9214948
20
54.3847549
11
13.3810948
21
53.9251549
0
LINE
8
DEFAULT_255_2_778
10
11.6109448
20
28.4296896
11
11.2778448
21
28.3084896
0
LINE
8
DEFAULT_255_2_778
10
13.5905522
20
26.7559083
11
8.5904522
21
24.9361083
0
LINE
8
DEFAULT_255_2_778
10
8.5904522
20
24.9361083
11
8.9873522
21
23.8455083
0
LINE
8
DEFAULT_255_2_778
10
8.9873522
20
23.8455083
11
13.5905522
21
25.5208083
0
LINE
8
DEFAULT_255_2_778
10
13.5905522
20
17.9005083
11
8.9873522
21
16.2252083
0
LINE
8
DEFAULT_255_2_778
10
8.9873522
20
16.2252083
11
8.5904522
21
17.3158083
0
LINE
8
DEFAULT_255_2_778
10
8.5904522
20
17.3158083
11
13.5905522
21
19.1356083
0
LINE
8
DEFAULT_255_2_778
10
12.0475459
20
10.9539353
11
9.9954459
21
16.5922353
0
LINE
8
DEFAULT_255_2_778
10
12.0475459
20
18.5739353
11
9.9954459
21
24.2122353
0
ARC
8
DEFAULT_255_2_778
10
0.8903807
20
97.091059
40
0.7001699
50
90.0057163
51
179.9942837
0
ARC
8
DEFAULT_255_2_778
10
0.8904446
20
0.4889627
40
0.7002338
50
180.0109556
51
269.9890543
0
ARC
8
DEFAULT_255_2_778
10
26.8907129
20
0.4890269
40
0.700298
50
270.0161895
51
359.9837989
0
ARC
8
DEFAULT_255_2_778
10
26.890777
20
97.0909951
40
0.7002338
50
0.0109416
51
89.9890543
0
LINE
8
DEFAULT_255_2_778
10
0.1902108
20
97.0911288
11
0.1902108
21
0.4888288
0
LINE
8
DEFAULT_255_2_778
10
0.8903108
20
-0.2112712
11
26.8909108
21
-0.2112712
0
LINE
8
DEFAULT_255_2_778
10
27.5910108
20
0.4888288
11
27.5910108
21
97.0911288
0
LINE
8
DEFAULT_255_2_778
10
26.8909108
20
97.7912288
11
0.8903108
21
97.7912288
0
LINE
8
DEFAULT_255_2_778
10
11.6109448
20
20.8096896
11
11.2778448
21
20.6884896
0
LINE
8
DEFAULT_255_2_778
10
12.0475459
20
26.1941353
11
9.9954459
21
31.8324353
0
LINE
8
DEFAULT_255_2_778
10
12.0475459
20
33.8144353
11
9.9954459
21
39.4527353
0
LINE
8
DEFAULT_255_2_778
10
10.4399594
20
61.0914729
11
11.2170594
21
62.7577729
0
LINE
8
DEFAULT_255_2_778
10
10.4399594
20
53.4714729
11
11.2170594
21
55.1377729
0
LINE
8
DEFAULT_255_2_778
10
11.6109448
20
13.1893896
11
11.2778448
21
13.0681896
0
LINE
8
DEFAULT_255_2_778
10
12.0475459
20
41.4344353
11
9.9954459
21
47.0727353
0
LINE
8
DEFAULT_255_2_778
10
12.0475459
20
49.0547353
11
9.9954459
21
54.6930353
0
LINE
8
DEFAULT_255_2_778
10
12.0475459
20
56.6749353
11
9.9954459
21
62.3132353
0
LINE
8
DEFAULT_255_2_778
10
10.4399594
20
45.8511729
11
11.2170594
21
47.5174729
0
LINE
8
DEFAULT_255_2_778
10
10.4399594
20
38.2309729
11
11.2170594
21
39.8972729
0
LINE
8
DEFAULT_255_2_778
10
11.6109823
20
5.5692126
11
11.2778823
21
5.4480126
0
LINE
8
DEFAULT_255_2_778
10
12.0474823
20
64.2950126
11
9.9268823
21
70.1214126
0
LINE
8
DEFAULT_255_2_778
10
10.4399594
20
30.6109729
11
11.2170594
21
32.2772729
0
LINE
8
DEFAULT_255_2_778
10
10.4399594
20
22.9906729
11
11.2170594
21
24.6569729
0
LINE
8
DEFAULT_255_2_778
10
10.4399594
20
15.3703729
11
11.2170594
21
17.0366729
0
LINE
8
DEFAULT_255_2_778
10
10.4399594
20
7.7501729
11
11.2170594
21
9.4164729
0
LINE
8
DEFAULT_255_2_778
10
11.195345
20
1.2890115
11
12.245745
21
2.7889115
0
LINE
8
DEFAULT_255_2_778
10
26.590645
20
10.0393115
11
14.590445
21
10.0393115
0
LINE
8
DEFAULT_255_2_778
10
26.590645
20
5.5390115
11
14.590445
21
5.5390115
0
LINE
8
DEFAULT_255_2_778
10
26.590645
20
19.0393115
11
14.590445
21
19.0393115
0
LINE
8
DEFAULT_255_2_778
10
26.590645
20
14.5393115
11
14.590445
21
14.5393115
0
LINE
8
DEFAULT_255_2_778
10
26.590645
20
28.0397115
11
14.590445
21
28.0397115
0
LINE
8
DEFAULT_255_2_778
10
26.590645
20
23.5394115
11
14.590445
21
23.5394115
0
LINE
8
DEFAULT_255_2_778
10
26.590645
20
55.0401115
11
14.590445
21
55.0401115
0
LINE
8
DEFAULT_255_2_778
10
26.590645
20
50.5401115
11
14.590445
21
50.5401115
0
LINE
8
DEFAULT_255_2_778
10
26.590645
20
64.0405115
11
14.590445
21
64.0405115
0
LINE
8
DEFAULT_255_2_778
10
26.590645
20
59.5404115
11
14.590445
21
59.5404115
0
LINE
8
DEFAULT_255_2_778
10
26.590645
20
73.0408115
11
14.590445
21
73.0408115
0
LINE
8
DEFAULT_255_2_778
10
26.590645
20
68.5405115
11
14.590445
21
68.5405115
0
LINE
8
DEFAULT_255_2_778
10
13.5905522
20
10.2803083
11
8.9873522
21
8.6050083
0
LINE
8
DEFAULT_255_2_778
10
8.9873522
20
8.6050083
11
8.5904522
21
9.6956083
0
LINE
8
DEFAULT_255_2_778
10
8.5904522
20
9.6956083
11
13.5905522
21
11.5154083
0
LINE
8
DEFAULT_255_2_778
10
13.5906199
20
1.2888895
11
11.1953199
21
1.2888895
0
LINE
8
DEFAULT_255_2_778
10
11.1953199
20
1.2888895
11
8.5902199
21
8.4458895
0
LINE
8
DEFAULT_255_2_778
10
10.6378271
20
10.440953
11
8.5905271
21
16.066253
0
LINE
8
DEFAULT_255_2_778
10
11.6027271
20
12.1755406
11
13.2690271
21
11.3984406
0
LINE
8
DEFAULT_255_2_778
10
10.6378271
20
18.061153
11
8.5905271
21
23.686453
0
LINE
8
DEFAULT_255_2_778
10
11.6027271
20
19.7957406
11
13.2690271
21
19.0186406
0
LINE
8
DEFAULT_255_2_778
10
10.6378271
20
25.681153
11
8.5905271
21
31.306453
0
LINE
8
DEFAULT_255_2_778
10
11.6027271
20
27.4157406
11
13.2690271
21
26.6386406
0
LINE
8
DEFAULT_255_2_778
10
10.6378271
20
33.301453
11
8.5905271
21
38.926753
0
LINE
8
DEFAULT_255_2_778
10
11.6027271
20
35.0360406
11
13.2690271
21
34.2589406
0
LINE
8
DEFAULT_255_2_778
10
10.6378271
20
40.921653
11
8.5905271
21
46.546953
0
LINE
8
DEFAULT_255_2_778
10
11.6027271
20
42.6563406
11
13.2690271
21
41.8792406
0
LINE
8
DEFAULT_255_2_778
10
10.6378271
20
48.541653
11
8.5905271
21
54.166953
0
LINE
8
DEFAULT_255_2_778
10
11.6027271
20
50.2763406
11
13.2690271
21
49.4992406
0
LINE
8
DEFAULT_255_2_778
10
10.6378271
20
56.161953
11
8.5905271
21
61.787253
0
LINE
8
DEFAULT_255_2_778
10
11.6027271
20
57.8965406
11
13.2690271
21
57.1194406
0
ARC
8
DEFAULT_255_2_778
10
14.0906409
20
81.7911066
40
0.4997474
50
89.9887792
51
135.0206486
0
ARC
8
DEFAULT_255_2_778
10
14.0903862
20
81.7908519
40
0.4997474
50
134.9793514
51
180.0112208
0
ARC
8
DEFAULT_255_2_778
10
14.0907357
20
0.288851
40
0.5000969
50
179.9996485
51
270.0003515
0
ARC
8
DEFAULT_255_2_778
10
27.0912914
20
81.7908519
40
0.4997474
50
359.9887792
51
45.0206486
0
ARC
8
DEFAULT_255_2_778
10
27.0910607
20
81.7911643
40
0.4996897
50
44.9766167
51
90.0025073
0
ARC
8
DEFAULT_255_2_778
10
9.0906131
20
81.7909322
40
0.4999219
50
89.9970574
51
135.0123564
0
ARC
8
DEFAULT_255_2_778
10
9.0902862
20
81.7908519
40
0.4997474
50
134.9793514
51
180.0112208
0
ARC
8
DEFAULT_255_2_778
10
9.0906357
20
0.288851
40
0.5000969
50
179.9996485
51
270.0003515
0
LINE
8
DEFAULT_255_2_778
10
13.5906388
20
81.7907541
11
13.5906388
21
0.2888541
0
LINE
8
DEFAULT_255_2_778
10
27.0910388
20
82.2908541
11
9.0906388
21
82.2908541
0
LINE
8
DEFAULT_255_2_778
10
8.5905388
20
81.7907541
11
8.5905388
21
0.2888541
0
LINE
8
DEFAULT_255_2_778
10
26.5906388
20
1.0388541
11
26.5906388
21
81.0406541
0
LINE
8
DEFAULT_255_2_778
10
26.5906388
20
81.0406541
11
14.5905388
21
81.0406541
0
LINE
8
DEFAULT_255_2_778
10
14.5905388
20
81.0406541
11
14.5905388
21
1.0388541
0
LINE
8
DEFAULT_255_2_778
10
14.5905388
20
1.0388541
11
26.5906388
21
1.0388541
0
LINE
8
DEFAULT_255_2_778
10
26.5906116
20
46.0400166
11
14.5904116
21
46.0400166
0
LINE
8
DEFAULT_255_2_778
10
26.5906116
20
41.5400166
11
14.5904116
21
41.5400166
0
LINE
8
DEFAULT_255_2_778
10
10.6378271
20
63.782253
11
8.5905271
21
69.407553
0
LINE
8
DEFAULT_255_2_778
10
11.6027271
20
65.5168406
11
13.2690271
21
64.7397406
0
LINE
8
DEFAULT_255_2_778
10
17.5906
20
73.0404948
11
17.5906
21
1.0388948
0
LINE
8
DEFAULT_255_2_778
10
26.5906116
20
37.0397166
11
14.5904116
21
37.0397166
0
LINE
8
DEFAULT_255_2_778
10
26.5906116
20
32.5397166
11
14.5904116
21
32.5397166
0
ARC
8
DEFAULT_255_2_778
10
13.8377283
20
7.1848834
40
2.7440715
50
95.1675016
51
116.0915726
0
ARC
8
DEFAULT_255_2_778
10
13.8435115
20
7.1771473
40
2.7535632
50
116.128849
51
170.1358571
0
ARC
8
DEFAULT_255_2_778
10
13.8528835
20
7.1800223
40
2.7623078
50
170.2279107
51
180.0190891
0
ARC
8
DEFAULT_255_2_778
10
13.8341337
20
7.1765174
40
2.7435589
50
179.9460228
51
200.8736476
0
ARC
8
DEFAULT_255_2_778
10
13.8429211
20
7.1818899
40
2.7536844
50
200.9129507
51
254.9178283
0
ARC
8
DEFAULT_255_2_778
10
13.8410903
20
7.1918331
40
2.7628122
50
255.0081436
51
264.797638
0
LINE
8
DEFAULT_255_2_778
10
13.5905813
20
10.0587958
11
13.5191813
21
10.2545958
0
LINE
8
DEFAULT_255_2_778
10
12.2309104
20
9.4088229
11
12.1097104
21
9.7416229
0
LINE
8
DEFAULT_255_2_778
10
11.0976771
20
6.9787896
11
10.7648771
21
6.8575896
0
ARC
8
DEFAULT_255_2_778
10
13.8377283
20
14.8048834
40
2.7440715
50
95.1675016
51
116.0915726
0
ARC
8
DEFAULT_255_2_778
10
13.8435115
20
14.7971473
40
2.7535632
50
116.128849
51
170.1358571
0
ARC
8
DEFAULT_255_2_778
10
13.8528835
20
14.8000223
40
2.7623078
50
170.2279107
51
180.0190891
0
ARC
8
DEFAULT_255_2_778
10
13.8341337
20
14.7965174
40
2.7435589
50
179.9460228
51
200.8736476
0
ARC
8
DEFAULT_255_2_778
10
13.8429211
20
14.8018899
40
2.7536844
50
200.9129507
51
254.9178283
0
ARC
8
DEFAULT_255_2_778
10
13.8410903
20
14.8118331
40
2.7628122
50
255.0081436
51
264.797638
0
LINE
8
DEFAULT_255_2_778
10
13.5905813
20
17.6787958
11
13.5191813
21
17.8745958
0
LINE
8
DEFAULT_255_2_778
10
12.2309104
20
17.0288229
11
12.1097104
21
17.3616229
0
LINE
8
DEFAULT_255_2_778
10
11.0976771
20
14.5987896
11
10.7648771
21
14.4775896
0
ARC
8
DEFAULT_255_2_778
10
13.8377283
20
22.4251834
40
2.7440715
50
95.1675016
51
116.0915726
0
ARC
8
DEFAULT_255_2_778
10
13.8435115
20
22.4174473
40
2.7535632
50
116.128849
51
170.1358571
0
ARC
8
DEFAULT_255_2_778
10
13.8528835
20
22.4203223
40
2.7623078
50
170.2279107
51
180.0190891
0
ARC
8
DEFAULT_255_2_778
10
13.8341337
20
22.4168174
40
2.7435589
50
179.9460228
51
200.8736476
0
ARC
8
DEFAULT_255_2_778
10
13.8429211
20
22.4221899
40
2.7536844
50
200.9129507
51
254.9178283
0
ARC
8
DEFAULT_255_2_778
10
13.8410903
20
22.4321331
40
2.7628122
50
255.0081436
51
264.797638
0
LINE
8
DEFAULT_255_2_778
10
13.5905813
20
25.2990958
11
13.5191813
21
25.4948958
0
LINE
8
DEFAULT_255_2_778
10
12.2309104
20
24.6490229
11
12.1097104
21
24.9818229
0
LINE
8
DEFAULT_255_2_778
10
11.0976771
20
22.2190896
11
10.7648771
21
22.0978896
0
ARC
8
DEFAULT_255_2_778
10
13.8377283
20
30.0453834
40
2.7440715
50
95.1675016
51
116.0915726
0
ARC
8
DEFAULT_255_2_778
10
13.8435115
20
30.0376473
40
2.7535632
50
116.128849
51
170.1358571
0
ARC
8
DEFAULT_255_2_778
10
13.8528835
20
30.0405223
40
2.7623078
50
170.2279107
51
180.0190891
0
ARC
8
DEFAULT_255_2_778
10
13.8341337
20
30.0370174
40
2.7435589
50
179.9460228
51
200.8736476
0
ARC
8
DEFAULT_255_2_778
10
13.8429211
20
30.0423899
40
2.7536844
50
200.9129507
51
254.9178283
0
ARC
8
DEFAULT_255_2_778
10
13.8410903
20
30.0523331
40
2.7628122
50
255.0081436
51
264.797638
0
LINE
8
DEFAULT_255_2_778
10
13.5905813
20
32.9193958
11
13.5191813
21
33.1151958
0
LINE
8
DEFAULT_255_2_778
10
12.2309104
20
32.2693229
11
12.1097104
21
32.6021229
0
LINE
8
DEFAULT_255_2_778
10
11.0976771
20
29.8393896
11
10.7648771
21
29.7181896
0
ARC
8
DEFAULT_255_2_778
10
13.8377283
20
37.6656834
40
2.7440715
50
95.1675016
51
116.0915726
0
ARC
8
DEFAULT_255_2_778
10
13.8435115
20
37.6579473
40
2.7535632
50
116.128849
51
170.1358571
0
ARC
8
DEFAULT_255_2_778
10
13.8528835
20
37.6608223
40
2.7623078
50
170.2279107
51
180.0190891
0
ARC
8
DEFAULT_255_2_778
10
13.8341337
20
37.6573174
40
2.7435589
50
179.9460228
51
200.8736476
0
ARC
8
DEFAULT_255_2_778
10
13.8429211
20
37.6626899
40
2.7536844
50
200.9129507
51
254.9178283
0
ARC
8
DEFAULT_255_2_778
10
13.8410903
20
37.6726331
40
2.7628122
50
255.0081436
51
264.797638
0
LINE
8
DEFAULT_255_2_778
10
13.5905813
20
40.5393958
11
13.5191813
21
40.7351958
0
LINE
8
DEFAULT_255_2_778
10
12.2309104
20
39.8893229
11
12.1097104
21
40.2221229
0
LINE
8
DEFAULT_255_2_778
10
11.0976771
20
37.4595896
11
10.7648771
21
37.3383896
0
ARC
8
DEFAULT_255_2_778
10
13.8377283
20
45.2856834
40
2.7440715
50
95.1675016
51
116.0915726
0
ARC
8
DEFAULT_255_2_778
10
13.8435115
20
45.2779473
40
2.7535632
50
116.128849
51
170.1358571
0
ARC
8
DEFAULT_255_2_778
10
13.8528835
20
45.2808223
40
2.7623078
50
170.2279107
51
180.0190891
0
ARC
8
DEFAULT_255_2_778
10
13.8341337
20
45.2773174
40
2.7435589
50
179.9460228
51
200.8736476
0
ARC
8
DEFAULT_255_2_778
10
13.8429211
20
45.2826899
40
2.7536844
50
200.9129507
51
254.9178283
0
ARC
8
DEFAULT_255_2_778
10
13.8410903
20
45.2926331
40
2.7628122
50
255.0081436
51
264.797638
0
LINE
8
DEFAULT_255_2_778
10
13.5905813
20
48.1595958
11
13.5191813
21
48.3553958
0
LINE
8
DEFAULT_255_2_778
10
12.2309104
20
47.5096229
11
12.1097104
21
47.8424229
0
LINE
8
DEFAULT_255_2_778
10
11.0976771
20
45.0795896
11
10.7648771
21
44.9583896
0
ARC
8
DEFAULT_255_2_778
10
13.8377283
20
52.9059834
40
2.7440715
50
95.1675016
51
116.0915726
0
ARC
8
DEFAULT_255_2_778
10
13.8435115
20
52.8982473
40
2.7535632
50
116.128849
51
170.1358571
0
ARC
8
DEFAULT_255_2_778
10
13.8528835
20
52.9011223
40
2.7623078
50
170.2279107
51
180.0190891
0
ARC
8
DEFAULT_255_2_778
10
13.8341337
20
52.8976174
40
2.7435589
50
179.9460228
51
200.8736476
0
ARC
8
DEFAULT_255_2_778
10
13.8429211
20
52.9029899
40
2.7536844
50
200.9129507
51
254.9178283
0
ARC
8
DEFAULT_255_2_778
10
13.8410903
20
52.9129331
40
2.7628122
50
255.0081436
51
264.797638
0
LINE
8
DEFAULT_255_2_778
10
13.5905813
20
55.7798958
11
13.5191813
21
55.9756958
0
LINE
8
DEFAULT_255_2_778
10
12.2309104
20
55.1298229
11
12.1097104
21
55.4626229
0
LINE
8
DEFAULT_255_2_778
10
11.0976771
20
52.6998896
11
10.7648771
21
52.5786896
0
ARC
8
DEFAULT_255_2_778
10
13.8377283
20
60.5261834
40
2.7440715
50
95.1675016
51
116.0915726
0
ARC
8
DEFAULT_255_2_778
10
13.8435115
20
60.5184473
40
2.7535632
50
116.128849
51
170.1358571
0
ARC
8
DEFAULT_255_2_778
10
13.8528835
20
60.5213223
40
2.7623078
50
170.2279107
51
180.0190891
0
ARC
8
DEFAULT_255_2_778
10
13.8341337
20
60.5178174
40
2.7435589
50
179.9460228
51
200.8736476
0
ARC
8
DEFAULT_255_2_778
10
13.8429211
20
60.5231899
40
2.7536844
50
200.9129507
51
254.9178283
0
ARC
8
DEFAULT_255_2_778
10
13.8410903
20
60.5331331
40
2.7628122
50
255.0081436
51
264.797638
0
LINE
8
DEFAULT_255_2_778
10
13.5905813
20
63.4001958
11
13.5191813
21
63.5959958
0
LINE
8
DEFAULT_255_2_778
10
12.2309104
20
62.7498229
11
12.1097104
21
63.0826229
0
LINE
8
DEFAULT_255_2_778
10
11.0976771
20
60.3201896
11
10.7648771
21
60.1989896
0
ARC
8
DEFAULT_255_2_778
10
13.8377283
20
68.1461834
40
2.7440715
50
95.1675016
51
116.0915726
0
ARC
8
DEFAULT_255_2_778
10
13.8435115
20
68.1384473
40
2.7535632
50
116.128849
51
170.1358571
0
ARC
8
DEFAULT_255_2_778
10
13.8528835
20
68.1413223
40
2.7623078
50
170.2279107
51
180.0190891
0
ARC
8
DEFAULT_255_2_778
10
13.8341337
20
68.1378174
40
2.7435589
50
179.9460228
51
200.8736476
0
ARC
8
DEFAULT_255_2_778
10
13.8429211
20
68.1431899
40
2.7536844
50
200.9129507
51
254.9178283
0
ARC
8
DEFAULT_255_2_778
10
13.8410903
20
68.1531331
40
2.7628122
50
255.0081436
51
264.797638
0
LINE
8
DEFAULT_255_2_778
10
13.5905813
20
71.0201958
11
13.5191813
21
71.2159958
0
LINE
8
DEFAULT_255_2_778
10
12.2309104
20
70.3701229
11
12.1097104
21
70.7029229
0
LINE
8
DEFAULT_255_2_778
10
11.0976771
20
67.9401896
11
10.7648771
21
67.8189896
0
ARC
8
DEFAULT_255_2_778
10
13.8381476
20
78.2959619
40
1.7445902
50
98.1661573
51
128.1721956
0
ARC
8
DEFAULT_255_2_778
10
13.840246
20
78.2908659
40
1.7498939
50
128.1230881
51
174.1085308
0
ARC
8
DEFAULT_255_2_778
10
13.8525655
20
78.2910811
40
1.7621268
50
174.1566072
51
180.0071084
0
ARC
8
DEFAULT_255_2_778
10
13.8346378
20
78.289216
40
1.7442
50
179.9459153
51
210.1128954
0
ARC
8
DEFAULT_255_2_778
10
13.840056
20
78.2904682
40
1.7495161
50
210.059346
51
255.9048628
0
ARC
8
DEFAULT_255_2_778
10
13.8414111
20
78.302208
40
1.7612332
50
255.9551145
51
261.804282
0
ARC
8
DEFAULT_255_2_778
10
13.8403727
20
78.2975822
40
2.4932465
50
95.7508807
51
118.3393396
0
ARC
8
DEFAULT_255_2_778
10
13.8459699
20
78.2892573
40
2.503231
50
118.3616467
51
170.485882
0
ARC
8
DEFAULT_255_2_778
10
13.85509
20
78.2915517
40
2.5118491
50
170.5718851
51
180.0176005
0
ARC
8
DEFAULT_255_2_778
10
13.8366476
20
78.2883351
40
2.4934077
50
179.943816
51
202.5311358
0
ARC
8
DEFAULT_255_2_778
10
13.8453169
20
78.2929579
40
2.5031869
50
202.5528334
51
254.6778026
0
ARC
8
DEFAULT_255_2_778
10
13.8438991
20
78.3021408
40
2.5116717
50
254.7643515
51
264.210599
0
ARC
8
DEFAULT_255_2_778
10
13.8407148
20
78.2962746
40
2.9946482
50
94.7910539
51
114.477764
0
ARC
8
DEFAULT_255_2_778
10
13.8470831
20
78.2886842
40
3.0041962
50
114.5283227
51
169.8900312
0
ARC
8
DEFAULT_255_2_778
10
13.8574644
20
78.291821
40
3.0138696
50
169.9833811
51
180.0201839
0
ARC
8
DEFAULT_255_2_778
10
13.8383327
20
78.288066
40
2.9947388
50
179.9484709
51
199.6340783
0
ARC
8
DEFAULT_255_2_778
10
13.8463184
20
78.2936788
40
3.0041473
50
199.6837261
51
255.0453873
0
ARC
8
DEFAULT_255_2_778
10
13.843936
20
78.3039889
40
3.0134974
50
255.1397356
51
265.1775241
0
ARC
8
DEFAULT_255_2_778
10
13.8375367
20
78.2948492
40
3.2458139
50
94.36417
51
113.1421779
0
ARC
8
DEFAULT_255_2_778
10
13.8442157
20
78.2879862
40
3.2547516
50
113.2028109
51
168.6123017
0
ARC
8
DEFAULT_255_2_778
10
13.8513544
20
78.2922646
40
3.2609098
50
168.7107617
51
180.0248202
0
ARC
8
DEFAULT_255_2_778
10
13.8355962
20
78.2880464
40
3.2451526
50
179.9504648
51
198.7298747
0
ARC
8
DEFAULT_255_2_778
10
13.8434308
20
78.2942762
40
3.2545743
50
198.7894514
51
254.2031134
0
ARC
8
DEFAULT_255_2_778
10
13.8394898
20
78.3012653
40
3.2602317
50
254.3031947
51
265.6207428
0
ARC
8
DEFAULT_255_2_778
10
13.8396723
20
76.8080026
40
0.6477537
50
112.6196834
51
135.075485
0
ARC
8
DEFAULT_255_2_778
10
12.356092
20
78.2907634
40
0.6497462
50
314.975846
51
359.9882194
0
ARC
8
DEFAULT_255_2_778
10
12.3558594
20
78.2904999
40
0.6499788
50
0.011457
51
45.0156555
0
ARC
8
DEFAULT_255_2_778
10
13.8427263
20
79.7779114
40
0.6531331
50
225.0182023
51
247.2866791
0
ARC
8
DEFAULT_255_2_778
10
14.4747029
20
71.0254447
40
1.9797728
50
352.2708318
51
0.3526479
0
ARC
8
DEFAULT_255_2_778
10
15.3545277
20
70.9008674
40
1.0911988
50
339.2585695
51
352.5395239
0
ARC
8
DEFAULT_255_2_778
10
15.7648108
20
70.7490019
40
0.6537317
50
325.3409329
51
338.971151
0
ARC
8
DEFAULT_255_2_778
10
15.8936262
20
70.6685522
40
0.5020735
50
275.6525322
51
324.53268
0
ARC
8
DEFAULT_255_2_778
10
15.8308455
20
70.9944077
40
0.8330822
50
269.8138067
51
277.742412
0
ARC
8
DEFAULT_255_2_778
10
15.8150954
20
70.8551039
40
0.6938966
50
249.6127532
51
271.0770202
0
ARC
8
DEFAULT_255_2_778
10
15.7455945
20
70.6517514
40
0.4791044
50
215.662377
51
248.9318939
0
ARC
8
DEFAULT_255_2_778
10
15.9585942
20
70.7934828
40
0.7348455
50
194.7265513
51
214.9584086
0
ARC
8
DEFAULT_255_2_778
10
16.5556325
20
70.9611465
40
1.3549319
50
184.0223187
51
195.1657077
0
ARC
8
DEFAULT_255_2_778
10
17.2594604
20
71.0261883
40
2.0616468
50
180.629719
51
184.4534085
0
ARC
8
DEFAULT_255_2_778
10
17.1315375
20
71.3531744
40
1.9336368
50
172.1815535
51
180.356895
0
ARC
8
DEFAULT_255_2_778
10
16.2733308
20
71.4760759
40
1.066701
50
159.023934
51
172.4508354
0
ARC
8
DEFAULT_255_2_778
10
15.8754112
20
71.6251073
40
0.6418098
50
144.9895892
51
158.7301031
0
ARC
8
DEFAULT_255_2_778
10
15.7558971
20
71.6993788
40
0.5013704
50
96.2876499
51
144.1054588
0
ARC
8
DEFAULT_255_2_778
10
15.8222571
20
71.3667911
40
0.8397448
50
89.7829538
51
98.3032916
0
ARC
8
DEFAULT_255_2_778
10
15.8385633
20
71.4862375
40
0.7204119
50
70.5934196
51
91.0439203
0
ARC
8
DEFAULT_255_2_778
10
15.9169203
20
71.7204529
40
0.4734843
50
36.295192
51
70.1193604
0
ARC
8
DEFAULT_255_2_778
10
15.7308627
20
71.5983214
40
0.6958363
50
14.9512843
51
35.3317066
0
ARC
8
DEFAULT_255_2_778
10
15.1200503
20
71.4238212
40
1.331036
50
4.2872799
51
15.4249842
0
ARC
8
DEFAULT_255_2_778
10
14.3455249
20
71.349992
40
2.1089719
50
0.4275636
51
4.7143894
0
ARC
8
DEFAULT_255_2_778
10
14.5604429
20
71.3953762
40
1.6410388
50
359.5828967
51
7.4375683
0
ARC
8
DEFAULT_255_2_778
10
15.4247763
20
71.513719
40
0.7686779
50
7.0303783
51
21.0162433
0
ARC
8
DEFAULT_255_2_778
10
15.7498034
20
71.6325953
40
0.4226761
50
21.7749406
51
31.2280391
0
ARC
8
DEFAULT_255_2_778
10
15.8468031
20
71.6887283
40
0.3106371
50
31.6502674
51
93.9437853
0
ARC
8
DEFAULT_255_2_778
10
15.804159
20
71.692748
40
0.3066211
50
86.0205301
51
148.6373692
0
ARC
8
DEFAULT_255_2_778
10
16.0314766
20
71.5710305
40
0.5642568
50
150.0971588
51
168.8047415
0
ARC
8
DEFAULT_255_2_778
10
16.701284
20
71.4259282
40
1.2495512
50
168.240924
51
178.2631491
0
ARC
8
DEFAULT_255_2_778
10
17.3879023
20
71.3867538
40
1.9371283
50
177.7205211
51
179.5333763
0
ARC
8
DEFAULT_255_2_778
10
17.0458286
20
70.9853221
40
1.5950387
50
179.5542923
51
187.9780982
0
ARC
8
DEFAULT_255_2_778
10
16.214829
20
70.8632787
40
0.7551632
50
187.5589824
51
202.5243742
0
ARC
8
DEFAULT_255_2_778
10
15.9226258
20
70.7496026
40
0.441758
50
203.4234492
51
211.1439535
0
ARC
8
DEFAULT_255_2_778
10
15.8124217
20
70.6769233
40
0.3098922
50
210.181058
51
272.9070545
0
ARC
8
DEFAULT_255_2_778
10
15.8459572
20
70.6728018
40
0.3058914
50
266.6604833
51
328.3803901
0
ARC
8
DEFAULT_255_2_778
10
15.634701
20
70.7920991
40
0.5484076
50
329.33843
51
348.3672487
0
ARC
8
DEFAULT_255_2_778
10
14.9704441
20
70.9432018
40
1.2295693
50
347.7120757
51
357.4335696
0
ARC
8
DEFAULT_255_2_778
10
14.2466401
20
70.9927563
40
1.9549409
50
356.9325533
51
359.3075348
0
ARC
8
DEFAULT_255_2_778
10
13.965007
20
63.85463
40
2.5843503
50
318.3085534
51
322.7037448
0
ARC
8
DEFAULT_255_2_778
10
15.2005949
20
62.9211643
40
1.0358211
50
322.3661335
51
330.7163858
0
ARC
8
DEFAULT_255_2_778
10
15.5990064
20
62.6880651
40
0.5743683
50
331.5578412
51
331.9564123
0
ARC
8
DEFAULT_255_2_778
10
15.6931352
20
62.6448363
40
0.4710069
50
331.2142821
51
359.7680934
0
ARC
8
DEFAULT_255_2_778
10
15.8074603
20
62.6564313
40
0.3569334
50
357.8322048
51
42.7089015
0
ARC
8
DEFAULT_255_2_778
10
15.8328431
20
62.6680384
40
0.3305232
50
44.2150453
51
92.5672764
0
ARC
8
DEFAULT_255_2_778
10
15.8046672
20
62.5546175
40
0.4438138
50
88.2735603
51
117.0882546
0
ARC
8
DEFAULT_255_2_778
10
15.7581565
20
62.6641368
40
0.325239
50
118.5791653
51
135.8128626
0
ARC
8
DEFAULT_255_2_778
10
15.8059896
20
62.6298723
40
0.3835215
50
137.1231479
51
177.0121954
0
ARC
8
DEFAULT_255_2_778
10
16.0532965
20
62.5930869
40
0.632859
50
174.8528862
51
180.0866457
0
ARC
8
DEFAULT_255_2_778
10
15.7960374
20
62.6069285
40
0.6287733
50
151.1145261
51
181.3486202
0
ARC
8
DEFAULT_255_2_778
10
15.7283494
20
62.6322585
40
0.5573701
50
133.5344283
51
150.0331655
0
ARC
8
DEFAULT_255_2_778
10
15.7649609
20
62.5867012
40
0.615634
50
95.0268128
51
133.0842138
0
ARC
8
DEFAULT_255_2_778
10
15.8161153
20
62.2769983
40
0.9289334
50
89.8813963
51
96.4962227
0
ARC
8
DEFAULT_255_2_778
10
15.8309243
20
62.430855
40
0.775182
50
71.2425775
51
90.9524897
0
ARC
8
DEFAULT_255_2_778
10
15.9065144
20
62.6688231
40
0.525569
50
48.1685517
51
70.7033595
0
ARC
8
DEFAULT_255_2_778
10
15.9229675
20
62.6940176
40
0.4958439
50
357.769536
51
47.6434913
0
ARC
8
DEFAULT_255_2_778
10
15.6749048
20
62.6728306
40
0.7435333
50
359.9999397
51
0.1455757
0
ARC
8
DEFAULT_255_2_778
10
15.8052277
20
62.6857116
40
0.6133458
50
336.1720212
51
358.7965602
0
ARC
8
DEFAULT_255_2_778
10
15.266529
20
62.9104882
40
1.1969954
50
324.9825144
51
336.7470389
0
ARC
8
DEFAULT_255_2_778
10
14.4643223
20
63.4620888
40
2.1705241
50
317.8453036
51
325.2089829
0
ARC
8
DEFAULT_255_2_778
10
13.8727415
20
63.975739
40
2.9538572
50
317.3046899
51
318.1603745
0
ARC
8
DEFAULT_255_2_778
10
15.7700314
20
58.283219
40
0.4766294
50
269.255489
51
295.3166445
0
ARC
8
DEFAULT_255_2_778
10
15.8260778
20
58.1462924
40
0.3289815
50
296.690744
51
311.7961593
0
ARC
8
DEFAULT_255_2_778
10
15.833501
20
58.1339834
40
0.3148688
50
312.2819408
51
2.6297008
0
ARC
8
DEFAULT_255_2_778
10
15.6968481
20
58.1609823
40
0.4513647
50
358.4063994
51
21.8910901
0
ARC
8
DEFAULT_255_2_778
10
15.8628049
20
58.2165821
40
0.2768355
50
24.0202664
51
85.5400375
0
ARC
8
DEFAULT_255_2_778
10
15.8020107
20
57.9267093
40
0.5718266
50
81.7227936
51
90.2677765
0
ARC
8
DEFAULT_255_2_778
10
15.7848074
20
58.1194423
40
0.3793659
50
87.8048722
51
124.5704014
0
ARC
8
DEFAULT_255_2_778
10
15.7564259
20
58.1761202
40
0.3167135
50
126.1607558
51
133.7690549
0
ARC
8
DEFAULT_255_2_778
10
15.7674219
20
58.1710641
40
0.3280014
50
134.5451845
51
182.5222083
0
ARC
8
DEFAULT_255_2_778
10
15.6944672
20
58.1678125
40
0.5078522
50
131.2168197
51
181.2617302
0
ARC
8
DEFAULT_255_2_778
10
15.7702539
20
58.0874658
40
0.6182407
50
90.7349415
51
131.5937433
0
ARC
8
DEFAULT_255_2_778
10
15.7991198
20
57.8316595
40
0.8747704
50
89.9856968
51
92.4107745
0
ARC
8
DEFAULT_255_2_778
10
15.8124544
20
57.9325892
40
0.7739518
50
71.2882165
51
90.9710387
0
ARC
8
DEFAULT_255_2_778
10
15.8907937
20
58.1784403
40
0.5159845
50
47.2811703
51
70.7693912
0
ARC
8
DEFAULT_255_2_778
10
15.8896187
20
58.1898478
40
0.5084734
50
3.8727859
51
46.3118258
0
ARC
8
DEFAULT_255_2_778
10
15.6062209
20
58.144475
40
0.7947184
50
359.9030226
51
5.7568486
0
ARC
8
DEFAULT_255_2_778
10
15.9639687
20
58.1493359
40
0.4370136
50
323.8481751
51
359.1863091
0
ARC
8
DEFAULT_255_2_778
10
15.9004569
20
58.1813528
40
0.5073172
50
291.6516806
51
325.1600847
0
ARC
8
DEFAULT_255_2_778
10
15.9534312
20
57.239066
40
0.4895203
50
37.5683047
51
74.0880192
0
ARC
8
DEFAULT_255_2_778
10
15.9519144
20
57.2584954
40
0.4791544
50
358.2221338
51
35.615825
0
ARC
8
DEFAULT_255_2_778
10
15.8349727
20
57.2292766
40
0.5960384
50
332.2621259
51
1.3798739
0
ARC
8
DEFAULT_255_2_778
10
15.9186549
20
57.1971141
40
0.5071113
50
311.6905488
51
331.077812
0
ARC
8
DEFAULT_255_2_778
10
15.8448228
20
57.2873401
40
0.6236126
50
273.7572295
51
311.2425537
0
ARC
8
DEFAULT_255_2_778
10
15.8018367
20
57.5789776
40
0.9177485
50
269.925178
51
275.2421865
0
ARC
8
DEFAULT_255_2_778
10
15.7870161
20
57.4303414
40
0.7692322
50
248.5060573
51
271.0146896
0
ARC
8
DEFAULT_255_2_778
10
15.7266932
20
57.2551921
40
0.5842163
50
229.172004
51
247.7167998
0
ARC
8
DEFAULT_255_2_778
10
15.6723957
20
57.1956682
40
0.5036814
50
177.9449695
51
229.4187851
0
ARC
8
DEFAULT_255_2_778
10
15.7487724
20
57.1996247
40
0.3257397
50
177.518201
51
226.8361812
0
ARC
8
DEFAULT_255_2_778
10
15.7751776
20
57.2463795
40
0.3781203
50
228.7646421
51
269.678262
0
ARC
8
DEFAULT_255_2_778
10
15.8006127
20
57.4657191
40
0.5980893
50
267.3590305
51
270.0216074
0
ARC
8
DEFAULT_255_2_778
10
15.8137568
20
57.3277098
40
0.4602613
50
268.3916188
51
293.6154044
0
ARC
8
DEFAULT_255_2_778
10
15.8726382
20
57.1756815
40
0.2974581
50
294.9544905
51
314.4753876
0
ARC
8
DEFAULT_255_2_778
10
15.8350501
20
57.1994949
40
0.3409353
50
316.1792733
51
357.0211496
0
ARC
8
DEFAULT_255_2_778
10
15.5876722
20
57.2372818
40
0.590467
50
354.6061782
51
0.1016931
0
ARC
8
DEFAULT_255_2_778
10
15.8115831
20
57.2523051
40
0.3668215
50
357.816606
51
32.5010749
0
ARC
8
DEFAULT_255_2_778
10
15.8798642
20
57.2849934
40
0.2918131
50
34.291981
51
48.9408379
0
ARC
8
DEFAULT_255_2_778
10
15.8197656
20
57.1982362
40
0.3968776
50
50.6257178
51
82.8037335
0
ARC
8
DEFAULT_255_2_778
10
15.7566519
20
56.8712174
40
0.7295478
50
81.1030726
51
89.4356064
0
ARC
8
DEFAULT_255_2_778
10
15.8990674
20
48.345945
40
0.6421752
50
89.0389657
51
120.0455018
0
ARC
8
DEFAULT_255_2_778
10
15.9241393
20
48.3885778
40
0.5996226
50
61.9477957
51
91.3666381
0
ARC
8
DEFAULT_255_2_778
10
15.9528496
20
48.465045
40
0.5187458
50
41.4047301
51
60.7743698
0
ARC
8
DEFAULT_255_2_778
10
15.8622922
20
48.393926
40
0.633739
50
7.5237068
51
40.812632
0
ARC
8
DEFAULT_255_2_778
10
15.5057992
20
48.3261587
40
0.9962473
50
359.768291
51
8.703117
0
ARC
8
DEFAULT_255_2_778
10
15.6566467
20
48.3091984
40
0.8454904
50
341.9413765
51
0.8763522
0
ARC
8
DEFAULT_255_2_778
10
15.9159738
20
48.2289246
40
0.5740683
50
317.0025674
51
341.5352329
0
ARC
8
DEFAULT_255_2_778
10
15.9305648
20
48.226702
40
0.5619425
50
275.8006117
51
316.1537179
0
ARC
8
DEFAULT_255_2_778
10
15.8742022
20
48.5397141
40
0.8793878
50
269.8394581
51
277.3931033
0
ARC
8
DEFAULT_255_2_778
10
15.8579234
20
48.3624344
40
0.7022405
50
246.3941649
51
271.1272188
0
ARC
8
DEFAULT_255_2_778
10
15.8070792
20
48.2237954
40
0.5549142
50
228.7279272
51
245.472371
0
ARC
8
DEFAULT_255_2_778
10
15.8188231
20
48.2274817
40
0.5654675
50
187.229074
51
228.0799567
0
ARC
8
DEFAULT_255_2_778
10
16.0766376
20
48.2853884
40
0.8288966
50
185.1121026
51
188.9576769
0
ARC
8
DEFAULT_255_2_778
10
15.9483194
20
48.2608179
40
0.4607252
50
186.1412171
51
212.3143269
0
ARC
8
DEFAULT_255_2_778
10
15.8199104
20
48.1888646
40
0.3138372
50
213.7445061
51
228.4957577
0
ARC
8
DEFAULT_255_2_778
10
15.8495507
20
48.2370733
40
0.3697114
50
230.0067715
51
270.3518509
0
ARC
8
DEFAULT_255_2_778
10
15.8716244
20
48.4456085
40
0.5785786
50
268.0385133
51
270.0112661
0
ARC
8
DEFAULT_255_2_778
10
15.8882703
20
48.2074046
40
0.340776
50
267.2193156
51
319.7959799
0
ARC
8
DEFAULT_255_2_778
10
15.7999738
20
48.2641059
40
0.4450244
50
321.5589074
51
354.2472668
0
ARC
8
DEFAULT_255_2_778
10
15.4877384
20
48.3171273
40
0.7613044
50
352.6321736
51
0.1958687
0
ARC
8
DEFAULT_255_2_778
10
15.7403355
20
48.3334563
40
0.5088879
50
358.454354
51
26.915621
0
ARC
8
DEFAULT_255_2_778
10
15.8480641
20
48.3781685
40
0.3926897
50
28.2139511
51
41.9020451
0
ARC
8
DEFAULT_255_2_778
10
15.8664994
20
48.3917329
40
0.3699161
50
42.245334
51
92.3799539
0
ARC
8
DEFAULT_255_2_778
10
15.8384031
20
48.2670476
40
0.4944462
50
88.5241046
51
111.2623331
0
ARC
8
DEFAULT_255_2_778
10
15.7758102
20
48.4467362
40
0.304367
50
112.5481331
51
127.306895
0
ARC
8
DEFAULT_255_2_778
10
16.1532385
20
44.1842541
40
0.7810769
50
90.0953857
51
111.9422507
0
ARC
8
DEFAULT_255_2_778
10
16.0854977
20
44.3722814
40
0.5814046
50
112.6741563
51
134.0112142
0
ARC
8
DEFAULT_255_2_778
10
16.145546
20
44.3256757
40
0.6567341
50
134.9539613
51
167.3830973
0
ARC
8
DEFAULT_255_2_778
10
16.4975908
20
44.2263581
40
1.0221678
50
166.2607396
51
175.1134293
0
ARC
8
DEFAULT_255_2_778
10
15.8770459
20
43.962737
40
0.5303923
50
90.2250682
51
138.6089109
0
ARC
8
DEFAULT_255_2_778
10
15.9083213
20
43.7040561
40
0.7897739
50
89.9842642
51
92.4208089
0
ARC
8
DEFAULT_255_2_778
10
15.928781
20
43.9780731
40
0.5161539
50
40.1275579
51
92.2476361
0
ARC
8
DEFAULT_255_2_778
10
15.8107184
20
43.8880421
40
0.6644896
50
4.8026462
51
39.5022727
0
ARC
8
DEFAULT_255_2_778
10
15.4985969
20
43.8393942
40
0.979843
50
359.8968319
51
6.1093782
0
ARC
8
DEFAULT_255_2_778
10
15.634
20
43.8242636
40
0.844544
50
340.794428
51
0.9068368
0
ARC
8
DEFAULT_255_2_778
10
15.8630421
20
43.750818
40
0.6041184
50
317.8653366
51
340.2265581
0
ARC
8
DEFAULT_255_2_778
10
15.8930948
20
43.7282237
40
0.5666844
50
270.3726409
51
317.520927
0
ARC
8
DEFAULT_255_2_778
10
15.8622532
20
43.9871919
40
0.8263622
50
269.9850962
51
272.394641
0
ARC
8
DEFAULT_255_2_778
10
15.8472704
20
43.7291266
40
0.5684886
50
217.8594755
51
271.4885554
0
ARC
8
DEFAULT_255_2_778
10
16.0236301
20
43.8752206
40
0.7974213
50
187.1766147
51
218.37014
0
ARC
8
DEFAULT_255_2_778
10
16.3954277
20
43.9418573
40
1.1747954
50
179.8160074
51
188.1358178
0
ARC
8
DEFAULT_255_2_778
10
17.2623545
20
44.0551969
40
2.0417544
50
170.9753707
51
180.3498534
0
ARC
8
DEFAULT_255_2_778
10
16.4942979
20
44.1818315
40
1.26335
50
156.3006608
51
171.1835547
0
ARC
8
DEFAULT_255_2_778
10
16.1481244
20
44.3287962
40
0.8873115
50
141.3621441
51
156.0056155
0
ARC
8
DEFAULT_255_2_778
10
16.0554631
20
44.3920486
40
0.7754846
50
100.8404594
51
140.7377827
0
ARC
8
DEFAULT_255_2_778
10
16.1633043
20
43.9516218
40
1.2285508
50
90.4787834
51
101.9170643
0
ARC
8
DEFAULT_255_2_778
10
15.8653325
20
43.879934
40
0.4029968
50
89.8712304
51
126.2497135
0
ARC
8
DEFAULT_255_2_778
10
15.8585663
20
43.8682749
40
0.4085852
50
124.5175148
51
159.7893509
0
ARC
8
DEFAULT_255_2_778
10
16.2670282
20
43.9037092
40
0.7919938
50
179.0724636
51
197.623163
0
ARC
8
DEFAULT_255_2_778
10
16.0061804
20
43.8262818
40
0.5199721
50
198.1939004
51
216.0981321
0
ARC
8
DEFAULT_255_2_778
10
15.864019
20
43.7018329
40
0.3322078
50
213.1996398
51
269.692869
0
ARC
8
DEFAULT_255_2_778
10
15.8756243
20
43.6908528
40
0.3215018
50
267.6137405
51
322.5437677
0
ARC
8
DEFAULT_255_2_778
10
15.7427572
20
43.783435
40
0.4833337
50
323.4103914
51
356.1622076
0
ARC
8
DEFAULT_255_2_778
10
15.4637748
20
43.8234535
40
0.7646644
50
354.5693126
51
0.0956334
0
ARC
8
DEFAULT_255_2_778
10
15.6339129
20
43.8380083
40
0.5946736
50
358.7205377
51
22.4147558
0
ARC
8
DEFAULT_255_2_778
10
15.7973684
20
43.8968584
40
0.4212021
50
23.4926021
51
38.00926
0
ARC
8
DEFAULT_255_2_778
10
15.8752915
20
43.9649286
40
0.3179388
50
36.991168
51
91.6857963
0
ARC
8
DEFAULT_255_2_778
10
15.9514443
20
35.6513162
40
0.4617518
50
326.0631354
51
0.9075385
0
ARC
8
DEFAULT_255_2_778
10
15.8930437
20
35.6947379
40
0.5344565
50
295.3462971
51
325.6963785
0
ARC
8
DEFAULT_255_2_778
10
15.9048893
20
34.684322
40
0.5702858
50
35.5915257
51
67.6402117
0
ARC
8
DEFAULT_255_2_778
10
15.9681114
20
34.7310756
40
0.4916653
50
359.283797
51
35.4488894
0
ARC
8
DEFAULT_255_2_778
10
15.9082309
20
34.7097967
40
0.5517149
50
328.2465489
51
1.5717752
0
ARC
8
DEFAULT_255_2_778
10
15.954462
20
34.6935911
40
0.5039857
50
311.0349298
51
327.047106
0
ARC
8
DEFAULT_255_2_778
10
15.8800134
20
34.7879899
40
0.6240957
50
275.2885311
51
310.5008527
0
ARC
8
DEFAULT_255_2_778
10
15.8286127
20
35.101552
40
0.9413244
50
269.8737338
51
276.6448127
0
ARC
8
DEFAULT_255_2_778
10
15.8133939
20
34.9548085
40
0.7946873
50
250.3871354
51
270.9477255
0
ARC
8
DEFAULT_255_2_778
10
15.7432964
20
34.7394803
40
0.5683573
50
228.4659171
51
249.7573574
0
ARC
8
DEFAULT_255_2_778
10
15.7135173
20
34.7015978
40
0.5202623
50
178.31261
51
228.1545769
0
ARC
8
DEFAULT_255_2_778
10
15.9552992
20
34.7249363
40
0.7618609
50
180.000486
51
180.6030573
0
ARC
8
DEFAULT_255_2_778
10
15.7006236
20
34.7305104
40
0.5072161
50
145.7150464
51
180.6303991
0
ARC
8
DEFAULT_255_2_778
10
15.7330288
20
34.7062205
40
0.5476765
50
112.2741532
51
145.5251381
0
ARC
8
DEFAULT_255_2_778
10
15.7518078
20
35.6850211
40
0.5234682
50
213.6668357
51
244.3773724
0
ARC
8
DEFAULT_255_2_778
10
15.7087797
20
35.6515073
40
0.4690956
50
179.1300121
51
213.1734313
0
ARC
8
DEFAULT_255_2_778
10
15.8036984
20
35.6727478
40
0.5641369
50
151.9175329
51
181.4340229
0
ARC
8
DEFAULT_255_2_778
10
15.7211407
20
35.7053994
40
0.4760344
50
132.2390644
51
150.7071189
0
ARC
8
DEFAULT_255_2_778
10
15.7825783
20
35.6294632
40
0.5735804
50
93.72284
51
131.6835399
0
ARC
8
DEFAULT_255_2_778
10
15.8250465
20
35.3445039
40
0.8610269
50
89.9207025
51
95.3118526
0
ARC
8
DEFAULT_255_2_778
10
15.8397552
20
35.5198684
40
0.6857947
50
66.9013084
51
91.1293699
0
ARC
8
DEFAULT_255_2_778
10
15.8929079
20
35.6661459
40
0.5304596
50
47.5941162
51
65.9836485
0
ARC
8
DEFAULT_255_2_778
10
15.9081268
20
35.6882607
40
0.5038804
50
0.1606646
51
47.1760936
0
ARC
8
DEFAULT_255_2_778
10
15.6604802
20
35.6588261
40
0.752158
50
359.9850475
51
2.3504704
0
ARC
8
DEFAULT_255_2_778
10
15.8396417
20
34.7440167
40
0.3673553
50
357.8491896
51
44.6599534
0
ARC
8
DEFAULT_255_2_778
10
15.8398377
20
34.7323395
40
0.3755187
50
45.9483676
51
92.3960932
0
ARC
8
DEFAULT_255_2_778
10
15.8071833
20
34.7390101
40
0.3689096
50
87.3657817
51
134.1900697
0
ARC
8
DEFAULT_255_2_778
10
15.8175998
20
34.7463622
40
0.3711124
50
136.134774
51
182.4914486
0
ARC
8
DEFAULT_255_2_778
10
15.8223407
20
34.7159124
40
0.3757753
50
177.8164408
51
213.8050189
0
ARC
8
DEFAULT_255_2_778
10
15.762161
20
34.6864098
40
0.3094856
50
215.4653908
51
226.067902
0
ARC
8
DEFAULT_255_2_778
10
15.7925949
20
34.7305821
40
0.3625171
50
227.4477536
51
267.7275677
0
ARC
8
DEFAULT_255_2_778
10
15.8263041
20
34.969274
40
0.6028446
50
265.4251819
51
270.0697751
0
ARC
8
DEFAULT_255_2_778
10
15.8403493
20
34.7982549
40
0.4320301
50
268.2343994
51
297.3971034
0
ARC
8
DEFAULT_255_2_778
10
15.8859893
20
34.6918398
40
0.3166619
50
298.9255739
51
313.9942017
0
ARC
8
DEFAULT_255_2_778
10
15.8589811
20
34.7093231
40
0.3480756
50
315.193665
51
1.5653642
0
ARC
8
DEFAULT_255_2_778
10
15.6589538
20
34.7298817
40
0.5480844
50
358.844769
51
0.0050366
0
ARC
8
DEFAULT_255_2_778
10
15.8129544
20
35.6714766
40
0.326336
50
87.6143571
51
134.2504873
0
ARC
8
DEFAULT_255_2_778
10
15.8275363
20
35.6744661
40
0.3346046
50
136.3967288
51
181.5379293
0
ARC
8
DEFAULT_255_2_778
10
16.0252113
20
35.6544604
40
0.5322732
50
178.8131072
51
180.0032913
0
ARC
8
DEFAULT_255_2_778
10
15.8301971
20
35.6397327
40
0.337579
50
177.504732
51
223.156737
0
ARC
8
DEFAULT_255_2_778
10
15.8116158
20
35.6377479
40
0.3228631
50
225.1556565
51
272.6490917
0
ARC
8
DEFAULT_255_2_778
10
15.8417008
20
35.6371254
40
0.3222525
50
267.3031381
51
314.8921136
0
ARC
8
DEFAULT_255_2_778
10
15.8228793
20
35.6397327
40
0.337579
50
316.843263
51
2.495268
0
ARC
8
DEFAULT_255_2_778
10
15.8236647
20
35.6676576
40
0.3367334
50
357.7486954
51
44.0372765
0
ARC
8
DEFAULT_255_2_778
10
15.8364805
20
35.6758291
40
0.3218544
50
44.5774393
51
91.7701922
0
ARC
8
DEFAULT_255_2_778
10
15.7005506
20
30.9606382
40
0.6195952
50
297.4156263
51
320.0072125
0
ARC
8
DEFAULT_255_2_778
10
15.7497434
20
30.8672407
40
0.5140372
50
269.419812
51
297.3416415
0
ARC
8
DEFAULT_255_2_778
10
15.7322317
20
30.8841448
40
0.5310575
50
237.1852041
51
271.3278671
0
ARC
8
DEFAULT_255_2_778
10
15.7536848
20
30.8949679
40
0.5519137
50
203.3148199
51
235.9222746
0
ARC
8
DEFAULT_255_2_778
10
15.9889802
20
31.0060429
40
0.8120059
50
179.2811808
51
203.9413487
0
ARC
8
DEFAULT_255_2_778
10
16.0060764
20
31.0290566
40
0.8291374
50
155.2768698
51
180.8863986
0
ARC
8
DEFAULT_255_2_778
10
15.7604054
20
31.1462801
40
0.5569704
50
121.6268857
51
155.6606714
0
ARC
8
DEFAULT_255_2_778
10
15.7798592
20
31.0911401
40
0.6142466
50
88.7052842
51
120.4748122
0
ARC
8
DEFAULT_255_2_778
10
15.815402
20
31.1501612
40
0.5554913
50
36.9826551
51
92.2350609
0
ARC
8
DEFAULT_255_2_778
10
15.626484
20
31.0117302
40
0.7896846
50
11.5871783
51
36.7601389
0
ARC
8
DEFAULT_255_2_778
10
15.1073429
20
30.8939564
40
1.3219482
50
359.4874079
51
12.0682592
0
ARC
8
DEFAULT_255_2_778
10
14.1280791
20
30.7956794
40
2.3011934
50
352.3895985
51
0.3124859
0
ARC
8
DEFAULT_255_2_778
10
15.0575009
20
30.6669356
40
1.3629155
50
340.3071713
51
352.5796399
0
ARC
8
DEFAULT_255_2_778
10
15.584574
20
30.4743973
40
0.8017967
50
320.0948494
51
340.5691078
0
ARC
8
DEFAULT_255_2_778
10
15.6336754
20
30.4568452
40
0.7530866
50
283.6083925
51
318.7225868
0
ARC
8
DEFAULT_255_2_778
10
15.500421
20
30.9414652
40
1.2555498
50
270.2745929
51
284.3152784
0
ARC
8
DEFAULT_255_2_778
10
15.5068794
20
30.8290284
40
0.9299062
50
270.2315978
51
286.5831848
0
ARC
8
DEFAULT_255_2_778
10
15.6121231
20
30.4759607
40
0.5614867
50
286.5731627
51
312.5664974
0
ARC
8
DEFAULT_255_2_778
10
15.6151107
20
30.44753
40
0.5387959
50
314.3779359
51
344.5987327
0
ARC
8
DEFAULT_255_2_778
10
15.1520047
20
30.5897863
40
1.0231496
50
343.8059048
51
357.4442917
0
ARC
8
DEFAULT_255_2_778
10
14.7557618
20
30.6240028
40
1.4206201
50
356.7782545
51
357.5078167
0
ARC
8
DEFAULT_255_2_778
10
15.7860531
20
30.9516846
40
0.3892551
50
269.9242114
51
306.9310194
0
ARC
8
DEFAULT_255_2_778
10
15.7548319
20
31.0157639
40
0.4594365
50
305.2415646
51
336.6176979
0
ARC
8
DEFAULT_255_2_778
10
15.3391331
20
30.9474263
40
0.8375059
50
359.1108477
51
17.2430331
0
ARC
8
DEFAULT_255_2_778
10
15.6105887
20
31.0259148
40
0.5550119
50
17.8113869
51
34.3814338
0
ARC
8
DEFAULT_255_2_778
10
15.7796403
20
31.1573797
40
0.3415049
50
32.1941042
51
73.4258959
0
ARC
8
DEFAULT_255_2_778
10
15.7967144
20
31.1806915
40
0.3144413
50
75.1963603
51
90.2507583
0
ARC
8
DEFAULT_255_2_778
10
15.7858198
20
31.1701886
40
0.3250806
50
88.3221353
51
142.6676084
0
ARC
8
DEFAULT_255_2_778
10
15.915222
20
31.0738672
40
0.4863889
50
142.8898123
51
175.8721348
0
ARC
8
DEFAULT_255_2_778
10
16.2007556
20
31.0316698
40
0.7745187
50
174.2788973
51
180.106524
0
ARC
8
DEFAULT_255_2_778
10
16.0316983
20
31.0167221
40
0.6056108
50
178.7219498
51
203.5809045
0
ARC
8
DEFAULT_255_2_778
10
15.8883059
20
30.9635717
40
0.4530121
50
204.6751342
51
216.4339068
0
ARC
8
DEFAULT_255_2_778
10
15.7775146
20
30.8717896
40
0.3094717
50
214.9444307
51
271.541226
0
ARC
8
DEFAULT_255_2_778
10
15.9349612
20
21.5354334
40
1.142564
50
78.2606301
51
90.6229862
0
ARC
8
DEFAULT_255_2_778
10
16.0545326
20
22.0801098
40
0.5849857
50
54.6095353
51
78.8728231
0
ARC
8
DEFAULT_255_2_778
10
16.1308162
20
22.2037367
40
0.4401234
50
50.6400345
51
53.3844846
0
ARC
8
DEFAULT_255_2_778
10
16.1204838
20
22.2007845
40
0.4490002
50
4.7133239
51
49.8594875
0
ARC
8
DEFAULT_255_2_778
10
15.8307169
20
22.1493284
40
0.7425238
50
359.8535012
51
6.8336387
0
ARC
8
DEFAULT_255_2_778
10
16.1689143
20
22.1412384
40
0.4043713
50
323.4683916
51
0.8773054
0
ARC
8
DEFAULT_255_2_778
10
16.0835906
20
22.2104122
40
0.5141305
50
292.210611
51
322.9342677
0
ARC
8
DEFAULT_255_2_778
10
16.1617982
20
21.2864163
40
0.4628225
50
36.687528
51
75.4669406
0
ARC
8
DEFAULT_255_2_778
10
16.1345284
20
21.2738063
40
0.4922629
50
358.5709588
51
35.9681563
0
ARC
8
DEFAULT_255_2_778
10
16.0287009
20
21.2476375
40
0.5980986
50
333.8189871
51
1.330956
0
ARC
8
DEFAULT_255_2_778
10
16.1309725
20
21.2084868
40
0.489148
50
311.179609
51
332.6488496
0
ARC
8
DEFAULT_255_2_778
10
16.0642527
20
21.2968196
40
0.5996141
50
280.3253204
51
310.4205404
0
ARC
8
DEFAULT_255_2_778
10
15.9703142
20
21.7205191
40
1.0334207
50
269.5522383
51
281.2387594
0
ARC
8
DEFAULT_255_2_778
10
15.9807593
20
21.3772588
40
0.4757127
50
268.4074157
51
295.1465283
0
ARC
8
DEFAULT_255_2_778
10
16.0328362
20
21.2472542
40
0.3359979
50
296.5282903
51
311.7882274
0
ARC
8
DEFAULT_255_2_778
10
16.0293695
20
21.2408128
40
0.3335761
50
312.969558
51
2.8376802
0
ARC
8
DEFAULT_255_2_778
10
15.8324562
20
21.2586294
40
0.530082
50
359.8592283
51
0.0000471
0
ARC
8
DEFAULT_255_2_778
10
15.9364101
20
21.2715626
40
0.4263243
50
358.261637
51
24.343418
0
ARC
8
DEFAULT_255_2_778
10
16.0617773
20
21.3131342
40
0.2952901
50
27.0223241
51
80.9013332
0
ARC
8
DEFAULT_255_2_778
10
15.9779032
20
20.9825234
40
0.6357382
50
78.1480865
51
90.5736568
0
ARC
8
DEFAULT_255_2_778
10
15.9441031
20
22.2904252
40
0.4617888
50
268.3415427
51
295.9999664
0
ARC
8
DEFAULT_255_2_778
10
15.9934326
20
22.1699772
40
0.3320141
50
297.4607203
51
309.8629513
0
ARC
8
DEFAULT_255_2_778
10
16.020943
20
22.1366014
40
0.2887628
50
309.9177013
51
2.4667932
0
ARC
8
DEFAULT_255_2_778
10
15.9636159
20
22.1619555
40
0.3460638
50
357.8594756
51
27.3213379
0
ARC
8
DEFAULT_255_2_778
10
16.0771922
20
22.2122785
40
0.2221839
50
29.2351367
51
52.1124794
0
ARC
8
DEFAULT_255_2_778
10
16.0050907
20
22.0998652
40
0.3553879
50
54.0685699
51
81.9362132
0
ARC
8
DEFAULT_255_2_778
10
15.9285652
20
21.6976131
40
0.7646421
50
80.4866806
51
90.4666055
0
ARC
8
DEFAULT_255_2_778
10
15.8683805
20
16.906839
40
0.871722
50
334.0737784
51
354.1989306
0
ARC
8
DEFAULT_255_2_778
10
16.0836818
20
16.8091293
40
0.6353999
50
311.2389897
51
333.5095946
0
ARC
8
DEFAULT_255_2_778
10
16.052867
20
16.8598428
40
0.6939237
50
277.6052563
51
310.3919166
0
ARC
8
DEFAULT_255_2_778
10
15.9850874
20
17.2186871
40
1.0587649
50
269.7808756
51
278.6709268
0
ARC
8
DEFAULT_255_2_778
10
15.955459
20
16.8612161
40
0.7017526
50
219.7137184
51
272.0889233
0
ARC
8
DEFAULT_255_2_778
10
16.0986797
20
16.9743982
40
0.8842538
50
190.9101222
51
219.4256235
0
ARC
8
DEFAULT_255_2_778
10
16.572357
20
17.0801167
40
1.3694519
50
179.6019808
51
191.5023674
0
ARC
8
DEFAULT_255_2_778
10
16.4292218
20
17.2943601
40
1.2263571
50
163.5476325
51
180.6274798
0
ARC
8
DEFAULT_255_2_778
10
16.1681201
20
17.3622722
40
0.956753
50
154.8402342
51
163.0195971
0
ARC
8
DEFAULT_255_2_778
10
15.9774825
20
17.4660074
40
0.7402111
50
122.1911574
51
155.8345461
0
ARC
8
DEFAULT_255_2_778
10
15.9880845
20
17.4224388
40
0.7828598
50
88.8103384
51
121.1489934
0
ARC
8
DEFAULT_255_2_778
10
16.0177538
20
17.350767
40
0.8544681
50
70.4365193
51
90.8996113
0
ARC
8
DEFAULT_255_2_778
10
16.0882654
20
17.5685505
40
0.6256798
50
47.2673516
51
69.8427497
0
ARC
8
DEFAULT_255_2_778
10
16.0356155
20
17.5242987
40
0.6939649
50
11.2491751
51
46.5536118
0
ARC
8
DEFAULT_255_2_778
10
15.7156826
20
17.4377341
40
1.0248848
50
5.6215975
51
12.5065826
0
ARC
8
DEFAULT_255_2_778
10
15.6679465
20
17.4354741
40
0.8104197
50
7.277199
51
22.3123807
0
ARC
8
DEFAULT_255_2_778
10
16.0391746
20
17.588957
40
0.408717
50
22.1648623
51
45.9327312
0
ARC
8
DEFAULT_255_2_778
10
16.0517185
20
17.5774253
40
0.4086336
50
48.3217372
51
85.4070576
0
ARC
8
DEFAULT_255_2_778
10
16.005805
20
17.2977054
40
0.6915267
50
83.4706229
51
90.1463835
0
ARC
8
DEFAULT_255_2_778
10
15.9842756
20
17.5197848
40
0.4698609
50
87.5893986
51
142.8967524
0
ARC
8
DEFAULT_255_2_778
10
16.1390786
20
17.4120248
40
0.6583725
50
143.544365
51
168.2246289
0
ARC
8
DEFAULT_255_2_778
10
16.6731019
20
17.2888574
40
1.2063486
50
167.6739415
51
180.2559661
0
ARC
8
DEFAULT_255_2_778
10
17.0990716
20
17.2740448
40
1.6323334
50
179.6692343
51
180.0005238
0
ARC
8
DEFAULT_255_2_778
10
16.6292143
20
17.0683026
40
1.1625469
50
179.3678004
51
193.2228577
0
ARC
8
DEFAULT_255_2_778
10
16.1728978
20
16.9595871
40
0.6934624
50
193.1025854
51
214.6079319
0
ARC
8
DEFAULT_255_2_778
10
15.9641451
20
16.8118737
40
0.4377623
50
214.2134493
51
272.1853778
0
ARC
8
DEFAULT_255_2_778
10
15.9932414
20
17.0369719
40
0.6626582
50
268.9275144
51
287.2434951
0
ARC
8
DEFAULT_255_2_778
10
16.0747819
20
16.7642217
40
0.3780075
50
287.6946755
51
309.7585777
0
ARC
8
DEFAULT_255_2_778
10
16.0493277
20
16.7693676
40
0.3985753
50
312.0990385
51
340.676256
0
ARC
8
DEFAULT_255_2_778
10
15.6065748
20
16.9425289
40
0.8738487
50
339.5683138
51
351.8686912
0
ARC
8
DEFAULT_255_2_778
10
15.848579
20
12.7535636
40
0.924387
50
64.8515969
51
90.9261059
0
ARC
8
DEFAULT_255_2_778
10
15.8860176
20
12.8557205
40
0.816059
50
60.0817563
51
64.1829503
0
ARC
8
DEFAULT_255_2_778
10
15.9057378
20
12.8890435
40
0.7773411
50
26.5278768
51
60.1165425
0
ARC
8
DEFAULT_255_2_778
10
15.6772662
20
12.7744763
40
1.0329281
50
2.3688895
51
26.5535187
0
ARC
8
DEFAULT_255_2_778
10
15.3643825
20
12.7430335
40
1.3469709
50
0.2720806
51
3.1551407
0
ARC
8
DEFAULT_255_2_778
10
15.5622401
20
12.608534
40
1.1491785
50
342.1902911
51
0.6778784
0
ARC
8
DEFAULT_255_2_778
10
15.7910538
20
12.5444548
40
0.9117753
50
332.8738524
51
341.6262415
0
ARC
8
DEFAULT_255_2_778
10
15.9183388
20
12.470324
40
0.7647322
50
299.2701799
51
333.468826
0
ARC
8
DEFAULT_255_2_778
10
15.8442256
20
12.6202628
40
0.9318037
50
272.7249044
51
298.7377599
0
ARC
8
DEFAULT_255_2_778
10
15.8110762
20
12.9193953
40
1.2323187
50
270.5329243
51
273.6032604
0
ARC
8
DEFAULT_255_2_778
10
15.8237796
20
12.6182503
40
0.7167447
50
268.9334415
51
291.5916203
0
ARC
8
DEFAULT_255_2_778
10
15.8842491
20
12.44476
40
0.5332305
50
292.4100018
51
318.3418468
0
ARC
8
DEFAULT_255_2_778
10
15.7968014
20
12.5107661
40
0.6424983
50
319.1275575
51
348.635007
0
ARC
8
DEFAULT_255_2_778
10
15.3393846
20
12.6176248
40
1.1120995
50
347.8814678
51
0.5206219
0
ARC
8
DEFAULT_255_2_778
10
15.3754794
20
12.7566245
40
1.0760349
50
359.3187033
51
14.0526045
0
ARC
8
DEFAULT_255_2_778
10
15.8009511
20
12.8657778
40
0.6367976
50
13.8207612
51
39.5115387
0
ARC
8
DEFAULT_255_2_778
10
15.8829387
20
12.9181252
40
0.5403677
50
40.7604101
51
86.039273
0
ARC
8
DEFAULT_255_2_778
10
15.8341268
20
12.6259024
40
0.8357505
50
84.084312
51
89.5741641
0
ARC
8
DEFAULT_255_2_778
10
24.0912712
20
85.1813982
40
0.0287378
50
90.2279058
51
131.4751952
0
ARC
8
DEFAULT_255_2_778
10
24.0911552
20
85.1824007
40
0.0277351
50
85.9868543
51
89.9964759
0
ARC
8
DEFAULT_255_2_778
10
24.0911799
20
85.1827567
40
0.0273782
50
71.5638097
51
85.9862982
0
ARC
8
DEFAULT_255_2_778
10
24.0908698
20
85.1818897
40
0.0282989
50
12.116993
51
71.5233468
0
ARC
8
DEFAULT_255_2_778
10
24.0923874
20
85.1819594
40
0.0268016
50
7.323086
51
12.652219
0
ARC
8
DEFAULT_255_2_778
10
24.0924418
20
85.1819661
40
0.0267469
50
359.9967264
51
7.3236591
0
ARC
8
DEFAULT_255_2_778
10
24.0907549
20
85.1822098
40
0.0284348
50
312.1540452
51
359.506019
0
ARC
8
DEFAULT_255_2_778
10
23.5314651
20
85.3534611
40
0.0284251
50
18.3924017
51
77.6634725
0
ARC
8
DEFAULT_255_2_778
10
23.531731
20
85.3541321
40
0.0277131
50
77.9041942
51
81.6512063
0
ARC
8
DEFAULT_255_2_778
10
23.5317713
20
85.3543925
40
0.0274495
50
81.6553924
51
89.9963026
0
ARC
8
DEFAULT_255_2_778
10
23.5319901
20
85.3531661
40
0.0286768
50
90.4337714
51
137.5271134
0
ARC
8
DEFAULT_255_2_778
10
23.5307659
20
85.3540304
40
0.0271908
50
137.1285845
51
180.1782891
0
ARC
8
DEFAULT_255_2_778
10
23.5313275
20
85.3539429
40
0.0277524
50
179.9939089
51
183.0535297
0
ARC
8
DEFAULT_255_2_778
10
23.5315201
20
85.3539542
40
0.0279453
50
183.055669
51
198.6237049
0
ARC
8
DEFAULT_255_2_778
10
23.6647111
20
85.2378896
40
0.0560257
50
201.0898281
51
269.8174019
0
ARC
8
DEFAULT_255_2_778
10
23.6645286
20
85.2380233
40
0.0561591
50
270.0040446
51
274.4011471
0
ARC
8
DEFAULT_255_2_778
10
23.6648243
20
85.2377249
40
0.0558395
50
274.1221225
51
347.4903727
0
ARC
8
DEFAULT_255_2_778
10
23.9691251
20
85.1715556
40
0.0559079
50
163.0767701
51
172.101071
0
ARC
8
DEFAULT_255_2_778
10
23.9686089
20
85.1716367
40
0.0553855
50
172.1108191
51
179.9989489
0
ARC
8
DEFAULT_255_2_778
10
23.9688025
20
85.1716623
40
0.0555793
50
180.0253473
51
240.6233272
0
ARC
8
DEFAULT_255_2_778
10
23.9693418
20
85.1722136
40
0.0563244
50
240.4203815
51
266.7905308
0
ARC
8
DEFAULT_255_2_778
10
23.969306
20
85.1719251
40
0.0560343
50
266.8105196
51
270.0054152
0
ARC
8
DEFAULT_255_2_778
10
23.9693143
20
85.1721969
40
0.0563062
50
269.9969667
51
316.7680622
0
ARC
8
DEFAULT_255_2_778
10
25.8499197
20
84.5296824
40
0.2398526
50
270.0283083
51
330.0478976
0
ARC
8
DEFAULT_255_2_778
10
25.8493873
20
84.5299571
40
0.240451
50
330.0545258
51
359.9935052
0
ARC
8
DEFAULT_255_2_778
10
25.8493873
20
84.5299026
40
0.240451
50
0.0064948
51
29.9454742
0
ARC
8
DEFAULT_255_2_778
10
23.8184552
20
88.0494128
40
0.2410171
50
30.3047551
51
89.9802717
0
ARC
8
DEFAULT_255_2_778
10
23.8186209
20
88.0494131
40
0.2410167
50
90.019651
51
149.6952732
0
ARC
8
DEFAULT_255_2_778
10
21.7864928
20
84.5301746
40
0.2405547
50
150.0610738
51
179.9084951
0
ARC
8
DEFAULT_255_2_778
10
21.7137844
20
84.530284
40
0.1678461
50
179.9061751
51
180.0312749
0
ARC
8
DEFAULT_255_2_778
10
21.7860818
20
84.5301749
40
0.2401436
50
179.9958375
51
209.9650878
0
ARC
8
DEFAULT_255_2_778
10
21.7863803
20
84.5308887
40
0.2407592
50
210.0767595
51
269.9185898
0
LINE
8
DEFAULT_255_2_778
10
13.3810382
20
77.2654299
11
12.9214382
21
76.8058299
0
LINE
8
DEFAULT_255_2_778
10
12.9214382
20
76.8058299
11
12.3557382
21
77.3715299
0
LINE
8
DEFAULT_255_2_778
10
12.3557382
20
77.3715299
11
12.8153382
21
77.8311299
0
LINE
8
DEFAULT_255_2_778
10
12.8153382
20
78.7502299
11
12.3557382
21
79.2098299
0
LINE
8
DEFAULT_255_2_778
10
12.3557382
20
79.2098299
11
12.9214382
21
79.7755299
0
LINE
8
DEFAULT_255_2_778
10
12.9214382
20
79.7755299
11
13.3810382
21
79.3159299
0
LINE
8
DEFAULT_255_2_778
10
16.4544382
20
71.3657299
11
16.4544382
21
71.0376299
0
LINE
8
DEFAULT_255_2_778
10
15.1979382
20
71.0035299
11
15.1979382
21
71.3411299
0
LINE
8
DEFAULT_255_2_778
10
16.4544382
20
71.3657299
11
16.4544382
21
71.3657299
0
LINE
8
DEFAULT_255_2_778
10
16.2014382
20
70.9691299
11
16.2014382
21
71.3834299
0
LINE
8
DEFAULT_255_2_778
10
15.4508382
20
71.4025299
11
15.4508382
21
70.9977299
0
LINE
8
DEFAULT_255_2_778
10
16.2014382
20
70.9691299
11
16.2014382
21
70.9691299
0
LINE
8
DEFAULT_255_2_778
10
16.0755382
20
67.6295299
11
16.0755382
21
65.6293299
0
LINE
8
DEFAULT_255_2_778
10
16.0755382
20
65.6293299
11
15.8212382
21
65.6293299
0
LINE
8
DEFAULT_255_2_778
10
15.8212382
20
65.6293299
11
15.8212382
21
67.3149299
0
LINE
8
DEFAULT_255_2_778
10
15.8212382
20
67.3149299
11
15.3114382
21
67.1276299
0
LINE
8
DEFAULT_255_2_778
10
15.3114382
20
67.1276299
11
15.3114382
21
67.3573299
0
LINE
8
DEFAULT_255_2_778
10
15.3114382
20
67.3573299
11
16.0361382
21
67.6292299
0
LINE
8
DEFAULT_255_2_778
10
16.0361382
20
67.6292299
11
16.0757382
21
67.6292299
0
LINE
8
DEFAULT_255_2_778
10
16.0757382
20
67.6292299
11
16.0755382
21
67.6295299
0
LINE
8
DEFAULT_255_2_778
10
16.5102382
20
61.3946299
11
16.5102382
21
61.1882299
0
LINE
8
DEFAULT_255_2_778
10
16.5102382
20
61.1882299
11
15.2058382
21
61.1882299
0
LINE
8
DEFAULT_255_2_778
10
15.2058382
20
61.1882299
11
15.2058382
21
61.3700299
0
LINE
8
DEFAULT_255_2_778
10
15.2058382
20
61.3700299
11
15.8948382
21
62.1357299
0
LINE
8
DEFAULT_255_2_778
10
15.4204382
20
62.5921299
11
15.1674382
21
62.5921299
0
LINE
8
DEFAULT_255_2_778
10
16.0437382
20
61.9727299
11
15.5106382
21
61.3943299
0
LINE
8
DEFAULT_255_2_778
10
15.5106382
20
61.3943299
11
16.5099382
21
61.3943299
0
LINE
8
DEFAULT_255_2_778
10
16.5099382
20
61.3943299
11
16.5102382
21
61.3946299
0
LINE
8
DEFAULT_255_2_778
10
15.5738382
20
57.6002299
11
15.5738382
21
57.8066299
0
LINE
8
DEFAULT_255_2_778
10
15.5738382
20
57.8066299
11
15.7638382
21
57.8066299
0
LINE
8
DEFAULT_255_2_778
10
15.4397382
20
58.1566299
11
15.1867382
21
58.1566299
0
LINE
8
DEFAULT_255_2_778
10
15.1690382
20
57.2137299
11
15.4233382
21
57.2137299
0
LINE
8
DEFAULT_255_2_778
10
15.7638382
20
57.6007299
11
15.5738382
21
57.6007299
0
LINE
8
DEFAULT_255_2_778
10
15.5738382
20
57.6007299
11
15.5738382
21
57.6002299
0
LINE
8
DEFAULT_255_2_778
10
16.2736382
20
54.1786299
11
16.2736382
21
52.8565299
0
LINE
8
DEFAULT_255_2_778
10
16.2736382
20
52.8565299
11
16.5499382
21
52.8565299
0
LINE
8
DEFAULT_255_2_778
10
16.5499382
20
52.8565299
11
16.5499382
21
52.6501299
0
LINE
8
DEFAULT_255_2_778
10
16.5499382
20
52.6501299
11
16.2736382
21
52.6501299
0
LINE
8
DEFAULT_255_2_778
10
16.2736382
20
52.6501299
11
16.2736382
21
52.1879299
0
LINE
8
DEFAULT_255_2_778
10
16.2736382
20
52.1879299
11
16.0194382
21
52.1879299
0
LINE
8
DEFAULT_255_2_778
10
16.0194382
20
52.1879299
11
16.0194382
21
52.6501299
0
LINE
8
DEFAULT_255_2_778
10
16.0194382
20
52.6501299
11
15.1129382
21
52.6501299
0
LINE
8
DEFAULT_255_2_778
10
15.1129382
20
52.6501299
11
15.1129382
21
52.7991299
0
LINE
8
DEFAULT_255_2_778
10
15.1129382
20
52.7991299
11
16.0043382
21
54.1786299
0
LINE
8
DEFAULT_255_2_778
10
16.0043382
20
54.1786299
11
16.2736382
21
54.1786299
0
LINE
8
DEFAULT_255_2_778
10
16.2736382
20
54.1786299
11
16.2736382
21
54.1786299
0
LINE
8
DEFAULT_255_2_778
10
15.9892382
20
53.7780299
11
15.4000382
21
52.8565299
0
LINE
8
DEFAULT_255_2_778
10
15.4000382
20
52.8565299
11
16.0194382
21
52.8565299
0
LINE
8
DEFAULT_255_2_778
10
16.0194382
20
52.8565299
11
16.0194382
21
53.8325299
0
LINE
8
DEFAULT_255_2_778
10
16.0194382
20
53.8325299
11
15.9892382
21
53.7778299
0
LINE
8
DEFAULT_255_2_778
10
15.9892382
20
53.7778299
11
15.9892382
21
53.7780299
0
LINE
8
DEFAULT_255_2_778
10
15.5243382
20
48.6340299
11
15.3219382
21
48.6859299
0
LINE
8
DEFAULT_255_2_778
10
15.3219382
20
48.6859299
11
15.4230382
21
49.6783299
0
LINE
8
DEFAULT_255_2_778
10
15.4230382
20
49.6783299
11
16.4430382
21
49.6783299
0
LINE
8
DEFAULT_255_2_778
10
16.4430382
20
49.6783299
11
16.4430382
21
49.4444299
0
LINE
8
DEFAULT_255_2_778
10
16.4430382
20
49.4444299
11
15.6376382
21
49.4444299
0
LINE
8
DEFAULT_255_2_778
10
15.6376382
20
49.4444299
11
15.5775382
21
48.9018299
0
LINE
8
DEFAULT_255_2_778
10
15.2510382
20
48.2115299
11
15.4902382
21
48.2115299
0
LINE
8
DEFAULT_255_2_778
10
15.5913382
20
48.6888299
11
15.5243382
21
48.6340299
0
LINE
8
DEFAULT_255_2_778
10
15.5243382
20
48.6340299
11
15.5243382
21
48.6340299
0
LINE
8
DEFAULT_255_2_778
10
16.1533382
20
45.1799299
11
16.1985382
21
45.1799299
0
LINE
8
DEFAULT_255_2_778
10
16.1985382
20
45.1799299
11
16.1985382
21
44.9653299
0
LINE
8
DEFAULT_255_2_778
10
16.1985382
20
44.9653299
11
16.1519382
21
44.9653299
0
LINE
8
DEFAULT_255_2_778
10
15.2206382
20
43.9456299
11
15.2206382
21
44.0427299
0
LINE
8
DEFAULT_255_2_778
10
16.1530382
20
45.1801299
11
16.1533382
21
45.1799299
0
LINE
8
DEFAULT_255_2_778
10
15.4751382
20
44.0094299
11
15.4751382
21
43.9165299
0
LINE
8
DEFAULT_255_2_778
10
15.8659382
20
44.2827299
11
15.8662382
21
44.2829299
0
LINE
8
DEFAULT_255_2_778
10
16.4911382
20
40.6783299
11
16.4911382
21
40.5362299
0
LINE
8
DEFAULT_255_2_778
10
16.4911382
20
40.5362299
11
15.6667382
21
38.6878299
0
LINE
8
DEFAULT_255_2_778
10
15.6667382
20
38.6878299
11
15.4016382
21
38.6878299
0
LINE
8
DEFAULT_255_2_778
10
15.4016382
20
38.6878299
11
16.2234382
21
40.4706299
0
LINE
8
DEFAULT_255_2_778
10
16.2234382
20
40.4706299
11
15.1460382
21
40.4706299
0
LINE
8
DEFAULT_255_2_778
10
15.1460382
20
40.4706299
11
15.1460382
21
40.6783299
0
LINE
8
DEFAULT_255_2_778
10
15.1460382
20
40.6783299
11
16.4914382
21
40.6783299
0
LINE
8
DEFAULT_255_2_778
10
16.4914382
20
40.6783299
11
16.4911382
21
40.6783299
0
LINE
8
DEFAULT_255_2_778
10
16.4126382
20
35.6586299
11
16.4131382
21
35.6586299
0
LINE
8
DEFAULT_255_2_778
10
16.2070382
20
34.7299299
11
16.2067382
21
34.7302299
0
LINE
8
DEFAULT_255_2_778
10
15.8265382
20
35.9975299
11
15.8265382
21
35.9975299
0
LINE
8
DEFAULT_255_2_778
10
16.4292382
20
30.8821299
11
16.4292382
21
30.8082299
0
LINE
8
DEFAULT_255_2_778
10
15.5064382
20
29.6859299
11
15.4571382
21
29.6859299
0
LINE
8
DEFAULT_255_2_778
10
15.4571382
20
29.6859299
11
15.4571382
21
29.8991299
0
LINE
8
DEFAULT_255_2_778
10
15.4571382
20
29.8991299
11
15.5106382
21
29.8991299
0
LINE
8
DEFAULT_255_2_778
10
16.1750382
20
30.5622299
11
16.1752382
21
30.5624299
0
LINE
8
DEFAULT_255_2_778
10
16.1765382
20
30.8334299
11
16.1765382
21
30.9344299
0
LINE
8
DEFAULT_255_2_778
10
15.7858382
20
30.5624299
11
15.7855382
21
30.5624299
0
LINE
8
DEFAULT_255_2_778
10
16.5607382
20
25.1872299
11
16.3708382
21
25.7068299
0
LINE
8
DEFAULT_255_2_778
10
16.3708382
20
25.7068299
11
15.5368382
21
25.7068299
0
LINE
8
DEFAULT_255_2_778
10
15.5368382
20
25.7068299
11
15.3495382
21
25.1872299
0
LINE
8
DEFAULT_255_2_778
10
15.3495382
20
25.1872299
11
15.0788382
21
25.1872299
0
LINE
8
DEFAULT_255_2_778
10
15.0788382
20
25.1872299
11
15.8389382
21
27.1779299
0
LINE
8
DEFAULT_255_2_778
10
15.8389382
20
27.1779299
11
16.0686382
21
27.1779299
0
LINE
8
DEFAULT_255_2_778
10
16.0686382
20
27.1779299
11
16.8301382
21
25.1872299
0
LINE
8
DEFAULT_255_2_778
10
16.8301382
20
25.1872299
11
16.5607382
21
25.1872299
0
LINE
8
DEFAULT_255_2_778
10
16.5607382
20
25.1872299
11
16.5607382
21
25.1872299
0
LINE
8
DEFAULT_255_2_778
10
15.9538382
20
26.8538299
11
15.6162382
21
25.9227299
0
LINE
8
DEFAULT_255_2_778
10
15.6162382
20
25.9227299
11
16.2930382
21
25.9227299
0
LINE
8
DEFAULT_255_2_778
10
16.2930382
20
25.9227299
11
15.9540382
21
26.8538299
0
LINE
8
DEFAULT_255_2_778
10
15.9540382
20
26.8538299
11
15.9538382
21
26.8538299
0
LINE
8
DEFAULT_255_2_778
10
15.9622382
20
20.6871299
11
15.2717382
21
20.6871299
0
LINE
8
DEFAULT_255_2_778
10
15.2717382
20
20.6871299
11
15.2717382
21
22.6779299
0
LINE
8
DEFAULT_255_2_778
10
15.2717382
20
22.6779299
11
15.9225382
21
22.6779299
0
LINE
8
DEFAULT_255_2_778
10
15.9622382
20
20.6871299
11
15.9622382
21
20.6871299
0
LINE
8
DEFAULT_255_2_778
10
15.9718382
20
21.6182299
11
15.5341382
21
21.6182299
0
LINE
8
DEFAULT_255_2_778
10
15.5341382
20
21.6182299
11
15.5341382
21
20.9017299
0
LINE
8
DEFAULT_255_2_778
10
15.5341382
20
20.9017299
11
15.9675382
21
20.9017299
0
LINE
8
DEFAULT_255_2_778
10
15.9715382
20
21.6182299
11
15.9718382
21
21.6182299
0
LINE
8
DEFAULT_255_2_778
10
15.5341382
20
22.4617299
11
15.5341382
21
21.8288299
0
LINE
8
DEFAULT_255_2_778
10
15.5341382
20
21.8288299
11
15.9307382
21
21.8288299
0
LINE
8
DEFAULT_255_2_778
10
15.9223382
20
22.4622299
11
15.5339382
21
22.4622299
0
LINE
8
DEFAULT_255_2_778
10
15.5339382
20
22.4622299
11
15.5341382
21
22.4617299
0
LINE
8
DEFAULT_255_2_778
10
16.4718382
20
16.8187299
11
16.7356382
21
16.8187299
0
LINE
8
DEFAULT_255_2_778
10
15.2029382
20
17.0896299
11
15.2029382
21
17.2809299
0
LINE
8
DEFAULT_255_2_778
10
16.7356382
20
17.5381299
11
16.4718382
21
17.5381299
0
LINE
8
DEFAULT_255_2_778
10
15.4667382
20
17.2740299
11
15.4667382
21
17.0811299
0
LINE
8
DEFAULT_255_2_778
10
16.4716382
20
16.8189299
11
16.4718382
21
16.8187299
0
LINE
8
DEFAULT_255_2_778
10
15.8225382
20
11.6871299
11
15.2717382
21
11.6871299
0
LINE
8
DEFAULT_255_2_778
10
15.2717382
20
11.6871299
11
15.2717382
21
13.6778299
0
LINE
8
DEFAULT_255_2_778
10
15.2717382
20
13.6778299
11
15.8336382
21
13.6778299
0
LINE
8
DEFAULT_255_2_778
10
16.7113382
20
12.7494299
11
16.7113382
21
12.6221299
0
LINE
8
DEFAULT_255_2_778
10
15.8225382
20
11.6871299
11
15.8225382
21
11.6871299
0
LINE
8
DEFAULT_255_2_778
10
15.8403382
20
13.4616299
11
15.5341382
21
13.4616299
0
LINE
8
DEFAULT_255_2_778
10
15.5341382
20
13.4616299
11
15.5341382
21
11.9016299
0
LINE
8
DEFAULT_255_2_778
10
15.5341382
20
11.9016299
11
15.8104382
21
11.9016299
0
LINE
8
DEFAULT_255_2_778
10
16.4514382
20
12.6277299
11
16.4514382
21
12.7438299
0
LINE
8
DEFAULT_255_2_778
10
15.8403382
20
13.4616299
11
15.8403382
21
13.4616299
0
LINE
8
DEFAULT_255_2_778
10
16.3969382
20
8.3216299
11
16.3969382
21
8.1070299
0
LINE
8
DEFAULT_255_2_778
10
16.3969382
20
8.1070299
11
15.5341382
21
8.1070299
0
LINE
8
DEFAULT_255_2_778
10
15.5341382
20
8.1070299
11
15.5341382
21
7.4016299
0
LINE
8
DEFAULT_255_2_778
10
15.5341382
20
7.4016299
11
16.5364382
21
7.4016299
0
LINE
8
DEFAULT_255_2_778
10
16.5364382
20
7.4016299
11
16.5364382
21
7.1870299
0
LINE
8
DEFAULT_255_2_778
10
16.5364382
20
7.1870299
11
15.2717382
21
7.1870299
0
LINE
8
DEFAULT_255_2_778
10
15.2717382
20
7.1870299
11
15.2717382
21
9.1778299
0
LINE
8
DEFAULT_255_2_778
10
15.2717382
20
9.1778299
11
16.5226382
21
9.1778299
0
LINE
8
DEFAULT_255_2_778
10
16.5226382
20
9.1778299
11
16.5226382
21
8.9619299
0
LINE
8
DEFAULT_255_2_778
10
16.5226382
20
8.9619299
11
15.5341382
21
8.9619299
0
LINE
8
DEFAULT_255_2_778
10
15.5341382
20
8.9619299
11
15.5341382
21
8.3221299
0
LINE
8
DEFAULT_255_2_778
10
15.5341382
20
8.3221299
11
16.3969382
21
8.3221299
0
LINE
8
DEFAULT_255_2_778
10
16.3969382
20
8.3221299
11
16.3969382
21
8.3216299
0
LINE
8
DEFAULT_255_2_778
10
16.3694382
20
3.7805299
11
16.3694382
21
3.5660299
0
LINE
8
DEFAULT_255_2_778
10
16.3694382
20
3.5660299
11
15.5341382
21
3.5660299
0
LINE
8
DEFAULT_255_2_778
10
15.5341382
20
3.5660299
11
15.5341382
21
2.6867299
0
LINE
8
DEFAULT_255_2_778
10
15.5341382
20
2.6867299
11
15.2717382
21
2.6867299
0
LINE
8
DEFAULT_255_2_778
10
15.2717382
20
2.6867299
11
15.2717382
21
4.6775299
0
LINE
8
DEFAULT_255_2_778
10
15.2717382
20
4.6775299
11
16.5049382
21
4.6775299
0
LINE
8
DEFAULT_255_2_778
10
16.5049382
20
4.6775299
11
16.5049382
21
4.4616299
0
LINE
8
DEFAULT_255_2_778
10
16.5049382
20
4.4616299
11
15.5341382
21
4.4616299
0
LINE
8
DEFAULT_255_2_778
10
15.5341382
20
4.4616299
11
15.5341382
21
3.7808299
0
LINE
8
DEFAULT_255_2_778
10
15.5341382
20
3.7808299
11
16.3694382
21
3.7808299
0
LINE
8
DEFAULT_255_2_778
10
16.3694382
20
3.7808299
11
16.3694382
21
3.7805299
0
LINE
8
DEFAULT_255_2_778
10
23.5068382
20
85.3410299
11
23.7182382
21
84.6904299
0
LINE
8
DEFAULT_255_2_778
10
23.7182382
20
84.6904299
11
24.1074382
21
85.1566299
0
LINE
8
DEFAULT_255_2_778
10
23.9143382
20
85.1814299
11
24.2982382
21
86.4702299
0
LINE
8
DEFAULT_255_2_778
10
24.2982382
20
86.4702299
11
23.4981382
21
86.0302299
0
LINE
8
DEFAULT_255_2_778
10
23.4981382
20
86.0302299
11
24.0582382
21
87.2637299
0
LINE
8
DEFAULT_255_2_778
10
24.0582382
20
87.2637299
11
23.8180382
21
87.2637299
0
LINE
8
DEFAULT_255_2_778
10
23.8180382
20
87.2637299
11
23.6838382
21
87.4836299
0
LINE
8
DEFAULT_255_2_778
10
23.6838382
20
87.4836299
11
23.0980382
21
85.5902299
0
LINE
8
DEFAULT_255_2_778
10
23.0980382
20
85.5902299
11
23.8981382
21
86.0302299
0
LINE
8
DEFAULT_255_2_778
10
23.8981382
20
86.0302299
11
23.7198382
21
85.2280299
0
LINE
8
DEFAULT_255_2_778
10
23.7198382
20
85.2280299
11
23.7116382
21
85.2090299
0
LINE
8
DEFAULT_255_2_778
10
23.6129382
20
85.2198299
11
23.5590382
21
85.3603299
0
LINE
8
DEFAULT_255_2_778
10
24.0773382
20
85.2050299
11
24.0109382
21
85.1338299
0
LINE
8
DEFAULT_255_2_778
10
21.7823382
20
84.2898299
11
25.8500382
21
84.2898299
0
LINE
8
DEFAULT_255_2_778
10
24.0267382
20
88.1675299
11
26.0685382
21
84.6311299
0
LINE
8
DEFAULT_255_2_778
10
23.6079382
20
88.1665299
11
21.5793382
21
84.6533299
0
LINE
8
DEFAULT_255_2_778
10
25.7468382
20
84.5901299
11
23.8182382
21
87.9302299
0
LINE
8
DEFAULT_255_2_778
10
23.8182382
20
87.9302299
11
21.8900382
21
84.5901299
0
LINE
8
DEFAULT_255_2_778
10
21.8900382
20
84.5901299
11
25.7468382
21
84.5901299
0
LINE
8
DEFAULT_255_2_778
10
25.7468382
20
84.5901299
11
23.8182382
21
87.9302299
0
LINE
8
DEFAULT_255_2_778
10
23.8182382
20
87.9302299
11
21.8900382
21
84.5901299
0
LINE
8
DEFAULT_255_2_778
10
21.8900382
20
84.5901299
11
25.7468382
21
84.5901299
0
ARC
8
DEFAULT_255_2_778
10
2.4558275
20
95.8428299
40
0.7978478
50
342.5280997
51
0.927118
0
ARC
8
DEFAULT_255_2_778
10
2.6770002
20
95.7826451
40
0.5688806
50
336.3170216
51
341.6219843
0
ARC
8
DEFAULT_255_2_778
10
2.767571
20
95.7331169
40
0.4661298
50
306.0479805
51
337.4205226
0
ARC
8
DEFAULT_255_2_778
10
2.7706294
20
95.7978788
40
0.5236455
50
269.7200583
51
283.6574667
0
ARC
8
DEFAULT_255_2_778
10
2.759613
20
95.736017
40
0.4618549
50
238.0005342
51
271.049303
0
ARC
8
DEFAULT_255_2_778
10
2.766721
20
95.7338316
40
0.4638238
50
204.1133535
51
237.112824
0
ARC
8
DEFAULT_255_2_778
10
2.9900211
20
95.8355408
40
0.7091929
50
180.0842219
51
204.2431202
0
ARC
8
DEFAULT_255_2_778
10
3.2472118
20
95.8541871
40
0.9665833
50
180.5363148
51
181.1671625
0
ARC
8
DEFAULT_255_2_778
10
3.0278738
20
95.9458036
40
0.7473261
50
157.8454493
51
181.0399789
0
ARC
8
DEFAULT_255_2_778
10
2.8886082
20
95.9919841
40
0.6010065
50
155.602407
51
156.9162022
0
ARC
8
DEFAULT_255_2_778
10
2.7655809
20
96.0586863
40
0.4615199
50
123.2294911
51
156.8349481
0
ARC
8
DEFAULT_255_2_778
10
2.7582518
20
96.0553147
40
0.460393
50
89.0144193
51
122.2365369
0
ARC
8
DEFAULT_255_2_778
10
2.7758249
20
96.0480636
40
0.4676756
50
58.0843782
51
91.1828182
0
ARC
8
DEFAULT_255_2_778
10
2.7743734
20
96.0626435
40
0.4561548
50
23.1586795
51
56.9613863
0
ARC
8
DEFAULT_255_2_778
10
2.5299627
20
95.9551331
40
0.7231574
50
0.8241046
51
23.3746199
0
ARC
8
DEFAULT_255_2_778
10
2.2421673
20
95.9329313
40
1.0114036
50
359.9891408
51
1.8472689
0
ARC
8
DEFAULT_255_2_778
10
2.3653488
20
95.946297
40
0.7290285
50
359.020896
51
15.4429004
0
ARC
8
DEFAULT_255_2_778
10
2.6886378
20
96.0332102
40
0.3942751
50
15.7785041
51
35.6380224
0
ARC
8
DEFAULT_255_2_778
10
2.7802002
20
96.0957603
40
0.2834267
50
36.1463692
51
92.837243
0
ARC
8
DEFAULT_255_2_778
10
2.7559781
20
96.0980794
40
0.2809452
50
87.9208327
51
143.8676005
0
ARC
8
DEFAULT_255_2_778
10
2.8976665
20
96.0012982
40
0.4524801
50
144.5490003
51
173.1649015
0
ARC
8
DEFAULT_255_2_778
10
3.249486
20
95.9384532
40
0.8095388
50
171.7118929
51
179.5621488
0
ARC
8
DEFAULT_255_2_778
10
3.1243148
20
95.843147
40
0.6844597
50
178.9458233
51
197.2299545
0
ARC
8
DEFAULT_255_2_778
10
2.8577121
20
95.7652722
40
0.4067799
50
197.8764214
51
215.5544111
0
ARC
8
DEFAULT_255_2_778
10
2.7569058
20
95.6898595
40
0.2809301
50
214.99627
51
272.216487
0
ARC
8
DEFAULT_255_2_778
10
2.7813987
20
95.69071
40
0.2819
50
267.2290884
51
323.1477782
0
ARC
8
DEFAULT_255_2_778
10
2.6527897
20
95.7728195
40
0.4342069
50
324.6563068
51
351.8468438
0
ARC
8
DEFAULT_255_2_778
10
2.2596016
20
95.8485436
40
0.8343808
50
350.5285051
51
359.6975823
0
ARC
8
DEFAULT_255_2_778
10
4.4905328
20
95.9371549
40
0.4322228
50
89.2393383
51
122.114637
0
ARC
8
DEFAULT_255_2_778
10
4.4539501
20
96.0124771
40
0.3490954
50
123.60136
51
134.1547185
0
ARC
8
DEFAULT_255_2_778
10
4.5072899
20
95.9707974
40
0.4162578
50
135.4260007
51
172.6404817
0
ARC
8
DEFAULT_255_2_778
10
4.7528899
20
95.9155778
40
0.667315
50
170.6391413
51
175.0429708
0
ARC
8
DEFAULT_255_2_778
10
4.3329893
20
95.7552082
40
0.3279066
50
87.258881
51
138.323871
0
ARC
8
DEFAULT_255_2_778
10
4.360951
20
95.7694628
40
0.3135173
50
40.1556465
51
92.2447868
0
ARC
8
DEFAULT_255_2_778
10
4.2748207
20
95.7071831
40
0.4195836
50
359.8534978
51
39.0710113
0
ARC
8
DEFAULT_255_2_778
10
4.0579354
20
95.6844633
40
0.6368356
50
359.9888636
51
1.9479383
0
ARC
8
DEFAULT_255_2_778
10
4.2263046
20
95.6705897
40
0.468668
50
332.1160413
51
1.6811932
0
ARC
8
DEFAULT_255_2_778
10
4.3271282
20
95.627303
40
0.359416
50
317.7491474
51
330.6983253
0
ARC
8
DEFAULT_255_2_778
10
4.3360781
20
95.6229887
40
0.3499019
50
267.4271109
51
317.2866717
0
ARC
8
DEFAULT_255_2_778
10
4.3113746
20
95.6183242
40
0.3450019
50
217.8274351
51
271.4942128
0
ARC
8
DEFAULT_255_2_778
10
4.4375351
20
95.7172429
40
0.5053172
50
182.10625
51
217.9135724
0
ARC
8
DEFAULT_255_2_778
10
4.6928969
20
95.74937
40
0.7620261
50
179.9571781
51
183.8148076
0
ARC
8
DEFAULT_255_2_778
10
5.0811421
20
95.8216466
40
1.1503414
50
167.5983455
51
180.6329184
0
ARC
8
DEFAULT_255_2_778
10
4.5583837
20
95.9431008
40
0.6137301
50
142.2260616
51
168.1912424
0
ARC
8
DEFAULT_255_2_778
10
4.4456887
20
96.011102
40
0.4832397
50
96.3287197
51
140.4139985
0
ARC
8
DEFAULT_255_2_778
10
4.5059402
20
95.7090142
40
0.7905753
50
90.6428053
51
98.2557479
0
ARC
8
DEFAULT_255_2_778
10
4.322209
20
95.7101435
40
0.2450967
50
89.8686387
51
126.1949575
0
ARC
8
DEFAULT_255_2_778
10
4.3172175
20
95.7045003
40
0.246813
50
124.4859669
51
159.944588
0
ARC
8
DEFAULT_255_2_778
10
4.5211907
20
95.7197051
40
0.4360147
50
178.2869105
51
205.111545
0
ARC
8
DEFAULT_255_2_778
10
4.3941288
20
95.6693535
40
0.29971
50
206.7042384
51
216.2956755
0
ARC
8
DEFAULT_255_2_778
10
4.3212863
20
95.6021715
40
0.2015341
50
213.1590139
51
269.7397521
0
ARC
8
DEFAULT_255_2_778
10
4.328425
20
95.5953821
40
0.194909
50
267.6317203
51
322.6519723
0
ARC
8
DEFAULT_255_2_778
10
4.2291712
20
95.6605651
40
0.3134683
50
324.1865217
51
1.6272596
0
ARC
8
DEFAULT_255_2_778
10
4.0380066
20
95.6771038
40
0.5045643
50
359.1327412
51
0.0040647
0
ARC
8
DEFAULT_255_2_778
10
4.2180545
20
95.6909084
40
0.3248083
50
357.5704697
51
33.1842449
0
ARC
8
DEFAULT_255_2_778
10
4.2877346
20
95.7261308
40
0.2473653
50
35.1905275
51
38.0339421
0
ARC
8
DEFAULT_255_2_778
10
4.3285581
20
95.7624799
40
0.1928465
50
37.0006389
51
91.7196807
0
ARC
8
DEFAULT_255_2_778
10
4.518504
20
95.7943633
40
1.115828
50
349.7841513
51
0.5995676
0
ARC
8
DEFAULT_255_2_778
10
5.1150691
20
95.6802862
40
0.5085293
50
328.8088568
51
350.5124165
0
ARC
8
DEFAULT_255_2_778
10
5.2647193
20
95.6001245
40
0.3391143
50
324.9015641
51
327.3000393
0
ARC
8
DEFAULT_255_2_778
10
5.2872371
20
95.5899646
40
0.3148834
50
270.4859447
51
324.0581696
0
ARC
8
DEFAULT_255_2_778
10
5.2545084
20
95.8178501
40
0.5439106
50
269.9539158
51
273.7316195
0
ARC
8
DEFAULT_255_2_778
10
5.2404734
20
95.6525918
40
0.3788963
50
239.7410861
51
272.0566263
0
ARC
8
DEFAULT_255_2_778
10
5.2040775
20
95.5715234
40
0.2906851
50
215.6168128
51
237.8852281
0
ARC
8
DEFAULT_255_2_778
10
5.3670589
20
95.6751459
40
0.4836412
50
190.5392739
51
214.351916
0
ARC
8
DEFAULT_255_2_778
10
5.8951139
20
95.7885943
40
1.0236478
50
180.1765788
51
191.375991
0
ARC
8
DEFAULT_255_2_778
10
5.9453486
20
96.0027188
40
1.0739479
50
169.2120111
51
180.6551188
0
ARC
8
DEFAULT_255_2_778
10
5.3655008
20
96.1195588
40
0.4825189
50
147.082183
51
169.9531984
0
ARC
8
DEFAULT_255_2_778
10
5.2327353
20
96.1946802
40
0.3303702
50
144.5612453
51
145.5057377
0
ARC
8
DEFAULT_255_2_778
10
5.2167195
20
96.1996405
40
0.3144891
50
91.1711102
51
143.6056002
0
ARC
8
DEFAULT_255_2_778
10
5.2518703
20
95.9664298
40
0.5492101
50
89.9373433
51
94.3417815
0
ARC
8
DEFAULT_255_2_778
10
5.2658499
20
96.120852
40
0.3950142
50
61.8861137
51
91.9409689
0
ARC
8
DEFAULT_255_2_778
10
5.310379
20
96.2226206
40
0.2844022
50
36.2372984
51
60.1369998
0
ARC
8
DEFAULT_255_2_778
10
5.1640149
20
96.1300096
40
0.457354
50
10.9198729
51
34.7560513
0
ARC
8
DEFAULT_255_2_778
10
4.6015557
20
96.0070889
40
1.0330112
50
359.9234474
51
11.7044456
0
LINE
8
DEFAULT_255_2_778
10
5.6345659
20
96.0057087
11
5.6345709
21
96.0052396
0
ARC
8
DEFAULT_255_2_778
10
4.5763667
20
96.0273387
40
0.9044773
50
359.271546
51
10.0025747
0
ARC
8
DEFAULT_255_2_778
10
5.1236738
20
96.1279409
40
0.3480386
50
9.3424284
51
29.6734618
0
ARC
8
DEFAULT_255_2_778
10
5.2654484
20
96.2011671
40
0.1887192
50
31.666414
51
93.9431324
0
ARC
8
DEFAULT_255_2_778
10
5.239675
20
96.2038941
40
0.1859862
50
86.0549219
51
148.6920255
0
ARC
8
DEFAULT_255_2_778
10
5.4153681
20
96.1137074
40
0.3832252
50
150.8219166
51
172.8549165
0
ARC
8
DEFAULT_255_2_778
10
5.9447933
20
96.0264709
40
0.9196229
50
171.5646275
51
179.9396496
0
ARC
8
DEFAULT_255_2_778
10
5.8983668
20
95.769507
40
0.8732802
50
179.2039619
51
190.8718573
0
ARC
8
DEFAULT_255_2_778
10
5.3904647
20
95.6697579
40
0.3556868
50
190.5236106
51
209.8837955
0
ARC
8
DEFAULT_255_2_778
10
5.2448552
20
95.587211
40
0.188312
50
210.1812506
51
272.8964758
0
ARC
8
DEFAULT_255_2_778
10
5.2652085
20
95.5841354
40
0.185313
50
266.6472611
51
328.474601
0
ARC
8
DEFAULT_255_2_778
10
5.1011947
20
95.6726738
40
0.3715569
50
330.0612777
51
352.2956401
0
ARC
8
DEFAULT_255_2_778
10
4.5524663
20
95.7677694
40
0.9283106
50
351.0195359
51
359.7944796
0
LINE
8
DEFAULT_255_2_778
10
3.2535709
20
95.9330396
11
3.2535709
21
95.8557396
0
LINE
8
DEFAULT_255_2_778
10
3.0418709
20
95.3562396
11
3.2577709
21
95.1869396
0
LINE
8
DEFAULT_255_2_778
10
3.2577709
20
95.1869396
11
3.1490709
21
95.0863396
0
LINE
8
DEFAULT_255_2_778
10
3.1490709
20
95.0863396
11
2.8942709
21
95.2890396
0
LINE
8
DEFAULT_255_2_778
10
2.2806709
20
95.8451396
11
2.2806709
21
95.9322396
0
LINE
8
DEFAULT_255_2_778
10
3.2535709
20
95.9327396
11
3.2535709
21
95.9330396
0
LINE
8
DEFAULT_255_2_778
10
3.0942709
20
95.8441396
11
3.0942709
21
95.9338396
0
LINE
8
DEFAULT_255_2_778
10
2.4399709
20
95.9446396
11
2.4399709
21
95.8557396
0
LINE
8
DEFAULT_255_2_778
10
3.0939709
20
95.8441396
11
3.0942709
21
95.8441396
0
LINE
8
DEFAULT_255_2_778
10
3.6699709
20
96.4989396
11
3.6699709
21
95.2903396
0
LINE
8
DEFAULT_255_2_778
10
3.6699709
20
95.2903396
11
3.5106709
21
95.2903396
0
LINE
8
DEFAULT_255_2_778
10
3.5106709
20
95.2903396
11
3.5106709
21
96.4989396
0
LINE
8
DEFAULT_255_2_778
10
3.5106709
20
96.4989396
11
3.6699709
21
96.4989396
0
LINE
8
DEFAULT_255_2_778
10
3.6699709
20
96.4989396
11
3.6699709
21
96.4989396
0
LINE
8
DEFAULT_255_2_778
10
4.4970709
20
96.4997396
11
4.5245709
21
96.4997396
0
LINE
8
DEFAULT_255_2_778
10
4.5245709
20
96.4997396
11
4.5245709
21
96.3693396
0
LINE
8
DEFAULT_255_2_778
10
4.5245709
20
96.3693396
11
4.4962709
21
96.3693396
0
LINE
8
DEFAULT_255_2_778
10
3.9308709
20
95.7499396
11
3.9308709
21
95.8089396
0
LINE
8
DEFAULT_255_2_778
10
4.4970709
20
96.4995396
11
4.4970709
21
96.4997396
0
LINE
8
DEFAULT_255_2_778
10
4.0853709
20
95.7891396
11
4.0853709
21
95.7327396
0
LINE
8
DEFAULT_255_2_778
10
4.3227709
20
95.9552396
11
4.3227709
21
95.9552396
0
LINE
8
DEFAULT_255_2_778
10
5.6342709
20
96.0052396
11
5.6342709
21
95.8060396
0
LINE
8
DEFAULT_255_2_778
10
4.8714709
20
95.7854396
11
4.8714709
21
95.9904396
0
LINE
8
DEFAULT_255_2_778
10
5.6345709
20
96.0052396
11
5.6342709
21
96.0052396
0
LINE
8
DEFAULT_255_2_778
10
5.4807709
20
95.7644396
11
5.4807709
21
96.0158396
0
LINE
8
DEFAULT_255_2_778
10
5.0251709
20
96.0274396
11
5.0251709
21
95.7816396
0
LINE
8
DEFAULT_255_2_778
10
5.4807709
20
95.7644396
11
5.4807709
21
95.7644396
0
ENDSEC
0
EOF