0
SECTION
2
HEADER
9
$MEASUREMENT
70
1
0
ENDSEC
0
SECTION
2
TABLES
0
TABLE
2
LTYPE
0
LTYPE
72
65
70
64
2
CONTINUOUS
3
______
73
0
40
0
0
ENDTAB
0
TABLE
2
LAYER
0
LAYER
2
DEFAULT_255_2_778
70
0
62
255
6
CONTINUOUS
0
ENDTAB
0
ENDSEC
0
SECTION
2
ENTITIES
0
ARC
8
DEFAULT_255_2_778
10
20.5067464
20
80.7125169
40
1.0274572
50
344.802376
51
0.7180923
0
ARC
8
DEFAULT_255_2_778
10
20.7975996
20
80.6418786
40
0.7283031
50
336.3476772
51
344.166785
0
ARC
8
DEFAULT_255_2_778
10
20.9277961
20
80.5727618
40
0.5814205
50
306.1190287
51
337.4393902
0
ARC
8
DEFAULT_255_2_778
10
20.9327797
20
80.6467653
40
0.6460798
50
269.7111792
51
283.7846181
0
ARC
8
DEFAULT_255_2_778
10
20.9190582
20
80.5746747
40
0.5740764
50
237.9504269
51
271.0444956
0
ARC
8
DEFAULT_255_2_778
10
20.927028
20
80.5722557
40
0.5763113
50
204.0930842
51
237.1511982
0
ARC
8
DEFAULT_255_2_778
10
21.1895805
20
80.6944673
40
0.8658915
50
181.9029677
51
204.3832859
0
ARC
8
DEFAULT_255_2_778
10
21.4963561
20
80.7229763
40
1.1735875
50
180.5508377
51
182.7967343
0
ARC
8
DEFAULT_255_2_778
10
21.2822221
20
80.8336795
40
0.9594939
50
160.9068667
51
180.8053268
0
ARC
8
DEFAULT_255_2_778
10
21.0930684
20
80.8889004
40
0.7627444
50
155.6412208
51
160.1789548
0
ARC
8
DEFAULT_255_2_778
10
20.9260838
20
80.9780398
40
0.5739918
50
123.2076462
51
156.872257
0
ARC
8
DEFAULT_255_2_778
10
20.9173927
20
80.9745899
40
0.5721917
50
88.9955808
51
122.2902584
0
ARC
8
DEFAULT_255_2_778
10
20.9395276
20
80.9641179
40
0.5827016
50
58.1146458
51
91.1903065
0
ARC
8
DEFAULT_255_2_778
10
20.9369973
20
80.9824446
40
0.5685998
50
23.1730132
51
56.9225912
0
ARC
8
DEFAULT_255_2_778
10
20.6482973
20
80.8536546
40
0.8847007
50
2.2655262
51
23.4834452
0
ARC
8
DEFAULT_255_2_778
10
20.3054724
20
80.8218362
40
1.2286509
50
359.9700388
51
3.1162113
0
ARC
8
DEFAULT_255_2_778
10
20.3852444
20
80.8350271
40
0.9504612
50
359.2444389
51
13.3575227
0
ARC
8
DEFAULT_255_2_778
10
20.8158938
20
80.9387687
40
0.5074968
50
13.1945422
51
35.3503912
0
ARC
8
DEFAULT_255_2_778
10
20.9451287
20
81.0245447
40
0.3524939
50
36.1323614
51
92.8791852
0
ARC
8
DEFAULT_255_2_778
10
20.9146591
20
81.0274298
40
0.3493972
50
87.9064553
51
143.8796179
0
ARC
8
DEFAULT_255_2_778
10
21.0748067
20
80.9146097
40
0.5452767
50
144.2232777
51
170.8781888
0
ARC
8
DEFAULT_255_2_778
10
21.4918893
20
80.8298217
40
0.9706859
50
169.8396334
51
179.6356898
0
ARC
8
DEFAULT_255_2_778
10
21.4092977
20
80.712649
40
0.8881662
50
179.1778063
51
194.9654911
0
ARC
8
DEFAULT_255_2_778
10
21.0528355
20
80.6192002
40
0.5196656
50
195.1609305
51
215.3964638
0
ARC
8
DEFAULT_255_2_778
10
20.9158379
20
80.5189649
40
0.3499388
50
215.0108887
51
272.2412342
0
ARC
8
DEFAULT_255_2_778
10
20.9465594
20
80.5195356
40
0.350656
50
267.2152149
51
323.1406646
0
ARC
8
DEFAULT_255_2_778
10
20.7994911
20
80.6151014
40
0.5257837
50
324.4218511
51
349.9490098
0
ARC
8
DEFAULT_255_2_778
10
20.3304178
20
80.714921
40
1.0052133
50
349.0128903
51
359.7704499
0
LINE
8
DEFAULT_255_2_778
10
21.5341229
20
80.8214937
11
21.5341229
21
80.7253937
0
LINE
8
DEFAULT_255_2_778
10
21.2705229
20
80.1030937
11
21.5394229
21
79.8922937
0
LINE
8
DEFAULT_255_2_778
10
21.5394229
20
79.8922937
11
21.4039229
21
79.7670937
0
LINE
8
DEFAULT_255_2_778
10
21.4039229
20
79.7670937
11
21.0867229
21
80.0192937
0
LINE
8
DEFAULT_255_2_778
10
20.3228229
20
80.7116937
11
20.3228229
21
80.8201937
0
LINE
8
DEFAULT_255_2_778
10
21.5341229
20
80.8211937
11
21.5341229
21
80.8214937
0
LINE
8
DEFAULT_255_2_778
10
21.3356229
20
80.7108937
11
21.3356229
21
80.8224937
0
LINE
8
DEFAULT_255_2_778
10
20.5212229
20
80.8359937
11
20.5212229
21
80.7253937
0
LINE
8
DEFAULT_255_2_778
10
21.3356229
20
80.7108937
11
21.3356229
21
80.7108937
0
LINE
8
DEFAULT_255_2_778
10
21.9681396
20
81.5263427
11
22.3309396
21
80.9495427
0
LINE
8
DEFAULT_255_2_778
10
22.3309396
20
80.9495427
11
22.6915396
21
81.5263427
0
LINE
8
DEFAULT_255_2_778
10
22.6915396
20
81.5263427
11
22.9251396
21
81.5263427
0
LINE
8
DEFAULT_255_2_778
10
22.9251396
20
81.5263427
11
22.4497396
21
80.7802427
0
LINE
8
DEFAULT_255_2_778
10
22.4497396
20
80.7802427
11
22.9365396
21
80.0216427
0
LINE
8
DEFAULT_255_2_778
10
22.9365396
20
80.0216427
11
22.7008396
21
80.0216427
0
LINE
8
DEFAULT_255_2_778
10
22.7008396
20
80.0216427
11
22.3309396
21
80.6087427
0
LINE
8
DEFAULT_255_2_778
10
22.3309396
20
80.6087427
11
21.9589396
21
80.0216427
0
LINE
8
DEFAULT_255_2_778
10
21.9589396
20
80.0216427
11
21.7242396
21
80.0216427
0
LINE
8
DEFAULT_255_2_778
10
21.7242396
20
80.0216427
11
22.2121396
21
80.7802427
0
LINE
8
DEFAULT_255_2_778
10
22.2121396
20
80.7802427
11
21.7356396
21
81.5263427
0
LINE
8
DEFAULT_255_2_778
10
21.7356396
20
81.5263427
11
21.9681396
21
81.5263427
0
LINE
8
DEFAULT_255_2_778
10
21.9681396
20
81.5263427
11
21.9681396
21
81.5263427
0
ARC
8
DEFAULT_255_2_778
10
23.6803951
20
81.1279257
40
0.349449
50
326.0585599
51
0.8996558
0
ARC
8
DEFAULT_255_2_778
10
23.633816
20
81.1630192
40
0.4076976
50
295.5571137
51
325.6219672
0
ARC
8
DEFAULT_255_2_778
10
23.646061
20
80.3973274
40
0.4302216
50
35.525217
51
67.6438749
0
ARC
8
DEFAULT_255_2_778
10
23.6936107
20
80.4319243
40
0.3714202
50
359.2731298
51
35.4438127
0
ARC
8
DEFAULT_255_2_778
10
23.671888
20
80.4102889
40
0.3934772
50
311.614266
51
2.4650687
0
ARC
8
DEFAULT_255_2_778
10
23.621589
20
80.4837694
40
0.4819478
50
272.4351009
51
310.2833436
0
ARC
8
DEFAULT_255_2_778
10
23.5870976
20
80.7401606
40
0.7399483
50
269.9460652
51
274.260237
0
ARC
8
DEFAULT_255_2_778
10
23.5729284
20
80.57177
40
0.5717163
50
245.8204455
51
271.3503183
0
ARC
8
DEFAULT_255_2_778
10
23.5197599
20
80.4329705
40
0.4233987
50
228.408431
51
244.6906786
0
ARC
8
DEFAULT_255_2_778
10
23.5026639
20
80.4101868
40
0.3950171
50
177.5732812
51
228.0692845
0
ARC
8
DEFAULT_255_2_778
10
23.4909903
20
80.4311045
40
0.3830122
50
145.6690953
51
180.6271066
0
ARC
8
DEFAULT_255_2_778
10
23.5161913
20
80.4123224
40
0.4144176
50
112.2756365
51
145.4897124
0
ARC
8
DEFAULT_255_2_778
10
23.5285588
20
81.1503816
40
0.3929824
50
213.5118182
51
244.455663
0
ARC
8
DEFAULT_255_2_778
10
23.496624
20
81.1275681
40
0.3537633
50
179.134393
51
213.2867361
0
ARC
8
DEFAULT_255_2_778
10
23.5403662
20
81.1490917
40
0.3977943
50
139.8502785
51
182.3309987
0
ARC
8
DEFAULT_255_2_778
10
23.5181237
20
81.1575351
40
0.3754316
50
132.4140799
51
138.6464019
0
ARC
8
DEFAULT_255_2_778
10
23.5578835
20
81.1027307
40
0.442776
50
91.0621277
51
131.4292298
0
ARC
8
DEFAULT_255_2_778
10
23.5860712
20
80.871396
40
0.6750167
50
89.971999
51
93.0907439
0
ARC
8
DEFAULT_255_2_778
10
23.6004767
20
81.0550244
40
0.4915896
50
60.6658717
51
91.6407679
0
ARC
8
DEFAULT_255_2_778
10
23.6370098
20
81.1386965
40
0.4008528
50
47.6008932
51
59.3589984
0
ARC
8
DEFAULT_255_2_778
10
23.6422596
20
81.151394
40
0.3879643
50
357.3244736
51
46.908989
0
LINE
8
DEFAULT_255_2_778
10
24.0298009
20
81.1332839
11
24.0298011
21
81.1329125
0
ARC
8
DEFAULT_255_2_778
10
23.5972112
20
80.442302
40
0.2766926
50
357.806644
51
44.8126634
0
ARC
8
DEFAULT_255_2_778
10
23.5960571
20
80.4331204
40
0.2840397
50
45.9625753
51
92.3922705
0
ARC
8
DEFAULT_255_2_778
10
23.5713933
20
80.4382648
40
0.2789419
50
87.3683105
51
134.1495086
0
ARC
8
DEFAULT_255_2_778
10
23.5791951
20
80.443948
40
0.2804611
50
136.1022157
51
182.5004143
0
ARC
8
DEFAULT_255_2_778
10
23.5661776
20
80.4173084
40
0.2675646
50
176.9140492
51
224.397244
0
ARC
8
DEFAULT_255_2_778
10
23.5649414
20
80.4405101
40
0.283451
50
227.9252604
51
270.9611897
0
ARC
8
DEFAULT_255_2_778
10
23.5862877
20
80.6375079
40
0.4806955
50
268.022032
51
270.0135148
0
ARC
8
DEFAULT_255_2_778
10
23.6003699
20
80.4600215
40
0.3035306
50
267.3622552
51
305.6308289
0
ARC
8
DEFAULT_255_2_778
10
23.6311822
20
80.4024162
40
0.2389115
50
307.6732405
51
314.0189491
0
ARC
8
DEFAULT_255_2_778
10
23.6077071
20
80.4177981
40
0.2663577
50
315.3511207
51
2.9944731
0
ARC
8
DEFAULT_255_2_778
10
23.5760705
20
81.1440845
40
0.245945
50
87.5926622
51
134.3643719
0
ARC
8
DEFAULT_255_2_778
10
23.5899681
20
81.1436966
40
0.2561223
50
136.5268342
51
183.0178484
0
ARC
8
DEFAULT_255_2_778
10
23.5886327
20
81.1190699
40
0.2546755
50
177.4923908
51
223.2061848
0
ARC
8
DEFAULT_255_2_778
10
23.5751576
20
81.1173827
40
0.2438296
50
225.085354
51
272.6429687
0
ARC
8
DEFAULT_255_2_778
10
23.5978397
20
81.1166355
40
0.2430923
50
267.302977
51
314.9897243
0
ARC
8
DEFAULT_255_2_778
10
23.5836338
20
81.1192315
40
0.2551037
50
316.8343508
51
2.4670736
0
ARC
8
DEFAULT_255_2_778
10
23.5837932
20
81.140186
40
0.254903
50
357.7576304
51
44.0174897
0
ARC
8
DEFAULT_255_2_778
10
23.5937024
20
81.1455916
40
0.2440392
50
44.7214483
51
91.7849299
0
LINE
8
DEFAULT_255_2_778
10
24.0298011
20
81.1329125
11
24.0298011
21
81.1334125
0
LINE
8
DEFAULT_255_2_778
10
23.8737011
20
80.4317125
11
23.8737011
21
80.4317125
0
LINE
8
DEFAULT_255_2_778
10
23.5861011
20
81.3895125
11
23.5864011
21
81.3898125
0
LINE
8
DEFAULT_255_2_778
10
24.934375
20
81.5334469
11
24.934375
21
80.0213469
0
LINE
8
DEFAULT_255_2_778
10
24.934375
20
80.0213469
11
24.742075
21
80.0213469
0
LINE
8
DEFAULT_255_2_778
10
24.742075
20
80.0213469
11
24.742075
21
81.2955469
0
LINE
8
DEFAULT_255_2_778
10
24.742075
20
81.2955469
11
24.356575
21
81.1540469
0
LINE
8
DEFAULT_255_2_778
10
24.356575
20
81.1540469
11
24.356575
21
81.3276469
0
LINE
8
DEFAULT_255_2_778
10
24.356575
20
81.3276469
11
24.904275
21
81.5331469
0
LINE
8
DEFAULT_255_2_778
10
24.904275
20
81.5331469
11
24.934175
21
81.5331469
0
LINE
8
DEFAULT_255_2_778
10
24.934175
20
81.5331469
11
24.934375
21
81.5334469
0
ARC
8
DEFAULT_255_2_778
10
26.8905359
20
97.0878259
40
0.6998124
50
44.9849794
51
90.0023077
0
ARC
8
DEFAULT_255_2_778
10
26.8909697
20
97.0876389
40
0.6996379
50
359.9917559
51
45.0209264
0
ARC
8
DEFAULT_255_2_778
10
26.890795
20
0.48761
40
0.6998127
50
314.9850034
51
0.0023137
0
ARC
8
DEFAULT_255_2_778
10
26.8905359
20
0.4873507
40
0.6998125
50
269.9976911
51
315.0150124
0
ARC
8
DEFAULT_255_2_778
10
0.8906074
20
0.4871768
40
0.6996386
50
224.979086
51
270.0082089
0
ARC
8
DEFAULT_255_2_778
10
0.8909414
20
0.4878258
40
0.7003336
50
179.9908014
51
224.9973318
0
ARC
8
DEFAULT_255_2_778
10
0.8902456
20
97.0876386
40
0.699638
50
134.9790562
51
180.0082194
0
ARC
8
DEFAULT_255_2_778
10
0.8906073
20
97.0880001
40
0.6996383
50
89.9917841
51
135.0209339
0
LINE
8
DEFAULT_255_2_778
10
27.5906077
20
97.0875382
11
27.5906077
21
0.4876382
0
LINE
8
DEFAULT_255_2_778
10
26.8905077
20
-0.2124618
11
0.8907077
21
-0.2124618
0
LINE
8
DEFAULT_255_2_778
10
0.1906077
20
0.4879382
11
0.1906077
21
97.0875382
0
LINE
8
DEFAULT_255_2_778
10
0.8907077
20
97.7876382
11
26.8908077
21
97.7876382
0
LINE
8
DEFAULT_255_2_778
10
0.1906077
20
82.7876312
11
27.5906077
21
82.7876312
0
LINE
8
DEFAULT_255_2_778
10
0.1906077
20
82.2875312
11
27.5906077
21
82.2875312
0
ARC
8
DEFAULT_255_2_778
10
19.8471078
20
70.3402406
40
1.9933
50
359.9317062
51
24.3119945
0
ARC
8
DEFAULT_255_2_778
10
19.8386225
20
70.3353976
40
2.0030269
50
24.3383105
51
80.196385
0
ARC
8
DEFAULT_255_2_778
10
19.8410228
20
70.324755
40
2.0131097
50
80.3152812
51
90.0175439
0
ARC
8
DEFAULT_255_2_778
10
11.2378535
20
70.3449505
40
1.9929158
50
89.926605
51
114.3113989
0
ARC
8
DEFAULT_255_2_778
10
11.2429067
20
70.3361072
40
2.0030556
50
114.3389823
51
170.1972101
0
ARC
8
DEFAULT_255_2_778
10
11.2535679
20
70.3384797
40
2.0131615
50
170.3154071
51
180.0175033
0
ARC
8
DEFAULT_255_2_778
10
11.2333206
20
5.0354118
40
1.9929158
50
179.926605
51
204.3113989
0
ARC
8
DEFAULT_255_2_778
10
11.2421639
20
5.0404649
40
2.0030556
50
204.3389823
51
260.1972101
0
ARC
8
DEFAULT_255_2_778
10
11.2397914
20
5.0511262
40
2.0131615
50
260.3154071
51
270.0175033
0
ARC
8
DEFAULT_255_2_778
10
19.8429657
20
5.0307769
40
1.9928139
50
269.9264183
51
294.3120318
0
ARC
8
DEFAULT_255_2_778
10
19.8377727
20
5.0398006
40
2.0031756
50
294.34113
51
350.1955271
0
ARC
8
DEFAULT_255_2_778
10
19.8268052
20
5.0375343
40
2.0136013
50
350.3122132
51
0.0122462
0
LINE
8
DEFAULT_255_2_778
10
19.8404064
20
72.3378647
11
11.2404064
21
72.3378647
0
LINE
8
DEFAULT_255_2_778
10
9.2404064
20
70.3378647
11
9.2404064
21
5.0379647
0
LINE
8
DEFAULT_255_2_778
10
11.2404064
20
3.0379647
11
19.8404064
21
3.0379647
0
LINE
8
DEFAULT_255_2_778
10
24.5402659
20
1.8877761
11
24.5402659
21
73.4877761
0
LINE
8
DEFAULT_255_2_778
10
24.5402659
20
73.4877761
11
6.5403659
21
73.4877761
0
LINE
8
DEFAULT_255_2_778
10
6.5403659
20
73.4877761
11
6.5403659
21
1.8877761
0
LINE
8
DEFAULT_255_2_778
10
6.5403659
20
1.8877761
11
24.5402659
21
1.8877761
0
ARC
8
DEFAULT_255_2_778
10
14.1193866
20
62.4387646
40
0.4990127
50
89.8750162
51
180.1249781
0
ARC
8
DEFAULT_255_2_778
10
14.1215489
20
62.4388496
40
0.4989276
50
359.865234
51
90.1233022
0
ARC
8
DEFAULT_255_2_778
10
14.1215703
20
62.4365809
40
0.4989061
50
269.8742308
51
0.1257692
0
ARC
8
DEFAULT_255_2_778
10
14.1193653
20
62.436666
40
0.4989912
50
179.8840201
51
270.1274379
0
ARC
8
DEFAULT_255_2_778
10
16.9594651
20
55.5638859
40
0.4989912
50
89.8840201
51
180.1274379
0
ARC
8
DEFAULT_255_2_778
10
16.9615
20
55.5638009
40
0.4990763
50
359.88235
51
90.11765
0
ARC
8
DEFAULT_255_2_778
10
16.9615
20
55.5617513
40
0.4990763
50
269.88235
51
0.11765
0
ARC
8
DEFAULT_255_2_778
10
16.9594651
20
55.5616662
40
0.4989912
50
179.8725621
51
270.1159799
0
ARC
8
DEFAULT_255_2_778
10
16.9594651
20
58.3139859
40
0.4989912
50
89.8840201
51
180.1274379
0
ARC
8
DEFAULT_255_2_778
10
16.9615
20
58.3139009
40
0.4990763
50
359.88235
51
90.11765
0
ARC
8
DEFAULT_255_2_778
10
16.9615
20
58.3118513
40
0.4990763
50
269.88235
51
0.11765
0
ARC
8
DEFAULT_255_2_778
10
16.9594651
20
58.3117662
40
0.4989912
50
179.8725621
51
270.1159799
0
ARC
8
DEFAULT_255_2_778
10
16.95938
20
61.0640712
40
0.4989061
50
89.8742308
51
180.1257692
0
ARC
8
DEFAULT_255_2_778
10
16.961585
20
61.0639862
40
0.4989912
50
359.8840201
51
90.1274379
0
ARC
8
DEFAULT_255_2_778
10
16.9615636
20
61.0618876
40
0.4990128
50
269.8750277
51
0.124978
0
ARC
8
DEFAULT_255_2_778
10
16.9594014
20
61.0618026
40
0.4989276
50
179.865234
51
270.1233137
0
ARC
8
DEFAULT_255_2_778
10
14.1193866
20
54.1890646
40
0.4990127
50
89.8750162
51
180.1249781
0
ARC
8
DEFAULT_255_2_778
10
14.1215491
20
54.1891497
40
0.4989275
50
359.8652202
51
90.1233275
0
ARC
8
DEFAULT_255_2_778
10
14.1215703
20
54.1868809
40
0.4989061
50
269.8742308
51
0.1257692
0
ARC
8
DEFAULT_255_2_778
10
14.1193653
20
54.186966
40
0.4989912
50
179.8840201
51
270.1274379
0
ARC
8
DEFAULT_255_2_778
10
14.1194504
20
56.9391009
40
0.4990763
50
89.88235
51
180.11765
0
ARC
8
DEFAULT_255_2_778
10
14.1214852
20
56.9391859
40
0.4989912
50
359.8725621
51
90.1159799
0
ARC
8
DEFAULT_255_2_778
10
14.1215703
20
56.9369809
40
0.4989061
50
269.8742308
51
0.1257692
0
ARC
8
DEFAULT_255_2_778
10
14.1193653
20
56.937066
40
0.4989912
50
179.8840201
51
270.1274379
0
ARC
8
DEFAULT_255_2_778
10
14.1193653
20
59.6886862
40
0.4989912
50
89.8725621
51
180.1159799
0
ARC
8
DEFAULT_255_2_778
10
14.1215703
20
59.6887712
40
0.4989061
50
359.8742308
51
90.1257692
0
ARC
8
DEFAULT_255_2_778
10
14.121549
20
59.6865026
40
0.4989276
50
269.8766863
51
0.134766
0
ARC
8
DEFAULT_255_2_778
10
14.1193867
20
59.6865876
40
0.4990127
50
179.875022
51
270.1249723
0
ARC
8
DEFAULT_255_2_778
10
16.95938
20
47.3136712
40
0.4989061
50
89.8742308
51
180.1257692
0
ARC
8
DEFAULT_255_2_778
10
16.961585
20
47.3135862
40
0.4989912
50
359.8840201
51
90.1274379
0
ARC
8
DEFAULT_255_2_778
10
16.9615
20
47.3115513
40
0.4990763
50
269.88235
51
0.11765
0
ARC
8
DEFAULT_255_2_778
10
16.9594651
20
47.3114662
40
0.4989912
50
179.8725621
51
270.1159799
0
ARC
8
DEFAULT_255_2_778
10
16.95938
20
50.0637712
40
0.4989061
50
89.8742308
51
180.1257692
0
ARC
8
DEFAULT_255_2_778
10
16.961585
20
50.0636862
40
0.4989912
50
359.8840201
51
90.1274379
0
ARC
8
DEFAULT_255_2_778
10
16.9615637
20
50.0615876
40
0.4990127
50
269.8750162
51
0.1249781
0
ARC
8
DEFAULT_255_2_778
10
16.9594015
20
50.0615026
40
0.4989276
50
179.865234
51
270.1233022
0
ARC
8
DEFAULT_255_2_778
10
16.9594651
20
52.8137859
40
0.4989912
50
89.8840201
51
180.1274379
0
ARC
8
DEFAULT_255_2_778
10
16.9615
20
52.8137009
40
0.4990763
50
359.88235
51
90.11765
0
ARC
8
DEFAULT_255_2_778
10
16.961585
20
52.811666
40
0.4989912
50
269.8725621
51
0.1159799
0
ARC
8
DEFAULT_255_2_778
10
16.95938
20
52.8115809
40
0.4989061
50
179.8742308
51
270.1257692
0
ARC
8
DEFAULT_255_2_778
10
14.1194504
20
45.9388009
40
0.4990763
50
89.88235
51
180.11765
0
ARC
8
DEFAULT_255_2_778
10
14.1214852
20
45.9388859
40
0.4989912
50
359.8725621
51
90.1159799
0
ARC
8
DEFAULT_255_2_778
10
14.1214852
20
45.9366662
40
0.4989912
50
269.8840201
51
0.1274379
0
ARC
8
DEFAULT_255_2_778
10
14.1194504
20
45.9367513
40
0.4990763
50
179.88235
51
270.11765
0
ARC
8
DEFAULT_255_2_778
10
14.1193653
20
48.6888862
40
0.4989912
50
89.8725621
51
180.1159799
0
ARC
8
DEFAULT_255_2_778
10
14.1215703
20
48.6889712
40
0.4989061
50
359.8742308
51
90.1257692
0
ARC
8
DEFAULT_255_2_778
10
14.1214852
20
48.6867662
40
0.4989912
50
269.8840201
51
0.1274379
0
ARC
8
DEFAULT_255_2_778
10
14.1194504
20
48.6868513
40
0.4990763
50
179.88235
51
270.11765
0
ARC
8
DEFAULT_255_2_778
10
14.1193653
20
51.4389862
40
0.4989912
50
89.8725621
51
180.1159799
0
ARC
8
DEFAULT_255_2_778
10
14.1215703
20
51.4390712
40
0.4989061
50
359.8742308
51
90.1257692
0
ARC
8
DEFAULT_255_2_778
10
14.1215488
20
51.4368026
40
0.4989277
50
269.8767018
51
0.1347562
0
ARC
8
DEFAULT_255_2_778
10
14.1193866
20
51.4368876
40
0.4990127
50
179.875026
51
270.1249821
0
ARC
8
DEFAULT_255_2_778
10
16.95938
20
39.0639712
40
0.4989061
50
89.8742308
51
180.1257692
0
ARC
8
DEFAULT_255_2_778
10
16.961585
20
39.0638862
40
0.4989912
50
359.8840201
51
90.1274379
0
ARC
8
DEFAULT_255_2_778
10
16.9615637
20
39.0617876
40
0.4990127
50
269.8750179
51
0.124974
0
ARC
8
DEFAULT_255_2_778
10
16.9594013
20
39.0617025
40
0.4989276
50
179.86523
51
270.1233234
0
ARC
8
DEFAULT_255_2_778
10
16.9594012
20
41.8140497
40
0.4989275
50
89.8766742
51
180.1347757
0
ARC
8
DEFAULT_255_2_778
10
16.9615636
20
41.8139645
40
0.4990128
50
359.8750317
51
90.1249683
0
ARC
8
DEFAULT_255_2_778
10
16.961585
20
41.811866
40
0.4989912
50
269.8725621
51
0.1159799
0
ARC
8
DEFAULT_255_2_778
10
16.95938
20
41.8117809
40
0.4989061
50
179.8742308
51
270.1257692
0
ARC
8
DEFAULT_255_2_778
10
16.9594651
20
44.5640859
40
0.4989912
50
89.8840201
51
180.1274379
0
ARC
8
DEFAULT_255_2_778
10
16.9615
20
44.5640009
40
0.4990763
50
359.88235
51
90.11765
0
ARC
8
DEFAULT_255_2_778
10
16.961585
20
44.561966
40
0.4989912
50
269.8725621
51
0.1159799
0
ARC
8
DEFAULT_255_2_778
10
16.95938
20
44.5618809
40
0.4989061
50
179.8742308
51
270.1257692
0
ARC
8
DEFAULT_255_2_778
10
14.1194504
20
37.6891009
40
0.4990763
50
89.88235
51
180.11765
0
ARC
8
DEFAULT_255_2_778
10
14.1214852
20
37.6891859
40
0.4989912
50
359.8725621
51
90.1159799
0
ARC
8
DEFAULT_255_2_778
10
14.1214852
20
37.6869662
40
0.4989912
50
269.8840201
51
0.1274379
0
ARC
8
DEFAULT_255_2_778
10
14.1194504
20
37.6870513
40
0.4990763
50
179.88235
51
270.11765
0
ARC
8
DEFAULT_255_2_778
10
14.1193653
20
40.4391862
40
0.4989912
50
89.8725621
51
180.1159799
0
ARC
8
DEFAULT_255_2_778
10
14.1215703
20
40.4392712
40
0.4989061
50
359.8742308
51
90.1257692
0
ARC
8
DEFAULT_255_2_778
10
14.121549
20
40.4370026
40
0.4989276
50
269.8766863
51
0.134766
0
ARC
8
DEFAULT_255_2_778
10
14.1193865
20
40.4370875
40
0.4990126
50
179.8750082
51
270.1249976
0
ARC
8
DEFAULT_255_2_778
10
14.1193866
20
43.1892646
40
0.4990127
50
89.8750162
51
180.1249781
0
ARC
8
DEFAULT_255_2_778
10
14.1215491
20
43.1893497
40
0.4989275
50
359.8652202
51
90.1233275
0
ARC
8
DEFAULT_255_2_778
10
14.1215703
20
43.1870809
40
0.4989061
50
269.8742308
51
0.1257692
0
ARC
8
DEFAULT_255_2_778
10
14.1193653
20
43.187166
40
0.4989912
50
179.8840201
51
270.1274379
0
ARC
8
DEFAULT_255_2_778
10
16.95938
20
30.8142712
40
0.4989061
50
89.8742308
51
180.1257692
0
ARC
8
DEFAULT_255_2_778
10
16.961585
20
30.8141862
40
0.4989912
50
359.8840201
51
90.1274379
0
ARC
8
DEFAULT_255_2_778
10
16.9615635
20
30.8120876
40
0.4990128
50
269.8750358
51
0.124978
0
ARC
8
DEFAULT_255_2_778
10
16.9594013
20
30.8120025
40
0.4989275
50
179.8652243
51
270.1233177
0
ARC
8
DEFAULT_255_2_778
10
16.9594015
20
33.5643495
40
0.4989277
50
89.8767018
51
180.1347562
0
ARC
8
DEFAULT_255_2_778
10
16.9615637
20
33.5642645
40
0.4990127
50
359.875026
51
90.1249821
0
ARC
8
DEFAULT_255_2_778
10
16.961585
20
33.562166
40
0.4989912
50
269.8725621
51
0.1159799
0
ARC
8
DEFAULT_255_2_778
10
16.95938
20
33.5620809
40
0.4989061
50
179.8742308
51
270.1257692
0
ARC
8
DEFAULT_255_2_778
10
16.9594651
20
36.3143859
40
0.4989912
50
89.8840201
51
180.1274379
0
ARC
8
DEFAULT_255_2_778
10
16.9615
20
36.3143009
40
0.4990763
50
359.88235
51
90.11765
0
ARC
8
DEFAULT_255_2_778
10
16.961585
20
36.312266
40
0.4989912
50
269.8725621
51
0.1159799
0
ARC
8
DEFAULT_255_2_778
10
16.95938
20
36.3121809
40
0.4989061
50
179.8742308
51
270.1257692
0
ARC
8
DEFAULT_255_2_778
10
14.1193653
20
29.4388862
40
0.4989912
50
89.8725621
51
180.1159799
0
ARC
8
DEFAULT_255_2_778
10
14.1215703
20
29.4389712
40
0.4989061
50
359.8742308
51
90.1257692
0
ARC
8
DEFAULT_255_2_778
10
14.1215487
20
29.4367027
40
0.4989278
50
269.8767116
51
0.1347522
0
ARC
8
DEFAULT_255_2_778
10
14.1193866
20
29.4367876
40
0.4990127
50
179.8750162
51
270.1249862
0
ARC
8
DEFAULT_255_2_778
10
14.1194504
20
32.1889009
40
0.4990763
50
89.88235
51
180.11765
0
ARC
8
DEFAULT_255_2_778
10
14.1214852
20
32.1889859
40
0.4989912
50
359.8725621
51
90.1159799
0
ARC
8
DEFAULT_255_2_778
10
14.1215703
20
32.1867809
40
0.4989061
50
269.8742308
51
0.1257692
0
ARC
8
DEFAULT_255_2_778
10
14.1193653
20
32.186866
40
0.4989912
50
179.8840201
51
270.1274379
0
ARC
8
DEFAULT_255_2_778
10
14.1194504
20
34.9390009
40
0.4990763
50
89.88235
51
180.11765
0
ARC
8
DEFAULT_255_2_778
10
14.1214852
20
34.9390859
40
0.4989912
50
359.8725621
51
90.1159799
0
ARC
8
DEFAULT_255_2_778
10
14.1214852
20
34.9368662
40
0.4989912
50
269.8840201
51
0.1274379
0
ARC
8
DEFAULT_255_2_778
10
14.1194504
20
34.9369513
40
0.4990763
50
179.88235
51
270.11765
0
ARC
8
DEFAULT_255_2_778
10
16.9594651
20
22.5639859
40
0.4989912
50
89.8840201
51
180.1274379
0
ARC
8
DEFAULT_255_2_778
10
16.9615
20
22.5639009
40
0.4990763
50
359.88235
51
90.11765
0
ARC
8
DEFAULT_255_2_778
10
16.961585
20
22.561866
40
0.4989912
50
269.8725621
51
0.1159799
0
ARC
8
DEFAULT_255_2_778
10
16.95938
20
22.5617809
40
0.4989061
50
179.8742308
51
270.1257692
0
ARC
8
DEFAULT_255_2_778
10
16.9594651
20
25.3140859
40
0.4989912
50
89.8840201
51
180.1274379
0
ARC
8
DEFAULT_255_2_778
10
16.9615
20
25.3140009
40
0.4990763
50
359.88235
51
90.11765
0
ARC
8
DEFAULT_255_2_778
10
16.9615
20
25.3119513
40
0.4990763
50
269.88235
51
0.11765
0
ARC
8
DEFAULT_255_2_778
10
16.9594651
20
25.3118662
40
0.4989912
50
179.8725621
51
270.1159799
0
ARC
8
DEFAULT_255_2_778
10
16.95938
20
28.0641712
40
0.4989061
50
89.8742308
51
180.1257692
0
ARC
8
DEFAULT_255_2_778
10
16.961585
20
28.0640862
40
0.4989912
50
359.8840201
51
90.1274379
0
ARC
8
DEFAULT_255_2_778
10
16.9615
20
28.0620513
40
0.4990763
50
269.88235
51
0.11765
0
ARC
8
DEFAULT_255_2_778
10
16.9594651
20
28.0619662
40
0.4989912
50
179.8725621
51
270.1159799
0
ARC
8
DEFAULT_255_2_778
10
14.1193867
20
21.1891646
40
0.4990127
50
89.875026
51
180.1249821
0
ARC
8
DEFAULT_255_2_778
10
14.1215488
20
21.1892496
40
0.4989276
50
359.8652341
51
90.1232941
0
ARC
8
DEFAULT_255_2_778
10
14.1215703
20
21.1869809
40
0.4989061
50
269.8742308
51
0.1257692
0
ARC
8
DEFAULT_255_2_778
10
14.1193653
20
21.187066
40
0.4989912
50
179.8840201
51
270.1274379
0
ARC
8
DEFAULT_255_2_778
10
14.1194504
20
23.9392009
40
0.4990763
50
89.88235
51
180.11765
0
ARC
8
DEFAULT_255_2_778
10
14.1214852
20
23.9392859
40
0.4989912
50
359.8725621
51
90.1159799
0
ARC
8
DEFAULT_255_2_778
10
14.1215703
20
23.9370809
40
0.4989061
50
269.8742308
51
0.1257692
0
ARC
8
DEFAULT_255_2_778
10
14.1193653
20
23.937166
40
0.4989912
50
179.8840201
51
270.1274379
0
ARC
8
DEFAULT_255_2_778
10
14.1194504
20
26.6893009
40
0.4990763
50
89.88235
51
180.11765
0
ARC
8
DEFAULT_255_2_778
10
14.1214852
20
26.6893859
40
0.4989912
50
359.8725621
51
90.1159799
0
ARC
8
DEFAULT_255_2_778
10
14.1214852
20
26.6871662
40
0.4989912
50
269.8840201
51
0.1274379
0
ARC
8
DEFAULT_255_2_778
10
14.1194504
20
26.6872513
40
0.4990763
50
179.88235
51
270.11765
0
ARC
8
DEFAULT_255_2_778
10
16.9594651
20
14.3142859
40
0.4989912
50
89.8840201
51
180.1274379
0
ARC
8
DEFAULT_255_2_778
10
16.9615
20
14.3142009
40
0.4990763
50
359.88235
51
90.11765
0
ARC
8
DEFAULT_255_2_778
10
16.9615
20
14.3121513
40
0.4990763
50
269.88235
51
0.11765
0
ARC
8
DEFAULT_255_2_778
10
16.9594651
20
14.3120662
40
0.4989912
50
179.8725621
51
270.1159799
0
ARC
8
DEFAULT_255_2_778
10
16.9594651
20
17.0643859
40
0.4989912
50
89.8840201
51
180.1274379
0
ARC
8
DEFAULT_255_2_778
10
16.9615
20
17.0643009
40
0.4990763
50
359.88235
51
90.11765
0
ARC
8
DEFAULT_255_2_778
10
16.9615
20
17.0622513
40
0.4990763
50
269.88235
51
0.11765
0
ARC
8
DEFAULT_255_2_778
10
16.9594651
20
17.0621662
40
0.4989912
50
179.8725621
51
270.1159799
0
ARC
8
DEFAULT_255_2_778
10
16.95938
20
19.8144712
40
0.4989061
50
89.8742308
51
180.1257692
0
ARC
8
DEFAULT_255_2_778
10
16.961585
20
19.8143862
40
0.4989912
50
359.8840201
51
90.1274379
0
ARC
8
DEFAULT_255_2_778
10
16.9615635
20
19.8122876
40
0.4990128
50
269.8750358
51
0.124978
0
ARC
8
DEFAULT_255_2_778
10
16.9594015
20
19.8122026
40
0.4989276
50
179.8652341
51
270.1232941
0
ARC
8
DEFAULT_255_2_778
10
14.1193866
20
12.9394645
40
0.4990127
50
89.8750179
51
180.124974
0
ARC
8
DEFAULT_255_2_778
10
14.121549
20
12.9395496
40
0.4989276
50
359.865234
51
90.1233218
0
ARC
8
DEFAULT_255_2_778
10
14.1215703
20
12.9372809
40
0.4989061
50
269.8742308
51
0.1257692
0
ARC
8
DEFAULT_255_2_778
10
14.1193653
20
12.937366
40
0.4989912
50
179.8840201
51
270.1274379
0
ARC
8
DEFAULT_255_2_778
10
14.1194504
20
15.6895009
40
0.4990763
50
89.88235
51
180.11765
0
ARC
8
DEFAULT_255_2_778
10
14.1214852
20
15.6895859
40
0.4989912
50
359.8725621
51
90.1159799
0
ARC
8
DEFAULT_255_2_778
10
14.1215703
20
15.6873809
40
0.4989061
50
269.8742308
51
0.1257692
0
ARC
8
DEFAULT_255_2_778
10
14.1193653
20
15.687466
40
0.4989912
50
179.8840201
51
270.1274379
0
ARC
8
DEFAULT_255_2_778
10
14.1194504
20
18.4396009
40
0.4990763
50
89.88235
51
180.11765
0
ARC
8
DEFAULT_255_2_778
10
14.1214852
20
18.4396859
40
0.4989912
50
359.8725621
51
90.1159799
0
ARC
8
DEFAULT_255_2_778
10
14.1214852
20
18.4374662
40
0.4989912
50
269.8840201
51
0.1274379
0
ARC
8
DEFAULT_255_2_778
10
14.1194504
20
18.4375513
40
0.4990763
50
179.88235
51
270.11765
0
LINE
8
DEFAULT_255_2_778
10
11.5404752
20
62.4226761
11
11.5404751
21
62.4234312
0
ARC
8
DEFAULT_255_2_778
10
14.3397346
20
62.4234847
40
2.7992595
50
134.9995371
51
180.0010949
0
ARC
8
DEFAULT_255_2_778
10
14.3396271
20
62.4235122
40
2.7991641
50
90.0037616
51
134.9983794
0
LINE
8
DEFAULT_255_2_778
10
14.3394433
20
65.2226763
11
14.3405752
21
65.2226761
0
ARC
8
DEFAULT_255_2_778
10
15.7437805
20
61.4208142
40
3.8018633
50
73.8184385
51
90.0498122
0
ARC
8
DEFAULT_255_2_778
10
15.7393851
20
61.4242656
40
3.7997771
50
42.9043873
51
73.7402849
0
ARC
8
DEFAULT_255_2_778
10
15.7477951
20
61.4245661
40
3.7934164
50
15.1558428
51
42.9875381
0
ARC
8
DEFAULT_255_2_778
10
15.7357291
20
61.4257816
40
3.8047472
50
359.9547405
51
15.0906706
0
ARC
8
DEFAULT_255_2_778
10
15.7390787
20
13.9494769
40
3.8013979
50
343.8169973
51
0.0497259
0
ARC
8
DEFAULT_255_2_778
10
15.7421243
20
13.9540096
40
3.7997399
50
312.9025811
51
343.7385592
0
ARC
8
DEFAULT_255_2_778
10
15.7422282
20
13.9457827
40
3.7936469
50
285.1555902
51
312.9860159
0
ARC
8
DEFAULT_255_2_778
10
15.7434759
20
13.9577231
40
3.8048483
50
269.954813
51
285.0904462
0
LINE
8
DEFAULT_255_2_778
10
14.3405752
20
10.1528761
11
14.3398201
21
10.152876
0
ARC
8
DEFAULT_255_2_778
10
14.3397666
20
12.9521355
40
2.7992595
50
224.9995371
51
270.0010949
0
ARC
8
DEFAULT_255_2_778
10
14.3397346
20
12.9521675
40
2.7992596
50
179.9989051
51
225.0004629
0
LINE
8
DEFAULT_255_2_778
10
11.5404751
20
12.952221
11
11.5404752
21
12.9529761
0
ARC
8
DEFAULT_255_2_778
10
14.3368854
20
62.4256159
40
2.9964117
50
161.3296926
51
180.0562131
0
ARC
8
DEFAULT_255_2_778
10
14.3448366
20
62.4178038
40
3.0064492
50
103.6222292
51
161.2371562
0
ARC
8
DEFAULT_255_2_778
10
14.3389266
20
62.4145465
40
3.00823
50
89.9686019
51
103.4982218
0
ARC
8
DEFAULT_255_2_778
10
15.7432864
20
61.4194097
40
4.0033674
50
74.2124556
51
90.0402335
0
ARC
8
DEFAULT_255_2_778
10
15.740646
20
61.4276983
40
3.9961129
50
45.9566066
51
74.143693
0
ARC
8
DEFAULT_255_2_778
10
15.7424887
20
61.4213892
40
3.999371
50
16.4457722
51
46.0384189
0
ARC
8
DEFAULT_255_2_778
10
15.7408876
20
61.4261694
40
3.9995563
50
0.4783048
51
16.3736008
0
ARC
8
DEFAULT_255_2_778
10
15.6502208
20
61.4221955
40
4.0902544
50
0.0081328
51
0.5233668
0
ARC
8
DEFAULT_255_2_778
10
15.7371927
20
13.9499611
40
4.0032834
50
344.2122884
51
0.0402886
0
ARC
8
DEFAULT_255_2_778
10
15.7455785
20
13.9525755
40
3.9959283
50
315.9556051
51
344.1435019
0
ARC
8
DEFAULT_255_2_778
10
15.7391571
20
13.9508551
40
3.9993522
50
286.4448228
51
316.0372778
0
ARC
8
DEFAULT_255_2_778
10
15.7438713
20
13.9526434
40
3.999736
50
270.4782428
51
286.372802
0
ARC
8
DEFAULT_255_2_778
10
15.7398946
20
14.0431304
40
4.0902544
50
270.0081328
51
270.5233668
0
ARC
8
DEFAULT_255_2_778
10
14.3376352
20
12.9495222
40
2.9966476
50
251.3310214
51
270.0562122
0
ARC
8
DEFAULT_255_2_778
10
14.3452489
20
12.9570927
40
3.0062608
50
193.6208881
51
251.2397338
0
ARC
8
DEFAULT_255_2_778
10
14.3485249
20
12.9511414
40
3.0080502
50
179.9650541
51
193.4960237
0
ARC
8
DEFAULT_255_2_778
10
15.5405124
20
5.9376787
40
2.5001373
50
121.9137478
51
179.9977684
0
ARC
8
DEFAULT_255_2_778
10
15.5450008
20
5.9300486
40
2.5089867
50
120.0008527
51
121.9086401
0
ARC
8
DEFAULT_255_2_778
10
15.5397475
20
5.940214
40
2.4975565
50
100.2066129
51
120.0130885
0
ARC
8
DEFAULT_255_2_778
10
15.5404326
20
5.9360538
40
2.5017722
50
89.9990251
51
100.2051719
0
ARC
8
DEFAULT_255_2_778
10
15.5408582
20
5.9393792
40
2.4984469
50
64.7638706
51
90.008784
0
ARC
8
DEFAULT_255_2_778
10
15.5379696
20
5.9337381
40
2.5047813
50
59.9969664
51
64.7591174
0
ARC
8
DEFAULT_255_2_778
10
15.5404202
20
5.9377748
40
2.5000602
50
1.9146849
51
59.9993419
0
ARC
8
DEFAULT_255_2_778
10
15.5315869
20
5.937784
40
2.5088883
50
359.9998204
51
1.9077366
0
ARC
8
DEFAULT_255_2_778
10
15.5404177
20
5.9377672
40
2.5000575
50
301.9154232
51
0.0002045
0
ARC
8
DEFAULT_255_2_778
10
15.5361443
20
5.9451726
40
2.5086027
50
300.0007804
51
301.9088542
0
ARC
8
DEFAULT_255_2_778
10
15.5412028
20
5.9353382
40
2.4975565
50
280.2066129
51
300.0130885
0
ARC
8
DEFAULT_255_2_778
10
15.5405177
20
5.9394984
40
2.5017722
50
269.9990251
51
280.2051719
0
ARC
8
DEFAULT_255_2_778
10
15.5400921
20
5.936173
40
2.4984469
50
244.7638706
51
270.008784
0
ARC
8
DEFAULT_255_2_778
10
15.5429807
20
5.941814
40
2.5047813
50
239.9969664
51
244.7591174
0
ARC
8
DEFAULT_255_2_778
10
15.5405382
20
5.9379019
40
2.5001721
50
181.9174559
51
240.0006095
0
ARC
8
DEFAULT_255_2_778
10
15.5485418
20
5.9377622
40
2.5081666
50
179.999683
51
181.9081483
0
ARC
8
DEFAULT_255_2_778
10
15.534082
20
5.9398489
40
1.2938085
50
146.7148745
51
180.0917915
0
ARC
8
DEFAULT_255_2_778
10
15.5399338
20
5.9381159
40
1.2996527
50
96.4921002
51
146.792589
0
ARC
8
DEFAULT_255_2_778
10
15.53992
20
5.9237813
40
1.3138949
50
89.9888749
51
96.4208275
0
ARC
8
DEFAULT_255_2_778
10
15.5422765
20
5.9438193
40
1.2938585
50
56.8021795
51
90.093053
0
ARC
8
DEFAULT_255_2_778
10
15.5405474
20
5.9380716
40
1.2996158
50
6.4997895
51
56.8771337
0
ARC
8
DEFAULT_255_2_778
10
15.5260035
20
5.9380332
40
1.3140717
50
359.9887905
51
6.4296717
0
ARC
8
DEFAULT_255_2_778
10
15.5461883
20
5.9356883
40
1.2938885
50
326.7179954
51
0.0924523
0
ARC
8
DEFAULT_255_2_778
10
15.5405001
20
5.9373439
40
1.2995535
50
276.4896882
51
326.7945945
0
ARC
8
DEFAULT_255_2_778
10
15.5404316
20
5.9520698
40
1.3141938
50
269.9888195
51
276.4200928
0
ARC
8
DEFAULT_255_2_778
10
15.5381024
20
5.9316829
40
1.2938085
50
236.7148745
51
270.0917915
0
ARC
8
DEFAULT_255_2_778
10
15.5398354
20
5.9375347
40
1.2996527
50
186.4921002
51
236.792589
0
ARC
8
DEFAULT_255_2_778
10
15.5541699
20
5.937521
40
1.3138949
50
179.9888749
51
186.4208275
0
LINE
8
DEFAULT_255_2_778
10
22.8402752
20
73.4877761
11
22.8402752
21
1.8877761
0
LINE
8
DEFAULT_255_2_778
10
21.8404752
20
73.4877761
11
21.8404752
21
1.8877761
0
LINE
8
DEFAULT_255_2_778
10
13.6203752
20
62.4376761
11
13.6203752
21
62.4376761
0
LINE
8
DEFAULT_255_2_778
10
13.3639752
20
62.4376761
11
14.8763752
21
62.4376761
0
LINE
8
DEFAULT_255_2_778
10
16.4604752
20
55.5627761
11
16.4604752
21
55.5627761
0
LINE
8
DEFAULT_255_2_778
10
16.2040752
20
55.5627761
11
17.7163752
21
55.5627761
0
LINE
8
DEFAULT_255_2_778
10
16.4604752
20
58.3128761
11
16.4604752
21
58.3128761
0
LINE
8
DEFAULT_255_2_778
10
16.2040752
20
58.3128761
11
17.7163752
21
58.3128761
0
LINE
8
DEFAULT_255_2_778
10
16.4604752
20
61.0629761
11
16.4604752
21
61.0629761
0
LINE
8
DEFAULT_255_2_778
10
16.2040752
20
61.0629761
11
17.7163752
21
61.0629761
0
LINE
8
DEFAULT_255_2_778
10
13.6203752
20
54.1879761
11
13.6203752
21
54.1879761
0
LINE
8
DEFAULT_255_2_778
10
13.3639752
20
54.1879761
11
14.8763752
21
54.1879761
0
LINE
8
DEFAULT_255_2_778
10
13.6203752
20
56.9380761
11
13.6203752
21
56.9380761
0
LINE
8
DEFAULT_255_2_778
10
13.3639752
20
56.9380761
11
14.8763752
21
56.9380761
0
LINE
8
DEFAULT_255_2_778
10
13.6203752
20
59.6876761
11
13.6203752
21
59.6876761
0
LINE
8
DEFAULT_255_2_778
10
13.3639752
20
59.6876761
11
14.8763752
21
59.6876761
0
LINE
8
DEFAULT_255_2_778
10
16.4604752
20
47.3125761
11
16.4604752
21
47.3125761
0
LINE
8
DEFAULT_255_2_778
10
16.2040752
20
47.3125761
11
17.7163752
21
47.3125761
0
LINE
8
DEFAULT_255_2_778
10
16.4604752
20
50.0626761
11
16.4604752
21
50.0626761
0
LINE
8
DEFAULT_255_2_778
10
16.2040752
20
50.0626761
11
17.7163752
21
50.0626761
0
LINE
8
DEFAULT_255_2_778
10
16.4604752
20
52.8126761
11
16.4604752
21
52.8126761
0
LINE
8
DEFAULT_255_2_778
10
16.2040752
20
52.8126761
11
17.7163752
21
52.8126761
0
LINE
8
DEFAULT_255_2_778
10
13.6203752
20
45.9377761
11
13.6203752
21
45.9377761
0
LINE
8
DEFAULT_255_2_778
10
13.3639752
20
45.9377761
11
14.8763752
21
45.9377761
0
LINE
8
DEFAULT_255_2_778
10
13.6203752
20
48.6878761
11
13.6203752
21
48.6878761
0
LINE
8
DEFAULT_255_2_778
10
13.3639752
20
48.6878761
11
14.8763752
21
48.6878761
0
LINE
8
DEFAULT_255_2_778
10
13.6203752
20
51.4379761
11
13.6203752
21
51.4379761
0
LINE
8
DEFAULT_255_2_778
10
13.3639752
20
51.4379761
11
14.8763752
21
51.4379761
0
LINE
8
DEFAULT_255_2_778
10
16.4604752
20
39.0628761
11
16.4604752
21
39.0628761
0
LINE
8
DEFAULT_255_2_778
10
16.2040752
20
39.0628761
11
17.7163752
21
39.0628761
0
LINE
8
DEFAULT_255_2_778
10
16.4604752
20
41.8128761
11
16.4604752
21
41.8128761
0
LINE
8
DEFAULT_255_2_778
10
16.2040752
20
41.8128761
11
17.7163752
21
41.8128761
0
LINE
8
DEFAULT_255_2_778
10
16.4604752
20
44.5629761
11
16.4604752
21
44.5629761
0
LINE
8
DEFAULT_255_2_778
10
16.2040752
20
44.5629761
11
17.7163752
21
44.5629761
0
LINE
8
DEFAULT_255_2_778
10
13.6203752
20
37.6880761
11
13.6203752
21
37.6880761
0
LINE
8
DEFAULT_255_2_778
10
13.3639752
20
37.6880761
11
14.8763752
21
37.6880761
0
LINE
8
DEFAULT_255_2_778
10
13.6203752
20
40.4381761
11
13.6203752
21
40.4381761
0
LINE
8
DEFAULT_255_2_778
10
13.3639752
20
40.4381761
11
14.8763752
21
40.4381761
0
LINE
8
DEFAULT_255_2_778
10
13.6203752
20
43.1881761
11
13.6203752
21
43.1881761
0
LINE
8
DEFAULT_255_2_778
10
13.3639752
20
43.1881761
11
14.8763752
21
43.1881761
0
LINE
8
DEFAULT_255_2_778
10
16.4604752
20
30.8131761
11
16.4604752
21
30.8131761
0
LINE
8
DEFAULT_255_2_778
10
16.2040752
20
30.8131761
11
17.7163752
21
30.8131761
0
LINE
8
DEFAULT_255_2_778
10
16.4604752
20
33.5631761
11
16.4604752
21
33.5631761
0
LINE
8
DEFAULT_255_2_778
10
16.2040752
20
33.5631761
11
17.7163752
21
33.5631761
0
LINE
8
DEFAULT_255_2_778
10
16.4604752
20
36.3132761
11
16.4604752
21
36.3132761
0
LINE
8
DEFAULT_255_2_778
10
16.2040752
20
36.3132761
11
17.7163752
21
36.3132761
0
LINE
8
DEFAULT_255_2_778
10
13.6203752
20
29.4378761
11
13.6203752
21
29.4378761
0
LINE
8
DEFAULT_255_2_778
10
13.3639752
20
29.4378761
11
14.8763752
21
29.4378761
0
LINE
8
DEFAULT_255_2_778
10
13.6203752
20
32.1878761
11
13.6203752
21
32.1878761
0
LINE
8
DEFAULT_255_2_778
10
13.3639752
20
32.1878761
11
14.8763752
21
32.1878761
0
LINE
8
DEFAULT_255_2_778
10
13.6203752
20
34.9379761
11
13.6203752
21
34.9379761
0
LINE
8
DEFAULT_255_2_778
10
13.3639752
20
34.9379761
11
14.8763752
21
34.9379761
0
LINE
8
DEFAULT_255_2_778
10
16.4604752
20
22.5628761
11
16.4604752
21
22.5628761
0
LINE
8
DEFAULT_255_2_778
10
16.2040752
20
22.5628761
11
17.7163752
21
22.5628761
0
LINE
8
DEFAULT_255_2_778
10
16.4604752
20
25.3129761
11
16.4604752
21
25.3129761
0
LINE
8
DEFAULT_255_2_778
10
16.2040752
20
25.3129761
11
17.7163752
21
25.3129761
0
LINE
8
DEFAULT_255_2_778
10
16.4604752
20
28.0630761
11
16.4604752
21
28.0630761
0
LINE
8
DEFAULT_255_2_778
10
16.2040752
20
28.0630761
11
17.7163752
21
28.0630761
0
LINE
8
DEFAULT_255_2_778
10
13.6203752
20
21.1880761
11
13.6203752
21
21.1880761
0
LINE
8
DEFAULT_255_2_778
10
13.3639752
20
21.1880761
11
14.8763752
21
21.1880761
0
LINE
8
DEFAULT_255_2_778
10
13.6203752
20
23.9381761
11
13.6203752
21
23.9381761
0
LINE
8
DEFAULT_255_2_778
10
13.3639752
20
23.9381761
11
14.8763752
21
23.9381761
0
LINE
8
DEFAULT_255_2_778
10
13.6203752
20
26.6882761
11
13.6203752
21
26.6882761
0
LINE
8
DEFAULT_255_2_778
10
13.3639752
20
26.6882761
11
14.8763752
21
26.6882761
0
LINE
8
DEFAULT_255_2_778
10
16.4604752
20
14.3131761
11
16.4604752
21
14.3131761
0
LINE
8
DEFAULT_255_2_778
10
16.2040752
20
14.3131761
11
17.7163752
21
14.3131761
0
LINE
8
DEFAULT_255_2_778
10
16.4604752
20
17.0632761
11
16.4604752
21
17.0632761
0
LINE
8
DEFAULT_255_2_778
10
16.2040752
20
17.0632761
11
17.7163752
21
17.0632761
0
LINE
8
DEFAULT_255_2_778
10
16.4604752
20
19.8133761
11
16.4604752
21
19.8133761
0
LINE
8
DEFAULT_255_2_778
10
16.2040752
20
19.8133761
11
17.7163752
21
19.8133761
0
LINE
8
DEFAULT_255_2_778
10
13.6203752
20
12.9383761
11
13.6203752
21
12.9383761
0
LINE
8
DEFAULT_255_2_778
10
13.3639752
20
12.9383761
11
14.8763752
21
12.9383761
0
LINE
8
DEFAULT_255_2_778
10
13.6203752
20
15.6884761
11
13.6203752
21
15.6884761
0
LINE
8
DEFAULT_255_2_778
10
13.3639752
20
15.6884761
11
14.8763752
21
15.6884761
0
LINE
8
DEFAULT_255_2_778
10
13.6203752
20
18.4385761
11
13.6203752
21
18.4385761
0
LINE
8
DEFAULT_255_2_778
10
13.3639752
20
18.4385761
11
14.8763752
21
18.4385761
0
LINE
8
DEFAULT_255_2_778
10
14.3405752
20
65.2226761
11
15.7404752
21
65.2226761
0
LINE
8
DEFAULT_255_2_778
10
19.5404752
20
61.4227761
11
19.5404752
21
13.9527761
0
LINE
8
DEFAULT_255_2_778
10
15.7404752
20
10.1528761
11
14.3405752
21
10.1528761
0
LINE
8
DEFAULT_255_2_778
10
11.5404752
20
12.9529761
11
11.5404752
21
62.4226761
0
LINE
8
DEFAULT_255_2_778
10
14.3405752
20
65.4227761
11
15.7404752
21
65.4227761
0
LINE
8
DEFAULT_255_2_778
10
19.7404752
20
61.4227761
11
19.7404752
21
13.9527761
0
LINE
8
DEFAULT_255_2_778
10
15.7404752
20
9.9528761
11
14.3405752
21
9.9528761
0
LINE
8
DEFAULT_255_2_778
10
11.3404752
20
12.9529761
11
11.3404752
21
62.4226761
0
LINE
8
DEFAULT_255_2_778
10
16.9837752
20
3.4377761
11
18.4270752
21
5.9377761
0
LINE
8
DEFAULT_255_2_778
10
18.4270752
20
5.9377761
11
16.9837752
21
8.4378761
0
LINE
8
DEFAULT_255_2_778
10
16.9837752
20
8.4378761
11
14.0968752
21
8.4378761
0
LINE
8
DEFAULT_255_2_778
10
14.0968752
20
8.4378761
11
12.6535752
21
5.9377761
0
LINE
8
DEFAULT_255_2_778
10
12.6535752
20
5.9377761
11
14.0968752
21
3.4377761
0
LINE
8
DEFAULT_255_2_778
10
14.0968752
20
3.4377761
11
16.9837752
21
3.4377761
0
LINE
8
DEFAULT_255_2_778
10
13.0403752
20
5.9377761
11
13.0403752
21
5.9377761
0
LINE
8
DEFAULT_255_2_778
10
14.2402752
20
5.9377761
11
14.2402752
21
5.9377761
0
ARC
8
DEFAULT_255_2_778
10
15.5345851
20
69.4407946
40
2.4942233
50
159.2110266
51
180.0676908
0
ARC
8
DEFAULT_255_2_778
10
15.5426926
20
69.4346578
40
2.5039828
50
100.4528753
51
159.1455926
0
ARC
8
DEFAULT_255_2_778
10
15.5393537
20
69.4230595
40
2.5147886
50
89.9747112
51
100.3301215
0
ARC
8
DEFAULT_255_2_778
10
15.5434088
20
69.4435976
40
2.4942519
50
69.2112367
51
90.0676545
0
ARC
8
DEFAULT_255_2_778
10
15.5373067
20
69.4355309
40
2.5039608
50
10.4543178
51
69.1462118
0
ARC
8
DEFAULT_255_2_778
10
15.5259871
20
69.4389561
40
2.5144767
50
359.974746
51
10.3307621
0
ARC
8
DEFAULT_255_2_778
10
15.545957
20
69.434896
40
2.4945084
50
339.2123154
51
0.0677994
0
ARC
8
DEFAULT_255_2_778
10
15.5381427
20
69.4408836
40
2.5039405
50
280.454495
51
339.1476847
0
ARC
8
DEFAULT_255_2_778
10
15.541573
20
69.4522
40
2.5144525
50
269.9747206
51
280.3308375
0
ARC
8
DEFAULT_255_2_778
10
15.5375103
20
69.4322258
40
2.4944797
50
249.2121053
51
270.0678357
0
ARC
8
DEFAULT_255_2_778
10
15.5435325
20
69.4400808
40
2.5039625
50
190.4530525
51
249.1470655
0
ARC
8
DEFAULT_255_2_778
10
15.5551276
20
69.4367368
40
2.5147643
50
179.9746859
51
190.3301969
0
ARC
8
DEFAULT_255_2_778
10
15.5373962
20
69.4408187
40
1.297136
50
148.2763071
51
180.1312243
0
ARC
8
DEFAULT_255_2_778
10
15.5366745
20
69.4413025
40
1.2962677
50
97.0253136
51
148.2777246
0
ARC
8
DEFAULT_255_2_778
10
15.5398153
20
69.4138072
40
1.3239407
50
89.9849262
51
97.0146834
0
ARC
8
DEFAULT_255_2_778
10
15.5431471
20
69.4406387
40
1.2971126
50
58.2740152
51
90.1317838
0
ARC
8
DEFAULT_255_2_778
10
15.5435813
20
69.4413187
40
1.2963058
50
7.0250528
51
58.2745362
0
ARC
8
DEFAULT_255_2_778
10
15.5162057
20
69.4381947
40
1.323858
50
359.9849877
51
7.0143358
0
ARC
8
DEFAULT_255_2_778
10
15.5428691
20
69.4348502
40
1.297198
50
328.2770855
51
0.1324007
0
ARC
8
DEFAULT_255_2_778
10
15.5437209
20
69.4343335
40
1.2962017
50
277.0226393
51
328.276717
0
ARC
8
DEFAULT_255_2_778
10
15.5405119
20
69.4621015
40
1.3241537
50
269.9849309
51
277.0135513
0
ARC
8
DEFAULT_255_2_778
10
15.537166
20
69.4351424
40
1.297198
50
238.2770855
51
270.1324007
0
ARC
8
DEFAULT_255_2_778
10
15.5366493
20
69.4342906
40
1.2962017
50
187.0226393
51
238.276717
0
ARC
8
DEFAULT_255_2_778
10
15.5644173
20
69.4374996
40
1.3241537
50
179.9849309
51
187.0135513
0
LINE
8
DEFAULT_255_2_778
10
16.9837636
20
71.9378478
11
18.4270636
21
69.4378478
0
LINE
8
DEFAULT_255_2_778
10
18.4270636
20
69.4378478
11
16.9837636
21
66.9377478
0
LINE
8
DEFAULT_255_2_778
10
16.9837636
20
66.9377478
11
14.0968636
21
66.9377478
0
LINE
8
DEFAULT_255_2_778
10
14.0968636
20
66.9377478
11
12.6535636
21
69.4378478
0
LINE
8
DEFAULT_255_2_778
10
12.6535636
20
69.4378478
11
14.0968636
21
71.9378478
0
LINE
8
DEFAULT_255_2_778
10
14.0968636
20
71.9378478
11
16.9837636
21
71.9378478
0
LINE
8
DEFAULT_255_2_778
10
13.0403636
20
69.4378478
11
13.0403636
21
69.4378478
0
LINE
8
DEFAULT_255_2_778
10
14.2402636
20
69.4378478
11
14.2402636
21
69.4378478
0
ARC
8
DEFAULT_255_2_778
10
1.8453464
20
96.0740169
40
1.0274572
50
344.802376
51
0.7180923
0
ARC
8
DEFAULT_255_2_778
10
2.1361996
20
96.0033786
40
0.7283031
50
336.3476772
51
344.166785
0
ARC
8
DEFAULT_255_2_778
10
2.2663961
20
95.9342618
40
0.5814205
50
306.1190287
51
337.4393902
0
ARC
8
DEFAULT_255_2_778
10
2.2713797
20
96.0082653
40
0.6460798
50
269.7111792
51
283.7846181
0
ARC
8
DEFAULT_255_2_778
10
2.2576582
20
95.9361747
40
0.5740764
50
237.9504269
51
271.0444956
0
ARC
8
DEFAULT_255_2_778
10
2.265628
20
95.9337557
40
0.5763113
50
204.0930842
51
237.1511982
0
ARC
8
DEFAULT_255_2_778
10
2.5281805
20
96.0559673
40
0.8658915
50
181.9029677
51
204.3832859
0
ARC
8
DEFAULT_255_2_778
10
2.8349561
20
96.0844763
40
1.1735875
50
180.5508377
51
182.7967343
0
ARC
8
DEFAULT_255_2_778
10
2.6208221
20
96.1951795
40
0.9594939
50
160.9068667
51
180.8053268
0
ARC
8
DEFAULT_255_2_778
10
2.4316684
20
96.2504004
40
0.7627444
50
155.6412208
51
160.1789548
0
ARC
8
DEFAULT_255_2_778
10
2.2646838
20
96.3395398
40
0.5739918
50
123.2076462
51
156.872257
0
ARC
8
DEFAULT_255_2_778
10
2.2559927
20
96.3360899
40
0.5721917
50
88.9955808
51
122.2902584
0
ARC
8
DEFAULT_255_2_778
10
2.2781276
20
96.3256179
40
0.5827016
50
58.1146458
51
91.1903065
0
ARC
8
DEFAULT_255_2_778
10
2.2755973
20
96.3439446
40
0.5685998
50
23.1730132
51
56.9225912
0
ARC
8
DEFAULT_255_2_778
10
1.9868973
20
96.2151546
40
0.8847007
50
2.2655262
51
23.4834452
0
ARC
8
DEFAULT_255_2_778
10
1.6440724
20
96.1833362
40
1.2286509
50
359.9700388
51
3.1162113
0
ARC
8
DEFAULT_255_2_778
10
1.7238444
20
96.1965271
40
0.9504612
50
359.2444389
51
13.3575227
0
ARC
8
DEFAULT_255_2_778
10
2.1544938
20
96.3002687
40
0.5074968
50
13.1945422
51
35.3503912
0
ARC
8
DEFAULT_255_2_778
10
2.2837287
20
96.3860447
40
0.3524939
50
36.1323614
51
92.8791852
0
ARC
8
DEFAULT_255_2_778
10
2.2532591
20
96.3889298
40
0.3493972
50
87.9064553
51
143.8796179
0
ARC
8
DEFAULT_255_2_778
10
2.4134067
20
96.2761097
40
0.5452767
50
144.2232777
51
170.8781888
0
ARC
8
DEFAULT_255_2_778
10
2.8304893
20
96.1913217
40
0.9706859
50
169.8396334
51
179.6356898
0
ARC
8
DEFAULT_255_2_778
10
2.7478977
20
96.074149
40
0.8881662
50
179.1778063
51
194.9654911
0
ARC
8
DEFAULT_255_2_778
10
2.3914355
20
95.9807002
40
0.5196656
50
195.1609305
51
215.3964638
0
ARC
8
DEFAULT_255_2_778
10
2.2544379
20
95.8804649
40
0.3499388
50
215.0108887
51
272.2412342
0
ARC
8
DEFAULT_255_2_778
10
2.2851594
20
95.8810356
40
0.350656
50
267.2152149
51
323.1406646
0
ARC
8
DEFAULT_255_2_778
10
2.1380911
20
95.9766014
40
0.5257837
50
324.4218511
51
349.9490098
0
ARC
8
DEFAULT_255_2_778
10
1.6690178
20
96.076421
40
1.0052133
50
349.0128903
51
359.7704499
0
LINE
8
DEFAULT_255_2_778
10
2.8727229
20
96.1829937
11
2.8727229
21
96.0868937
0
LINE
8
DEFAULT_255_2_778
10
2.6091229
20
95.4645937
11
2.8780229
21
95.2537937
0
LINE
8
DEFAULT_255_2_778
10
2.8780229
20
95.2537937
11
2.7425229
21
95.1285937
0
LINE
8
DEFAULT_255_2_778
10
2.7425229
20
95.1285937
11
2.4253229
21
95.3807937
0
LINE
8
DEFAULT_255_2_778
10
1.6614229
20
96.0731937
11
1.6614229
21
96.1816937
0
LINE
8
DEFAULT_255_2_778
10
2.8727229
20
96.1826937
11
2.8727229
21
96.1829937
0
LINE
8
DEFAULT_255_2_778
10
2.6742229
20
96.0723937
11
2.6742229
21
96.1839937
0
LINE
8
DEFAULT_255_2_778
10
1.8598229
20
96.1974937
11
1.8598229
21
96.0868937
0
LINE
8
DEFAULT_255_2_778
10
2.6742229
20
96.0723937
11
2.6742229
21
96.0723937
0
LINE
8
DEFAULT_255_2_778
10
3.3068396
20
96.887775
11
3.6696396
21
96.310975
0
LINE
8
DEFAULT_255_2_778
10
3.6696396
20
96.310975
11
4.0302396
21
96.887775
0
LINE
8
DEFAULT_255_2_778
10
4.0302396
20
96.887775
11
4.2638396
21
96.887775
0
LINE
8
DEFAULT_255_2_778
10
4.2638396
20
96.887775
11
3.7884396
21
96.141675
0
LINE
8
DEFAULT_255_2_778
10
3.7884396
20
96.141675
11
4.2752396
21
95.383075
0
LINE
8
DEFAULT_255_2_778
10
4.2752396
20
95.383075
11
4.0395396
21
95.383075
0
LINE
8
DEFAULT_255_2_778
10
4.0395396
20
95.383075
11
3.6696396
21
95.969975
0
LINE
8
DEFAULT_255_2_778
10
3.6696396
20
95.969975
11
3.2976396
21
95.382875
0
LINE
8
DEFAULT_255_2_778
10
3.2976396
20
95.382875
11
3.0629396
21
95.382875
0
LINE
8
DEFAULT_255_2_778
10
3.0629396
20
95.382875
11
3.5508396
21
96.141675
0
LINE
8
DEFAULT_255_2_778
10
3.5508396
20
96.141675
11
3.0743396
21
96.887775
0
LINE
8
DEFAULT_255_2_778
10
3.0743396
20
96.887775
11
3.3068396
21
96.887775
0
LINE
8
DEFAULT_255_2_778
10
3.3068396
20
96.887775
11
3.3068396
21
96.887775
0
ARC
8
DEFAULT_255_2_778
10
5.0190951
20
96.4894257
40
0.349449
50
326.0585599
51
0.8996558
0
ARC
8
DEFAULT_255_2_778
10
4.972516
20
96.5245192
40
0.4076976
50
295.5571137
51
325.6219672
0
ARC
8
DEFAULT_255_2_778
10
4.984761
20
95.7588274
40
0.4302216
50
35.525217
51
67.6438749
0
ARC
8
DEFAULT_255_2_778
10
5.0323107
20
95.7934243
40
0.3714202
50
359.2731298
51
35.4438127
0
ARC
8
DEFAULT_255_2_778
10
5.010588
20
95.7717889
40
0.3934772
50
311.614266
51
2.4650687
0
ARC
8
DEFAULT_255_2_778
10
4.960289
20
95.8452694
40
0.4819478
50
272.4351009
51
310.2833436
0
ARC
8
DEFAULT_255_2_778
10
4.9257976
20
96.1016606
40
0.7399483
50
269.9460652
51
274.260237
0
ARC
8
DEFAULT_255_2_778
10
4.9116284
20
95.93327
40
0.5717163
50
245.8204455
51
271.3503183
0
ARC
8
DEFAULT_255_2_778
10
4.8584599
20
95.7944705
40
0.4233987
50
228.408431
51
244.6906786
0
ARC
8
DEFAULT_255_2_778
10
4.8413639
20
95.7716868
40
0.3950171
50
177.5732812
51
228.0692845
0
ARC
8
DEFAULT_255_2_778
10
4.8296903
20
95.7926045
40
0.3830122
50
145.6690953
51
180.6271066
0
ARC
8
DEFAULT_255_2_778
10
4.8548913
20
95.7738224
40
0.4144176
50
112.2756365
51
145.4897124
0
ARC
8
DEFAULT_255_2_778
10
4.8672588
20
96.5118816
40
0.3929824
50
213.5118182
51
244.455663
0
ARC
8
DEFAULT_255_2_778
10
4.835324
20
96.4890681
40
0.3537633
50
179.134393
51
213.2867361
0
ARC
8
DEFAULT_255_2_778
10
4.8790662
20
96.5105917
40
0.3977943
50
139.8502785
51
182.3309987
0
ARC
8
DEFAULT_255_2_778
10
4.8568237
20
96.5190351
40
0.3754316
50
132.4140799
51
138.6464019
0
ARC
8
DEFAULT_255_2_778
10
4.8965835
20
96.4642307
40
0.442776
50
91.0621277
51
131.4292298
0
ARC
8
DEFAULT_255_2_778
10
4.9247712
20
96.232896
40
0.6750167
50
89.971999
51
93.0907439
0
ARC
8
DEFAULT_255_2_778
10
4.9391767
20
96.4165244
40
0.4915896
50
60.6658717
51
91.6407679
0
ARC
8
DEFAULT_255_2_778
10
4.9757098
20
96.5001965
40
0.4008528
50
47.6008932
51
59.3589984
0
ARC
8
DEFAULT_255_2_778
10
4.9809596
20
96.512894
40
0.3879643
50
357.3244736
51
46.908989
0
LINE
8
DEFAULT_255_2_778
10
5.3685009
20
96.4947839
11
5.3685011
21
96.4944125
0
ARC
8
DEFAULT_255_2_778
10
4.9359112
20
95.803802
40
0.2766926
50
357.806644
51
44.8126634
0
ARC
8
DEFAULT_255_2_778
10
4.9347571
20
95.7946204
40
0.2840397
50
45.9625753
51
92.3922705
0
ARC
8
DEFAULT_255_2_778
10
4.9100933
20
95.7997648
40
0.2789419
50
87.3683105
51
134.1495086
0
ARC
8
DEFAULT_255_2_778
10
4.9178951
20
95.805448
40
0.2804611
50
136.1022157
51
182.5004143
0
ARC
8
DEFAULT_255_2_778
10
4.9048776
20
95.7788084
40
0.2675646
50
176.9140492
51
224.397244
0
ARC
8
DEFAULT_255_2_778
10
4.9036414
20
95.8020101
40
0.283451
50
227.9252604
51
270.9611897
0
ARC
8
DEFAULT_255_2_778
10
4.9249877
20
95.9990079
40
0.4806955
50
268.022032
51
270.0135148
0
ARC
8
DEFAULT_255_2_778
10
4.9390699
20
95.8215215
40
0.3035306
50
267.3622552
51
305.6308289
0
ARC
8
DEFAULT_255_2_778
10
4.9698822
20
95.7639162
40
0.2389115
50
307.6732405
51
314.0189491
0
ARC
8
DEFAULT_255_2_778
10
4.9464071
20
95.7792981
40
0.2663577
50
315.3511207
51
2.9944731
0
ARC
8
DEFAULT_255_2_778
10
4.9147705
20
96.5055845
40
0.245945
50
87.5926622
51
134.3643719
0
ARC
8
DEFAULT_255_2_778
10
4.9286681
20
96.5051966
40
0.2561223
50
136.5268342
51
183.0178484
0
ARC
8
DEFAULT_255_2_778
10
4.9273327
20
96.4805699
40
0.2546755
50
177.4923908
51
223.2061848
0
ARC
8
DEFAULT_255_2_778
10
4.9138576
20
96.4788827
40
0.2438296
50
225.085354
51
272.6429687
0
ARC
8
DEFAULT_255_2_778
10
4.9365397
20
96.4781355
40
0.2430923
50
267.302977
51
314.9897243
0
ARC
8
DEFAULT_255_2_778
10
4.9223338
20
96.4807315
40
0.2551037
50
316.8343508
51
2.4670736
0
ARC
8
DEFAULT_255_2_778
10
4.9224932
20
96.501686
40
0.254903
50
357.7576304
51
44.0174897
0
ARC
8
DEFAULT_255_2_778
10
4.9324024
20
96.5070916
40
0.2440392
50
44.7214483
51
91.7849299
0
LINE
8
DEFAULT_255_2_778
10
5.3685011
20
96.4944125
11
5.3685011
21
96.4949125
0
LINE
8
DEFAULT_255_2_778
10
5.2124011
20
95.7932125
11
5.2124011
21
95.7932125
0
LINE
8
DEFAULT_255_2_778
10
4.9248011
20
96.7510125
11
4.9251011
21
96.7513125
0
ARC
8
DEFAULT_255_2_778
10
2.281304
20
76.1152647
40
0.3456449
50
87.5737139
51
139.5094574
0
ARC
8
DEFAULT_255_2_778
10
2.3094018
20
76.1433449
40
0.3175404
50
57.9138365
51
92.4303434
0
ARC
8
DEFAULT_255_2_778
10
2.336855
20
76.2082289
40
0.2482375
50
24.2791232
51
55.3264401
0
ARC
8
DEFAULT_255_2_778
10
2.8532272
20
76.1091585
40
0.353002
50
118.5282065
51
145.2635818
0
ARC
8
DEFAULT_255_2_778
10
2.8524067
20
76.1027547
40
0.3582563
50
88.5717136
51
117.9237844
0
ARC
8
DEFAULT_255_2_778
10
2.874309
20
76.0996483
40
0.3614842
50
63.2260541
51
92.0565996
0
ARC
8
DEFAULT_255_2_778
10
2.9048347
20
76.1954761
40
0.2626618
50
7.0353555
51
59.7523839
0
ARC
8
DEFAULT_255_2_778
10
2.6237051
20
76.129345
40
0.5506593
50
0.5779762
51
10.2834367
0
ARC
8
DEFAULT_255_2_778
10
2.7757951
20
76.1378046
40
0.2390635
50
357.0256052
51
29.8573238
0
ARC
8
DEFAULT_255_2_778
10
2.8661467
20
76.1810734
40
0.1393631
50
32.923822
51
42.5970128
0
ARC
8
DEFAULT_255_2_778
10
2.8488388
20
76.1496839
40
0.1737237
50
46.3569623
51
88.5567701
0
ARC
8
DEFAULT_255_2_778
10
2.8158623
20
75.9252678
40
0.3998331
50
84.6396771
51
90.1469928
0
ARC
8
DEFAULT_255_2_778
10
2.8074688
20
76.1130974
40
0.2121303
50
88.009598
51
131.4893547
0
ARC
8
DEFAULT_255_2_778
10
2.8139701
20
76.1139833
40
0.2158427
50
132.9380336
51
176.0638545
0
ARC
8
DEFAULT_255_2_778
10
2.2099557
20
76.1336992
40
0.2281402
50
356.7837983
51
33.0415644
0
ARC
8
DEFAULT_255_2_778
10
2.2618224
20
76.1451231
40
0.1794106
50
39.0256091
51
91.7492536
0
ARC
8
DEFAULT_255_2_778
10
2.2382486
20
75.9605057
40
0.3643941
50
87.1533139
51
90.033349
0
ARC
8
DEFAULT_255_2_778
10
2.2213118
20
76.1120459
40
0.2135098
50
85.507281
51
158.2973426
0
ARC
8
DEFAULT_255_2_778
10
0.2155387
20
79.2139602
40
1.4706559
50
318.1100182
51
324.114818
0
ARC
8
DEFAULT_255_2_778
10
0.9492149
20
78.6814425
40
0.564096
50
324.2558513
51
331.3057168
0
ARC
8
DEFAULT_255_2_778
10
1.1824568
20
78.5539468
40
0.2982823
50
331.2770169
51
359.7604457
0
ARC
8
DEFAULT_255_2_778
10
1.2546035
20
78.5611928
40
0.2262925
50
357.849092
51
42.5776224
0
ARC
8
DEFAULT_255_2_778
10
1.2717422
20
78.5691473
40
0.2083693
50
44.155744
51
92.6146981
0
ARC
8
DEFAULT_255_2_778
10
1.2473301
20
78.5301435
40
0.2476053
50
86.5485602
51
133.5282887
0
ARC
8
DEFAULT_255_2_778
10
1.2669514
20
78.5374856
40
0.2565248
50
137.8599274
51
182.5099459
0
ARC
8
DEFAULT_255_2_778
10
1.4472066
20
78.5206295
40
0.4365699
50
179.2621343
51
180.0039166
0
ARC
8
DEFAULT_255_2_778
10
1.2217177
20
78.5356876
40
0.3711879
50
134.2434843
51
182.32958
0
ARC
8
DEFAULT_255_2_778
10
1.2358313
20
78.5049069
40
0.4032461
50
90.3474402
51
132.6284245
0
ARC
8
DEFAULT_255_2_778
10
1.2620137
20
78.2823281
40
0.6264718
50
89.9796236
51
92.6191379
0
ARC
8
DEFAULT_255_2_778
10
1.2756701
20
78.4630274
40
0.4459747
50
63.234966
51
91.7261185
0
ARC
8
DEFAULT_255_2_778
10
1.3235889
20
78.5768837
40
0.322849
50
47.9714676
51
61.7283547
0
ARC
8
DEFAULT_255_2_778
10
1.3284766
20
78.5847581
40
0.3137318
50
357.6144959
51
47.6717215
0
ARC
8
DEFAULT_255_2_778
10
1.2244677
20
78.5847525
40
0.4176729
50
332.0191182
51
358.209138
0
ARC
8
DEFAULT_255_2_778
10
0.7371462
20
78.8262398
40
0.9614517
50
320.5516656
51
332.9357906
0
ARC
8
DEFAULT_255_2_778
10
0.1920244
20
79.2513513
40
1.6526008
50
317.2280472
51
321.1788768
0
ARC
8
DEFAULT_255_2_778
10
4.3973315
20
78.3187064
40
0.5727067
50
60.8338548
51
91.1400704
0
ARC
8
DEFAULT_255_2_778
10
4.4323435
20
78.3930861
40
0.4907275
50
26.5198371
51
60.1711674
0
ARC
8
DEFAULT_255_2_778
10
4.2710591
20
78.3148939
40
0.6699581
50
359.1110398
51
26.3445297
0
ARC
8
DEFAULT_255_2_778
10
4.2591997
20
78.210047
40
0.6818796
50
335.2664924
51
1.172474
0
ARC
8
DEFAULT_255_2_778
10
4.3747664
20
78.1673313
40
0.5591241
50
332.8394995
51
334.2872304
0
ARC
8
DEFAULT_255_2_778
10
4.4387712
20
78.1291516
40
0.4847718
50
299.276487
51
333.4011972
0
ARC
8
DEFAULT_255_2_778
10
4.3853716
20
78.2423919
40
0.6097251
50
269.4046823
51
298.4496737
0
ARC
8
DEFAULT_255_2_778
10
4.3851985
20
78.1820817
40
0.4139244
50
268.0393018
51
301.7451794
0
ARC
8
DEFAULT_255_2_778
10
4.4165351
20
78.1136227
40
0.3393489
50
303.3275368
51
318.2824034
0
ARC
8
DEFAULT_255_2_778
10
4.3440751
20
78.1643271
40
0.4273031
50
319.6732469
51
353.3073089
0
ARC
8
DEFAULT_255_2_778
10
4.0200673
20
78.2240957
40
0.756377
50
351.6708739
51
0.2578568
0
ARC
8
DEFAULT_255_2_778
10
4.1489958
20
78.313714
40
0.6275696
50
358.8391312
51
18.8954393
0
ARC
8
DEFAULT_255_2_778
10
4.3822461
20
78.388445
40
0.3827182
50
19.6189089
51
39.9507873
0
ARC
8
DEFAULT_255_2_778
10
4.4102667
20
78.4013353
40
0.3530538
50
41.2672454
51
90.5309176
0
ARC
8
DEFAULT_255_2_778
10
4.384454
20
78.191952
40
0.5628734
50
87.7048745
51
89.4520956
0
ARC
8
DEFAULT_255_2_778
10
5.6108963
20
78.0772291
40
0.5087547
50
326.1788675
51
354.8995513
0
ARC
8
DEFAULT_255_2_778
10
5.7099379
20
78.0216543
40
0.3956415
50
311.1410569
51
324.8817074
0
ARC
8
DEFAULT_255_2_778
10
5.6768144
20
78.0736401
40
0.456678
50
272.692273
51
309.9795634
0
ARC
8
DEFAULT_255_2_778
10
5.641337
20
78.3311646
40
0.7159653
50
269.9359384
51
274.5605508
0
ARC
8
DEFAULT_255_2_778
10
5.6243346
20
78.0583568
40
0.4434531
50
219.6989037
51
272.0938152
0
ARC
8
DEFAULT_255_2_778
10
5.733016
20
78.1405184
40
0.5795881
50
186.5184837
51
219.0855476
0
ARC
8
DEFAULT_255_2_778
10
6.068503
20
78.1998003
40
0.9198718
50
179.8069458
51
187.8149588
0
ARC
8
DEFAULT_255_2_778
10
5.8754681
20
78.3373387
40
0.7269576
50
157.5030998
51
181.0671493
0
ARC
8
DEFAULT_255_2_778
10
5.7391552
20
78.38334
40
0.5834963
50
154.7436611
51
156.554777
0
ARC
8
DEFAULT_255_2_778
10
5.6394842
20
78.4400493
40
0.4692388
50
122.272389
51
155.8135671
0
ARC
8
DEFAULT_255_2_778
10
5.6450885
20
78.4144176
40
0.4939843
50
88.8344814
51
121.2345586
0
ARC
8
DEFAULT_255_2_778
10
5.6690252
20
78.4107873
40
0.4977062
50
62.2046283
51
91.5990662
0
ARC
8
DEFAULT_255_2_778
10
5.7111806
20
78.5101847
40
0.3902249
50
47.1557659
51
60.8743861
0
ARC
8
DEFAULT_255_2_778
10
5.6613853
20
78.4683093
40
0.4548604
50
6.8867159
51
46.1436535
0
ARC
8
DEFAULT_255_2_778
10
5.431834
20
78.4168199
40
0.6893334
50
5.8015332
51
8.8481105
0
ARC
8
DEFAULT_255_2_778
10
5.4896065
20
78.4323589
40
0.4641982
50
6.697823
51
27.275998
0
ARC
8
DEFAULT_255_2_778
10
5.6916062
20
78.5310387
40
0.2394858
50
28.4398436
51
46.3417602
0
ARC
8
DEFAULT_255_2_778
10
5.6770097
20
78.4965945
40
0.2748001
50
49.0989054
51
90.8198434
0
ARC
8
DEFAULT_255_2_778
10
5.6552693
20
78.2959473
40
0.4757526
50
87.8547979
51
90.0159942
0
ARC
8
DEFAULT_255_2_778
10
5.6425917
20
78.4745397
40
0.2974246
50
87.5826595
51
142.815164
0
ARC
8
DEFAULT_255_2_778
10
5.7636703
20
78.3946497
40
0.442274
50
144.0499625
51
172.5920863
0
ARC
8
DEFAULT_255_2_778
10
6.1467608
20
78.3246185
40
0.8314383
50
171.2100126
51
180.3320731
0
ARC
8
DEFAULT_255_2_778
10
5.9970055
20
78.1853407
40
0.6817847
50
178.9445118
51
197.5864264
0
ARC
8
DEFAULT_255_2_778
10
5.7432828
20
78.1103811
40
0.4173043
50
198.301037
51
214.8535557
0
ARC
8
DEFAULT_255_2_778
10
5.6295445
20
78.0273018
40
0.2765089
50
214.1952491
51
272.2160554
0
ARC
8
DEFAULT_255_2_778
10
5.6528456
20
78.1259424
40
0.3751546
50
268.073915
51
294.063435
0
ARC
8
DEFAULT_255_2_778
10
5.7082522
20
77.9844773
40
0.2235043
50
295.8814153
51
310.1737742
0
ARC
8
DEFAULT_255_2_778
10
5.6664935
20
78.0139424
40
0.2732617
50
312.8794207
51
345.1312592
0
ARC
8
DEFAULT_255_2_778
10
5.3504564
20
78.1219775
40
0.6068872
50
342.9290162
51
351.4738298
0
LINE
8
DEFAULT_255_2_778
10
6.2731365
20
96.8948997
11
6.2731365
21
95.3827997
0
LINE
8
DEFAULT_255_2_778
10
6.2731365
20
95.3827997
11
6.0808365
21
95.3827997
0
LINE
8
DEFAULT_255_2_778
10
6.0808365
20
95.3827997
11
6.0808365
21
96.6572997
0
LINE
8
DEFAULT_255_2_778
10
6.0808365
20
96.6572997
11
5.6953365
21
96.5157997
0
LINE
8
DEFAULT_255_2_778
10
5.6953365
20
96.5157997
11
5.6953365
21
96.6892997
0
LINE
8
DEFAULT_255_2_778
10
5.6953365
20
96.6892997
11
6.2430365
21
96.8948997
0
LINE
8
DEFAULT_255_2_778
10
6.2430365
20
96.8948997
11
6.2729365
21
96.8948997
0
LINE
8
DEFAULT_255_2_778
10
6.2729365
20
96.8948997
11
6.2731365
21
96.8948997
0
LINE
8
DEFAULT_255_2_778
10
1.5284365
20
76.7666997
11
1.5284365
21
75.9308997
0
LINE
8
DEFAULT_255_2_778
10
1.5284365
20
75.9308997
11
1.7030365
21
75.9308997
0
LINE
8
DEFAULT_255_2_778
10
1.7030365
20
75.9308997
11
1.7030365
21
75.8004997
0
LINE
8
DEFAULT_255_2_778
10
1.7030365
20
75.8004997
11
1.5284365
21
75.8004997
0
LINE
8
DEFAULT_255_2_778
10
1.5284365
20
75.8004997
11
1.5284365
21
75.5083997
0
LINE
8
DEFAULT_255_2_778
10
1.5284365
20
75.5083997
11
1.3675365
21
75.5083997
0
LINE
8
DEFAULT_255_2_778
10
1.3675365
20
75.5083997
11
1.3675365
21
75.8004997
0
LINE
8
DEFAULT_255_2_778
10
1.3675365
20
75.8004997
11
0.7944365
21
75.8004997
0
LINE
8
DEFAULT_255_2_778
10
0.7944365
20
75.8004997
11
0.7944365
21
75.8946997
0
LINE
8
DEFAULT_255_2_778
10
0.7944365
20
75.8946997
11
1.3580365
21
76.7666997
0
LINE
8
DEFAULT_255_2_778
10
1.3580365
20
76.7666997
11
1.5284365
21
76.7666997
0
LINE
8
DEFAULT_255_2_778
10
1.5284365
20
76.7666997
11
1.5284365
21
76.7666997
0
LINE
8
DEFAULT_255_2_778
10
1.3484365
20
76.5134997
11
0.9759365
21
75.9308997
0
LINE
8
DEFAULT_255_2_778
10
0.9759365
20
75.9308997
11
1.3675365
21
75.9308997
0
LINE
8
DEFAULT_255_2_778
10
1.3675365
20
75.9308997
11
1.3675365
21
76.5481997
0
LINE
8
DEFAULT_255_2_778
10
1.3675365
20
76.5481997
11
1.3484365
21
76.5134997
0
LINE
8
DEFAULT_255_2_778
10
1.3484365
20
76.5134997
11
1.3484365
21
76.5134997
0
LINE
8
DEFAULT_255_2_778
10
1.8628365
20
76.4433997
11
2.0141365
21
76.4433997
0
LINE
8
DEFAULT_255_2_778
10
2.0141365
20
76.4433997
11
2.0184365
21
76.3396997
0
LINE
8
DEFAULT_255_2_778
10
3.1743365
20
76.1348997
11
3.1743365
21
75.5080997
0
LINE
8
DEFAULT_255_2_778
10
3.1743365
20
75.5080997
11
3.0145365
21
75.5080997
0
LINE
8
DEFAULT_255_2_778
10
3.0145365
20
75.5080997
11
3.0145365
21
76.1253997
0
LINE
8
DEFAULT_255_2_778
10
2.5986365
20
76.1287997
11
2.5986365
21
75.5080997
0
LINE
8
DEFAULT_255_2_778
10
2.5986365
20
75.5080997
11
2.4377365
21
75.5080997
0
LINE
8
DEFAULT_255_2_778
10
2.4377365
20
75.5080997
11
2.4377365
21
76.1208997
0
LINE
8
DEFAULT_255_2_778
10
2.0229365
20
76.1909997
11
2.0229365
21
75.5080997
0
LINE
8
DEFAULT_255_2_778
10
2.0229365
20
75.5080997
11
1.8628365
21
75.5080997
0
LINE
8
DEFAULT_255_2_778
10
1.8628365
20
75.5080997
11
1.8628365
21
76.4433997
0
LINE
8
DEFAULT_255_2_778
10
1.8628365
20
76.4433997
11
1.8628365
21
76.4433997
0
LINE
8
DEFAULT_255_2_778
10
4.2557365
20
75.5080997
11
4.1356365
21
75.8366997
0
LINE
8
DEFAULT_255_2_778
10
4.1356365
20
75.8366997
11
3.6082365
21
75.8366997
0
LINE
8
DEFAULT_255_2_778
10
3.6082365
20
75.8366997
11
3.4897365
21
75.5080997
0
LINE
8
DEFAULT_255_2_778
10
3.4897365
20
75.5080997
11
3.3185365
21
75.5080997
0
LINE
8
DEFAULT_255_2_778
10
3.3185365
20
75.5080997
11
3.7993365
21
76.7666997
0
LINE
8
DEFAULT_255_2_778
10
3.7993365
20
76.7666997
11
3.9445365
21
76.7666997
0
LINE
8
DEFAULT_255_2_778
10
3.9445365
20
76.7666997
11
4.4261365
21
75.5080997
0
LINE
8
DEFAULT_255_2_778
10
4.4261365
20
75.5080997
11
4.2557365
21
75.5080997
0
LINE
8
DEFAULT_255_2_778
10
4.2557365
20
75.5080997
11
4.2557365
21
75.5080997
0
LINE
8
DEFAULT_255_2_778
10
3.8718365
20
76.5618997
11
3.6582365
21
75.9731997
0
LINE
8
DEFAULT_255_2_778
10
3.6582365
20
75.9731997
11
4.0861365
21
75.9731997
0
LINE
8
DEFAULT_255_2_778
10
4.0861365
20
75.9731997
11
3.8718365
21
76.5618997
0
LINE
8
DEFAULT_255_2_778
10
3.8718365
20
76.5618997
11
3.8718365
21
76.5618997
0
LINE
8
DEFAULT_255_2_778
10
1.6993365
20
77.7630997
11
1.6993365
21
77.6326997
0
LINE
8
DEFAULT_255_2_778
10
1.6993365
20
77.6326997
11
0.8746365
21
77.6326997
0
LINE
8
DEFAULT_255_2_778
10
0.8746365
20
77.6326997
11
0.8746365
21
77.7477997
0
LINE
8
DEFAULT_255_2_778
10
0.8746365
20
77.7477997
11
1.3103365
21
78.2319997
0
LINE
8
DEFAULT_255_2_778
10
1.0106365
20
78.5205997
11
0.8508365
21
78.5205997
0
LINE
8
DEFAULT_255_2_778
10
1.4051365
20
78.1290997
11
1.0680365
21
77.7633997
0
LINE
8
DEFAULT_255_2_778
10
1.0680365
20
77.7633997
11
1.6998365
21
77.7633997
0
LINE
8
DEFAULT_255_2_778
10
1.6998365
20
77.7633997
11
1.6993365
21
77.7630997
0
LINE
8
DEFAULT_255_2_778
10
2.5438365
20
78.8912997
11
2.5438365
21
78.0554997
0
LINE
8
DEFAULT_255_2_778
10
2.5438365
20
78.0554997
11
2.7184365
21
78.0554997
0
LINE
8
DEFAULT_255_2_778
10
2.7184365
20
78.0554997
11
2.7184365
21
77.9250997
0
LINE
8
DEFAULT_255_2_778
10
2.7184365
20
77.9250997
11
2.5438365
21
77.9250997
0
LINE
8
DEFAULT_255_2_778
10
2.5438365
20
77.9250997
11
2.5438365
21
77.6329997
0
LINE
8
DEFAULT_255_2_778
10
2.5438365
20
77.6329997
11
2.3830365
21
77.6329997
0
LINE
8
DEFAULT_255_2_778
10
2.3830365
20
77.6329997
11
2.3830365
21
77.9250997
0
LINE
8
DEFAULT_255_2_778
10
2.3830365
20
77.9250997
11
1.8099365
21
77.9250997
0
LINE
8
DEFAULT_255_2_778
10
1.8099365
20
77.9250997
11
1.8099365
21
78.0192997
0
LINE
8
DEFAULT_255_2_778
10
1.8099365
20
78.0192997
11
2.3734365
21
78.8912997
0
LINE
8
DEFAULT_255_2_778
10
2.3734365
20
78.8912997
11
2.5438365
21
78.8912997
0
LINE
8
DEFAULT_255_2_778
10
2.5438365
20
78.8912997
11
2.5438365
21
78.8912997
0
LINE
8
DEFAULT_255_2_778
10
2.3639365
20
78.6380997
11
1.9914365
21
78.0554997
0
LINE
8
DEFAULT_255_2_778
10
1.9914365
20
78.0554997
11
2.3830365
21
78.0554997
0
LINE
8
DEFAULT_255_2_778
10
2.3830365
20
78.0554997
11
2.3830365
21
78.6727997
0
LINE
8
DEFAULT_255_2_778
10
2.3830365
20
78.6727997
11
2.3639365
21
78.6380997
0
LINE
8
DEFAULT_255_2_778
10
2.3639365
20
78.6380997
11
2.3639365
21
78.6380997
0
LINE
8
DEFAULT_255_2_778
10
2.9632365
20
78.8912997
11
3.3212365
21
77.8530997
0
LINE
8
DEFAULT_255_2_778
10
3.3212365
20
77.8530997
11
3.6807365
21
78.8912997
0
LINE
8
DEFAULT_255_2_778
10
3.6807365
20
78.8912997
11
3.8622365
21
78.8912997
0
LINE
8
DEFAULT_255_2_778
10
3.8622365
20
78.8912997
11
3.3955365
21
77.6326997
0
LINE
8
DEFAULT_255_2_778
10
3.3955365
20
77.6326997
11
3.2487365
21
77.6326997
0
LINE
8
DEFAULT_255_2_778
10
3.2487365
20
77.6326997
11
2.7827365
21
78.8912997
0
LINE
8
DEFAULT_255_2_778
10
2.7827365
20
78.8912997
11
2.9635365
21
78.8912997
0
LINE
8
DEFAULT_255_2_778
10
2.9635365
20
78.8912997
11
2.9632365
21
78.8912997
0
LINE
8
DEFAULT_255_2_778
10
4.3790365
20
77.6326997
11
4.0305365
21
77.6326997
0
LINE
8
DEFAULT_255_2_778
10
4.0305365
20
77.6326997
11
4.0305365
21
78.8912997
0
LINE
8
DEFAULT_255_2_778
10
4.0305365
20
78.8912997
11
4.3859365
21
78.8912997
0
LINE
8
DEFAULT_255_2_778
10
4.9409365
20
78.3044997
11
4.9409365
21
78.2239997
0
LINE
8
DEFAULT_255_2_778
10
4.3790365
20
77.6326997
11
4.3790365
21
77.6326997
0
LINE
8
DEFAULT_255_2_778
10
4.3901365
20
78.7547997
11
4.1964365
21
78.7547997
0
LINE
8
DEFAULT_255_2_778
10
4.1964365
20
78.7547997
11
4.1964365
21
77.7683997
0
LINE
8
DEFAULT_255_2_778
10
4.1964365
20
77.7683997
11
4.3710365
21
77.7683997
0
LINE
8
DEFAULT_255_2_778
10
4.7764365
20
78.2274997
11
4.7764365
21
78.3009997
0
LINE
8
DEFAULT_255_2_778
10
4.3898365
20
78.7547997
11
4.3901365
21
78.7547997
0
LINE
8
DEFAULT_255_2_778
10
5.9506365
20
78.0319997
11
6.1176365
21
78.0319997
0
LINE
8
DEFAULT_255_2_778
10
5.1486365
20
78.2028997
11
5.1486365
21
78.3237997
0
LINE
8
DEFAULT_255_2_778
10
6.1176365
20
78.4864997
11
5.9506365
21
78.4864997
0
LINE
8
DEFAULT_255_2_778
10
5.3153365
20
78.3197997
11
5.3153365
21
78.1978997
0
LINE
8
DEFAULT_255_2_778
10
5.9506365
20
78.0319997
11
5.9506365
21
78.0319997
0
ENDSEC
0
EOF