0
SECTION
2
HEADER
9
$MEASUREMENT
70
1
0
ENDSEC
0
SECTION
2
TABLES
0
TABLE
2
LTYPE
0
LTYPE
72
65
70
64
2
CONTINUOUS
3
______
73
0
40
0
0
ENDTAB
0
TABLE
2
LAYER
0
LAYER
2
DEFAULT_255_2_778
70
0
62
255
6
CONTINUOUS
0
ENDTAB
0
ENDSEC
0
SECTION
2
ENTITIES
0
ARC
8
DEFAULT_255_2_778
10
26.8905018
20
0.4879745
40
0.7001363
50
270.000479
51
314.992454
0
ARC
8
DEFAULT_255_2_778
10
26.8905635
20
0.487906
40
0.7000442
50
314.992845
51
0.0026357
0
ARC
8
DEFAULT_255_2_778
10
26.8909697
20
97.0876389
40
0.699638
50
359.9917559
51
45.0209264
0
ARC
8
DEFAULT_255_2_778
10
26.890536
20
97.0878262
40
0.6998121
50
44.9849645
51
90.0023171
0
ARC
8
DEFAULT_255_2_778
10
0.8906073
20
97.0880001
40
0.6996382
50
89.9917841
51
135.0209339
0
ARC
8
DEFAULT_255_2_778
10
0.8902452
20
97.0876387
40
0.6996377
50
134.9790363
51
180.0082264
0
ARC
8
DEFAULT_255_2_778
10
0.8904187
20
0.4876093
40
0.699811
50
179.9976337
51
225.0150586
0
ARC
8
DEFAULT_255_2_778
10
0.8906074
20
0.4871768
40
0.6996386
50
224.979086
51
270.0082089
0
LINE
8
DEFAULT_255_2_778
10
27.5906077
20
0.4879382
11
27.5906077
21
97.0875382
0
LINE
8
DEFAULT_255_2_778
10
26.8905077
20
97.7876382
11
0.8907077
21
97.7876382
0
LINE
8
DEFAULT_255_2_778
10
0.1906077
20
97.0875382
11
0.1906077
21
0.4876382
0
LINE
8
DEFAULT_255_2_778
10
0.8907077
20
-0.2124618
11
26.8908077
21
-0.2124618
0
LINE
8
DEFAULT_255_2_778
10
0.1906077
20
82.7876312
11
27.5906077
21
82.7876312
0
LINE
8
DEFAULT_255_2_778
10
0.1906077
20
82.2875312
11
27.5906077
21
82.2875312
0
ARC
8
DEFAULT_255_2_778
10
13.0963559
20
78.589294
40
0.5443415
50
61.8892119
51
91.1598299
0
ARC
8
DEFAULT_255_2_778
10
13.14199
20
78.6825075
40
0.4406371
50
27.6691384
51
61.4121212
0
ARC
8
DEFAULT_255_2_778
10
13.0230452
20
78.623803
40
0.5732493
50
359.1924738
51
27.3450406
0
ARC
8
DEFAULT_255_2_778
10
13.0220889
20
78.5318209
40
0.574296
50
332.8350529
51
1.2973864
0
ARC
8
DEFAULT_255_2_778
10
13.1490805
20
78.4711869
40
0.4336481
50
297.9508746
51
332.3022262
0
ARC
8
DEFAULT_255_2_778
10
13.0855708
20
78.6045034
40
0.5812161
50
269.3559439
51
297.3213261
0
ARC
8
DEFAULT_255_2_778
10
13.0857728
20
78.5337488
40
0.3908733
50
267.9568833
51
301.2995824
0
ARC
8
DEFAULT_255_2_778
10
13.121268
20
78.4579236
40
0.307777
50
302.9869797
51
317.1026847
0
ARC
8
DEFAULT_255_2_778
10
13.0627922
20
78.4991433
40
0.3787944
50
318.5559899
51
355.164904
0
ARC
8
DEFAULT_255_2_778
10
12.7829359
20
78.5459758
40
0.6620045
50
353.1671889
51
0.1686073
0
ARC
8
DEFAULT_255_2_778
10
12.9283123
20
78.6257633
40
0.5167873
50
358.5652717
51
21.8852885
0
ARC
8
DEFAULT_255_2_778
10
13.1046642
20
78.6894386
40
0.3294769
50
23.0415767
51
41.2606643
0
ARC
8
DEFAULT_255_2_778
10
13.110742
20
78.6837718
40
0.3287493
50
42.7018202
51
90.0711719
0
ARC
8
DEFAULT_255_2_778
10
13.0844527
20
78.4773794
40
0.5357669
50
87.2311717
51
89.4775981
0
ARC
8
DEFAULT_255_2_778
10
14.5903427
20
78.3159641
40
0.1878228
50
359.0115249
51
20.2666282
0
ARC
8
DEFAULT_255_2_778
10
14.6429218
20
78.3300387
40
0.1337175
50
22.4136764
51
51.7324702
0
ARC
8
DEFAULT_255_2_778
10
14.5193199
20
78.1688768
40
0.3368124
50
52.2036563
51
67.9365841
0
ARC
8
DEFAULT_255_2_778
10
14.2212516
20
77.4596929
40
1.1060698
50
67.4264507
51
74.478405
0
ARC
8
DEFAULT_255_2_778
10
14.8323331
20
79.611123
40
1.1304989
50
245.8678843
51
253.8160249
0
ARC
8
DEFAULT_255_2_778
10
14.5761078
20
79.0450225
40
0.5091226
50
231.2934931
51
246.1364869
0
ARC
8
DEFAULT_255_2_778
10
14.4252623
20
78.8568783
40
0.2679741
50
206.7834514
51
231.3065962
0
ARC
8
DEFAULT_255_2_778
10
14.4122529
20
78.8452535
40
0.2511626
50
178.8888698
51
205.7533291
0
ARC
8
DEFAULT_255_2_778
10
14.4284774
20
78.8525522
40
0.2673509
50
154.2684474
51
180.5203979
0
ARC
8
DEFAULT_255_2_778
10
14.4394004
20
78.8451652
40
0.2804043
50
128.9208146
51
153.8777197
0
ARC
8
DEFAULT_255_2_778
10
14.4901855
20
78.780082
40
0.3629481
50
107.4515555
51
128.7034901
0
ARC
8
DEFAULT_255_2_778
10
14.5280841
20
78.6599258
40
0.4889395
50
89.2554516
51
107.4655465
0
ARC
8
DEFAULT_255_2_778
10
14.5477796
20
78.71619
40
0.4328397
50
62.9624171
51
91.7663821
0
ARC
8
DEFAULT_255_2_778
10
14.5893142
20
78.8032803
40
0.3363969
50
31.4354402
51
62.5206237
0
ARC
8
DEFAULT_255_2_778
10
14.6098023
20
78.8170516
40
0.3117355
50
359.9397747
51
31.2397425
0
ARC
8
DEFAULT_255_2_778
10
14.5536372
20
78.821049
40
0.2232423
50
358.8899016
51
28.2237854
0
ARC
8
DEFAULT_255_2_778
10
14.5889216
20
78.8356086
40
0.1853076
50
29.4167192
51
63.902777
0
ARC
8
DEFAULT_255_2_778
10
14.5455618
20
78.7343778
40
0.2953445
50
64.9876388
51
92.1003371
0
ARC
8
DEFAULT_255_2_778
10
14.5241921
20
78.7227038
40
0.3070013
50
88.0315103
51
112.5546025
0
ARC
8
DEFAULT_255_2_778
10
14.4719666
20
78.8523432
40
0.1672523
50
113.0663862
51
147.2901049
0
ARC
8
DEFAULT_255_2_778
10
14.477334
20
78.8543954
40
0.1707223
50
148.8432247
51
180.9972948
0
ARC
8
DEFAULT_255_2_778
10
14.4397533
20
78.8496449
40
0.1331276
50
179.2343045
51
207.3784963
0
ARC
8
DEFAULT_255_2_778
10
14.4629456
20
78.8664187
40
0.1614912
50
208.8792822
51
233.7866301
0
ARC
8
DEFAULT_255_2_778
10
14.5790518
20
79.0219184
40
0.3555513
50
233.4951535
51
248.2739396
0
ARC
8
DEFAULT_255_2_778
10
14.8187494
20
79.6037241
40
0.9847838
50
247.8489847
51
255.0162005
0
ARC
8
DEFAULT_255_2_778
10
14.2959704
20
77.6638376
40
1.0243127
50
65.2051063
51
74.8229801
0
ARC
8
DEFAULT_255_2_778
10
14.5368023
20
78.1812211
40
0.4536294
50
48.4913325
51
65.4141515
0
ARC
8
DEFAULT_255_2_778
10
14.6644332
20
78.3272892
40
0.2596631
50
23.2342247
51
48.2205718
0
ARC
8
DEFAULT_255_2_778
10
14.6304686
20
78.3195071
40
0.2940095
50
359.048344
51
22.0165961
0
ARC
8
DEFAULT_255_2_778
10
14.6569892
20
78.3107025
40
0.2674771
50
333.9226697
51
0.8400262
0
ARC
8
DEFAULT_255_2_778
10
14.6589178
20
78.3139099
40
0.2671808
50
306.9265617
51
333.1230537
0
ARC
8
DEFAULT_255_2_778
10
14.5977849
20
78.3998405
40
0.3726125
50
285.6398754
51
306.5027206
0
ARC
8
DEFAULT_255_2_778
10
14.547454
20
78.5814985
40
0.5611136
50
269.3243764
51
285.5882349
0
ARC
8
DEFAULT_255_2_778
10
14.5406497
20
78.5613947
40
0.5409708
50
253.9448596
51
270.0198978
0
ARC
8
DEFAULT_255_2_778
10
14.5121928
20
78.4687199
40
0.4440438
50
234.9902142
51
254.1663599
0
ARC
8
DEFAULT_255_2_778
10
14.4444465
20
78.3726259
40
0.3264707
50
209.9729622
51
235.0528974
0
ARC
8
DEFAULT_255_2_778
10
14.4110278
20
78.347798
40
0.2851581
50
178.7489419
51
209.0061177
0
ARC
8
DEFAULT_255_2_778
10
14.4703362
20
78.3483037
40
0.1996806
50
178.3584384
51
207.1375032
0
ARC
8
DEFAULT_255_2_778
10
14.4597408
20
78.3473656
40
0.1898657
50
208.3440811
51
235.6967518
0
ARC
8
DEFAULT_255_2_778
10
14.5027613
20
78.4089901
40
0.265018
50
235.5220771
51
256.1982113
0
ARC
8
DEFAULT_255_2_778
10
14.5393944
20
78.5474123
40
0.4081909
50
255.8398681
51
270.2025661
0
ARC
8
DEFAULT_255_2_778
10
14.5500562
20
78.4883179
40
0.3492156
50
268.4873209
51
290.0772909
0
ARC
8
DEFAULT_255_2_778
10
14.6100815
20
78.323882
40
0.1741666
50
290.1007119
51
323.6390834
0
ARC
8
DEFAULT_255_2_778
10
14.620769
20
78.3096678
40
0.1572159
50
325.5018371
51
1.4054626
0
ARC
8
DEFAULT_255_2_778
10
15.5198694
20
79.09171
40
0.507509
50
269.4545013
51
269.996189
0
ARC
8
DEFAULT_255_2_778
10
15.5306643
20
78.8804238
40
0.2964206
50
267.9064392
51
294.46806
0
ARC
8
DEFAULT_255_2_778
10
15.576028
20
78.767103
40
0.1745793
50
296.3214254
51
332.3269675
0
ARC
8
DEFAULT_255_2_778
10
15.517542
20
78.7928054
40
0.2383527
50
333.3846987
51
1.2545343
0
ARC
8
DEFAULT_255_2_778
10
15.5232619
20
78.7988271
40
0.2325771
50
359.802136
51
26.9195788
0
ARC
8
DEFAULT_255_2_778
10
15.5570165
20
78.8118961
40
0.1965967
50
27.9773284
51
60.6297526
0
ARC
8
DEFAULT_255_2_778
10
15.5255941
20
78.7362954
40
0.2780605
50
62.6278214
51
92.3407137
0
ARC
8
DEFAULT_255_2_778
10
15.5178108
20
78.4468557
40
0.6866738
50
90.0002149
51
90.2313944
0
ARC
8
DEFAULT_255_2_778
10
15.5306462
20
78.68081
40
0.4529015
50
66.092424
51
91.6243311
0
ARC
8
DEFAULT_255_2_778
10
15.5767567
20
78.8069527
40
0.319021
50
62.3433172
51
64.481819
0
ARC
8
DEFAULT_255_2_778
10
15.5974189
20
78.8155163
40
0.3021849
50
31.1485183
51
65.0606892
0
ARC
8
DEFAULT_255_2_778
10
15.5651299
20
78.8047426
40
0.335475
50
358.8524441
51
29.8706841
0
ARC
8
DEFAULT_255_2_778
10
15.5533684
20
78.7886353
40
0.3472961
50
330.6336301
51
1.5490976
0
ARC
8
DEFAULT_255_2_778
10
15.6168644
20
78.7610853
40
0.2785401
50
292.8076993
51
329.1672128
0
ARC
8
DEFAULT_255_2_778
10
15.5359928
20
78.9499236
40
0.4839643
50
270.2500295
51
292.967187
0
ARC
8
DEFAULT_255_2_778
10
15.515216
20
79.2357344
40
0.7701106
50
269.9867276
51
271.7031638
0
LINE
8
DEFAULT_255_2_778
10
13.0790376
20
78.0235239
11
12.7583376
21
78.0235239
0
LINE
8
DEFAULT_255_2_778
10
12.7583376
20
78.0235239
11
12.7583376
21
79.1335239
0
LINE
8
DEFAULT_255_2_778
10
12.7583376
20
79.1335239
11
13.0853376
21
79.1335239
0
LINE
8
DEFAULT_255_2_778
10
13.5962376
20
78.6157239
11
13.5962376
21
78.5448239
0
LINE
8
DEFAULT_255_2_778
10
13.0790376
20
78.0233239
11
13.0790376
21
78.0235239
0
LINE
8
DEFAULT_255_2_778
10
13.0893376
20
79.0131239
11
12.9110376
21
79.0131239
0
LINE
8
DEFAULT_255_2_778
10
12.9110376
20
79.0131239
11
12.9110376
21
78.1431239
0
LINE
8
DEFAULT_255_2_778
10
12.9110376
20
78.1431239
11
13.0718376
21
78.1431239
0
LINE
8
DEFAULT_255_2_778
10
13.4449376
20
78.5479239
11
13.4449376
21
78.6128239
0
LINE
8
DEFAULT_255_2_778
10
13.0893376
20
79.0131239
11
13.0893376
21
79.0131239
0
LINE
8
DEFAULT_255_2_778
10
13.7828376
20
79.1335239
11
13.9283376
21
79.1335239
0
LINE
8
DEFAULT_255_2_778
10
13.9283376
20
79.1335239
11
13.9283376
21
78.0349239
0
LINE
8
DEFAULT_255_2_778
10
13.9283376
20
78.0349239
11
13.7828376
21
78.0349239
0
LINE
8
DEFAULT_255_2_778
10
13.7828376
20
78.0349239
11
13.7828376
21
79.1335239
0
LINE
8
DEFAULT_255_2_778
10
13.7828376
20
79.1335239
11
13.7828376
21
79.1335239
0
LINE
8
DEFAULT_255_2_778
10
14.9215376
20
78.8167239
11
14.7768376
21
78.8167239
0
LINE
8
DEFAULT_255_2_778
10
14.1259376
20
78.3540239
11
14.2707376
21
78.3540239
0
LINE
8
DEFAULT_255_2_778
10
14.7779376
20
78.3135239
11
14.7781376
21
78.3127239
0
LINE
8
DEFAULT_255_2_778
10
15.2554376
20
78.5842239
11
15.5150376
21
78.5842239
0
LINE
8
DEFAULT_255_2_778
10
15.5142376
20
79.0141239
11
15.2554376
21
79.0141239
0
LINE
8
DEFAULT_255_2_778
10
15.2554376
20
79.0141239
11
15.2554376
21
78.5842239
0
LINE
8
DEFAULT_255_2_778
10
15.2554376
20
78.4656239
11
15.2554376
21
78.0349239
0
LINE
8
DEFAULT_255_2_778
10
15.2554376
20
78.0349239
11
15.1099376
21
78.0349239
0
LINE
8
DEFAULT_255_2_778
10
15.1099376
20
78.0349239
11
15.1099376
21
79.1335239
0
LINE
8
DEFAULT_255_2_778
10
15.1099376
20
79.1335239
11
15.5150376
21
79.1335239
0
LINE
8
DEFAULT_255_2_778
10
15.5150376
20
78.4656239
11
15.2554376
21
78.4656239
0
LINE
8
DEFAULT_255_2_778
10
17.4801376
20
78.4416239
11
17.2935376
21
78.9541239
0
LINE
8
DEFAULT_255_2_778
10
17.2935376
20
78.9541239
11
17.1073376
21
78.4416239
0
LINE
8
DEFAULT_255_2_778
10
17.1073376
20
78.4416239
11
17.4801376
21
78.4416239
0
LINE
8
DEFAULT_255_2_778
10
17.0641376
20
78.3225239
11
16.9596376
21
78.0349239
0
LINE
8
DEFAULT_255_2_778
10
16.9596376
20
78.0349239
11
16.8109376
21
78.0349239
0
LINE
8
DEFAULT_255_2_778
10
16.8109376
20
78.0349239
11
17.2298376
21
79.1335239
0
LINE
8
DEFAULT_255_2_778
10
17.2298376
20
79.1335239
11
17.2615376
21
79.1335239
0
LINE
8
DEFAULT_255_2_778
10
17.2615376
20
79.1335239
11
17.3255376
21
79.1335239
0
LINE
8
DEFAULT_255_2_778
10
17.3255376
20
79.1335239
11
17.3573376
21
79.1335239
0
LINE
8
DEFAULT_255_2_778
10
17.3573376
20
79.1335239
11
17.7774376
21
78.0349239
0
LINE
8
DEFAULT_255_2_778
10
17.7774376
20
78.0349239
11
17.6280376
21
78.0349239
0
LINE
8
DEFAULT_255_2_778
10
17.6280376
20
78.0349239
11
17.5234376
21
78.3225239
0
LINE
8
DEFAULT_255_2_778
10
17.5234376
20
78.3225239
11
17.0641376
21
78.3225239
0
LINE
8
DEFAULT_255_2_778
10
17.8084376
20
79.1335239
11
17.9751376
21
79.1335239
0
LINE
8
DEFAULT_255_2_778
10
17.9751376
20
79.1335239
11
18.2603376
21
78.5821239
0
LINE
8
DEFAULT_255_2_778
10
18.2603376
20
78.5821239
11
18.5463376
21
79.1335239
0
LINE
8
DEFAULT_255_2_778
10
18.5463376
20
79.1335239
11
18.7114376
21
79.1335239
0
LINE
8
DEFAULT_255_2_778
10
18.7114376
20
79.1335239
11
18.3328376
21
78.4455239
0
LINE
8
DEFAULT_255_2_778
10
18.3328376
20
78.4455239
11
18.3328376
21
78.0352239
0
LINE
8
DEFAULT_255_2_778
10
18.3328376
20
78.0352239
11
18.1873376
21
78.0352239
0
LINE
8
DEFAULT_255_2_778
10
18.1873376
20
78.0352239
11
18.1873376
21
78.4455239
0
LINE
8
DEFAULT_255_2_778
10
18.1873376
20
78.4455239
11
17.8087376
21
79.1335239
0
LINE
8
DEFAULT_255_2_778
10
17.8087376
20
79.1335239
11
17.8084376
21
79.1335239
0
LINE
8
DEFAULT_255_2_778
10
16.2016376
20
78.0349239
11
16.0846376
21
78.0349239
0
LINE
8
DEFAULT_255_2_778
10
16.0846376
20
78.0349239
11
16.0846376
21
79.1335239
0
LINE
8
DEFAULT_255_2_778
10
16.0846376
20
79.1335239
11
16.2302376
21
79.1335239
0
LINE
8
DEFAULT_255_2_778
10
16.2302376
20
79.1335239
11
16.2302376
21
78.1534239
0
LINE
8
DEFAULT_255_2_778
10
16.2302376
20
78.1534239
11
16.7506376
21
78.1534239
0
LINE
8
DEFAULT_255_2_778
10
16.7506376
20
78.1534239
11
16.7506376
21
78.0349239
0
LINE
8
DEFAULT_255_2_778
10
16.7506376
20
78.0349239
11
16.2302376
21
78.0349239
0
LINE
8
DEFAULT_255_2_778
10
16.2302376
20
78.0349239
11
16.2016376
21
78.0349239
0
ARC
8
DEFAULT_255_2_778
10
14.968443
20
82.2765014
40
1.8365306
50
317.7599647
51
322.3637539
0
ARC
8
DEFAULT_255_2_778
10
15.7043234
20
81.7006908
40
0.9021921
50
322.7844151
51
324.4867677
0
ARC
8
DEFAULT_255_2_778
10
16.0867633
20
81.4365085
40
0.4374899
50
323.5547298
51
338.4926345
0
ARC
8
DEFAULT_255_2_778
10
16.2434749
20
81.3664464
40
0.2661161
50
340.1571728
51
359.9718467
0
ARC
8
DEFAULT_255_2_778
10
16.2776142
20
81.369515
40
0.2319989
50
359.2098436
51
26.1922344
0
ARC
8
DEFAULT_255_2_778
10
16.320966
20
81.3893819
40
0.1843342
50
26.5987483
51
59.0776109
0
ARC
8
DEFAULT_255_2_778
10
16.3104478
20
81.3667108
40
0.2092045
50
59.7970905
51
91.7686318
0
ARC
8
DEFAULT_255_2_778
10
16.2947005
20
81.3195966
40
0.2563874
50
87.9233685
51
118.2642863
0
ARC
8
DEFAULT_255_2_778
10
16.2685563
20
81.3793249
40
0.1914722
50
119.8374604
51
154.8113056
0
ARC
8
DEFAULT_255_2_778
10
16.3557035
20
81.3416886
40
0.2863667
50
155.4180412
51
181.1151129
0
ARC
8
DEFAULT_255_2_778
10
16.3028777
20
81.3404287
40
0.383311
50
152.3661909
51
180.6447226
0
ARC
8
DEFAULT_255_2_778
10
16.2497379
20
81.3658794
40
0.3244351
50
118.9712559
51
151.9953678
0
ARC
8
DEFAULT_255_2_778
10
16.2890754
20
81.2805114
40
0.4182319
50
88.5193957
51
118.0211737
0
ARC
8
DEFAULT_255_2_778
10
16.3037862
20
81.0634416
40
0.635174
50
89.9995683
51
90.3521887
0
ARC
8
DEFAULT_255_2_778
10
16.3155804
20
81.270147
40
0.4286308
50
65.2853047
51
91.5761114
0
ARC
8
DEFAULT_255_2_778
10
16.3730958
20
81.4026877
40
0.2842012
50
31.0831802
51
64.6465615
0
ARC
8
DEFAULT_255_2_778
10
16.3442418
20
81.3911098
40
0.3149292
50
358.7092257
51
30.1768769
0
ARC
8
DEFAULT_255_2_778
10
16.3245406
20
81.3857167
40
0.3345547
50
341.4376212
51
359.7086669
0
ARC
8
DEFAULT_255_2_778
10
16.0972127
20
81.4618587
40
0.5742953
50
329.8852602
51
341.4561768
0
ARC
8
DEFAULT_255_2_778
10
15.823213
20
81.6205604
40
0.8909372
50
321.8342172
51
329.8977521
0
ARC
8
DEFAULT_255_2_778
10
15.2616467
20
82.0592441
40
1.6035363
50
317.1990424
51
321.9095783
0
ARC
8
DEFAULT_255_2_778
10
17.3500451
20
81.6543142
40
0.55052
50
269.4947962
51
269.9963938
0
ARC
8
DEFAULT_255_2_778
10
17.3616759
20
81.4227692
40
0.3191882
50
267.9055428
51
294.4112528
0
ARC
8
DEFAULT_255_2_778
10
17.409597
20
81.3013294
40
0.1889135
50
296.398792
51
332.0603386
0
ARC
8
DEFAULT_255_2_778
10
17.3458553
20
81.3275405
40
0.2575939
50
333.5529277
51
1.2179127
0
ARC
8
DEFAULT_255_2_778
10
17.3510335
20
81.3336418
40
0.2523583
50
359.8578223
51
26.6960417
0
ARC
8
DEFAULT_255_2_778
10
17.3895191
20
81.3473718
40
0.2118665
50
28.0547071
51
60.5795464
0
ARC
8
DEFAULT_255_2_778
10
17.35655
20
81.2670094
40
0.2982541
50
62.6466121
51
92.3364366
0
ARC
8
DEFAULT_255_2_778
10
17.3481189
20
80.9491997
40
0.7439209
50
89.9960531
51
90.2101021
0
ARC
8
DEFAULT_255_2_778
10
17.3610241
20
81.1979127
40
0.4953749
50
67.2555896
51
91.4868713
0
ARC
8
DEFAULT_255_2_778
10
17.4097486
20
81.3373374
40
0.3480698
50
62.477415
51
65.7790529
0
ARC
8
DEFAULT_255_2_778
10
17.4349182
20
81.3533976
40
0.3225405
50
30.9994471
51
65.125127
0
ARC
8
DEFAULT_255_2_778
10
17.3988958
20
81.3404337
40
0.3601716
50
358.8198546
51
29.8157667
0
ARC
8
DEFAULT_255_2_778
10
17.3864962
20
81.3227988
40
0.3726349
50
330.6784441
51
1.5711118
0
ARC
8
DEFAULT_255_2_778
10
17.4540677
20
81.2945905
40
0.3000267
50
292.8535225
51
329.0557546
0
ARC
8
DEFAULT_255_2_778
10
17.3697502
20
81.4915795
40
0.5143006
50
270.6155391
51
292.9863877
0
ARC
8
DEFAULT_255_2_778
10
17.3469148
20
81.7907596
40
0.8139451
50
269.9830796
51
271.9967791
0
ARC
8
DEFAULT_255_2_778
10
17.3463538
20
81.4918768
40
0.5150622
50
269.8928971
51
270.0356679
0
ARC
8
DEFAULT_255_2_778
10
13.0548795
20
81.1151105
40
0.6793322
50
341.016504
51
1.0800673
0
ARC
8
DEFAULT_255_2_778
10
13.240654
20
81.0609258
40
0.4861225
50
336.362493
51
339.9328075
0
ARC
8
DEFAULT_255_2_778
10
13.3098151
20
81.0229907
40
0.4076144
50
306.1889464
51
337.3496318
0
ARC
8
DEFAULT_255_2_778
10
13.3148935
20
81.075108
40
0.4524978
50
269.7211109
51
283.7167779
0
ARC
8
DEFAULT_255_2_778
10
13.3055132
20
81.0247196
40
0.402168
50
238.0662341
51
271.0226601
0
ARC
8
DEFAULT_255_2_778
10
13.3113117
20
81.0210789
40
0.4022036
50
204.0736734
51
237.0908529
0
ARC
8
DEFAULT_255_2_778
10
13.5139885
20
81.1122096
40
0.6244255
50
179.4580686
51
204.1223208
0
ARC
8
DEFAULT_255_2_778
10
13.5289027
20
81.2065208
40
0.639438
50
156.5469422
51
181.1385056
0
ARC
8
DEFAULT_255_2_778
10
13.3119068
20
81.3027214
40
0.4020857
50
123.3446093
51
156.8161555
0
ARC
8
DEFAULT_255_2_778
10
13.3042751
20
81.3002086
40
0.4000651
50
89.0238011
51
122.2336664
0
ARC
8
DEFAULT_255_2_778
10
13.3193443
20
81.2945316
40
0.4057679
50
58.0461973
51
91.1654731
0
ARC
8
DEFAULT_255_2_778
10
13.3199005
20
81.3082374
40
0.3939029
50
23.0739796
51
57.0597097
0
ARC
8
DEFAULT_255_2_778
10
13.092887
20
81.2101818
40
0.6411863
50
359.4193401
51
23.1847977
0
ARC
8
DEFAULT_255_2_778
10
12.8365081
20
81.1941531
40
0.8975829
50
359.9976044
51
0.6083906
0
ARC
8
DEFAULT_255_2_778
10
12.9809829
20
81.2081458
40
0.6149358
50
358.8324373
51
16.9886875
0
ARC
8
DEFAULT_255_2_778
10
13.2505601
20
81.2861971
40
0.3343425
50
17.6948249
51
35.724432
0
ARC
8
DEFAULT_255_2_778
10
13.3233684
20
81.3361422
40
0.2460799
50
36.1818978
51
92.8597797
0
ARC
8
DEFAULT_255_2_778
10
13.3021848
20
81.3378467
40
0.2442313
50
87.9101797
51
143.7638033
0
ARC
8
DEFAULT_255_2_778
10
13.4315374
20
81.2508576
40
0.4000356
50
144.665884
51
174.5318308
0
ARC
8
DEFAULT_255_2_778
10
13.7476019
20
81.1988861
40
0.7199388
50
172.8112483
51
179.4962619
0
ARC
8
DEFAULT_255_2_778
10
13.605314
20
81.1156735
40
0.5777591
50
178.7561173
51
198.8787541
0
ARC
8
DEFAULT_255_2_778
10
13.3838511
20
81.0460877
40
0.345743
50
199.8425295
51
215.7034275
0
ARC
8
DEFAULT_255_2_778
10
13.3029916
20
80.9847119
40
0.2442772
50
215.0815451
51
272.2052069
0
ARC
8
DEFAULT_255_2_778
10
13.3243033
20
80.9844645
40
0.2441396
50
267.2032569
51
323.1989904
0
ARC
8
DEFAULT_255_2_778
10
13.2030557
20
81.0612508
40
0.3873835
50
324.8479851
51
353.4914074
0
ARC
8
DEFAULT_255_2_778
10
12.8491694
20
81.1233468
40
0.7463398
50
351.8343441
51
359.5984002
0
LINE
8
DEFAULT_255_2_778
10
13.857391
20
81.6925156
11
14.036291
21
81.6925156
0
LINE
8
DEFAULT_255_2_778
10
14.036291
20
81.6925156
11
14.342191
21
81.1009156
0
LINE
8
DEFAULT_255_2_778
10
14.342191
20
81.1009156
11
14.648791
21
81.6925156
0
LINE
8
DEFAULT_255_2_778
10
14.648791
20
81.6925156
11
14.826091
21
81.6925156
0
LINE
8
DEFAULT_255_2_778
10
14.826091
20
81.6925156
11
14.419991
21
80.9546156
0
LINE
8
DEFAULT_255_2_778
10
14.419991
20
80.9546156
11
14.419991
21
80.5143156
0
LINE
8
DEFAULT_255_2_778
10
14.419991
20
80.5143156
11
14.263791
21
80.5143156
0
LINE
8
DEFAULT_255_2_778
10
14.263791
20
80.5143156
11
14.263791
21
80.9546156
0
LINE
8
DEFAULT_255_2_778
10
14.263791
20
80.9546156
11
13.857691
21
81.6925156
0
LINE
8
DEFAULT_255_2_778
10
13.857691
20
81.6925156
11
13.857391
21
81.6925156
0
LINE
8
DEFAULT_255_2_778
10
16.122591
20
80.6276156
11
16.713391
21
80.6276156
0
LINE
8
DEFAULT_255_2_778
10
16.713391
20
80.6276156
11
16.713391
21
80.5045156
0
LINE
8
DEFAULT_255_2_778
10
16.713391
20
80.5045156
11
15.942091
21
80.5045156
0
LINE
8
DEFAULT_255_2_778
10
15.942091
20
80.5045156
11
15.942091
21
80.6122156
0
LINE
8
DEFAULT_255_2_778
10
15.942091
20
80.6122156
11
16.328091
21
81.0419156
0
LINE
8
DEFAULT_255_2_778
10
16.069391
20
81.3361156
11
15.919591
21
81.3361156
0
LINE
8
DEFAULT_255_2_778
10
16.438191
20
80.9697156
11
16.122591
21
80.6273156
0
LINE
8
DEFAULT_255_2_778
10
16.122591
20
80.6273156
11
16.122591
21
80.6276156
0
LINE
8
DEFAULT_255_2_778
10
15.438391
20
80.8985156
11
15.438391
21
81.4867156
0
LINE
8
DEFAULT_255_2_778
10
15.438391
20
81.4867156
11
15.419491
21
81.4526156
0
LINE
8
DEFAULT_255_2_778
10
15.419491
20
81.4526156
11
15.065291
21
80.8985156
0
LINE
8
DEFAULT_255_2_778
10
15.065291
20
80.8985156
11
15.438391
21
80.8985156
0
LINE
8
DEFAULT_255_2_778
10
15.438391
20
80.7736156
11
15.438391
21
80.4958156
0
LINE
8
DEFAULT_255_2_778
10
15.438391
20
80.4958156
11
15.590491
21
80.4958156
0
LINE
8
DEFAULT_255_2_778
10
15.590491
20
80.4958156
11
15.590491
21
80.7736156
0
LINE
8
DEFAULT_255_2_778
10
15.590491
20
80.7736156
11
15.757391
21
80.7736156
0
LINE
8
DEFAULT_255_2_778
10
15.757391
20
80.7736156
11
15.757391
21
80.8985156
0
LINE
8
DEFAULT_255_2_778
10
15.757391
20
80.8985156
11
15.590491
21
80.8985156
0
LINE
8
DEFAULT_255_2_778
10
15.590491
20
80.8985156
11
15.590491
21
81.6925156
0
LINE
8
DEFAULT_255_2_778
10
15.590491
20
81.6925156
11
15.552591
21
81.6925156
0
LINE
8
DEFAULT_255_2_778
10
15.552591
20
81.6925156
11
15.428491
21
81.6925156
0
LINE
8
DEFAULT_255_2_778
10
15.428491
20
81.6925156
11
14.892791
21
80.8633156
0
LINE
8
DEFAULT_255_2_778
10
14.892791
20
80.8633156
11
14.892791
21
80.7736156
0
LINE
8
DEFAULT_255_2_778
10
14.892791
20
80.7736156
11
15.438391
21
80.7736156
0
LINE
8
DEFAULT_255_2_778
10
17.066791
20
81.1038156
11
17.345191
21
81.1038156
0
LINE
8
DEFAULT_255_2_778
10
17.344391
20
81.5650156
11
17.066591
21
81.5650156
0
LINE
8
DEFAULT_255_2_778
10
17.066591
20
81.5650156
11
17.066791
21
81.1038156
0
LINE
8
DEFAULT_255_2_778
10
17.066791
20
80.9768156
11
17.066791
21
80.5146156
0
LINE
8
DEFAULT_255_2_778
10
17.066791
20
80.5146156
11
16.910691
21
80.5146156
0
LINE
8
DEFAULT_255_2_778
10
16.910691
20
80.5146156
11
16.910691
21
81.6931156
0
LINE
8
DEFAULT_255_2_778
10
16.910691
20
81.6931156
11
17.345391
21
81.6931156
0
LINE
8
DEFAULT_255_2_778
10
17.345391
20
80.9768156
11
17.066791
21
80.9768156
0
LINE
8
DEFAULT_255_2_778
10
13.734091
20
81.1948156
11
13.734091
21
81.1279156
0
LINE
8
DEFAULT_255_2_778
10
13.550491
20
80.6940156
11
13.737891
21
80.5469156
0
LINE
8
DEFAULT_255_2_778
10
13.737891
20
80.5469156
11
13.643391
21
80.4596156
0
LINE
8
DEFAULT_255_2_778
10
13.643391
20
80.4596156
11
13.422191
21
80.6355156
0
LINE
8
DEFAULT_255_2_778
10
12.889591
20
81.1181156
11
12.889591
21
81.1938156
0
LINE
8
DEFAULT_255_2_778
10
13.734091
20
81.1941156
11
13.734091
21
81.1948156
0
LINE
8
DEFAULT_255_2_778
10
13.595791
20
81.1179156
11
13.595791
21
81.1956156
0
LINE
8
DEFAULT_255_2_778
10
13.027691
20
81.2052156
11
13.027691
21
81.1282156
0
LINE
8
DEFAULT_255_2_778
10
13.595491
20
81.1181156
11
13.595791
21
81.1179156
0
ARC
8
DEFAULT_255_2_778
10
17.137907
20
75.8246067
40
0.8474358
50
133.5985901
51
180.1489161
0
ARC
8
DEFAULT_255_2_778
10
17.1383828
20
75.8250998
40
0.8474071
50
89.8518397
51
133.6448797
0
ARC
8
DEFAULT_255_2_778
10
17.1428079
20
75.8250594
40
0.8474477
50
43.6455615
51
90.1510286
0
ARC
8
DEFAULT_255_2_778
10
17.1432837
20
75.8246398
40
0.8473932
50
359.848835
51
43.6882919
0
ARC
8
DEFAULT_255_2_778
10
17.1432003
20
75.8202187
40
0.8474766
50
313.6033795
51
0.1477532
0
ARC
8
DEFAULT_255_2_778
10
17.1427821
20
75.819668
40
0.8473667
50
269.8507046
51
313.6495366
0
ARC
8
DEFAULT_255_2_778
10
17.1384196
20
75.8197647
40
0.8474633
50
223.5993957
51
270.1456617
0
ARC
8
DEFAULT_255_2_778
10
17.1378521
20
75.8202404
40
0.8473808
50
179.8536982
51
223.649149
0
ARC
8
DEFAULT_255_2_778
10
17.1383962
20
75.8289174
40
1.3436885
50
89.907131
51
121.9819006
0
ARC
8
DEFAULT_255_2_778
10
17.1404048
20
75.8229254
40
1.3498357
50
121.9195098
51
173.358327
0
ARC
8
DEFAULT_255_2_778
10
17.1551875
20
75.8229858
40
1.3645134
50
173.4326384
51
180.011829
0
ARC
8
DEFAULT_255_2_778
10
17.1343609
20
75.8205262
40
1.3436885
50
179.907131
51
211.9819006
0
ARC
8
DEFAULT_255_2_778
10
17.1403528
20
75.8225348
40
1.3498357
50
211.9195098
51
263.358327
0
ARC
8
DEFAULT_255_2_778
10
17.1402924
20
75.8373175
40
1.3645134
50
263.4326384
51
270.011829
0
ARC
8
DEFAULT_255_2_778
10
19.4427521
20
75.8164909
40
1.3436885
50
269.907131
51
301.9819006
0
ARC
8
DEFAULT_255_2_778
10
19.4407434
20
75.8224828
40
1.3498357
50
301.9195098
51
353.358327
0
ARC
8
DEFAULT_255_2_778
10
19.4259608
20
75.8224224
40
1.3645134
50
353.4326384
51
0.011829
0
ARC
8
DEFAULT_255_2_778
10
19.4467873
20
75.8248821
40
1.3436885
50
359.907131
51
31.9819006
0
ARC
8
DEFAULT_255_2_778
10
19.4407954
20
75.8228734
40
1.3498357
50
31.9195098
51
83.358327
0
ARC
8
DEFAULT_255_2_778
10
19.4408558
20
75.8080908
40
1.3645134
50
83.4326384
51
90.011829
0
LINE
8
DEFAULT_255_2_778
10
16.2904741
20
75.8224041
11
16.2904741
21
75.8224041
0
LINE
8
DEFAULT_255_2_778
10
14.7905741
20
74.8226041
11
14.7905741
21
76.8226041
0
LINE
8
DEFAULT_255_2_778
10
14.7905741
20
76.8226041
11
12.7905741
21
76.8226041
0
LINE
8
DEFAULT_255_2_778
10
12.7905741
20
76.8226041
11
12.7905741
21
74.8226041
0
LINE
8
DEFAULT_255_2_778
10
12.7905741
20
74.8226041
11
14.7905741
21
74.8226041
0
LINE
8
DEFAULT_255_2_778
10
17.1405741
20
74.4728041
11
19.4405741
21
74.4728041
0
LINE
8
DEFAULT_255_2_778
10
19.4405741
20
77.1726041
11
17.1405741
21
77.1726041
0
LINE
8
DEFAULT_255_2_778
10
23.7906741
20
74.8226041
11
23.7906741
21
76.8226041
0
LINE
8
DEFAULT_255_2_778
10
23.7906741
20
76.8226041
11
21.7906741
21
76.8226041
0
LINE
8
DEFAULT_255_2_778
10
21.7906741
20
76.8226041
11
21.7906741
21
74.8226041
0
LINE
8
DEFAULT_255_2_778
10
21.7906741
20
74.8226041
11
23.7906741
21
74.8226041
0
LINE
8
DEFAULT_255_2_778
10
13.4808741
20
75.916575
11
13.4808741
21
76.430475
0
LINE
8
DEFAULT_255_2_778
10
13.4808741
20
76.430475
11
14.2134741
21
76.430475
0
LINE
8
DEFAULT_255_2_778
10
14.2134741
20
76.430475
11
14.2134741
21
76.593675
0
LINE
8
DEFAULT_255_2_778
10
14.2134741
20
76.593675
11
13.4808741
21
76.593675
0
LINE
8
DEFAULT_255_2_778
10
13.4808741
20
76.593675
11
13.4374741
21
76.593675
0
LINE
8
DEFAULT_255_2_778
10
13.4374741
20
76.593675
11
13.2813741
21
76.593675
0
LINE
8
DEFAULT_255_2_778
10
13.2813741
20
76.593675
11
13.2813741
21
75.088975
0
LINE
8
DEFAULT_255_2_778
10
13.2813741
20
75.088975
11
13.4808741
21
75.088975
0
LINE
8
DEFAULT_255_2_778
10
13.4808741
20
75.088975
11
13.4808741
21
75.753575
0
LINE
8
DEFAULT_255_2_778
10
13.4808741
20
75.753575
11
14.1113741
21
75.753575
0
LINE
8
DEFAULT_255_2_778
10
14.1113741
20
75.753575
11
14.1113741
21
75.916875
0
LINE
8
DEFAULT_255_2_778
10
14.1113741
20
75.916875
11
13.4808741
21
75.916575
0
LINE
8
DEFAULT_255_2_778
10
22.5893741
20
75.088775
11
22.4290741
21
75.088775
0
LINE
8
DEFAULT_255_2_778
10
22.4290741
20
75.088775
11
22.4290741
21
76.593375
0
LINE
8
DEFAULT_255_2_778
10
22.4290741
20
76.593375
11
22.6285741
21
76.593375
0
LINE
8
DEFAULT_255_2_778
10
22.6285741
20
76.593375
11
22.6285741
21
75.250875
0
LINE
8
DEFAULT_255_2_778
10
22.6285741
20
75.250875
11
23.3416741
21
75.250875
0
LINE
8
DEFAULT_255_2_778
10
23.3416741
20
75.250875
11
23.3416741
21
75.088775
0
LINE
8
DEFAULT_255_2_778
10
23.3416741
20
75.088775
11
22.6285741
21
75.088775
0
LINE
8
DEFAULT_255_2_778
10
22.6285741
20
75.088775
11
22.5893741
21
75.088775
0
LINE
8
DEFAULT_255_2_778
10
1.9405732
20
8.4827971
11
21.9404732
21
8.4827971
0
LINE
8
DEFAULT_255_2_778
10
1.9405732
20
66.9625971
11
21.9404732
21
66.9625971
0
ARC
8
DEFAULT_255_2_778
10
17.8125967
20
69.7156955
40
1.297198
50
148.2770855
51
180.1324007
0
ARC
8
DEFAULT_255_2_778
10
17.8117449
20
69.7162122
40
1.2962017
50
97.0226393
51
148.276717
0
ARC
8
DEFAULT_255_2_778
10
17.8149539
20
69.6884442
40
1.3241537
50
89.9849309
51
97.0135513
0
ARC
8
DEFAULT_255_2_778
10
17.8182997
20
69.7154033
40
1.297198
50
58.2770855
51
90.1324007
0
ARC
8
DEFAULT_255_2_778
10
17.8188165
20
69.7162551
40
1.2962017
50
7.0226393
51
58.276717
0
ARC
8
DEFAULT_255_2_778
10
17.7910484
20
69.7130461
40
1.3241537
50
359.9849309
51
7.0135513
0
ARC
8
DEFAULT_255_2_778
10
17.8180076
20
69.7097003
40
1.297198
50
328.2770855
51
0.1324007
0
ARC
8
DEFAULT_255_2_778
10
17.8188594
20
69.7091835
40
1.2962017
50
277.0226393
51
328.276717
0
ARC
8
DEFAULT_255_2_778
10
17.8156504
20
69.7369516
40
1.3241537
50
269.9849309
51
277.0135513
0
ARC
8
DEFAULT_255_2_778
10
17.8123045
20
69.7099924
40
1.297198
50
238.2770855
51
270.1324007
0
ARC
8
DEFAULT_255_2_778
10
17.8117878
20
69.7091406
40
1.2962017
50
187.0226393
51
238.276717
0
ARC
8
DEFAULT_255_2_778
10
17.8395558
20
69.7123496
40
1.3241537
50
179.9849309
51
187.0135513
0
LINE
8
DEFAULT_255_2_778
10
16.5154021
20
69.7126979
11
16.5154021
21
69.7126979
0
ARC
8
DEFAULT_255_2_778
10
6.0626967
20
69.7156955
40
1.297198
50
148.2770855
51
180.1324007
0
ARC
8
DEFAULT_255_2_778
10
6.0618449
20
69.7162122
40
1.2962017
50
97.0226393
51
148.276717
0
ARC
8
DEFAULT_255_2_778
10
6.0650539
20
69.6884442
40
1.3241537
50
89.9849309
51
97.0135513
0
ARC
8
DEFAULT_255_2_778
10
6.0683997
20
69.7154033
40
1.297198
50
58.2770855
51
90.1324007
0
ARC
8
DEFAULT_255_2_778
10
6.0689165
20
69.7162551
40
1.2962017
50
7.0226393
51
58.276717
0
ARC
8
DEFAULT_255_2_778
10
6.0411484
20
69.7130461
40
1.3241537
50
359.9849309
51
7.0135513
0
ARC
8
DEFAULT_255_2_778
10
6.0681076
20
69.7097003
40
1.297198
50
328.2770855
51
0.1324007
0
ARC
8
DEFAULT_255_2_778
10
6.0689594
20
69.7091835
40
1.2962017
50
277.0226393
51
328.276717
0
ARC
8
DEFAULT_255_2_778
10
6.0657504
20
69.7369516
40
1.3241537
50
269.9849309
51
277.0135513
0
ARC
8
DEFAULT_255_2_778
10
6.0624045
20
69.7099924
40
1.297198
50
238.2770855
51
270.1324007
0
ARC
8
DEFAULT_255_2_778
10
6.0618878
20
69.7091406
40
1.2962017
50
187.0226393
51
238.276717
0
ARC
8
DEFAULT_255_2_778
10
6.0896558
20
69.7123496
40
1.3241537
50
179.9849309
51
187.0135513
0
LINE
8
DEFAULT_255_2_778
10
4.7655021
20
69.7126979
11
4.7655021
21
69.7126979
0
LINE
8
DEFAULT_255_2_778
10
22.2904295
20
2.4825855
11
22.2904295
21
72.9625855
0
LINE
8
DEFAULT_255_2_778
10
22.2904295
20
72.9625855
11
1.5905295
21
72.9625855
0
LINE
8
DEFAULT_255_2_778
10
1.5905295
20
72.9625855
11
1.5905295
21
2.4825855
0
LINE
8
DEFAULT_255_2_778
10
1.5905295
20
2.4825855
11
22.2904295
21
2.4825855
0
LINE
8
DEFAULT_255_2_778
10
21.9404732
20
2.983023
11
21.9404732
21
72.462823
0
LINE
8
DEFAULT_255_2_778
10
21.9404732
20
72.462823
11
1.9405732
21
72.462823
0
LINE
8
DEFAULT_255_2_778
10
1.9405732
20
72.462823
11
1.9405732
21
2.983023
0
LINE
8
DEFAULT_255_2_778
10
1.9405732
20
2.983023
11
21.9404732
21
2.983023
0
LINE
8
DEFAULT_255_2_778
10
13.6904459
20
65.0726784
11
13.6904459
21
10.3726784
0
LINE
8
DEFAULT_255_2_778
10
13.6904459
20
10.3726784
11
10.1905459
21
10.3726784
0
LINE
8
DEFAULT_255_2_778
10
10.1905459
20
10.3726784
11
10.1905459
21
65.0726784
0
LINE
8
DEFAULT_255_2_778
10
10.1905459
20
65.0726784
11
13.6904459
21
65.0726784
0
LINE
8
DEFAULT_255_2_778
10
3.5905596
20
2.4828782
11
3.5905596
21
1.4826782
0
LINE
8
DEFAULT_255_2_778
10
3.5905596
20
1.4826782
11
23.2906596
21
1.4826782
0
LINE
8
DEFAULT_255_2_778
10
23.2906596
20
1.4826782
11
23.2906596
21
73.9626782
0
LINE
8
DEFAULT_255_2_778
10
23.2906596
20
73.9626782
11
3.5905596
21
73.9626782
0
LINE
8
DEFAULT_255_2_778
10
3.5905596
20
73.9626782
11
3.5905596
21
72.9625782
0
ARC
8
DEFAULT_255_2_778
10
15.915833
20
63.5720659
40
1.5004288
50
130.5039219
51
179.9821122
0
ARC
8
DEFAULT_255_2_778
10
15.9157646
20
63.5716316
40
1.5007148
50
90.0029861
51
130.4911656
0
ARC
8
DEFAULT_255_2_778
10
15.9156785
20
63.5724052
40
1.4999411
50
84.5518277
51
89.9997003
0
ARC
8
DEFAULT_255_2_778
10
15.9154752
20
63.5702086
40
1.502147
50
81.0177063
51
84.5520629
0
ARC
8
DEFAULT_255_2_778
10
19.7171583
20
62.9744226
40
1.4957466
50
46.6605612
51
81.0442255
0
ARC
8
DEFAULT_255_2_778
10
19.716623
20
62.9710459
40
1.4985713
50
3.4001866
51
46.7342816
0
ARC
8
DEFAULT_255_2_778
10
19.7004504
20
62.9703949
40
1.514754
50
0.0052718
51
3.3884861
0
ARC
8
DEFAULT_255_2_778
10
19.7193474
20
12.4736777
40
1.4958573
50
325.6628842
51
0.0443
0
ARC
8
DEFAULT_255_2_778
10
19.7160821
20
12.4735639
40
1.4984907
50
282.4007583
51
325.7369018
0
ARC
8
DEFAULT_255_2_778
10
19.7129037
20
12.4895174
40
1.5147546
50
279.005391
51
282.3885888
0
ARC
8
DEFAULT_255_2_778
10
15.9152238
20
11.8747025
40
1.5016358
50
275.4594356
51
278.9950907
0
ARC
8
DEFAULT_255_2_778
10
15.915448
20
11.8723175
40
1.4992401
50
270.0002069
51
275.4595769
0
ARC
8
DEFAULT_255_2_778
10
15.9155713
20
11.8734434
40
1.500366
50
229.5071665
51
269.9954986
0
ARC
8
DEFAULT_255_2_778
10
15.9158843
20
11.8733262
40
1.5004801
50
180.0149647
51
229.4951722
0
LINE
8
DEFAULT_255_2_778
10
16.1500043
20
65.0539343
11
19.9500043
21
64.4519343
0
LINE
8
DEFAULT_255_2_778
10
21.2152043
20
62.9705343
11
21.2152043
21
12.4748343
0
LINE
8
DEFAULT_255_2_778
10
19.9500043
20
10.9934343
11
16.1500043
21
10.3915343
0
LINE
8
DEFAULT_255_2_778
10
14.4154043
20
11.8729343
11
14.4154043
21
63.5725343
0
LINE
8
DEFAULT_255_2_778
10
19.3356688
20
34.5326504
11
19.3356688
21
33.2925504
0
LINE
8
DEFAULT_255_2_778
10
19.3356688
20
33.2925504
11
18.8355688
21
33.2925504
0
LINE
8
DEFAULT_255_2_778
10
18.8355688
20
33.2925504
11
18.8355688
21
34.5326504
0
LINE
8
DEFAULT_255_2_778
10
18.8355688
20
34.5326504
11
19.3356688
21
34.5326504
0
LINE
8
DEFAULT_255_2_778
10
16.7956688
20
33.2925504
11
16.7956688
21
34.5326504
0
LINE
8
DEFAULT_255_2_778
10
16.7956688
20
34.5326504
11
16.2955688
21
34.5326504
0
LINE
8
DEFAULT_255_2_778
10
16.2955688
20
34.5326504
11
16.2955688
21
33.2925504
0
LINE
8
DEFAULT_255_2_778
10
16.2955688
20
33.2925504
11
16.7956688
21
33.2925504
0
LINE
8
DEFAULT_255_2_778
10
19.3356688
20
37.0726504
11
19.3356688
21
35.8325504
0
LINE
8
DEFAULT_255_2_778
10
19.3356688
20
35.8325504
11
18.8355688
21
35.8325504
0
LINE
8
DEFAULT_255_2_778
10
18.8355688
20
35.8325504
11
18.8355688
21
37.0726504
0
LINE
8
DEFAULT_255_2_778
10
18.8355688
20
37.0726504
11
19.3356688
21
37.0726504
0
LINE
8
DEFAULT_255_2_778
10
16.7956688
20
35.8325504
11
16.7956688
21
37.0726504
0
LINE
8
DEFAULT_255_2_778
10
16.7956688
20
37.0726504
11
16.2955688
21
37.0726504
0
LINE
8
DEFAULT_255_2_778
10
16.2955688
20
37.0726504
11
16.2955688
21
35.8325504
0
LINE
8
DEFAULT_255_2_778
10
16.2955688
20
35.8325504
11
16.7956688
21
35.8325504
0
LINE
8
DEFAULT_255_2_778
10
19.3356688
20
39.6126504
11
19.3356688
21
38.3725504
0
LINE
8
DEFAULT_255_2_778
10
19.3356688
20
38.3725504
11
18.8355688
21
38.3725504
0
LINE
8
DEFAULT_255_2_778
10
18.8355688
20
38.3725504
11
18.8355688
21
39.6126504
0
LINE
8
DEFAULT_255_2_778
10
18.8355688
20
39.6126504
11
19.3356688
21
39.6126504
0
LINE
8
DEFAULT_255_2_778
10
16.7956688
20
38.3725504
11
16.7956688
21
39.6126504
0
LINE
8
DEFAULT_255_2_778
10
16.7956688
20
39.6126504
11
16.2955688
21
39.6126504
0
LINE
8
DEFAULT_255_2_778
10
16.2955688
20
39.6126504
11
16.2955688
21
38.3725504
0
LINE
8
DEFAULT_255_2_778
10
16.2955688
20
38.3725504
11
16.7956688
21
38.3725504
0
LINE
8
DEFAULT_255_2_778
10
19.3356688
20
42.1526504
11
19.3356688
21
40.9125504
0
LINE
8
DEFAULT_255_2_778
10
19.3356688
20
40.9125504
11
18.8355688
21
40.9125504
0
LINE
8
DEFAULT_255_2_778
10
18.8355688
20
40.9125504
11
18.8355688
21
42.1526504
0
LINE
8
DEFAULT_255_2_778
10
18.8355688
20
42.1526504
11
19.3356688
21
42.1526504
0
LINE
8
DEFAULT_255_2_778
10
16.7956688
20
40.9125504
11
16.7956688
21
42.1526504
0
LINE
8
DEFAULT_255_2_778
10
16.7956688
20
42.1526504
11
16.2955688
21
42.1526504
0
LINE
8
DEFAULT_255_2_778
10
16.2955688
20
42.1526504
11
16.2955688
21
40.9125504
0
LINE
8
DEFAULT_255_2_778
10
16.2955688
20
40.9125504
11
16.7956688
21
40.9125504
0
LINE
8
DEFAULT_255_2_778
10
19.3356688
20
54.8526504
11
19.3356688
21
53.6125504
0
LINE
8
DEFAULT_255_2_778
10
19.3356688
20
53.6125504
11
18.8355688
21
53.6125504
0
LINE
8
DEFAULT_255_2_778
10
18.8355688
20
53.6125504
11
18.8355688
21
54.8526504
0
LINE
8
DEFAULT_255_2_778
10
18.8355688
20
54.8526504
11
19.3356688
21
54.8526504
0
LINE
8
DEFAULT_255_2_778
10
16.7956688
20
53.6125504
11
16.7956688
21
54.8526504
0
LINE
8
DEFAULT_255_2_778
10
16.7956688
20
54.8526504
11
16.2955688
21
54.8526504
0
LINE
8
DEFAULT_255_2_778
10
16.2955688
20
54.8526504
11
16.2955688
21
53.6125504
0
LINE
8
DEFAULT_255_2_778
10
16.2955688
20
53.6125504
11
16.7956688
21
53.6125504
0
LINE
8
DEFAULT_255_2_778
10
19.3356688
20
57.3926504
11
19.3356688
21
56.1525504
0
LINE
8
DEFAULT_255_2_778
10
19.3356688
20
56.1525504
11
18.8355688
21
56.1525504
0
LINE
8
DEFAULT_255_2_778
10
18.8355688
20
56.1525504
11
18.8355688
21
57.3926504
0
LINE
8
DEFAULT_255_2_778
10
18.8355688
20
57.3926504
11
19.3356688
21
57.3926504
0
LINE
8
DEFAULT_255_2_778
10
16.7956688
20
56.1525504
11
16.7956688
21
57.3926504
0
LINE
8
DEFAULT_255_2_778
10
16.7956688
20
57.3926504
11
16.2955688
21
57.3926504
0
LINE
8
DEFAULT_255_2_778
10
16.2955688
20
57.3926504
11
16.2955688
21
56.1525504
0
LINE
8
DEFAULT_255_2_778
10
16.2955688
20
56.1525504
11
16.7956688
21
56.1525504
0
LINE
8
DEFAULT_255_2_778
10
19.3356688
20
59.9326504
11
19.3356688
21
58.6925504
0
LINE
8
DEFAULT_255_2_778
10
19.3356688
20
58.6925504
11
18.8355688
21
58.6925504
0
LINE
8
DEFAULT_255_2_778
10
18.8355688
20
58.6925504
11
18.8355688
21
59.9326504
0
LINE
8
DEFAULT_255_2_778
10
18.8355688
20
59.9326504
11
19.3356688
21
59.9326504
0
LINE
8
DEFAULT_255_2_778
10
16.7956688
20
58.6925504
11
16.7956688
21
59.9326504
0
LINE
8
DEFAULT_255_2_778
10
16.7956688
20
59.9326504
11
16.2955688
21
59.9326504
0
LINE
8
DEFAULT_255_2_778
10
16.2955688
20
59.9326504
11
16.2955688
21
58.6925504
0
LINE
8
DEFAULT_255_2_778
10
16.2955688
20
58.6925504
11
16.7956688
21
58.6925504
0
LINE
8
DEFAULT_255_2_778
10
19.3356688
20
62.4726504
11
19.3356688
21
61.2325504
0
LINE
8
DEFAULT_255_2_778
10
19.3356688
20
61.2325504
11
18.8355688
21
61.2325504
0
LINE
8
DEFAULT_255_2_778
10
18.8355688
20
61.2325504
11
18.8355688
21
62.4726504
0
LINE
8
DEFAULT_255_2_778
10
18.8355688
20
62.4726504
11
19.3356688
21
62.4726504
0
LINE
8
DEFAULT_255_2_778
10
16.7956688
20
61.2325504
11
16.7956688
21
62.4726504
0
LINE
8
DEFAULT_255_2_778
10
16.7956688
20
62.4726504
11
16.2955688
21
62.4726504
0
LINE
8
DEFAULT_255_2_778
10
16.2955688
20
62.4726504
11
16.2955688
21
61.2325504
0
LINE
8
DEFAULT_255_2_778
10
16.2955688
20
61.2325504
11
16.7956688
21
61.2325504
0
LINE
8
DEFAULT_255_2_778
10
19.3356688
20
44.6926504
11
19.3356688
21
43.4525504
0
LINE
8
DEFAULT_255_2_778
10
19.3356688
20
43.4525504
11
18.8355688
21
43.4525504
0
LINE
8
DEFAULT_255_2_778
10
18.8355688
20
43.4525504
11
18.8355688
21
44.6926504
0
LINE
8
DEFAULT_255_2_778
10
18.8355688
20
44.6926504
11
19.3356688
21
44.6926504
0
LINE
8
DEFAULT_255_2_778
10
16.7956688
20
43.4525504
11
16.7956688
21
44.6926504
0
LINE
8
DEFAULT_255_2_778
10
16.7956688
20
44.6926504
11
16.2955688
21
44.6926504
0
LINE
8
DEFAULT_255_2_778
10
16.2955688
20
44.6926504
11
16.2955688
21
43.4525504
0
LINE
8
DEFAULT_255_2_778
10
16.2955688
20
43.4525504
11
16.7956688
21
43.4525504
0
LINE
8
DEFAULT_255_2_778
10
19.3356688
20
47.2326504
11
19.3356688
21
45.9925504
0
LINE
8
DEFAULT_255_2_778
10
19.3356688
20
45.9925504
11
18.8355688
21
45.9925504
0
LINE
8
DEFAULT_255_2_778
10
18.8355688
20
45.9925504
11
18.8355688
21
47.2326504
0
LINE
8
DEFAULT_255_2_778
10
18.8355688
20
47.2326504
11
19.3356688
21
47.2326504
0
LINE
8
DEFAULT_255_2_778
10
16.7956688
20
45.9925504
11
16.7956688
21
47.2326504
0
LINE
8
DEFAULT_255_2_778
10
16.7956688
20
47.2326504
11
16.2955688
21
47.2326504
0
LINE
8
DEFAULT_255_2_778
10
16.2955688
20
47.2326504
11
16.2955688
21
45.9925504
0
LINE
8
DEFAULT_255_2_778
10
16.2955688
20
45.9925504
11
16.7956688
21
45.9925504
0
LINE
8
DEFAULT_255_2_778
10
19.3356688
20
49.7726504
11
19.3356688
21
48.5325504
0
LINE
8
DEFAULT_255_2_778
10
19.3356688
20
48.5325504
11
18.8355688
21
48.5325504
0
LINE
8
DEFAULT_255_2_778
10
18.8355688
20
48.5325504
11
18.8355688
21
49.7726504
0
LINE
8
DEFAULT_255_2_778
10
18.8355688
20
49.7726504
11
19.3356688
21
49.7726504
0
LINE
8
DEFAULT_255_2_778
10
16.7956688
20
48.5325504
11
16.7956688
21
49.7726504
0
LINE
8
DEFAULT_255_2_778
10
16.7956688
20
49.7726504
11
16.2955688
21
49.7726504
0
LINE
8
DEFAULT_255_2_778
10
16.2955688
20
49.7726504
11
16.2955688
21
48.5325504
0
LINE
8
DEFAULT_255_2_778
10
16.2955688
20
48.5325504
11
16.7956688
21
48.5325504
0
LINE
8
DEFAULT_255_2_778
10
19.3356688
20
52.3126504
11
19.3356688
21
51.0725504
0
LINE
8
DEFAULT_255_2_778
10
19.3356688
20
51.0725504
11
18.8355688
21
51.0725504
0
LINE
8
DEFAULT_255_2_778
10
18.8355688
20
51.0725504
11
18.8355688
21
52.3126504
0
LINE
8
DEFAULT_255_2_778
10
18.8355688
20
52.3126504
11
19.3356688
21
52.3126504
0
LINE
8
DEFAULT_255_2_778
10
16.7956688
20
51.0725504
11
16.7956688
21
52.3126504
0
LINE
8
DEFAULT_255_2_778
10
16.7956688
20
52.3126504
11
16.2955688
21
52.3126504
0
LINE
8
DEFAULT_255_2_778
10
16.2955688
20
52.3126504
11
16.2955688
21
51.0725504
0
LINE
8
DEFAULT_255_2_778
10
16.2955688
20
51.0725504
11
16.7956688
21
51.0725504
0
LINE
8
DEFAULT_255_2_778
10
19.3356688
20
24.3726504
11
19.3356688
21
23.1325504
0
LINE
8
DEFAULT_255_2_778
10
19.3356688
20
23.1325504
11
18.8355688
21
23.1325504
0
LINE
8
DEFAULT_255_2_778
10
18.8355688
20
23.1325504
11
18.8355688
21
24.3726504
0
LINE
8
DEFAULT_255_2_778
10
18.8355688
20
24.3726504
11
19.3356688
21
24.3726504
0
LINE
8
DEFAULT_255_2_778
10
16.7956688
20
23.1325504
11
16.7956688
21
24.3726504
0
LINE
8
DEFAULT_255_2_778
10
16.7956688
20
24.3726504
11
16.2955688
21
24.3726504
0
LINE
8
DEFAULT_255_2_778
10
16.2955688
20
24.3726504
11
16.2955688
21
23.1325504
0
LINE
8
DEFAULT_255_2_778
10
16.2955688
20
23.1325504
11
16.7956688
21
23.1325504
0
LINE
8
DEFAULT_255_2_778
10
19.3356688
20
26.9126504
11
19.3356688
21
25.6725504
0
LINE
8
DEFAULT_255_2_778
10
19.3356688
20
25.6725504
11
18.8355688
21
25.6725504
0
LINE
8
DEFAULT_255_2_778
10
18.8355688
20
25.6725504
11
18.8355688
21
26.9126504
0
LINE
8
DEFAULT_255_2_778
10
18.8355688
20
26.9126504
11
19.3356688
21
26.9126504
0
LINE
8
DEFAULT_255_2_778
10
16.7956688
20
25.6725504
11
16.7956688
21
26.9126504
0
LINE
8
DEFAULT_255_2_778
10
16.7956688
20
26.9126504
11
16.2955688
21
26.9126504
0
LINE
8
DEFAULT_255_2_778
10
16.2955688
20
26.9126504
11
16.2955688
21
25.6725504
0
LINE
8
DEFAULT_255_2_778
10
16.2955688
20
25.6725504
11
16.7956688
21
25.6725504
0
LINE
8
DEFAULT_255_2_778
10
19.3356688
20
29.4526504
11
19.3356688
21
28.2125504
0
LINE
8
DEFAULT_255_2_778
10
19.3356688
20
28.2125504
11
18.8355688
21
28.2125504
0
LINE
8
DEFAULT_255_2_778
10
18.8355688
20
28.2125504
11
18.8355688
21
29.4526504
0
LINE
8
DEFAULT_255_2_778
10
18.8355688
20
29.4526504
11
19.3356688
21
29.4526504
0
LINE
8
DEFAULT_255_2_778
10
16.7956688
20
28.2125504
11
16.7956688
21
29.4526504
0
LINE
8
DEFAULT_255_2_778
10
16.7956688
20
29.4526504
11
16.2955688
21
29.4526504
0
LINE
8
DEFAULT_255_2_778
10
16.2955688
20
29.4526504
11
16.2955688
21
28.2125504
0
LINE
8
DEFAULT_255_2_778
10
16.2955688
20
28.2125504
11
16.7956688
21
28.2125504
0
LINE
8
DEFAULT_255_2_778
10
19.3356688
20
31.9926504
11
19.3356688
21
30.7525504
0
LINE
8
DEFAULT_255_2_778
10
19.3356688
20
30.7525504
11
18.8355688
21
30.7525504
0
LINE
8
DEFAULT_255_2_778
10
18.8355688
20
30.7525504
11
18.8355688
21
31.9926504
0
LINE
8
DEFAULT_255_2_778
10
18.8355688
20
31.9926504
11
19.3356688
21
31.9926504
0
LINE
8
DEFAULT_255_2_778
10
16.7956688
20
30.7525504
11
16.7956688
21
31.9926504
0
LINE
8
DEFAULT_255_2_778
10
16.7956688
20
31.9926504
11
16.2955688
21
31.9926504
0
LINE
8
DEFAULT_255_2_778
10
16.2955688
20
31.9926504
11
16.2955688
21
30.7525504
0
LINE
8
DEFAULT_255_2_778
10
16.2955688
20
30.7525504
11
16.7956688
21
30.7525504
0
LINE
8
DEFAULT_255_2_778
10
19.3356688
20
14.2126504
11
19.3356688
21
12.9725504
0
LINE
8
DEFAULT_255_2_778
10
19.3356688
20
12.9725504
11
18.8355688
21
12.9725504
0
LINE
8
DEFAULT_255_2_778
10
18.8355688
20
12.9725504
11
18.8355688
21
14.2126504
0
LINE
8
DEFAULT_255_2_778
10
18.8355688
20
14.2126504
11
19.3356688
21
14.2126504
0
LINE
8
DEFAULT_255_2_778
10
16.7956688
20
12.9725504
11
16.7956688
21
14.2126504
0
LINE
8
DEFAULT_255_2_778
10
16.7956688
20
14.2126504
11
16.2955688
21
14.2126504
0
LINE
8
DEFAULT_255_2_778
10
16.2955688
20
14.2126504
11
16.2955688
21
12.9725504
0
LINE
8
DEFAULT_255_2_778
10
16.2955688
20
12.9725504
11
16.7956688
21
12.9725504
0
LINE
8
DEFAULT_255_2_778
10
19.3356688
20
16.7526504
11
19.3356688
21
15.5125504
0
LINE
8
DEFAULT_255_2_778
10
19.3356688
20
15.5125504
11
18.8355688
21
15.5125504
0
LINE
8
DEFAULT_255_2_778
10
18.8355688
20
15.5125504
11
18.8355688
21
16.7526504
0
LINE
8
DEFAULT_255_2_778
10
18.8355688
20
16.7526504
11
19.3356688
21
16.7526504
0
LINE
8
DEFAULT_255_2_778
10
16.7956688
20
15.5125504
11
16.7956688
21
16.7526504
0
LINE
8
DEFAULT_255_2_778
10
16.7956688
20
16.7526504
11
16.2955688
21
16.7526504
0
LINE
8
DEFAULT_255_2_778
10
16.2955688
20
16.7526504
11
16.2955688
21
15.5125504
0
LINE
8
DEFAULT_255_2_778
10
16.2955688
20
15.5125504
11
16.7956688
21
15.5125504
0
LINE
8
DEFAULT_255_2_778
10
19.3356688
20
19.2926504
11
19.3356688
21
18.0525504
0
LINE
8
DEFAULT_255_2_778
10
19.3356688
20
18.0525504
11
18.8355688
21
18.0525504
0
LINE
8
DEFAULT_255_2_778
10
18.8355688
20
18.0525504
11
18.8355688
21
19.2926504
0
LINE
8
DEFAULT_255_2_778
10
18.8355688
20
19.2926504
11
19.3356688
21
19.2926504
0
LINE
8
DEFAULT_255_2_778
10
16.7956688
20
18.0525504
11
16.7956688
21
19.2926504
0
LINE
8
DEFAULT_255_2_778
10
16.7956688
20
19.2926504
11
16.2955688
21
19.2926504
0
LINE
8
DEFAULT_255_2_778
10
16.2955688
20
19.2926504
11
16.2955688
21
18.0525504
0
LINE
8
DEFAULT_255_2_778
10
16.2955688
20
18.0525504
11
16.7956688
21
18.0525504
0
LINE
8
DEFAULT_255_2_778
10
19.3356688
20
21.8326504
11
19.3356688
21
20.5925504
0
LINE
8
DEFAULT_255_2_778
10
19.3356688
20
20.5925504
11
18.8355688
21
20.5925504
0
LINE
8
DEFAULT_255_2_778
10
18.8355688
20
20.5925504
11
18.8355688
21
21.8326504
0
LINE
8
DEFAULT_255_2_778
10
18.8355688
20
21.8326504
11
19.3356688
21
21.8326504
0
LINE
8
DEFAULT_255_2_778
10
16.7956688
20
20.5925504
11
16.7956688
21
21.8326504
0
LINE
8
DEFAULT_255_2_778
10
16.7956688
20
21.8326504
11
16.2955688
21
21.8326504
0
LINE
8
DEFAULT_255_2_778
10
16.2955688
20
21.8326504
11
16.2955688
21
20.5925504
0
LINE
8
DEFAULT_255_2_778
10
16.2955688
20
20.5925504
11
16.7956688
21
20.5925504
0
ARC
8
DEFAULT_255_2_778
10
4.165933
20
63.5720659
40
1.5004288
50
130.5039219
51
179.9821122
0
ARC
8
DEFAULT_255_2_778
10
4.1658646
20
63.5716316
40
1.5007148
50
90.0029861
51
130.4911656
0
ARC
8
DEFAULT_255_2_778
10
4.1657785
20
63.5724052
40
1.4999411
50
84.5518277
51
89.9997003
0
ARC
8
DEFAULT_255_2_778
10
4.1655752
20
63.5702086
40
1.502147
50
81.0177063
51
84.5520629
0
ARC
8
DEFAULT_255_2_778
10
7.9672583
20
62.9744226
40
1.4957466
50
46.6605612
51
81.0442255
0
ARC
8
DEFAULT_255_2_778
10
7.966723
20
62.9710459
40
1.4985713
50
3.4001866
51
46.7342816
0
ARC
8
DEFAULT_255_2_778
10
7.9505504
20
62.9703949
40
1.514754
50
0.0052718
51
3.3884861
0
ARC
8
DEFAULT_255_2_778
10
7.9694474
20
12.4736777
40
1.4958573
50
325.6628842
51
0.0443
0
ARC
8
DEFAULT_255_2_778
10
7.9661821
20
12.4735639
40
1.4984907
50
282.4007583
51
325.7369018
0
ARC
8
DEFAULT_255_2_778
10
7.9630037
20
12.4895174
40
1.5147546
50
279.005391
51
282.3885888
0
ARC
8
DEFAULT_255_2_778
10
4.1653238
20
11.8747025
40
1.5016358
50
275.4594356
51
278.9950907
0
ARC
8
DEFAULT_255_2_778
10
4.165548
20
11.8723175
40
1.4992401
50
270.0002069
51
275.4595769
0
ARC
8
DEFAULT_255_2_778
10
4.1656713
20
11.8734434
40
1.500366
50
229.5071665
51
269.9954986
0
ARC
8
DEFAULT_255_2_778
10
4.1659843
20
11.8733262
40
1.5004801
50
180.0149647
51
229.4951722
0
LINE
8
DEFAULT_255_2_778
10
4.4001043
20
65.0539343
11
8.2001043
21
64.4519343
0
LINE
8
DEFAULT_255_2_778
10
9.4653043
20
62.9705343
11
9.4653043
21
12.4748343
0
LINE
8
DEFAULT_255_2_778
10
8.2001043
20
10.9934343
11
4.4001043
21
10.3915343
0
LINE
8
DEFAULT_255_2_778
10
2.6655043
20
11.8729343
11
2.6655043
21
63.5725343
0
LINE
8
DEFAULT_255_2_778
10
7.5857688
20
34.5326504
11
7.5857688
21
33.2925504
0
LINE
8
DEFAULT_255_2_778
10
7.5857688
20
33.2925504
11
7.0856688
21
33.2925504
0
LINE
8
DEFAULT_255_2_778
10
7.0856688
20
33.2925504
11
7.0856688
21
34.5326504
0
LINE
8
DEFAULT_255_2_778
10
7.0856688
20
34.5326504
11
7.5857688
21
34.5326504
0
LINE
8
DEFAULT_255_2_778
10
5.0457688
20
33.2925504
11
5.0457688
21
34.5326504
0
LINE
8
DEFAULT_255_2_778
10
5.0457688
20
34.5326504
11
4.5456688
21
34.5326504
0
LINE
8
DEFAULT_255_2_778
10
4.5456688
20
34.5326504
11
4.5456688
21
33.2925504
0
LINE
8
DEFAULT_255_2_778
10
4.5456688
20
33.2925504
11
5.0457688
21
33.2925504
0
LINE
8
DEFAULT_255_2_778
10
7.5857688
20
37.0726504
11
7.5857688
21
35.8325504
0
LINE
8
DEFAULT_255_2_778
10
7.5857688
20
35.8325504
11
7.0856688
21
35.8325504
0
LINE
8
DEFAULT_255_2_778
10
7.0856688
20
35.8325504
11
7.0856688
21
37.0726504
0
LINE
8
DEFAULT_255_2_778
10
7.0856688
20
37.0726504
11
7.5857688
21
37.0726504
0
LINE
8
DEFAULT_255_2_778
10
5.0457688
20
35.8325504
11
5.0457688
21
37.0726504
0
LINE
8
DEFAULT_255_2_778
10
5.0457688
20
37.0726504
11
4.5456688
21
37.0726504
0
LINE
8
DEFAULT_255_2_778
10
4.5456688
20
37.0726504
11
4.5456688
21
35.8325504
0
LINE
8
DEFAULT_255_2_778
10
4.5456688
20
35.8325504
11
5.0457688
21
35.8325504
0
LINE
8
DEFAULT_255_2_778
10
7.5857688
20
39.6126504
11
7.5857688
21
38.3725504
0
LINE
8
DEFAULT_255_2_778
10
7.5857688
20
38.3725504
11
7.0856688
21
38.3725504
0
LINE
8
DEFAULT_255_2_778
10
7.0856688
20
38.3725504
11
7.0856688
21
39.6126504
0
LINE
8
DEFAULT_255_2_778
10
7.0856688
20
39.6126504
11
7.5857688
21
39.6126504
0
LINE
8
DEFAULT_255_2_778
10
5.0457688
20
38.3725504
11
5.0457688
21
39.6126504
0
LINE
8
DEFAULT_255_2_778
10
5.0457688
20
39.6126504
11
4.5456688
21
39.6126504
0
LINE
8
DEFAULT_255_2_778
10
4.5456688
20
39.6126504
11
4.5456688
21
38.3725504
0
LINE
8
DEFAULT_255_2_778
10
4.5456688
20
38.3725504
11
5.0457688
21
38.3725504
0
LINE
8
DEFAULT_255_2_778
10
7.5857688
20
42.1526504
11
7.5857688
21
40.9125504
0
LINE
8
DEFAULT_255_2_778
10
7.5857688
20
40.9125504
11
7.0856688
21
40.9125504
0
LINE
8
DEFAULT_255_2_778
10
7.0856688
20
40.9125504
11
7.0856688
21
42.1526504
0
LINE
8
DEFAULT_255_2_778
10
7.0856688
20
42.1526504
11
7.5857688
21
42.1526504
0
LINE
8
DEFAULT_255_2_778
10
5.0457688
20
40.9125504
11
5.0457688
21
42.1526504
0
LINE
8
DEFAULT_255_2_778
10
5.0457688
20
42.1526504
11
4.5456688
21
42.1526504
0
LINE
8
DEFAULT_255_2_778
10
4.5456688
20
42.1526504
11
4.5456688
21
40.9125504
0
LINE
8
DEFAULT_255_2_778
10
4.5456688
20
40.9125504
11
5.0457688
21
40.9125504
0
LINE
8
DEFAULT_255_2_778
10
7.5857688
20
54.8526504
11
7.5857688
21
53.6125504
0
LINE
8
DEFAULT_255_2_778
10
7.5857688
20
53.6125504
11
7.0856688
21
53.6125504
0
LINE
8
DEFAULT_255_2_778
10
7.0856688
20
53.6125504
11
7.0856688
21
54.8526504
0
LINE
8
DEFAULT_255_2_778
10
7.0856688
20
54.8526504
11
7.5857688
21
54.8526504
0
LINE
8
DEFAULT_255_2_778
10
5.0457688
20
53.6125504
11
5.0457688
21
54.8526504
0
LINE
8
DEFAULT_255_2_778
10
5.0457688
20
54.8526504
11
4.5456688
21
54.8526504
0
LINE
8
DEFAULT_255_2_778
10
4.5456688
20
54.8526504
11
4.5456688
21
53.6125504
0
LINE
8
DEFAULT_255_2_778
10
4.5456688
20
53.6125504
11
5.0457688
21
53.6125504
0
LINE
8
DEFAULT_255_2_778
10
7.5857688
20
57.3926504
11
7.5857688
21
56.1525504
0
LINE
8
DEFAULT_255_2_778
10
7.5857688
20
56.1525504
11
7.0856688
21
56.1525504
0
LINE
8
DEFAULT_255_2_778
10
7.0856688
20
56.1525504
11
7.0856688
21
57.3926504
0
LINE
8
DEFAULT_255_2_778
10
7.0856688
20
57.3926504
11
7.5857688
21
57.3926504
0
LINE
8
DEFAULT_255_2_778
10
5.0457688
20
56.1525504
11
5.0457688
21
57.3926504
0
LINE
8
DEFAULT_255_2_778
10
5.0457688
20
57.3926504
11
4.5456688
21
57.3926504
0
LINE
8
DEFAULT_255_2_778
10
4.5456688
20
57.3926504
11
4.5456688
21
56.1525504
0
LINE
8
DEFAULT_255_2_778
10
4.5456688
20
56.1525504
11
5.0457688
21
56.1525504
0
LINE
8
DEFAULT_255_2_778
10
7.5857688
20
59.9326504
11
7.5857688
21
58.6925504
0
LINE
8
DEFAULT_255_2_778
10
7.5857688
20
58.6925504
11
7.0856688
21
58.6925504
0
LINE
8
DEFAULT_255_2_778
10
7.0856688
20
58.6925504
11
7.0856688
21
59.9326504
0
LINE
8
DEFAULT_255_2_778
10
7.0856688
20
59.9326504
11
7.5857688
21
59.9326504
0
LINE
8
DEFAULT_255_2_778
10
5.0457688
20
58.6925504
11
5.0457688
21
59.9326504
0
LINE
8
DEFAULT_255_2_778
10
5.0457688
20
59.9326504
11
4.5456688
21
59.9326504
0
LINE
8
DEFAULT_255_2_778
10
4.5456688
20
59.9326504
11
4.5456688
21
58.6925504
0
LINE
8
DEFAULT_255_2_778
10
4.5456688
20
58.6925504
11
5.0457688
21
58.6925504
0
LINE
8
DEFAULT_255_2_778
10
7.5857688
20
62.4726504
11
7.5857688
21
61.2325504
0
LINE
8
DEFAULT_255_2_778
10
7.5857688
20
61.2325504
11
7.0856688
21
61.2325504
0
LINE
8
DEFAULT_255_2_778
10
7.0856688
20
61.2325504
11
7.0856688
21
62.4726504
0
LINE
8
DEFAULT_255_2_778
10
7.0856688
20
62.4726504
11
7.5857688
21
62.4726504
0
LINE
8
DEFAULT_255_2_778
10
5.0457688
20
61.2325504
11
5.0457688
21
62.4726504
0
LINE
8
DEFAULT_255_2_778
10
5.0457688
20
62.4726504
11
4.5456688
21
62.4726504
0
LINE
8
DEFAULT_255_2_778
10
4.5456688
20
62.4726504
11
4.5456688
21
61.2325504
0
LINE
8
DEFAULT_255_2_778
10
4.5456688
20
61.2325504
11
5.0457688
21
61.2325504
0
LINE
8
DEFAULT_255_2_778
10
7.5857688
20
44.6926504
11
7.5857688
21
43.4525504
0
LINE
8
DEFAULT_255_2_778
10
7.5857688
20
43.4525504
11
7.0856688
21
43.4525504
0
LINE
8
DEFAULT_255_2_778
10
7.0856688
20
43.4525504
11
7.0856688
21
44.6926504
0
LINE
8
DEFAULT_255_2_778
10
7.0856688
20
44.6926504
11
7.5857688
21
44.6926504
0
LINE
8
DEFAULT_255_2_778
10
5.0457688
20
43.4525504
11
5.0457688
21
44.6926504
0
LINE
8
DEFAULT_255_2_778
10
5.0457688
20
44.6926504
11
4.5456688
21
44.6926504
0
LINE
8
DEFAULT_255_2_778
10
4.5456688
20
44.6926504
11
4.5456688
21
43.4525504
0
LINE
8
DEFAULT_255_2_778
10
4.5456688
20
43.4525504
11
5.0457688
21
43.4525504
0
LINE
8
DEFAULT_255_2_778
10
7.5857688
20
47.2326504
11
7.5857688
21
45.9925504
0
LINE
8
DEFAULT_255_2_778
10
7.5857688
20
45.9925504
11
7.0856688
21
45.9925504
0
LINE
8
DEFAULT_255_2_778
10
7.0856688
20
45.9925504
11
7.0856688
21
47.2326504
0
LINE
8
DEFAULT_255_2_778
10
7.0856688
20
47.2326504
11
7.5857688
21
47.2326504
0
LINE
8
DEFAULT_255_2_778
10
5.0457688
20
45.9925504
11
5.0457688
21
47.2326504
0
LINE
8
DEFAULT_255_2_778
10
5.0457688
20
47.2326504
11
4.5456688
21
47.2326504
0
LINE
8
DEFAULT_255_2_778
10
4.5456688
20
47.2326504
11
4.5456688
21
45.9925504
0
LINE
8
DEFAULT_255_2_778
10
4.5456688
20
45.9925504
11
5.0457688
21
45.9925504
0
LINE
8
DEFAULT_255_2_778
10
7.5857688
20
49.7726504
11
7.5857688
21
48.5325504
0
LINE
8
DEFAULT_255_2_778
10
7.5857688
20
48.5325504
11
7.0856688
21
48.5325504
0
LINE
8
DEFAULT_255_2_778
10
7.0856688
20
48.5325504
11
7.0856688
21
49.7726504
0
LINE
8
DEFAULT_255_2_778
10
7.0856688
20
49.7726504
11
7.5857688
21
49.7726504
0
LINE
8
DEFAULT_255_2_778
10
5.0457688
20
48.5325504
11
5.0457688
21
49.7726504
0
LINE
8
DEFAULT_255_2_778
10
5.0457688
20
49.7726504
11
4.5456688
21
49.7726504
0
LINE
8
DEFAULT_255_2_778
10
4.5456688
20
49.7726504
11
4.5456688
21
48.5325504
0
LINE
8
DEFAULT_255_2_778
10
4.5456688
20
48.5325504
11
5.0457688
21
48.5325504
0
LINE
8
DEFAULT_255_2_778
10
7.5857688
20
52.3126504
11
7.5857688
21
51.0725504
0
LINE
8
DEFAULT_255_2_778
10
7.5857688
20
51.0725504
11
7.0856688
21
51.0725504
0
LINE
8
DEFAULT_255_2_778
10
7.0856688
20
51.0725504
11
7.0856688
21
52.3126504
0
LINE
8
DEFAULT_255_2_778
10
7.0856688
20
52.3126504
11
7.5857688
21
52.3126504
0
LINE
8
DEFAULT_255_2_778
10
5.0457688
20
51.0725504
11
5.0457688
21
52.3126504
0
LINE
8
DEFAULT_255_2_778
10
5.0457688
20
52.3126504
11
4.5456688
21
52.3126504
0
LINE
8
DEFAULT_255_2_778
10
4.5456688
20
52.3126504
11
4.5456688
21
51.0725504
0
LINE
8
DEFAULT_255_2_778
10
4.5456688
20
51.0725504
11
5.0457688
21
51.0725504
0
LINE
8
DEFAULT_255_2_778
10
7.5857688
20
24.3726504
11
7.5857688
21
23.1325504
0
LINE
8
DEFAULT_255_2_778
10
7.5857688
20
23.1325504
11
7.0856688
21
23.1325504
0
LINE
8
DEFAULT_255_2_778
10
7.0856688
20
23.1325504
11
7.0856688
21
24.3726504
0
LINE
8
DEFAULT_255_2_778
10
7.0856688
20
24.3726504
11
7.5857688
21
24.3726504
0
LINE
8
DEFAULT_255_2_778
10
5.0457688
20
23.1325504
11
5.0457688
21
24.3726504
0
LINE
8
DEFAULT_255_2_778
10
5.0457688
20
24.3726504
11
4.5456688
21
24.3726504
0
LINE
8
DEFAULT_255_2_778
10
4.5456688
20
24.3726504
11
4.5456688
21
23.1325504
0
LINE
8
DEFAULT_255_2_778
10
4.5456688
20
23.1325504
11
5.0457688
21
23.1325504
0
LINE
8
DEFAULT_255_2_778
10
7.5857688
20
26.9126504
11
7.5857688
21
25.6725504
0
LINE
8
DEFAULT_255_2_778
10
7.5857688
20
25.6725504
11
7.0856688
21
25.6725504
0
LINE
8
DEFAULT_255_2_778
10
7.0856688
20
25.6725504
11
7.0856688
21
26.9126504
0
LINE
8
DEFAULT_255_2_778
10
7.0856688
20
26.9126504
11
7.5857688
21
26.9126504
0
LINE
8
DEFAULT_255_2_778
10
5.0457688
20
25.6725504
11
5.0457688
21
26.9126504
0
LINE
8
DEFAULT_255_2_778
10
5.0457688
20
26.9126504
11
4.5456688
21
26.9126504
0
LINE
8
DEFAULT_255_2_778
10
4.5456688
20
26.9126504
11
4.5456688
21
25.6725504
0
LINE
8
DEFAULT_255_2_778
10
4.5456688
20
25.6725504
11
5.0457688
21
25.6725504
0
LINE
8
DEFAULT_255_2_778
10
7.5857688
20
29.4526504
11
7.5857688
21
28.2125504
0
LINE
8
DEFAULT_255_2_778
10
7.5857688
20
28.2125504
11
7.0856688
21
28.2125504
0
LINE
8
DEFAULT_255_2_778
10
7.0856688
20
28.2125504
11
7.0856688
21
29.4526504
0
LINE
8
DEFAULT_255_2_778
10
7.0856688
20
29.4526504
11
7.5857688
21
29.4526504
0
LINE
8
DEFAULT_255_2_778
10
5.0457688
20
28.2125504
11
5.0457688
21
29.4526504
0
LINE
8
DEFAULT_255_2_778
10
5.0457688
20
29.4526504
11
4.5456688
21
29.4526504
0
LINE
8
DEFAULT_255_2_778
10
4.5456688
20
29.4526504
11
4.5456688
21
28.2125504
0
LINE
8
DEFAULT_255_2_778
10
4.5456688
20
28.2125504
11
5.0457688
21
28.2125504
0
LINE
8
DEFAULT_255_2_778
10
7.5857688
20
31.9926504
11
7.5857688
21
30.7525504
0
LINE
8
DEFAULT_255_2_778
10
7.5857688
20
30.7525504
11
7.0856688
21
30.7525504
0
LINE
8
DEFAULT_255_2_778
10
7.0856688
20
30.7525504
11
7.0856688
21
31.9926504
0
LINE
8
DEFAULT_255_2_778
10
7.0856688
20
31.9926504
11
7.5857688
21
31.9926504
0
LINE
8
DEFAULT_255_2_778
10
5.0457688
20
30.7525504
11
5.0457688
21
31.9926504
0
LINE
8
DEFAULT_255_2_778
10
5.0457688
20
31.9926504
11
4.5456688
21
31.9926504
0
LINE
8
DEFAULT_255_2_778
10
4.5456688
20
31.9926504
11
4.5456688
21
30.7525504
0
LINE
8
DEFAULT_255_2_778
10
4.5456688
20
30.7525504
11
5.0457688
21
30.7525504
0
LINE
8
DEFAULT_255_2_778
10
7.5857688
20
14.2126504
11
7.5857688
21
12.9725504
0
LINE
8
DEFAULT_255_2_778
10
7.5857688
20
12.9725504
11
7.0856688
21
12.9725504
0
LINE
8
DEFAULT_255_2_778
10
7.0856688
20
12.9725504
11
7.0856688
21
14.2126504
0
LINE
8
DEFAULT_255_2_778
10
7.0856688
20
14.2126504
11
7.5857688
21
14.2126504
0
LINE
8
DEFAULT_255_2_778
10
5.0457688
20
12.9725504
11
5.0457688
21
14.2126504
0
LINE
8
DEFAULT_255_2_778
10
5.0457688
20
14.2126504
11
4.5456688
21
14.2126504
0
LINE
8
DEFAULT_255_2_778
10
4.5456688
20
14.2126504
11
4.5456688
21
12.9725504
0
LINE
8
DEFAULT_255_2_778
10
4.5456688
20
12.9725504
11
5.0457688
21
12.9725504
0
LINE
8
DEFAULT_255_2_778
10
7.5857688
20
16.7526504
11
7.5857688
21
15.5125504
0
LINE
8
DEFAULT_255_2_778
10
7.5857688
20
15.5125504
11
7.0856688
21
15.5125504
0
LINE
8
DEFAULT_255_2_778
10
7.0856688
20
15.5125504
11
7.0856688
21
16.7526504
0
LINE
8
DEFAULT_255_2_778
10
7.0856688
20
16.7526504
11
7.5857688
21
16.7526504
0
LINE
8
DEFAULT_255_2_778
10
5.0457688
20
15.5125504
11
5.0457688
21
16.7526504
0
LINE
8
DEFAULT_255_2_778
10
5.0457688
20
16.7526504
11
4.5456688
21
16.7526504
0
LINE
8
DEFAULT_255_2_778
10
4.5456688
20
16.7526504
11
4.5456688
21
15.5125504
0
LINE
8
DEFAULT_255_2_778
10
4.5456688
20
15.5125504
11
5.0457688
21
15.5125504
0
LINE
8
DEFAULT_255_2_778
10
7.5857688
20
19.2926504
11
7.5857688
21
18.0525504
0
LINE
8
DEFAULT_255_2_778
10
7.5857688
20
18.0525504
11
7.0856688
21
18.0525504
0
LINE
8
DEFAULT_255_2_778
10
7.0856688
20
18.0525504
11
7.0856688
21
19.2926504
0
LINE
8
DEFAULT_255_2_778
10
7.0856688
20
19.2926504
11
7.5857688
21
19.2926504
0
LINE
8
DEFAULT_255_2_778
10
5.0457688
20
18.0525504
11
5.0457688
21
19.2926504
0
LINE
8
DEFAULT_255_2_778
10
5.0457688
20
19.2926504
11
4.5456688
21
19.2926504
0
LINE
8
DEFAULT_255_2_778
10
4.5456688
20
19.2926504
11
4.5456688
21
18.0525504
0
LINE
8
DEFAULT_255_2_778
10
4.5456688
20
18.0525504
11
5.0457688
21
18.0525504
0
LINE
8
DEFAULT_255_2_778
10
7.5857688
20
21.8326504
11
7.5857688
21
20.5925504
0
LINE
8
DEFAULT_255_2_778
10
7.5857688
20
20.5925504
11
7.0856688
21
20.5925504
0
LINE
8
DEFAULT_255_2_778
10
7.0856688
20
20.5925504
11
7.0856688
21
21.8326504
0
LINE
8
DEFAULT_255_2_778
10
7.0856688
20
21.8326504
11
7.5857688
21
21.8326504
0
LINE
8
DEFAULT_255_2_778
10
5.0457688
20
20.5925504
11
5.0457688
21
21.8326504
0
LINE
8
DEFAULT_255_2_778
10
5.0457688
20
21.8326504
11
4.5456688
21
21.8326504
0
LINE
8
DEFAULT_255_2_778
10
4.5456688
20
21.8326504
11
4.5456688
21
20.5925504
0
LINE
8
DEFAULT_255_2_778
10
4.5456688
20
20.5925504
11
5.0457688
21
20.5925504
0
ARC
8
DEFAULT_255_2_778
10
17.8125967
20
5.7359955
40
1.297198
50
148.2770855
51
180.1324007
0
ARC
8
DEFAULT_255_2_778
10
17.8117449
20
5.7365122
40
1.2962017
50
97.0226393
51
148.276717
0
ARC
8
DEFAULT_255_2_778
10
17.8149539
20
5.7087442
40
1.3241537
50
89.9849309
51
97.0135513
0
ARC
8
DEFAULT_255_2_778
10
17.8182997
20
5.7357033
40
1.297198
50
58.2770855
51
90.1324007
0
ARC
8
DEFAULT_255_2_778
10
17.8188165
20
5.7365551
40
1.2962017
50
7.0226393
51
58.276717
0
ARC
8
DEFAULT_255_2_778
10
17.7910484
20
5.7333461
40
1.3241537
50
359.9849309
51
7.0135513
0
ARC
8
DEFAULT_255_2_778
10
17.8180076
20
5.7300003
40
1.297198
50
328.2770855
51
0.1324007
0
ARC
8
DEFAULT_255_2_778
10
17.8188594
20
5.7294835
40
1.2962017
50
277.0226393
51
328.276717
0
ARC
8
DEFAULT_255_2_778
10
17.8156504
20
5.7572516
40
1.3241537
50
269.9849309
51
277.0135513
0
ARC
8
DEFAULT_255_2_778
10
17.8123045
20
5.7302924
40
1.297198
50
238.2770855
51
270.1324007
0
ARC
8
DEFAULT_255_2_778
10
17.8117878
20
5.7294406
40
1.2962017
50
187.0226393
51
238.276717
0
ARC
8
DEFAULT_255_2_778
10
17.8395558
20
5.7326496
40
1.3241537
50
179.9849309
51
187.0135513
0
LINE
8
DEFAULT_255_2_778
10
16.5154021
20
5.7329979
11
16.5154021
21
5.7329979
0
ARC
8
DEFAULT_255_2_778
10
6.0626967
20
5.7359955
40
1.297198
50
148.2770855
51
180.1324007
0
ARC
8
DEFAULT_255_2_778
10
6.0618449
20
5.7365122
40
1.2962017
50
97.0226393
51
148.276717
0
ARC
8
DEFAULT_255_2_778
10
6.0650539
20
5.7087442
40
1.3241537
50
89.9849309
51
97.0135513
0
ARC
8
DEFAULT_255_2_778
10
6.0683997
20
5.7357033
40
1.297198
50
58.2770855
51
90.1324007
0
ARC
8
DEFAULT_255_2_778
10
6.0689165
20
5.7365551
40
1.2962017
50
7.0226393
51
58.276717
0
ARC
8
DEFAULT_255_2_778
10
6.0411484
20
5.7333461
40
1.3241537
50
359.9849309
51
7.0135513
0
ARC
8
DEFAULT_255_2_778
10
6.0681076
20
5.7300003
40
1.297198
50
328.2770855
51
0.1324007
0
ARC
8
DEFAULT_255_2_778
10
6.0689594
20
5.7294835
40
1.2962017
50
277.0226393
51
328.276717
0
ARC
8
DEFAULT_255_2_778
10
6.0657504
20
5.7572516
40
1.3241537
50
269.9849309
51
277.0135513
0
ARC
8
DEFAULT_255_2_778
10
6.0624045
20
5.7302924
40
1.297198
50
238.2770855
51
270.1324007
0
ARC
8
DEFAULT_255_2_778
10
6.0618878
20
5.7294406
40
1.2962017
50
187.0226393
51
238.276717
0
ARC
8
DEFAULT_255_2_778
10
6.0896558
20
5.7326496
40
1.3241537
50
179.9849309
51
187.0135513
0
LINE
8
DEFAULT_255_2_778
10
4.7655021
20
5.7329979
11
4.7655021
21
5.7329979
0
ARC
8
DEFAULT_255_2_778
10
2.8441336
20
79.4178158
40
0.8753441
50
348.9416043
51
0.798495
0
ARC
8
DEFAULT_255_2_778
10
3.1969451
20
79.3574133
40
0.5175658
50
345.4415998
51
348.0125956
0
ARC
8
DEFAULT_255_2_778
10
3.3546262
20
79.3058538
40
0.3521368
50
323.1184647
51
347.1125682
0
ARC
8
DEFAULT_255_2_778
10
3.453171
20
79.2379021
40
0.2325802
50
291.7068869
51
321.9384388
0
ARC
8
DEFAULT_255_2_778
10
3.4167982
20
79.3428134
40
0.3435414
50
269.0984366
51
290.8714838
0
ARC
8
DEFAULT_255_2_778
10
3.4079018
20
79.3666675
40
0.3673695
50
254.1219256
51
270.5444659
0
ARC
8
DEFAULT_255_2_778
10
3.3738985
20
79.2422459
40
0.2383958
50
230.4166582
51
253.8011307
0
ARC
8
DEFAULT_255_2_778
10
3.3963843
20
79.2639764
40
0.269494
50
207.3858258
51
229.6761276
0
ARC
8
DEFAULT_255_2_778
10
3.555458
20
79.3415855
40
0.4464591
50
190.2273599
51
206.8391889
0
ARC
8
DEFAULT_255_2_778
10
3.9863567
20
79.4194007
40
0.8843277
50
179.3123075
51
190.2319407
0
ARC
8
DEFAULT_255_2_778
10
3.9649778
20
79.5909998
40
0.8629684
50
169.1130751
51
180.7957743
0
ARC
8
DEFAULT_255_2_778
10
3.604965
20
79.6521451
40
0.49795
50
165.0844935
51
168.1981232
0
ARC
8
DEFAULT_255_2_778
10
3.4571521
20
79.7014992
40
0.3425498
50
142.3344629
51
166.6979519
0
ARC
8
DEFAULT_255_2_778
10
3.3651154
20
79.7674408
40
0.2294362
50
110.9465344
51
141.3254406
0
ARC
8
DEFAULT_255_2_778
10
3.4050295
20
79.645665
40
0.3574883
50
89.1564185
51
109.9434869
0
ARC
8
DEFAULT_255_2_778
10
3.414035
20
79.6244974
40
0.3786356
50
74.4730204
51
90.5662899
0
ARC
8
DEFAULT_255_2_778
10
3.4500793
20
79.755947
40
0.2423351
50
51.5433963
51
74.364468
0
ARC
8
DEFAULT_255_2_778
10
3.4413381
20
79.7509756
40
0.2516923
50
27.351341
51
50.6889677
0
ARC
8
DEFAULT_255_2_778
10
3.2814725
20
79.6709805
40
0.430446
50
10.0659483
51
27.0322191
0
ARC
8
DEFAULT_255_2_778
10
2.8491929
20
79.589825
40
0.870267
50
359.288254
51
10.3524582
0
ARC
8
DEFAULT_255_2_778
10
2.8246793
20
79.6069766
40
0.7698458
50
359.4744027
51
8.1274976
0
ARC
8
DEFAULT_255_2_778
10
3.2223045
20
79.6654483
40
0.3679516
50
7.8675103
51
21.652637
0
ARC
8
DEFAULT_255_2_778
10
3.4026311
20
79.7376151
40
0.1737221
50
21.4752213
51
44.2858432
0
ARC
8
DEFAULT_255_2_778
10
3.4291643
20
79.7608056
40
0.1385488
50
45.0820339
51
70.5088298
0
ARC
8
DEFAULT_255_2_778
10
3.4128214
20
79.7087432
40
0.1930907
50
71.0918785
51
90.8097072
0
ARC
8
DEFAULT_255_2_778
10
3.4067411
20
79.7213255
40
0.1805202
50
88.936153
51
114.6353542
0
ARC
8
DEFAULT_255_2_778
10
3.3945431
20
79.7584243
40
0.1417811
50
116.4042936
51
148.1629546
0
ARC
8
DEFAULT_255_2_778
10
3.5025702
20
79.6937744
40
0.2676668
50
148.6042257
51
170.0955646
0
ARC
8
DEFAULT_255_2_778
10
3.9149071
20
79.610358
40
0.6882982
50
169.1591188
51
180.8943458
0
ARC
8
DEFAULT_255_2_778
10
4.001832
20
79.4027181
40
0.77517
50
179.4902504
51
188.0985927
0
ARC
8
DEFAULT_255_2_778
10
3.5964848
20
79.3437109
40
0.3655549
50
187.8925248
51
202.0603651
0
ARC
8
DEFAULT_255_2_778
10
3.441238
20
79.2794116
40
0.1975283
50
201.6880088
51
222.3227576
0
ARC
8
DEFAULT_255_2_778
10
3.3958542
20
79.2401026
40
0.1375143
50
222.9450579
51
249.0085845
0
ARC
8
DEFAULT_255_2_778
10
3.4089686
20
79.281159
40
0.1805607
50
249.7903237
51
270.7692444
0
ARC
8
DEFAULT_255_2_778
10
3.4154286
20
79.2733384
40
0.172771
50
268.6614802
51
296.0466328
0
ARC
8
DEFAULT_255_2_778
10
3.4227982
20
79.2474567
40
0.1463587
50
297.9039583
51
329.3365644
0
ARC
8
DEFAULT_255_2_778
10
3.3044297
20
79.3153284
40
0.2827979
50
329.7388313
51
350.5536701
0
ARC
8
DEFAULT_255_2_778
10
2.8468951
20
79.3993856
40
0.7479649
50
349.9542381
51
0.7682653
0
ARC
8
DEFAULT_255_2_778
10
3.9710941
20
79.0799938
40
0.0771242
50
137.9854131
51
181.3962199
0
ARC
8
DEFAULT_255_2_778
10
3.9663532
20
79.0793723
40
0.0741071
50
86.1781772
51
135.1739638
0
ARC
8
DEFAULT_255_2_778
10
3.9761895
20
79.0795011
40
0.0739757
50
44.7865099
51
93.7954149
0
ARC
8
DEFAULT_255_2_778
10
3.9720878
20
79.0802515
40
0.0764348
50
358.3979116
51
42.2204554
0
ARC
8
DEFAULT_255_2_778
10
3.9739792
20
79.0763296
40
0.0745349
50
317.2283514
51
1.3722419
0
ARC
8
DEFAULT_255_2_778
10
3.9762541
20
79.0786873
40
0.074538
50
266.1834552
51
314.7096987
0
ARC
8
DEFAULT_255_2_778
10
3.9662887
20
79.0788181
40
0.0746713
50
225.3296085
51
273.842484
0
ARC
8
DEFAULT_255_2_778
10
3.9685063
20
79.0763296
40
0.0745349
50
178.6277581
51
222.7716486
0
LINE
8
DEFAULT_255_2_778
10
3.7193927
20
79.5790146
11
3.7193927
21
79.4300146
0
LINE
8
DEFAULT_255_2_778
10
3.1020927
20
79.4300146
11
3.1020927
21
79.5790146
0
LINE
8
DEFAULT_255_2_778
10
3.7193927
20
79.5790146
11
3.7193927
21
79.5790146
0
LINE
8
DEFAULT_255_2_778
10
3.5944927
20
79.4099146
11
3.5944927
21
79.5999146
0
LINE
8
DEFAULT_255_2_778
10
3.2266927
20
79.5996146
11
3.2266927
21
79.4096146
0
LINE
8
DEFAULT_255_2_778
10
3.5947927
20
79.4094146
11
3.5944927
21
79.4099146
0
LINE
8
DEFAULT_255_2_778
10
3.8939927
20
79.0781146
11
3.8939927
21
79.0781146
0
LINE
8
DEFAULT_255_2_778
10
4.6295073
20
79.9952312
11
4.6491073
21
79.9952312
0
LINE
8
DEFAULT_255_2_778
10
4.6491073
20
79.9952312
11
4.6491073
21
79.0125312
0
LINE
8
DEFAULT_255_2_778
10
4.6491073
20
79.0125312
11
4.5250073
21
79.0125312
0
LINE
8
DEFAULT_255_2_778
10
4.5250073
20
79.0125312
11
4.5250073
21
79.8402312
0
LINE
8
DEFAULT_255_2_778
10
4.5250073
20
79.8402312
11
4.2747073
21
79.7489312
0
LINE
8
DEFAULT_255_2_778
10
4.2747073
20
79.7489312
11
4.2747073
21
79.8611312
0
LINE
8
DEFAULT_255_2_778
10
4.2747073
20
79.8611312
11
4.6298073
21
79.9952312
0
LINE
8
DEFAULT_255_2_778
10
4.6298073
20
79.9952312
11
4.6295073
21
79.9952312
0
LINE
8
DEFAULT_255_2_778
10
5.5471198
20
79.3742854
11
5.3812198
21
79.8303854
0
LINE
8
DEFAULT_255_2_778
10
5.3812198
20
79.8303854
11
5.2156198
21
79.3742854
0
LINE
8
DEFAULT_255_2_778
10
5.2156198
20
79.3742854
11
5.5471198
21
79.3742854
0
LINE
8
DEFAULT_255_2_778
10
5.1770198
20
79.2681854
11
5.0841198
21
79.0122854
0
LINE
8
DEFAULT_255_2_778
10
5.0841198
20
79.0122854
11
4.9518198
21
79.0122854
0
LINE
8
DEFAULT_255_2_778
10
4.9518198
20
79.0122854
11
5.3243198
21
79.9896854
0
LINE
8
DEFAULT_255_2_778
10
5.3243198
20
79.9896854
11
5.3526198
21
79.9896854
0
LINE
8
DEFAULT_255_2_778
10
5.3526198
20
79.9896854
11
5.4098198
21
79.9896854
0
LINE
8
DEFAULT_255_2_778
10
5.4098198
20
79.9896854
11
5.4381198
21
79.9896854
0
LINE
8
DEFAULT_255_2_778
10
5.4381198
20
79.9896854
11
5.8120198
21
79.0122854
0
LINE
8
DEFAULT_255_2_778
10
5.8120198
20
79.0122854
11
5.6791198
21
79.0122854
0
LINE
8
DEFAULT_255_2_778
10
5.6791198
20
79.0122854
11
5.5860198
21
79.2681854
0
LINE
8
DEFAULT_255_2_778
10
5.5860198
20
79.2681854
11
5.1770198
21
79.2681854
0
LINE
8
DEFAULT_255_2_778
10
1.5638073
20
81.6449312
11
1.5834073
21
81.6449312
0
LINE
8
DEFAULT_255_2_778
10
1.5834073
20
81.6449312
11
1.5834073
21
80.6622312
0
LINE
8
DEFAULT_255_2_778
10
1.5834073
20
80.6622312
11
1.4593073
21
80.6622312
0
LINE
8
DEFAULT_255_2_778
10
1.4593073
20
80.6622312
11
1.4593073
21
81.4899312
0
LINE
8
DEFAULT_255_2_778
10
1.4593073
20
81.4899312
11
1.2090073
21
81.3986312
0
LINE
8
DEFAULT_255_2_778
10
1.2090073
20
81.3986312
11
1.2090073
21
81.5108312
0
LINE
8
DEFAULT_255_2_778
10
1.2090073
20
81.5108312
11
1.5641073
21
81.6449312
0
LINE
8
DEFAULT_255_2_778
10
1.5641073
20
81.6449312
11
1.5638073
21
81.6449312
0
ARC
8
DEFAULT_255_2_778
10
1.1977733
20
82.0819576
40
1.4478112
50
317.7003326
51
322.9890714
0
ARC
8
DEFAULT_255_2_778
10
1.7913596
20
81.625134
40
0.6988673
50
323.6009663
51
324.4868196
0
ARC
8
DEFAULT_255_2_778
10
2.0687093
20
81.4343975
40
0.3623602
50
323.5612094
51
338.5300201
0
ARC
8
DEFAULT_255_2_778
10
2.197273
20
81.3765616
40
0.2216521
50
340.279423
51
0.0277048
0
ARC
8
DEFAULT_255_2_778
10
2.2274248
20
81.3794221
40
0.1915201
50
359.1762682
51
26.2965322
0
ARC
8
DEFAULT_255_2_778
10
2.2602168
20
81.3939492
40
0.1556931
50
26.8499027
51
58.6902103
0
ARC
8
DEFAULT_255_2_778
10
2.2537342
20
81.376803
40
0.1737438
50
59.8021685
51
91.7180648
0
ARC
8
DEFAULT_255_2_778
10
2.2408459
20
81.3366067
40
0.2139998
50
87.9435473
51
118.1073859
0
ARC
8
DEFAULT_255_2_778
10
2.218811
20
81.3875392
40
0.1587583
50
119.7530744
51
154.7467259
0
ARC
8
DEFAULT_255_2_778
10
2.2920894
20
81.3564668
40
0.2383107
50
155.5063071
51
181.1295993
0
ARC
8
DEFAULT_255_2_778
10
2.2480464
20
81.3553928
40
0.318342
50
152.4021555
51
180.6522754
0
ARC
8
DEFAULT_255_2_778
10
2.203126
20
81.3764424
40
0.2687897
50
118.8512134
51
151.9427108
0
ARC
8
DEFAULT_255_2_778
10
2.2369837
20
81.3034987
40
0.3490609
50
88.1052258
51
117.9413562
0
ARC
8
DEFAULT_255_2_778
10
2.2582797
20
81.2981846
40
0.3543184
50
65.1775859
51
91.5775863
0
ARC
8
DEFAULT_255_2_778
10
2.3058913
20
81.4061535
40
0.2363462
50
31.1664363
51
64.665308
0
ARC
8
DEFAULT_255_2_778
10
2.2815479
20
81.3972183
40
0.261847
50
358.6761467
51
30.0826265
0
ARC
8
DEFAULT_255_2_778
10
2.2670258
20
81.3928111
40
0.2763042
50
341.2878044
51
359.6594205
0
ARC
8
DEFAULT_255_2_778
10
2.0815965
20
81.4540098
40
0.4715679
50
329.767237
51
341.4730429
0
ARC
8
DEFAULT_255_2_778
10
1.870293
20
81.5739022
40
0.7145044
50
321.6490387
51
329.9924803
0
ARC
8
DEFAULT_255_2_778
10
1.2671145
20
82.0503683
40
1.4831682
50
317.4430913
51
321.6722815
0
ARC
8
DEFAULT_255_2_778
10
2.5373733
20
82.0819576
40
1.4478112
50
317.7003326
51
322.9890714
0
ARC
8
DEFAULT_255_2_778
10
3.1309596
20
81.625134
40
0.6988673
50
323.6009663
51
324.4868196
0
ARC
8
DEFAULT_255_2_778
10
3.4083093
20
81.4343975
40
0.3623602
50
323.5612094
51
338.5300201
0
ARC
8
DEFAULT_255_2_778
10
3.536873
20
81.3765616
40
0.2216521
50
340.279423
51
0.0277048
0
ARC
8
DEFAULT_255_2_778
10
3.5670248
20
81.3794221
40
0.1915201
50
359.1762682
51
26.2965322
0
ARC
8
DEFAULT_255_2_778
10
3.5998168
20
81.3939492
40
0.1556931
50
26.8499027
51
58.6902103
0
ARC
8
DEFAULT_255_2_778
10
3.593251
20
81.3764754
40
0.1740688
50
59.832758
51
91.6874753
0
ARC
8
DEFAULT_255_2_778
10
3.5804459
20
81.3366067
40
0.2139998
50
87.9435473
51
118.1073859
0
ARC
8
DEFAULT_255_2_778
10
3.5578307
20
81.3880756
40
0.1580048
50
119.666926
51
154.8328743
0
ARC
8
DEFAULT_255_2_778
10
3.6316894
20
81.3564668
40
0.2383107
50
155.5063071
51
181.1295993
0
ARC
8
DEFAULT_255_2_778
10
3.5876464
20
81.3553928
40
0.318342
50
152.4021555
51
180.6522754
0
ARC
8
DEFAULT_255_2_778
10
3.542726
20
81.3764424
40
0.2687897
50
118.8512134
51
151.9427108
0
ARC
8
DEFAULT_255_2_778
10
3.5765837
20
81.3034987
40
0.3490609
50
88.1052258
51
117.9413562
0
ARC
8
DEFAULT_255_2_778
10
3.5978797
20
81.2981846
40
0.3543184
50
65.1775859
51
91.5775863
0
ARC
8
DEFAULT_255_2_778
10
3.6454913
20
81.4061535
40
0.2363462
50
31.1664363
51
64.665308
0
ARC
8
DEFAULT_255_2_778
10
3.6211479
20
81.3972183
40
0.261847
50
358.6761467
51
30.0826265
0
ARC
8
DEFAULT_255_2_778
10
3.6066258
20
81.3928111
40
0.2763042
50
341.2878044
51
359.6594205
0
ARC
8
DEFAULT_255_2_778
10
3.4130775
20
81.4576893
40
0.4804362
50
329.8756416
51
341.3646383
0
ARC
8
DEFAULT_255_2_778
10
3.215709
20
81.5705974
40
0.7078153
50
321.5616899
51
329.9886849
0
ARC
8
DEFAULT_255_2_778
10
2.6285349
20
82.0303994
40
1.4535898
50
317.4411842
51
321.753915
0
ARC
8
DEFAULT_255_2_778
10
7.291837
20
81.0122163
40
0.4118719
50
330.110517
51
354.5179729
0
ARC
8
DEFAULT_255_2_778
10
7.3850466
20
80.9618389
40
0.3059683
50
297.7532051
51
329.5913345
0
ARC
8
DEFAULT_255_2_778
10
7.3474856
20
81.0499905
40
0.4015459
50
268.8802752
51
296.6388939
0
ARC
8
DEFAULT_255_2_778
10
7.3314334
20
81.2884912
40
0.6400224
50
269.9992582
51
270.7345759
0
ARC
8
DEFAULT_255_2_778
10
7.3263009
20
81.0170558
40
0.3686227
50
245.8223436
51
270.7964907
0
ARC
8
DEFAULT_255_2_778
10
7.3195638
20
80.9952851
40
0.3460136
50
220.1088546
51
245.3635835
0
ARC
8
DEFAULT_255_2_778
10
7.3808849
20
81.041703
40
0.4228365
50
197.4126199
51
219.5662605
0
ARC
8
DEFAULT_255_2_778
10
7.5508402
20
81.0940236
40
0.6006613
50
179.2898044
51
197.3233064
0
ARC
8
DEFAULT_255_2_778
10
7.549888
20
81.206357
40
0.5997097
50
162.6626534
51
180.7154382
0
ARC
8
DEFAULT_255_2_778
10
7.3727156
20
81.2616442
40
0.4141113
50
139.8845127
51
162.6596807
0
ARC
8
DEFAULT_255_2_778
10
7.3199996
20
81.302892
40
0.3472281
50
113.809414
51
139.484791
0
ARC
8
DEFAULT_255_2_778
10
7.3366579
20
81.2565564
40
0.3963603
50
89.1084633
51
113.308537
0
ARC
8
DEFAULT_255_2_778
10
7.3551509
20
81.265082
40
0.3879825
50
63.1931185
51
91.8205335
0
ARC
8
DEFAULT_255_2_778
10
7.388721
20
81.345881
40
0.300797
50
29.9976281
51
61.9593389
0
ARC
8
DEFAULT_255_2_778
10
7.2809349
20
81.2892214
40
0.4225
50
5.0032774
51
29.3440603
0
ARC
8
DEFAULT_255_2_778
10
7.2105576
20
81.2827522
40
0.3650466
50
6.8147935
51
26.1906172
0
ARC
8
DEFAULT_255_2_778
10
7.3755178
20
81.3617469
40
0.1821679
50
26.795224
51
60.3540611
0
ARC
8
DEFAULT_255_2_778
10
7.3533333
20
81.2993549
40
0.2476369
50
63.0345499
51
92.4320285
0
ARC
8
DEFAULT_255_2_778
10
7.3375117
20
81.2950548
40
0.25177
50
88.7907444
51
115.7263488
0
ARC
8
DEFAULT_255_2_778
10
7.3310078
20
81.3176903
40
0.2285894
50
116.720522
51
144.14952
0
ARC
8
DEFAULT_255_2_778
10
7.4101507
20
81.2647315
40
0.3237731
50
144.7558256
51
166.1988157
0
ARC
8
DEFAULT_255_2_778
10
7.6368634
20
81.2063675
40
0.5578695
50
165.9322017
51
180.6058382
0
ARC
8
DEFAULT_255_2_778
10
7.6594827
20
81.0983495
40
0.5804677
50
179.6624997
51
193.1017245
0
ARC
8
DEFAULT_255_2_778
10
7.4411296
20
81.0458833
40
0.3559091
50
192.8434887
51
212.2492913
0
ARC
8
DEFAULT_255_2_778
10
7.3326599
20
80.9793232
40
0.2286613
50
212.647145
51
240.114462
0
ARC
8
DEFAULT_255_2_778
10
7.3257037
20
80.9764241
40
0.2227289
50
241.2944289
51
271.4719532
0
ARC
8
DEFAULT_255_2_778
10
7.3434779
20
81.0384296
40
0.284916
50
267.5754815
51
294.104
0
ARC
8
DEFAULT_255_2_778
10
7.3872227
20
80.9212771
40
0.1603087
50
296.9336628
51
298.1790498
0
ARC
8
DEFAULT_255_2_778
10
7.3827235
20
80.9331052
40
0.1728672
50
297.6422283
51
333.2020345
0
ARC
8
DEFAULT_255_2_778
10
7.1855102
20
81.0271318
40
0.3913234
50
333.9318579
51
351.9997963
0
ARC
8
DEFAULT_255_2_778
10
6.3818938
20
81.1487264
40
0.4907395
50
62.3112146
51
91.1406074
0
ARC
8
DEFAULT_255_2_778
10
6.4268377
20
81.2402362
40
0.3888345
50
28.1980669
51
61.9097332
0
ARC
8
DEFAULT_255_2_778
10
6.3349193
20
81.1944939
40
0.4914681
50
359.0876941
51
27.8343595
0
ARC
8
DEFAULT_255_2_778
10
6.3320555
20
81.1136353
40
0.494395
50
332.3587553
51
1.2903712
0
ARC
8
DEFAULT_255_2_778
10
6.4302494
20
81.0676238
40
0.3860914
50
297.6001754
51
331.6471226
0
ARC
8
DEFAULT_255_2_778
10
6.3723986
20
81.1918579
40
0.523028
50
269.3017893
51
296.9111145
0
ARC
8
DEFAULT_255_2_778
10
6.3744804
20
81.1173221
40
0.3439406
50
267.6579299
51
303.991252
0
ARC
8
DEFAULT_255_2_778
10
6.4056898
20
81.0552465
40
0.2751657
50
305.8297466
51
316.4809998
0
ARC
8
DEFAULT_255_2_778
10
6.355483
20
81.0892336
40
0.3351234
50
318.1783773
51
356.9781291
0
ARC
8
DEFAULT_255_2_778
10
6.1059051
20
81.126595
40
0.586821
50
354.6192765
51
0.104834
0
ARC
8
DEFAULT_255_2_778
10
6.2620028
20
81.197214
40
0.4309167
50
358.2785033
51
24.6245773
0
ARC
8
DEFAULT_255_2_778
10
6.399543
20
81.2519544
40
0.2831767
50
26.1517124
51
41.9271161
0
ARC
8
DEFAULT_255_2_778
10
6.3946871
20
81.236672
40
0.297112
50
43.4942364
51
90.8873229
0
ARC
8
DEFAULT_255_2_778
10
6.3718913
20
81.0439585
40
0.4901278
50
87.8725617
51
89.516758
0
LINE
8
DEFAULT_255_2_778
10
2.0982251
20
80.7641687
11
2.5882251
21
80.7641687
0
LINE
8
DEFAULT_255_2_778
10
2.5882251
20
80.7641687
11
2.5882251
21
80.6619687
0
LINE
8
DEFAULT_255_2_778
10
2.5882251
20
80.6619687
11
1.9485251
21
80.6619687
0
LINE
8
DEFAULT_255_2_778
10
1.9485251
20
80.6619687
11
1.9485251
21
80.7511687
0
LINE
8
DEFAULT_255_2_778
10
1.9485251
20
80.7511687
11
2.2686251
21
81.1075687
0
LINE
8
DEFAULT_255_2_778
10
2.0538251
20
81.3517687
11
1.9297251
21
81.3517687
0
LINE
8
DEFAULT_255_2_778
10
2.3596251
20
81.0472687
11
2.0980251
21
80.7633687
0
LINE
8
DEFAULT_255_2_778
10
2.0980251
20
80.7633687
11
2.0982251
21
80.7641687
0
LINE
8
DEFAULT_255_2_778
10
3.0597251
20
81.6393687
11
3.1658251
21
81.6393687
0
LINE
8
DEFAULT_255_2_778
10
3.1658251
20
81.6393687
11
2.7584251
21
80.5781687
0
LINE
8
DEFAULT_255_2_778
10
2.7584251
20
80.5781687
11
2.6517251
21
80.5781687
0
LINE
8
DEFAULT_255_2_778
10
2.6517251
20
80.5781687
11
3.0597251
21
81.6393687
0
LINE
8
DEFAULT_255_2_778
10
3.0597251
20
81.6393687
11
3.0597251
21
81.6393687
0
LINE
8
DEFAULT_255_2_778
10
3.4378251
20
80.7641687
11
3.9278251
21
80.7641687
0
LINE
8
DEFAULT_255_2_778
10
3.9278251
20
80.7641687
11
3.9278251
21
80.6619687
0
LINE
8
DEFAULT_255_2_778
10
3.9278251
20
80.6619687
11
3.2881251
21
80.6619687
0
LINE
8
DEFAULT_255_2_778
10
3.2881251
20
80.6619687
11
3.2881251
21
80.7511687
0
LINE
8
DEFAULT_255_2_778
10
3.2881251
20
80.7511687
11
3.6082251
21
81.1075687
0
LINE
8
DEFAULT_255_2_778
10
3.3934251
20
81.3517687
11
3.2693251
21
81.3517687
0
LINE
8
DEFAULT_255_2_778
10
3.6992251
20
81.0472687
11
3.4376251
21
80.7633687
0
LINE
8
DEFAULT_255_2_778
10
3.4376251
20
80.7633687
11
3.4378251
21
80.7641687
0
LINE
8
DEFAULT_255_2_778
10
4.4602251
20
80.9908687
11
4.4602251
21
81.4710687
0
LINE
8
DEFAULT_255_2_778
10
4.4602251
20
81.4710687
11
4.4448251
21
81.4433687
0
LINE
8
DEFAULT_255_2_778
10
4.4448251
20
81.4433687
11
4.1556251
21
80.9908687
0
LINE
8
DEFAULT_255_2_778
10
4.1556251
20
80.9908687
11
4.4602251
21
80.9908687
0
LINE
8
DEFAULT_255_2_778
10
4.4602251
20
80.8887687
11
4.4602251
21
80.6619687
0
LINE
8
DEFAULT_255_2_778
10
4.4602251
20
80.6619687
11
4.5843251
21
80.6619687
0
LINE
8
DEFAULT_255_2_778
10
4.5843251
20
80.6619687
11
4.5843251
21
80.8887687
0
LINE
8
DEFAULT_255_2_778
10
4.5843251
20
80.8887687
11
4.7205251
21
80.8887687
0
LINE
8
DEFAULT_255_2_778
10
4.7205251
20
80.8887687
11
4.7205251
21
80.9908687
0
LINE
8
DEFAULT_255_2_778
10
4.7205251
20
80.9908687
11
4.5843251
21
80.9908687
0
LINE
8
DEFAULT_255_2_778
10
4.5843251
20
80.9908687
11
4.5843251
21
81.6393687
0
LINE
8
DEFAULT_255_2_778
10
4.5843251
20
81.6393687
11
4.5533251
21
81.6393687
0
LINE
8
DEFAULT_255_2_778
10
4.5533251
20
81.6393687
11
4.4520251
21
81.6393687
0
LINE
8
DEFAULT_255_2_778
10
4.4520251
20
81.6393687
11
4.0144251
21
80.9620687
0
LINE
8
DEFAULT_255_2_778
10
4.0144251
20
80.9620687
11
4.0144251
21
80.8887687
0
LINE
8
DEFAULT_255_2_778
10
4.0144251
20
80.8887687
11
4.4602251
21
80.8887687
0
LINE
8
DEFAULT_255_2_778
10
5.5294251
20
80.8337687
11
5.2521251
21
81.6393687
0
LINE
8
DEFAULT_255_2_778
10
5.2521251
20
81.6393687
11
5.1118251
21
81.6393687
0
LINE
8
DEFAULT_255_2_778
10
5.1118251
20
81.6393687
11
5.4730251
21
80.6619687
0
LINE
8
DEFAULT_255_2_778
10
5.4730251
20
80.6619687
11
5.4878251
21
80.6619687
0
LINE
8
DEFAULT_255_2_778
10
5.4878251
20
80.6619687
11
5.5730251
21
80.6619687
0
LINE
8
DEFAULT_255_2_778
10
5.5730251
20
80.6619687
11
5.5878251
21
80.6619687
0
LINE
8
DEFAULT_255_2_778
10
5.5878251
20
80.6619687
11
5.9495251
21
81.6393687
0
LINE
8
DEFAULT_255_2_778
10
5.9495251
20
81.6393687
11
5.8093251
21
81.6393687
0
LINE
8
DEFAULT_255_2_778
10
5.8093251
20
81.6393687
11
5.5294251
21
80.8337687
0
LINE
8
DEFAULT_255_2_778
10
7.5730251
20
80.9728687
11
7.7018251
21
80.9728687
0
LINE
8
DEFAULT_255_2_778
10
6.9502251
20
81.1014687
11
6.9502251
21
81.1988687
0
LINE
8
DEFAULT_255_2_778
10
7.7018251
20
81.3260687
11
7.5730251
21
81.3260687
0
LINE
8
DEFAULT_255_2_778
10
7.0790251
20
81.2004687
11
7.0790251
21
81.1017687
0
LINE
8
DEFAULT_255_2_778
10
7.5730251
20
80.9726687
11
7.5730251
21
80.9728687
0
LINE
8
DEFAULT_255_2_778
10
6.3665251
20
80.6688687
11
6.0810251
21
80.6688687
0
LINE
8
DEFAULT_255_2_778
10
6.0810251
20
80.6688687
11
6.0810251
21
81.6393687
0
LINE
8
DEFAULT_255_2_778
10
6.0810251
20
81.6393687
11
6.3721251
21
81.6393687
0
LINE
8
DEFAULT_255_2_778
10
6.8263251
20
81.1866687
11
6.8263251
21
81.1247687
0
LINE
8
DEFAULT_255_2_778
10
6.3660251
20
80.6688687
11
6.3665251
21
80.6688687
0
LINE
8
DEFAULT_255_2_778
10
6.3758251
20
81.5340687
11
6.2173251
21
81.5340687
0
LINE
8
DEFAULT_255_2_778
10
6.2173251
20
81.5340687
11
6.2173251
21
80.7736687
0
LINE
8
DEFAULT_255_2_778
10
6.2173251
20
80.7736687
11
6.3604251
21
80.7736687
0
LINE
8
DEFAULT_255_2_778
10
6.6927251
20
81.1276687
11
6.6927251
21
81.1842687
0
LINE
8
DEFAULT_255_2_778
10
6.3760251
20
81.5340687
11
6.3758251
21
81.5340687
0
ARC
8
DEFAULT_255_2_778
10
4.2642447
20
97.6891796
40
2.4143503
50
317.7898756
51
321.8220029
0
ARC
8
DEFAULT_255_2_778
10
5.2180586
20
96.9323423
40
1.1967686
50
322.0798995
51
324.5951866
0
ARC
8
DEFAULT_255_2_778
10
5.7380706
20
96.5747074
40
0.5658065
50
323.6059912
51
338.16215
0
ARC
8
DEFAULT_255_2_778
10
5.9657692
20
96.4744411
40
0.3172609
50
339.6742141
51
340.0121642
0
ARC
8
DEFAULT_255_2_778
10
5.9426662
20
96.4814002
40
0.3413537
50
340.2399617
51
359.9990914
0
ARC
8
DEFAULT_255_2_778
10
5.9882611
20
96.4854236
40
0.2957862
50
359.2195665
51
26.2604298
0
ARC
8
DEFAULT_255_2_778
10
6.0436524
20
96.5117379
40
0.2344707
50
26.4826811
51
59.0837302
0
ARC
8
DEFAULT_255_2_778
10
6.0295073
20
96.4823291
40
0.2669852
50
59.7220643
51
91.7143721
0
ARC
8
DEFAULT_255_2_778
10
6.0096301
20
96.420829
40
0.3285809
50
87.926289
51
118.1681618
0
ARC
8
DEFAULT_255_2_778
10
5.974925
20
96.4992284
40
0.2431684
50
119.6797182
51
154.8441862
0
ARC
8
DEFAULT_255_2_778
10
6.0870705
20
96.4504696
40
0.3654211
50
155.3987176
51
181.1250356
0
ARC
8
DEFAULT_255_2_778
10
6.0197814
20
96.4487052
40
0.4893914
50
152.3396858
51
180.6334476
0
ARC
8
DEFAULT_255_2_778
10
5.9533043
20
96.48013
40
0.4159344
50
119.0055817
51
151.9226824
0
ARC
8
DEFAULT_255_2_778
10
5.9963225
20
96.3898044
40
0.515827
50
91.0288106
51
118.3195782
0
ARC
8
DEFAULT_255_2_778
10
6.0212266
20
96.1240225
40
0.7822723
50
89.9785162
51
92.5031925
0
ARC
8
DEFAULT_255_2_778
10
6.0343632
20
96.3420836
40
0.5643573
50
67.9684675
51
91.3040139
0
ARC
8
DEFAULT_255_2_778
10
6.0828977
20
96.4863386
40
0.4125311
50
63.7400345
51
66.7014153
0
ARC
8
DEFAULT_255_2_778
10
6.1097417
20
96.5274739
40
0.3638116
50
31.1736116
51
64.6650743
0
ARC
8
DEFAULT_255_2_778
10
6.0724542
20
96.5135888
40
0.4029706
50
358.6926471
51
30.1183906
0
ARC
8
DEFAULT_255_2_778
10
6.0485466
20
96.5066636
40
0.4267793
50
341.3938272
51
359.6954065
0
ARC
8
DEFAULT_255_2_778
10
5.7661722
20
96.5989085
40
0.7238319
50
329.8721554
51
341.6052629
0
ARC
8
DEFAULT_255_2_778
10
5.4361329
20
96.7892318
40
1.1048151
50
321.6209317
51
329.9263447
0
ARC
8
DEFAULT_255_2_778
10
4.6386595
20
97.4083906
40
2.1144049
50
317.3261119
51
321.8851183
0
ARC
8
DEFAULT_255_2_778
10
7.3587989
20
96.8475548
40
0.7013919
50
269.4543882
51
269.9968482
0
ARC
8
DEFAULT_255_2_778
10
7.3709171
20
96.577622
40
0.4316302
50
268.3860639
51
291.0015215
0
ARC
8
DEFAULT_255_2_778
10
7.4206853
20
96.4249636
40
0.2714017
50
292.7433563
51
296.5084337
0
ARC
8
DEFAULT_255_2_778
10
7.4351876
20
96.3972463
40
0.2401263
50
296.3637014
51
332.2108312
0
ARC
8
DEFAULT_255_2_778
10
7.3538138
20
96.4317426
40
0.3282819
50
333.5060195
51
1.2309333
0
ARC
8
DEFAULT_255_2_778
10
7.3609389
20
96.4396994
40
0.3210822
50
359.838577
51
26.7653445
0
ARC
8
DEFAULT_255_2_778
10
7.4083278
20
96.4567911
40
0.2711418
50
28.0503528
51
60.5059662
0
ARC
8
DEFAULT_255_2_778
10
7.3713368
20
96.3682073
40
0.3666353
50
62.2901988
51
90.3262451
0
ARC
8
DEFAULT_255_2_778
10
7.3514394
20
96.1207579
40
0.6143369
50
88.3387464
51
90.011147
0
ARC
8
DEFAULT_255_2_778
10
7.356562
20
95.9499481
40
0.9486571
50
90.0002791
51
90.2682909
0
ARC
8
DEFAULT_255_2_778
10
7.3693656
20
96.2363518
40
0.6623772
50
70.8725602
51
91.1079833
0
ARC
8
DEFAULT_255_2_778
10
7.4288886
20
96.4337218
40
0.4564777
50
62.4924608
51
69.8137101
0
ARC
8
DEFAULT_255_2_778
10
7.466628
20
96.4647024
40
0.4120149
50
31.0468912
51
65.1584158
0
ARC
8
DEFAULT_255_2_778
10
7.4209751
20
96.4483931
40
0.4596388
50
358.8408462
51
29.8536158
0
ARC
8
DEFAULT_255_2_778
10
7.4050114
20
96.4261791
40
0.4756839
50
330.6457046
51
1.5558718
0
ARC
8
DEFAULT_255_2_778
10
7.4920788
20
96.3887605
40
0.3815853
50
292.7626725
51
329.1339598
0
ARC
8
DEFAULT_255_2_778
10
7.3897777
20
96.6187569
40
0.633273
50
272.6818789
51
293.2462179
0
ARC
8
DEFAULT_255_2_778
10
7.3532001
20
96.9890336
40
1.0050393
50
269.9384186
51
273.7771966
0
ARC
8
DEFAULT_255_2_778
10
1.8406378
20
96.1636803
40
0.8993748
50
343.6750465
51
0.8227594
0
ARC
8
DEFAULT_255_2_778
10
2.0938584
20
96.0985098
40
0.6381032
50
336.3165851
51
342.8998238
0
ARC
8
DEFAULT_255_2_778
10
2.2003119
20
96.0407444
40
0.5175114
50
306.0989301
51
337.4392736
0
ARC
8
DEFAULT_255_2_778
10
2.2042191
20
96.1038362
40
0.5725493
50
269.6998583
51
283.8338603
0
ARC
8
DEFAULT_255_2_778
10
2.1920543
20
96.0435041
40
0.5122913
50
237.9919053
51
271.0251538
0
ARC
8
DEFAULT_255_2_778
10
2.1984214
20
96.0395266
40
0.5123483
50
204.0417474
51
237.1523281
0
ARC
8
DEFAULT_255_2_778
10
2.4417937
20
96.1520367
40
0.780453
50
180.8472535
51
204.3059882
0
ARC
8
DEFAULT_255_2_778
10
2.7227393
20
96.174931
40
1.0618715
50
180.5685141
51
181.8583287
0
ARC
8
DEFAULT_255_2_778
10
2.4993303
20
96.2746637
40
0.8385218
50
159.1204164
51
180.9340298
0
ARC
8
DEFAULT_255_2_778
10
2.3405195
20
96.3246786
40
0.6723868
50
155.6140131
51
158.2792981
0
ARC
8
DEFAULT_255_2_778
10
2.1998175
20
96.4004972
40
0.5130505
50
123.3028235
51
156.8382156
0
ARC
8
DEFAULT_255_2_778
10
2.1902443
20
96.3980518
40
0.5099237
50
88.9802037
51
122.2528906
0
ARC
8
DEFAULT_255_2_778
10
2.2099635
20
96.3888078
40
0.519196
50
58.1008751
51
91.1746598
0
ARC
8
DEFAULT_255_2_778
10
2.2075398
20
96.4047165
40
0.5070786
50
23.2268902
51
56.9184164
0
ARC
8
DEFAULT_255_2_778
10
1.9415773
20
96.2885527
40
0.797299
50
1.5434206
51
23.360575
0
ARC
8
DEFAULT_255_2_778
10
1.6301659
20
96.2621657
40
1.109454
50
359.980844
51
2.4725091
0
ARC
8
DEFAULT_255_2_778
10
1.7371185
20
96.2758737
40
0.8260957
50
359.1344609
51
14.4014336
0
ARC
8
DEFAULT_255_2_778
10
2.1079497
20
96.3704108
40
0.4434047
50
14.4873081
51
35.5472503
0
ARC
8
DEFAULT_255_2_778
10
2.2150752
20
96.4427968
40
0.3141783
50
36.164405
51
92.8196784
0
ARC
8
DEFAULT_255_2_778
10
2.1882054
20
96.4458743
40
0.3109301
50
87.8961508
51
143.9178736
0
ARC
8
DEFAULT_255_2_778
10
2.3385952
20
96.3413233
40
0.4940627
50
144.3905589
51
172.0007079
0
ARC
8
DEFAULT_255_2_778
10
2.7192355
20
96.2684971
40
0.8813417
50
170.7558408
51
179.558079
0
ARC
8
DEFAULT_255_2_778
10
2.6127185
20
96.164187
40
0.7749028
50
179.0603538
51
196.1231432
0
ARC
8
DEFAULT_255_2_778
10
2.3060791
20
96.0791415
40
0.4567201
50
196.5564753
51
215.4272957
0
ARC
8
DEFAULT_255_2_778
10
2.1893499
20
95.9935834
40
0.3120145
50
215.050333
51
272.1802384
0
ARC
8
DEFAULT_255_2_778
10
2.2163224
20
95.9939771
40
0.3125474
50
267.2303536
51
323.1177576
0
ARC
8
DEFAULT_255_2_778
10
2.0815206
20
96.0811073
40
0.4727975
50
324.4765335
51
350.674817
0
ARC
8
DEFAULT_255_2_778
10
1.6591588
20
96.1677007
40
0.9037691
50
349.5963407
51
359.7587147
0
LINE
8
DEFAULT_255_2_778
10
2.8973199
20
96.8980948
11
3.1256199
21
96.8980948
0
LINE
8
DEFAULT_255_2_778
10
3.1256199
20
96.8980948
11
3.5164199
21
96.1426948
0
LINE
8
DEFAULT_255_2_778
10
3.5164199
20
96.1426948
11
3.9080199
21
96.8980948
0
LINE
8
DEFAULT_255_2_778
10
3.9080199
20
96.8980948
11
4.1342199
21
96.8980948
0
LINE
8
DEFAULT_255_2_778
10
4.1342199
20
96.8980948
11
3.6154199
21
95.9553948
0
LINE
8
DEFAULT_255_2_778
10
3.6154199
20
95.9553948
11
3.6154199
21
95.3931948
0
LINE
8
DEFAULT_255_2_778
10
3.6154199
20
95.3931948
11
3.4159199
21
95.3931948
0
LINE
8
DEFAULT_255_2_778
10
3.4159199
20
95.3931948
11
3.4159199
21
95.9553948
0
LINE
8
DEFAULT_255_2_778
10
3.4159199
20
95.9553948
11
2.8973199
21
96.8980948
0
LINE
8
DEFAULT_255_2_778
10
2.8973199
20
96.8980948
11
2.8973199
21
96.8980948
0
LINE
8
DEFAULT_255_2_778
10
5.7900199
20
95.5378948
11
6.5446199
21
95.5378948
0
LINE
8
DEFAULT_255_2_778
10
6.5446199
20
95.5378948
11
6.5446199
21
95.3806948
0
LINE
8
DEFAULT_255_2_778
10
6.5446199
20
95.3806948
11
5.5595199
21
95.3806948
0
LINE
8
DEFAULT_255_2_778
10
5.5595199
20
95.3806948
11
5.5595199
21
95.5182948
0
LINE
8
DEFAULT_255_2_778
10
5.5595199
20
95.5182948
11
6.0525199
21
96.0670948
0
LINE
8
DEFAULT_255_2_778
10
5.7217199
20
96.4432948
11
5.5304199
21
96.4432948
0
LINE
8
DEFAULT_255_2_778
10
6.1932199
20
95.9751948
11
5.7903199
21
95.5381948
0
LINE
8
DEFAULT_255_2_778
10
5.7903199
20
95.5381948
11
5.7900199
21
95.5378948
0
LINE
8
DEFAULT_255_2_778
10
4.9161199
20
95.8841948
11
4.9161199
21
96.6350948
0
LINE
8
DEFAULT_255_2_778
10
4.9161199
20
96.6350948
11
4.8920199
21
96.5914948
0
LINE
8
DEFAULT_255_2_778
10
4.8920199
20
96.5914948
11
4.4396199
21
95.8839948
0
LINE
8
DEFAULT_255_2_778
10
4.4396199
20
95.8839948
11
4.9161199
21
95.8841948
0
LINE
8
DEFAULT_255_2_778
10
4.9161199
20
95.7246948
11
4.9161199
21
95.3698948
0
LINE
8
DEFAULT_255_2_778
10
4.9161199
20
95.3698948
11
5.1103199
21
95.3698948
0
LINE
8
DEFAULT_255_2_778
10
5.1103199
20
95.3698948
11
5.1103199
21
95.7246948
0
LINE
8
DEFAULT_255_2_778
10
5.1103199
20
95.7246948
11
5.3233199
21
95.7246948
0
LINE
8
DEFAULT_255_2_778
10
5.3233199
20
95.7246948
11
5.3233199
21
95.8841948
0
LINE
8
DEFAULT_255_2_778
10
5.3233199
20
95.8841948
11
5.1103199
21
95.8841948
0
LINE
8
DEFAULT_255_2_778
10
5.1103199
20
95.8841948
11
5.1103199
21
96.8980948
0
LINE
8
DEFAULT_255_2_778
10
5.1103199
20
96.8980948
11
5.0619199
21
96.8980948
0
LINE
8
DEFAULT_255_2_778
10
5.0619199
20
96.8980948
11
4.9034199
21
96.8980948
0
LINE
8
DEFAULT_255_2_778
10
4.9034199
20
96.8980948
11
4.2189199
21
95.8389948
0
LINE
8
DEFAULT_255_2_778
10
4.2189199
20
95.8389948
11
4.2189199
21
95.7246948
0
LINE
8
DEFAULT_255_2_778
10
4.2189199
20
95.7246948
11
4.9161199
21
95.7246948
0
LINE
8
DEFAULT_255_2_778
10
6.9965199
20
96.1461948
11
7.3521199
21
96.1461948
0
LINE
8
DEFAULT_255_2_778
10
7.3513199
20
96.7350948
11
6.9968199
21
96.7350948
0
LINE
8
DEFAULT_255_2_778
10
6.9968199
20
96.7350948
11
6.9965199
21
96.1461948
0
LINE
8
DEFAULT_255_2_778
10
6.9965199
20
95.9839948
11
6.9965199
21
95.3939948
0
LINE
8
DEFAULT_255_2_778
10
6.9965199
20
95.3939948
11
6.7970199
21
95.3939948
0
LINE
8
DEFAULT_255_2_778
10
6.7970199
20
95.3939948
11
6.7970199
21
96.8985948
0
LINE
8
DEFAULT_255_2_778
10
6.7970199
20
96.8985948
11
7.3521199
21
96.8985948
0
LINE
8
DEFAULT_255_2_778
10
7.3521199
20
95.9839948
11
6.9965199
21
95.9839948
0
LINE
8
DEFAULT_255_2_778
10
2.7399199
20
96.2622948
11
2.7399199
21
96.1765948
0
LINE
8
DEFAULT_255_2_778
10
2.5052199
20
95.6225948
11
2.7444199
21
95.4346948
0
LINE
8
DEFAULT_255_2_778
10
2.7444199
20
95.4346948
11
2.6237199
21
95.3232948
0
LINE
8
DEFAULT_255_2_778
10
2.6237199
20
95.3232948
11
2.3411199
21
95.5478948
0
LINE
8
DEFAULT_255_2_778
10
1.6609199
20
96.1643948
11
1.6609199
21
96.2609948
0
LINE
8
DEFAULT_255_2_778
10
2.7396199
20
96.2617948
11
2.7399199
21
96.2622948
0
LINE
8
DEFAULT_255_2_778
10
2.5631199
20
96.1638948
11
2.5631199
21
96.2633948
0
LINE
8
DEFAULT_255_2_778
10
1.8379199
20
96.2752948
11
1.8379199
21
96.1768948
0
LINE
8
DEFAULT_255_2_778
10
2.5629199
20
96.1638948
11
2.5631199
21
96.1638948
0
ENDSEC
0
EOF