0
SECTION
2
HEADER
9
$MEASUREMENT
70
1
0
ENDSEC
0
SECTION
2
TABLES
0
TABLE
2
LTYPE
0
LTYPE
72
65
70
64
2
CONTINUOUS
3
______
73
0
40
0
0
ENDTAB
0
TABLE
2
LAYER
0
LAYER
2
DEFAULT_255_2_778
70
0
62
255
6
CONTINUOUS
0
ENDTAB
0
ENDSEC
0
SECTION
2
ENTITIES
0
ARC
8
DEFAULT_255_2_778
10
26.8908374
20
97.0876389
40
0.699638
50
359.9917559
51
45.0209264
0
ARC
8
DEFAULT_255_2_778
10
26.8904037
20
97.0878262
40
0.6998121
50
44.9849645
51
90.0023171
0
ARC
8
DEFAULT_255_2_778
10
0.8904751
20
97.0880001
40
0.6996382
50
89.9917841
51
135.0209339
0
ARC
8
DEFAULT_255_2_778
10
0.8901129
20
97.0876387
40
0.6996377
50
134.9790363
51
180.0082264
0
ARC
8
DEFAULT_255_2_778
10
0.8902864
20
0.4876093
40
0.699811
50
179.9976337
51
225.0150586
0
ARC
8
DEFAULT_255_2_778
10
0.8904751
20
0.4871768
40
0.6996386
50
224.979086
51
270.0082089
0
ARC
8
DEFAULT_255_2_778
10
26.8907036
20
0.4873508
40
0.6998126
50
269.9976934
51
315.0150058
0
ARC
8
DEFAULT_255_2_778
10
26.890539
20
0.4876441
40
0.7001363
50
315.0075476
51
359.9995164
0
LINE
8
DEFAULT_255_2_778
10
26.8903754
20
97.7876382
11
0.8905754
21
97.7876382
0
LINE
8
DEFAULT_255_2_778
10
0.1904754
20
97.0875382
11
0.1904754
21
0.4876382
0
LINE
8
DEFAULT_255_2_778
10
0.8905754
20
-0.2124618
11
26.8906754
21
-0.2124618
0
LINE
8
DEFAULT_255_2_778
10
27.5906754
20
0.4876382
11
27.5906754
21
97.0875382
0
LINE
8
DEFAULT_255_2_778
10
0.1905077
20
82.7876312
11
27.5905077
21
82.7876312
0
LINE
8
DEFAULT_255_2_778
10
0.1905077
20
82.2875312
11
27.5905077
21
82.2875312
0
ARC
8
DEFAULT_255_2_778
10
0.9034672
20
78.7183142
40
1.3991184
50
318.1057942
51
324.2255013
0
ARC
8
DEFAULT_255_2_778
10
1.6007845
20
78.2138174
40
0.5384436
50
324.4022567
51
331.3362198
0
ARC
8
DEFAULT_255_2_778
10
1.8223038
20
78.093042
40
0.2861396
50
331.2798256
51
359.7998989
0
ARC
8
DEFAULT_255_2_778
10
1.8912533
20
78.100335
40
0.2173466
50
357.8134951
51
42.5609786
0
ARC
8
DEFAULT_255_2_778
10
1.9077015
20
78.1080848
40
0.2000631
50
44.1125177
51
92.5955248
0
ARC
8
DEFAULT_255_2_778
10
1.8843409
20
78.0711459
40
0.2372282
50
86.543963
51
133.6340355
0
ARC
8
DEFAULT_255_2_778
10
1.9040148
20
78.0771296
40
0.2471569
50
137.8960749
51
182.8205012
0
ARC
8
DEFAULT_255_2_778
10
2.0769075
20
78.0613719
40
0.4197657
50
179.5091974
51
180.0039932
0
ARC
8
DEFAULT_255_2_778
10
1.8600717
20
78.0758288
40
0.3567243
50
134.2749451
51
182.3273475
0
ARC
8
DEFAULT_255_2_778
10
1.873753
20
78.0454113
40
0.3882227
50
90.0135841
51
132.5865133
0
ARC
8
DEFAULT_255_2_778
10
1.8984674
20
77.8291985
40
0.6049442
50
89.9834973
51
92.3501419
0
ARC
8
DEFAULT_255_2_778
10
1.9120631
20
78.0089642
40
0.4253903
50
62.5519892
51
91.8080242
0
ARC
8
DEFAULT_255_2_778
10
1.9583574
20
78.1165835
40
0.3086642
50
47.9381399
51
60.9696173
0
ARC
8
DEFAULT_255_2_778
10
1.9620352
20
78.1232263
40
0.3012736
50
357.5871318
51
47.6110781
0
ARC
8
DEFAULT_255_2_778
10
1.8593604
20
78.1235321
40
0.4038902
50
331.6128874
51
358.1570136
0
ARC
8
DEFAULT_255_2_778
10
1.3879212
20
78.3599521
40
0.9311816
50
320.4246658
51
332.6062055
0
ARC
8
DEFAULT_255_2_778
10
0.8722177
20
78.7642941
40
1.5863727
50
317.1604053
51
321.0346642
0
LINE
8
DEFAULT_255_2_778
10
2.3185417
20
77.3342427
11
2.3185417
21
77.2088427
0
LINE
8
DEFAULT_255_2_778
10
2.3185417
20
77.2088427
11
1.5266417
21
77.2088427
0
LINE
8
DEFAULT_255_2_778
10
1.5266417
20
77.2088427
11
1.5266417
21
77.3191427
0
LINE
8
DEFAULT_255_2_778
10
1.5266417
20
77.3191427
11
1.9449417
21
77.7840427
0
LINE
8
DEFAULT_255_2_778
10
1.6571417
20
78.0613427
11
1.5036417
21
78.0613427
0
LINE
8
DEFAULT_255_2_778
10
2.0354417
20
77.6856427
11
1.7116417
21
77.3345427
0
LINE
8
DEFAULT_255_2_778
10
1.7116417
20
77.3345427
11
2.3183417
21
77.3345427
0
LINE
8
DEFAULT_255_2_778
10
2.3183417
20
77.3345427
11
2.3185417
21
77.3342427
0
LINE
8
DEFAULT_255_2_778
10
3.1294021
20
78.4175083
11
3.1294021
21
77.6148083
0
LINE
8
DEFAULT_255_2_778
10
3.1294021
20
77.6148083
11
3.2972021
21
77.6148083
0
LINE
8
DEFAULT_255_2_778
10
3.2972021
20
77.6148083
11
3.2972021
21
77.4893083
0
LINE
8
DEFAULT_255_2_778
10
3.2972021
20
77.4893083
11
3.1294021
21
77.4893083
0
LINE
8
DEFAULT_255_2_778
10
3.1294021
20
77.4893083
11
3.1294021
21
77.2089083
0
LINE
8
DEFAULT_255_2_778
10
3.1294021
20
77.2089083
11
2.9749021
21
77.2089083
0
LINE
8
DEFAULT_255_2_778
10
2.9749021
20
77.2089083
11
2.9749021
21
77.4893083
0
LINE
8
DEFAULT_255_2_778
10
2.9749021
20
77.4893083
11
2.4246021
21
77.4893083
0
LINE
8
DEFAULT_255_2_778
10
2.4246021
20
77.4893083
11
2.4246021
21
77.5798083
0
LINE
8
DEFAULT_255_2_778
10
2.4246021
20
77.5798083
11
2.9659021
21
78.4175083
0
LINE
8
DEFAULT_255_2_778
10
2.9659021
20
78.4175083
11
3.1294021
21
78.4175083
0
LINE
8
DEFAULT_255_2_778
10
3.1294021
20
78.4175083
11
3.1294021
21
78.4175083
0
LINE
8
DEFAULT_255_2_778
10
2.9567021
20
78.1743083
11
2.5990021
21
77.6148083
0
LINE
8
DEFAULT_255_2_778
10
2.5990021
20
77.6148083
11
2.9749021
21
77.6148083
0
LINE
8
DEFAULT_255_2_778
10
2.9749021
20
77.6148083
11
2.9749021
21
78.2074083
0
LINE
8
DEFAULT_255_2_778
10
2.9749021
20
78.2074083
11
2.9567021
21
78.1743083
0
LINE
8
DEFAULT_255_2_778
10
2.9567021
20
78.1743083
11
2.9567021
21
78.1743083
0
ARC
8
DEFAULT_255_2_778
10
4.9090473
20
77.8687906
40
0.5487619
50
60.7631649
51
91.1353475
0
ARC
8
DEFAULT_255_2_778
10
4.9416739
20
77.9383365
40
0.472172
50
26.5171001
51
60.0960654
0
ARC
8
DEFAULT_255_2_778
10
4.7838172
20
77.8624314
40
0.6473164
50
359.2222458
51
26.2907306
0
ARC
8
DEFAULT_255_2_778
10
4.7794756
20
77.762347
40
0.6517487
50
334.3945833
51
1.23065
0
ARC
8
DEFAULT_255_2_778
10
4.8851949
20
77.7222144
40
0.5391516
50
332.9045535
51
333.3852265
0
ARC
8
DEFAULT_255_2_778
10
4.9497187
20
77.6838231
40
0.4642478
50
299.2944287
51
333.4955915
0
ARC
8
DEFAULT_255_2_778
10
4.8977343
20
77.7952099
40
0.5868975
50
269.398586
51
298.3996685
0
ARC
8
DEFAULT_255_2_778
10
4.898412
20
77.7325325
40
0.3937452
50
267.9277049
51
302.9629075
0
ARC
8
DEFAULT_255_2_778
10
4.9273137
20
77.670964
40
0.3264935
50
304.5863949
51
318.2704172
0
ARC
8
DEFAULT_255_2_778
10
4.8571262
20
77.7198829
40
0.4115619
50
319.6919398
51
353.6323133
0
ARC
8
DEFAULT_255_2_778
10
4.5432361
20
77.7767453
40
0.7301445
50
351.9293399
51
0.243219
0
ARC
8
DEFAULT_255_2_778
10
4.675033
20
77.8632591
40
0.5984782
50
358.773121
51
19.4510059
0
ARC
8
DEFAULT_255_2_778
10
4.8965586
20
77.9358604
40
0.3654581
50
20.2835996
51
39.9125517
0
ARC
8
DEFAULT_255_2_778
10
4.9213888
20
77.9458811
40
0.3400833
50
41.301834
51
90.8673605
0
ARC
8
DEFAULT_255_2_778
10
4.8967138
20
77.7414616
40
0.5448137
50
87.945992
51
89.3942092
0
ARC
8
DEFAULT_255_2_778
10
6.0783716
20
77.6351996
40
0.484683
50
325.2808556
51
354.9511232
0
ARC
8
DEFAULT_255_2_778
10
6.1708551
20
77.5820725
40
0.3785143
50
311.0785189
51
323.9174305
0
ARC
8
DEFAULT_255_2_778
10
6.1375248
20
77.6328451
40
0.4387655
50
272.5304781
51
310.0027603
0
ARC
8
DEFAULT_255_2_778
10
6.1036077
20
77.8817261
40
0.6892818
50
269.9390114
51
274.434007
0
ARC
8
DEFAULT_255_2_778
10
6.0873362
20
77.6181234
40
0.4259621
50
219.7153437
51
272.0904376
0
ARC
8
DEFAULT_255_2_778
10
6.1920799
20
77.6969512
40
0.5569384
50
186.4278387
51
219.0680451
0
ARC
8
DEFAULT_255_2_778
10
6.5160732
20
77.7539047
40
0.8855041
50
179.8097619
51
187.7429858
0
ARC
8
DEFAULT_255_2_778
10
6.326061
20
77.8866644
40
0.6956223
50
156.8350167
51
181.1301077
0
ARC
8
DEFAULT_255_2_778
10
6.1954367
20
77.9319694
40
0.5577924
50
154.8137515
51
155.8352408
0
ARC
8
DEFAULT_255_2_778
10
6.1002342
20
77.9856874
40
0.4488536
50
122.1663256
51
155.8473039
0
ARC
8
DEFAULT_255_2_778
10
6.1070971
20
77.9595051
40
0.4747403
50
88.8199495
51
121.1851479
0
ARC
8
DEFAULT_255_2_778
10
6.1307775
20
77.9589945
40
0.4753537
50
61.3688656
51
91.6760688
0
ARC
8
DEFAULT_255_2_778
10
6.1709383
20
78.051441
40
0.3750766
50
47.222236
51
59.9866645
0
ARC
8
DEFAULT_255_2_778
10
6.1224074
20
78.0116477
40
0.4373292
50
6.3092676
51
46.0960419
0
ARC
8
DEFAULT_255_2_778
10
5.8977325
20
77.9627232
40
0.6664498
50
5.7112322
51
8.3676613
0
ARC
8
DEFAULT_255_2_778
10
5.9643956
20
77.9793457
40
0.4389013
50
6.5018472
51
27.8492652
0
ARC
8
DEFAULT_255_2_778
10
6.154059
20
78.0736183
40
0.2272262
50
29.1723726
51
46.4642599
0
ARC
8
DEFAULT_255_2_778
10
6.1372786
20
78.0382003
40
0.2647434
50
49.1123039
51
91.1353406
0
ARC
8
DEFAULT_255_2_778
10
6.1167852
20
77.8435742
40
0.4595704
50
88.098677
51
90.0138683
0
ARC
8
DEFAULT_255_2_778
10
6.1047078
20
78.018048
40
0.2853478
50
87.596572
51
142.8816903
0
ARC
8
DEFAULT_255_2_778
10
6.2240502
20
77.9392561
40
0.428157
50
144.1116831
51
173.0228788
0
ARC
8
DEFAULT_255_2_778
10
6.5938482
20
77.8733378
40
0.8034856
50
171.5601947
51
180.3061317
0
ARC
8
DEFAULT_255_2_778
10
6.4376974
20
77.7393897
40
0.6474471
50
178.8800171
51
198.1664821
0
ARC
8
DEFAULT_255_2_778
10
6.197798
20
77.6666206
40
0.396858
50
198.9827561
51
214.9907198
0
ARC
8
DEFAULT_255_2_778
10
6.0924638
20
77.5885974
40
0.2658449
50
214.2327323
51
272.1795179
0
ARC
8
DEFAULT_255_2_778
10
6.1150898
20
77.6806969
40
0.357971
50
267.9963431
51
294.6331982
0
ARC
8
DEFAULT_255_2_778
10
6.1684711
20
77.5470259
40
0.2143357
50
296.5560648
51
310.0455685
0
ARC
8
DEFAULT_255_2_778
10
6.1258708
20
77.5765596
40
0.2647038
50
312.9927957
51
345.8072838
0
ARC
8
DEFAULT_255_2_778
10
5.8167157
20
77.6798596
40
0.5902523
50
343.4432531
51
351.4931334
0
LINE
8
DEFAULT_255_2_778
10
3.532174
20
78.4174448
11
3.875874
21
77.4205448
0
LINE
8
DEFAULT_255_2_778
10
3.875874
20
77.4205448
11
4.221174
21
78.4174448
0
LINE
8
DEFAULT_255_2_778
10
4.221174
20
78.4174448
11
4.395474
21
78.4174448
0
LINE
8
DEFAULT_255_2_778
10
4.395474
20
78.4174448
11
3.947274
21
77.2088448
0
LINE
8
DEFAULT_255_2_778
10
3.947274
20
77.2088448
11
3.806274
21
77.2088448
0
LINE
8
DEFAULT_255_2_778
10
3.806274
20
77.2088448
11
3.358874
21
78.4174448
0
LINE
8
DEFAULT_255_2_778
10
3.358874
20
78.4174448
11
3.532474
21
78.4174448
0
LINE
8
DEFAULT_255_2_778
10
3.532474
20
78.4174448
11
3.532174
21
78.4174448
0
LINE
8
DEFAULT_255_2_778
10
4.891574
20
77.2088448
11
4.557174
21
77.2088448
0
LINE
8
DEFAULT_255_2_778
10
4.557174
20
77.2088448
11
4.557174
21
78.4174448
0
LINE
8
DEFAULT_255_2_778
10
4.557174
20
78.4174448
11
4.898174
21
78.4174448
0
LINE
8
DEFAULT_255_2_778
10
5.431074
20
77.8536448
11
5.431074
21
77.7763448
0
LINE
8
DEFAULT_255_2_778
10
4.891574
20
77.2083448
11
4.891574
21
77.2088448
0
LINE
8
DEFAULT_255_2_778
10
4.902474
20
78.2862448
11
4.716474
21
78.2862448
0
LINE
8
DEFAULT_255_2_778
10
4.716474
20
78.2862448
11
4.716474
21
77.3390448
0
LINE
8
DEFAULT_255_2_778
10
4.716474
20
77.3390448
11
4.884174
21
77.3390448
0
LINE
8
DEFAULT_255_2_778
10
5.273374
20
77.7798448
11
5.273374
21
77.8504448
0
LINE
8
DEFAULT_255_2_778
10
4.902474
20
78.2862448
11
4.902474
21
78.2862448
0
LINE
8
DEFAULT_255_2_778
10
6.400774
20
77.5925448
11
6.561174
21
77.5925448
0
LINE
8
DEFAULT_255_2_778
10
5.630574
20
77.7568448
11
5.630574
21
77.8729448
0
LINE
8
DEFAULT_255_2_778
10
6.560874
20
78.0290448
11
6.400474
21
78.0290448
0
LINE
8
DEFAULT_255_2_778
10
5.790374
20
77.8690448
11
5.790374
21
77.7520448
0
LINE
8
DEFAULT_255_2_778
10
6.400474
20
77.5925448
11
6.400774
21
77.5925448
0
ARC
8
DEFAULT_255_2_778
10
2.9428752
20
75.8087433
40
0.3317316
50
87.5548029
51
139.5256335
0
ARC
8
DEFAULT_255_2_778
10
2.9706192
20
75.8398181
40
0.3006621
50
56.5211012
51
92.5908593
0
ARC
8
DEFAULT_255_2_778
10
2.9950782
20
75.897209
40
0.2395653
50
24.2945739
51
53.8277044
0
ARC
8
DEFAULT_255_2_778
10
3.4906646
20
75.8037359
40
0.337251
50
118.4447573
51
145.2903123
0
ARC
8
DEFAULT_255_2_778
10
3.4910588
20
75.7962607
40
0.3440266
50
88.5226833
51
117.9094806
0
ARC
8
DEFAULT_255_2_778
10
3.5128482
20
75.7963981
40
0.3440175
50
62.479062
51
92.1523156
0
ARC
8
DEFAULT_255_2_778
10
3.5406148
20
75.8845793
40
0.2534976
50
6.9108659
51
58.8328091
0
ARC
8
DEFAULT_255_2_778
10
3.270302
20
75.8217088
40
0.5302543
50
0.5904251
51
10.142112
0
ARC
8
DEFAULT_255_2_778
10
3.421463
20
75.8304618
40
0.2259107
50
356.8309298
51
30.9568725
0
ARC
8
DEFAULT_255_2_778
10
3.5057376
20
75.872197
40
0.1323883
50
34.2305234
51
42.6384291
0
ARC
8
DEFAULT_255_2_778
10
3.4865042
20
75.8382336
40
0.1699643
50
46.6724749
51
89.5142348
0
ARC
8
DEFAULT_255_2_778
10
3.456284
20
75.6179126
40
0.3915612
50
85.362079
51
90.1106021
0
ARC
8
DEFAULT_255_2_778
10
3.4485392
20
75.8060109
40
0.203582
50
88.0326376
51
131.5050522
0
ARC
8
DEFAULT_255_2_778
10
3.4556306
20
75.8063048
40
0.2081341
50
133.0208045
51
175.9035717
0
ARC
8
DEFAULT_255_2_778
10
2.8775295
20
75.8266871
40
0.2163726
50
356.631323
51
34.0445361
0
ARC
8
DEFAULT_255_2_778
10
2.9234175
20
75.8346861
40
0.1749134
50
40.3009816
51
92.2337995
0
ARC
8
DEFAULT_255_2_778
10
2.9018736
20
75.6557703
40
0.3540027
50
87.6158594
51
90.0235428
0
ARC
8
DEFAULT_255_2_778
10
2.8858174
20
75.8049309
40
0.205459
50
85.5585728
51
158.217682
0
LINE
8
DEFAULT_255_2_778
10
2.2198282
20
76.4341729
11
2.2198282
21
75.6314729
0
LINE
8
DEFAULT_255_2_778
10
2.2198282
20
75.6314729
11
2.3876282
21
75.6314729
0
LINE
8
DEFAULT_255_2_778
10
2.3876282
20
75.6314729
11
2.3876282
21
75.5059729
0
LINE
8
DEFAULT_255_2_778
10
2.3876282
20
75.5059729
11
2.2198282
21
75.5059729
0
LINE
8
DEFAULT_255_2_778
10
2.2198282
20
75.5059729
11
2.2198282
21
75.2255729
0
LINE
8
DEFAULT_255_2_778
10
2.2198282
20
75.2255729
11
2.0653282
21
75.2255729
0
LINE
8
DEFAULT_255_2_778
10
2.0653282
20
75.2255729
11
2.0653282
21
75.5059729
0
LINE
8
DEFAULT_255_2_778
10
2.0653282
20
75.5059729
11
1.5150282
21
75.5059729
0
LINE
8
DEFAULT_255_2_778
10
1.5150282
20
75.5059729
11
1.5150282
21
75.5964729
0
LINE
8
DEFAULT_255_2_778
10
1.5150282
20
75.5964729
11
2.0563282
21
76.4341729
0
LINE
8
DEFAULT_255_2_778
10
2.0563282
20
76.4341729
11
2.2198282
21
76.4341729
0
LINE
8
DEFAULT_255_2_778
10
2.2198282
20
76.4341729
11
2.2198282
21
76.4341729
0
LINE
8
DEFAULT_255_2_778
10
2.0471282
20
76.1909729
11
1.6894282
21
75.6314729
0
LINE
8
DEFAULT_255_2_778
10
1.6894282
20
75.6314729
11
2.0653282
21
75.6314729
0
LINE
8
DEFAULT_255_2_778
10
2.0653282
20
75.6314729
11
2.0653282
21
76.2240729
0
LINE
8
DEFAULT_255_2_778
10
2.0653282
20
76.2240729
11
2.0471282
21
76.1909729
0
LINE
8
DEFAULT_255_2_778
10
2.0471282
20
76.1909729
11
2.0471282
21
76.1909729
0
LINE
8
DEFAULT_255_2_778
10
2.5411282
20
76.1235729
11
2.6863282
21
76.1235729
0
LINE
8
DEFAULT_255_2_778
10
2.6863282
20
76.1235729
11
2.6905282
21
76.0240729
0
LINE
8
DEFAULT_255_2_778
10
3.8005282
20
75.8271729
11
3.8005282
21
75.2252729
0
LINE
8
DEFAULT_255_2_778
10
3.8005282
20
75.2252729
11
3.6470282
21
75.2252729
0
LINE
8
DEFAULT_255_2_778
10
3.6470282
20
75.2252729
11
3.6470282
21
75.8179729
0
LINE
8
DEFAULT_255_2_778
10
3.2480282
20
75.8211729
11
3.2480282
21
75.2250729
0
LINE
8
DEFAULT_255_2_778
10
3.2480282
20
75.2250729
11
3.0935282
21
75.2250729
0
LINE
8
DEFAULT_255_2_778
10
3.0935282
20
75.2250729
11
3.0935282
21
75.8139729
0
LINE
8
DEFAULT_255_2_778
10
2.6950282
20
75.8811729
11
2.6950282
21
75.2255729
0
LINE
8
DEFAULT_255_2_778
10
2.6950282
20
75.2255729
11
2.5416282
21
75.2255729
0
LINE
8
DEFAULT_255_2_778
10
2.5416282
20
75.2255729
11
2.5416282
21
76.1235729
0
LINE
8
DEFAULT_255_2_778
10
2.5416282
20
76.1235729
11
2.5411282
21
76.1235729
0
LINE
8
DEFAULT_255_2_778
10
4.8387282
20
75.2255729
11
4.7233282
21
75.5409729
0
LINE
8
DEFAULT_255_2_778
10
4.7233282
20
75.5409729
11
4.2169282
21
75.5409729
0
LINE
8
DEFAULT_255_2_778
10
4.2169282
20
75.5409729
11
4.1032282
21
75.2255729
0
LINE
8
DEFAULT_255_2_778
10
4.1032282
20
75.2255729
11
3.9388282
21
75.2255729
0
LINE
8
DEFAULT_255_2_778
10
3.9388282
20
75.2255729
11
4.4003282
21
76.4341729
0
LINE
8
DEFAULT_255_2_778
10
4.4003282
20
76.4341729
11
4.5397282
21
76.4341729
0
LINE
8
DEFAULT_255_2_778
10
4.5397282
20
76.4341729
11
5.0019282
21
75.2255729
0
LINE
8
DEFAULT_255_2_778
10
5.0019282
20
75.2255729
11
4.8384282
21
75.2255729
0
LINE
8
DEFAULT_255_2_778
10
4.8384282
20
75.2255729
11
4.8387282
21
75.2255729
0
LINE
8
DEFAULT_255_2_778
10
4.4701282
20
76.2373729
11
4.2651282
21
75.6718729
0
LINE
8
DEFAULT_255_2_778
10
4.2651282
20
75.6718729
11
4.6760282
21
75.6718729
0
LINE
8
DEFAULT_255_2_778
10
4.6760282
20
75.6718729
11
4.4701282
21
76.2373729
0
LINE
8
DEFAULT_255_2_778
10
4.4701282
20
76.2373729
11
4.4701282
21
76.2373729
0
ARC
8
DEFAULT_255_2_778
10
21.7453035
20
81.0612299
40
0.7978478
50
342.5280997
51
0.927118
0
ARC
8
DEFAULT_255_2_778
10
21.9664762
20
81.0010451
40
0.5688806
50
336.3170216
51
341.6219843
0
ARC
8
DEFAULT_255_2_778
10
22.057047
20
80.9515169
40
0.4661298
50
306.0479805
51
337.4205226
0
ARC
8
DEFAULT_255_2_778
10
22.0601054
20
81.0162788
40
0.5236455
50
269.7200583
51
283.6574667
0
ARC
8
DEFAULT_255_2_778
10
22.049089
20
80.954417
40
0.4618549
50
238.0005342
51
271.049303
0
ARC
8
DEFAULT_255_2_778
10
22.056197
20
80.9522316
40
0.4638238
50
204.1133535
51
237.112824
0
ARC
8
DEFAULT_255_2_778
10
22.2794971
20
81.0539408
40
0.7091929
50
180.0842219
51
204.2431202
0
ARC
8
DEFAULT_255_2_778
10
22.5366878
20
81.0725871
40
0.9665833
50
180.5363148
51
181.1671625
0
ARC
8
DEFAULT_255_2_778
10
22.3173498
20
81.1642036
40
0.7473261
50
157.8454493
51
181.0399789
0
ARC
8
DEFAULT_255_2_778
10
22.1780842
20
81.2103841
40
0.6010065
50
155.602407
51
156.9162022
0
ARC
8
DEFAULT_255_2_778
10
22.0550569
20
81.2770863
40
0.4615199
50
123.2294911
51
156.8349481
0
ARC
8
DEFAULT_255_2_778
10
22.0477278
20
81.2737147
40
0.460393
50
89.0144193
51
122.2365369
0
ARC
8
DEFAULT_255_2_778
10
22.0653009
20
81.2664636
40
0.4676756
50
58.0843782
51
91.1828182
0
ARC
8
DEFAULT_255_2_778
10
22.0638494
20
81.2810435
40
0.4561548
50
23.1586795
51
56.9613863
0
ARC
8
DEFAULT_255_2_778
10
21.8194387
20
81.1735331
40
0.7231574
50
0.8241046
51
23.3746199
0
ARC
8
DEFAULT_255_2_778
10
21.5316433
20
81.1513313
40
1.0114036
50
359.9891408
51
1.8472689
0
ARC
8
DEFAULT_255_2_778
10
21.6548248
20
81.164697
40
0.7290285
50
359.020896
51
15.4429004
0
ARC
8
DEFAULT_255_2_778
10
21.9781138
20
81.2516102
40
0.3942751
50
15.7785041
51
35.6380224
0
ARC
8
DEFAULT_255_2_778
10
22.0696762
20
81.3141603
40
0.2834267
50
36.1463692
51
92.837243
0
ARC
8
DEFAULT_255_2_778
10
22.0454541
20
81.3164794
40
0.2809452
50
87.9208327
51
143.8676005
0
ARC
8
DEFAULT_255_2_778
10
22.1871425
20
81.2196982
40
0.4524801
50
144.5490003
51
173.1649015
0
ARC
8
DEFAULT_255_2_778
10
22.538962
20
81.1568532
40
0.8095388
50
171.7118929
51
179.5621488
0
ARC
8
DEFAULT_255_2_778
10
22.4137908
20
81.061547
40
0.6844597
50
178.9458233
51
197.2299545
0
ARC
8
DEFAULT_255_2_778
10
22.1471881
20
80.9836722
40
0.4067799
50
197.8764214
51
215.5544111
0
ARC
8
DEFAULT_255_2_778
10
22.0463818
20
80.9082595
40
0.2809301
50
214.99627
51
272.216487
0
ARC
8
DEFAULT_255_2_778
10
22.0708747
20
80.90911
40
0.2819
50
267.2290884
51
323.1477782
0
ARC
8
DEFAULT_255_2_778
10
21.9422658
20
80.9912195
40
0.4342069
50
324.6563068
51
351.8468438
0
ARC
8
DEFAULT_255_2_778
10
21.5490776
20
81.0669436
40
0.8343808
50
350.5285051
51
359.6975823
0
LINE
8
DEFAULT_255_2_778
10
22.5430469
20
81.1514396
11
22.5430469
21
81.0741396
0
LINE
8
DEFAULT_255_2_778
10
22.3313469
20
80.5746396
11
22.5472469
21
80.4053396
0
LINE
8
DEFAULT_255_2_778
10
22.5472469
20
80.4053396
11
22.4385469
21
80.3047396
0
LINE
8
DEFAULT_255_2_778
10
22.4385469
20
80.3047396
11
22.1837469
21
80.5074396
0
LINE
8
DEFAULT_255_2_778
10
21.5701469
20
81.0635396
11
21.5701469
21
81.1506396
0
LINE
8
DEFAULT_255_2_778
10
22.5430469
20
81.1511396
11
22.5430469
21
81.1514396
0
LINE
8
DEFAULT_255_2_778
10
22.3837469
20
81.0625396
11
22.3837469
21
81.1522396
0
LINE
8
DEFAULT_255_2_778
10
21.7294469
20
81.1630396
11
21.7294469
21
81.0741396
0
LINE
8
DEFAULT_255_2_778
10
22.3834469
20
81.0625396
11
22.3837469
21
81.0625396
0
LINE
8
DEFAULT_255_2_778
10
22.891499
20
81.7174083
11
23.182799
21
81.2541083
0
LINE
8
DEFAULT_255_2_778
10
23.182799
20
81.2541083
11
23.472599
21
81.7174083
0
LINE
8
DEFAULT_255_2_778
10
23.472599
20
81.7174083
11
23.660099
21
81.7174083
0
LINE
8
DEFAULT_255_2_778
10
23.660099
20
81.7174083
11
23.278299
21
81.1181083
0
LINE
8
DEFAULT_255_2_778
10
23.278299
20
81.1181083
11
23.669399
21
80.5088083
0
LINE
8
DEFAULT_255_2_778
10
23.669399
20
80.5088083
11
23.480199
21
80.5088083
0
LINE
8
DEFAULT_255_2_778
10
23.480199
20
80.5088083
11
23.183099
21
80.9803083
0
LINE
8
DEFAULT_255_2_778
10
23.183099
20
80.9803083
11
22.884399
21
80.5088083
0
LINE
8
DEFAULT_255_2_778
10
22.884399
20
80.5088083
11
22.695999
21
80.5088083
0
LINE
8
DEFAULT_255_2_778
10
22.695999
20
80.5088083
11
23.087799
21
81.1181083
0
LINE
8
DEFAULT_255_2_778
10
23.087799
20
81.1181083
11
22.705299
21
81.7174083
0
LINE
8
DEFAULT_255_2_778
10
22.705299
20
81.7174083
11
22.892099
21
81.7174083
0
LINE
8
DEFAULT_255_2_778
10
22.892099
20
81.7174083
11
22.891499
21
81.7174083
0
LINE
8
DEFAULT_255_2_778
10
25.2740604
20
81.7232187
11
25.2740604
21
80.5088187
0
LINE
8
DEFAULT_255_2_778
10
25.2740604
20
80.5088187
11
25.1195604
21
80.5088187
0
LINE
8
DEFAULT_255_2_778
10
25.1195604
20
80.5088187
11
25.1195604
21
81.5322187
0
LINE
8
DEFAULT_255_2_778
10
25.1195604
20
81.5322187
11
24.8099604
21
81.4184187
0
LINE
8
DEFAULT_255_2_778
10
24.8099604
20
81.4184187
11
24.8099604
21
81.5578187
0
LINE
8
DEFAULT_255_2_778
10
24.8099604
20
81.5578187
11
25.2499604
21
81.7229187
0
LINE
8
DEFAULT_255_2_778
10
25.2499604
20
81.7229187
11
25.2740604
21
81.7229187
0
LINE
8
DEFAULT_255_2_778
10
25.2740604
20
81.7229187
11
25.2740604
21
81.7232187
0
LINE
8
DEFAULT_255_2_778
10
24.5173021
20
81.7219083
11
24.5173021
21
80.9192083
0
LINE
8
DEFAULT_255_2_778
10
24.5173021
20
80.9192083
11
24.6851021
21
80.9192083
0
LINE
8
DEFAULT_255_2_778
10
24.6851021
20
80.9192083
11
24.6851021
21
80.7937083
0
LINE
8
DEFAULT_255_2_778
10
24.6851021
20
80.7937083
11
24.5173021
21
80.7937083
0
LINE
8
DEFAULT_255_2_778
10
24.5173021
20
80.7937083
11
24.5173021
21
80.5133083
0
LINE
8
DEFAULT_255_2_778
10
24.5173021
20
80.5133083
11
24.3628021
21
80.5133083
0
LINE
8
DEFAULT_255_2_778
10
24.3628021
20
80.5133083
11
24.3628021
21
80.7937083
0
LINE
8
DEFAULT_255_2_778
10
24.3628021
20
80.7937083
11
23.8125021
21
80.7937083
0
LINE
8
DEFAULT_255_2_778
10
23.8125021
20
80.7937083
11
23.8125021
21
80.8842083
0
LINE
8
DEFAULT_255_2_778
10
23.8125021
20
80.8842083
11
24.3538021
21
81.7219083
0
LINE
8
DEFAULT_255_2_778
10
24.3538021
20
81.7219083
11
24.5173021
21
81.7219083
0
LINE
8
DEFAULT_255_2_778
10
24.5173021
20
81.7219083
11
24.5173021
21
81.7219083
0
LINE
8
DEFAULT_255_2_778
10
24.3446021
20
81.4787083
11
23.9869021
21
80.9192083
0
LINE
8
DEFAULT_255_2_778
10
23.9869021
20
80.9192083
11
24.3628021
21
80.9192083
0
LINE
8
DEFAULT_255_2_778
10
24.3628021
20
80.9192083
11
24.3628021
21
81.5118083
0
LINE
8
DEFAULT_255_2_778
10
24.3628021
20
81.5118083
11
24.3446021
21
81.4787083
0
LINE
8
DEFAULT_255_2_778
10
24.3446021
20
81.4787083
11
24.3446021
21
81.4787083
0
LINE
8
DEFAULT_255_2_778
10
16.6203688
20
20.607651
11
16.6203688
21
21.847751
0
LINE
8
DEFAULT_255_2_778
10
16.6203688
20
21.847751
11
16.1202688
21
21.847751
0
LINE
8
DEFAULT_255_2_778
10
16.1202688
20
21.847751
11
16.1202688
21
20.607651
0
LINE
8
DEFAULT_255_2_778
10
16.1202688
20
20.607651
11
16.6203688
21
20.607651
0
LINE
8
DEFAULT_255_2_778
10
16.6203688
20
18.067651
11
16.6203688
21
19.307751
0
LINE
8
DEFAULT_255_2_778
10
16.6203688
20
19.307751
11
16.1202688
21
19.307751
0
LINE
8
DEFAULT_255_2_778
10
16.1202688
20
19.307751
11
16.1202688
21
18.067651
0
LINE
8
DEFAULT_255_2_778
10
16.1202688
20
18.067651
11
16.6203688
21
18.067651
0
LINE
8
DEFAULT_255_2_778
10
16.6203688
20
15.527651
11
16.6203688
21
16.767751
0
LINE
8
DEFAULT_255_2_778
10
16.6203688
20
16.767751
11
16.1202688
21
16.767751
0
LINE
8
DEFAULT_255_2_778
10
16.1202688
20
16.767751
11
16.1202688
21
15.527651
0
LINE
8
DEFAULT_255_2_778
10
16.1202688
20
15.527651
11
16.6203688
21
15.527651
0
LINE
8
DEFAULT_255_2_778
10
16.6203688
20
12.987651
11
16.6203688
21
14.227751
0
LINE
8
DEFAULT_255_2_778
10
16.6203688
20
14.227751
11
16.1202688
21
14.227751
0
LINE
8
DEFAULT_255_2_778
10
16.1202688
20
14.227751
11
16.1202688
21
12.987651
0
LINE
8
DEFAULT_255_2_778
10
16.1202688
20
12.987651
11
16.6203688
21
12.987651
0
LINE
8
DEFAULT_255_2_778
10
19.1603688
20
21.847751
11
19.1603688
21
20.607651
0
LINE
8
DEFAULT_255_2_778
10
19.1603688
20
20.607651
11
18.6602688
21
20.607651
0
LINE
8
DEFAULT_255_2_778
10
18.6602688
20
20.607651
11
18.6602688
21
21.847751
0
LINE
8
DEFAULT_255_2_778
10
18.6602688
20
21.847751
11
19.1603688
21
21.847751
0
LINE
8
DEFAULT_255_2_778
10
19.1603688
20
19.307751
11
19.1603688
21
18.067651
0
LINE
8
DEFAULT_255_2_778
10
19.1603688
20
18.067651
11
18.6602688
21
18.067651
0
LINE
8
DEFAULT_255_2_778
10
18.6602688
20
18.067651
11
18.6602688
21
19.307751
0
LINE
8
DEFAULT_255_2_778
10
18.6602688
20
19.307751
11
19.1603688
21
19.307751
0
LINE
8
DEFAULT_255_2_778
10
19.1603688
20
16.767751
11
19.1603688
21
15.527651
0
LINE
8
DEFAULT_255_2_778
10
19.1603688
20
15.527651
11
18.6602688
21
15.527651
0
LINE
8
DEFAULT_255_2_778
10
18.6602688
20
15.527651
11
18.6602688
21
16.767751
0
LINE
8
DEFAULT_255_2_778
10
18.6602688
20
16.767751
11
19.1603688
21
16.767751
0
LINE
8
DEFAULT_255_2_778
10
19.1603688
20
14.227751
11
19.1603688
21
12.987651
0
LINE
8
DEFAULT_255_2_778
10
19.1603688
20
12.987651
11
18.6602688
21
12.987651
0
LINE
8
DEFAULT_255_2_778
10
18.6602688
20
12.987651
11
18.6602688
21
14.227751
0
LINE
8
DEFAULT_255_2_778
10
18.6602688
20
14.227751
11
19.1603688
21
14.227751
0
LINE
8
DEFAULT_255_2_778
10
16.6203688
20
30.767651
11
16.6203688
21
32.007751
0
LINE
8
DEFAULT_255_2_778
10
16.6203688
20
32.007751
11
16.1202688
21
32.007751
0
LINE
8
DEFAULT_255_2_778
10
16.1202688
20
32.007751
11
16.1202688
21
30.767651
0
LINE
8
DEFAULT_255_2_778
10
16.1202688
20
30.767651
11
16.6203688
21
30.767651
0
LINE
8
DEFAULT_255_2_778
10
16.6203688
20
28.227651
11
16.6203688
21
29.467751
0
LINE
8
DEFAULT_255_2_778
10
16.6203688
20
29.467751
11
16.1202688
21
29.467751
0
LINE
8
DEFAULT_255_2_778
10
16.1202688
20
29.467751
11
16.1202688
21
28.227651
0
LINE
8
DEFAULT_255_2_778
10
16.1202688
20
28.227651
11
16.6203688
21
28.227651
0
LINE
8
DEFAULT_255_2_778
10
16.6203688
20
25.687651
11
16.6203688
21
26.927751
0
LINE
8
DEFAULT_255_2_778
10
16.6203688
20
26.927751
11
16.1202688
21
26.927751
0
LINE
8
DEFAULT_255_2_778
10
16.1202688
20
26.927751
11
16.1202688
21
25.687651
0
LINE
8
DEFAULT_255_2_778
10
16.1202688
20
25.687651
11
16.6203688
21
25.687651
0
LINE
8
DEFAULT_255_2_778
10
16.6203688
20
23.147651
11
16.6203688
21
24.387751
0
LINE
8
DEFAULT_255_2_778
10
16.6203688
20
24.387751
11
16.1202688
21
24.387751
0
LINE
8
DEFAULT_255_2_778
10
16.1202688
20
24.387751
11
16.1202688
21
23.147651
0
LINE
8
DEFAULT_255_2_778
10
16.1202688
20
23.147651
11
16.6203688
21
23.147651
0
LINE
8
DEFAULT_255_2_778
10
19.1603688
20
32.007751
11
19.1603688
21
30.767651
0
LINE
8
DEFAULT_255_2_778
10
19.1603688
20
30.767651
11
18.6602688
21
30.767651
0
LINE
8
DEFAULT_255_2_778
10
18.6602688
20
30.767651
11
18.6602688
21
32.007751
0
LINE
8
DEFAULT_255_2_778
10
18.6602688
20
32.007751
11
19.1603688
21
32.007751
0
LINE
8
DEFAULT_255_2_778
10
19.1603688
20
29.467751
11
19.1603688
21
28.227651
0
LINE
8
DEFAULT_255_2_778
10
19.1603688
20
28.227651
11
18.6602688
21
28.227651
0
LINE
8
DEFAULT_255_2_778
10
18.6602688
20
28.227651
11
18.6602688
21
29.467751
0
LINE
8
DEFAULT_255_2_778
10
18.6602688
20
29.467751
11
19.1603688
21
29.467751
0
LINE
8
DEFAULT_255_2_778
10
19.1603688
20
26.927751
11
19.1603688
21
25.687651
0
LINE
8
DEFAULT_255_2_778
10
19.1603688
20
25.687651
11
18.6602688
21
25.687651
0
LINE
8
DEFAULT_255_2_778
10
18.6602688
20
25.687651
11
18.6602688
21
26.927751
0
LINE
8
DEFAULT_255_2_778
10
18.6602688
20
26.927751
11
19.1603688
21
26.927751
0
LINE
8
DEFAULT_255_2_778
10
19.1603688
20
24.387751
11
19.1603688
21
23.147651
0
LINE
8
DEFAULT_255_2_778
10
19.1603688
20
23.147651
11
18.6602688
21
23.147651
0
LINE
8
DEFAULT_255_2_778
10
18.6602688
20
23.147651
11
18.6602688
21
24.387751
0
LINE
8
DEFAULT_255_2_778
10
18.6602688
20
24.387751
11
19.1603688
21
24.387751
0
LINE
8
DEFAULT_255_2_778
10
16.6203688
20
40.927651
11
16.6203688
21
42.167751
0
LINE
8
DEFAULT_255_2_778
10
16.6203688
20
42.167751
11
16.1202688
21
42.167751
0
LINE
8
DEFAULT_255_2_778
10
16.1202688
20
42.167751
11
16.1202688
21
40.927651
0
LINE
8
DEFAULT_255_2_778
10
16.1202688
20
40.927651
11
16.6203688
21
40.927651
0
LINE
8
DEFAULT_255_2_778
10
16.6203688
20
39.627751
11
16.6203688
21
38.387651
0
LINE
8
DEFAULT_255_2_778
10
16.6203688
20
38.387651
11
16.1202688
21
38.387651
0
LINE
8
DEFAULT_255_2_778
10
16.1202688
20
38.387651
11
16.1202688
21
39.627751
0
LINE
8
DEFAULT_255_2_778
10
16.1202688
20
39.627751
11
16.6203688
21
39.627751
0
LINE
8
DEFAULT_255_2_778
10
16.6203688
20
35.847651
11
16.6203688
21
37.087751
0
LINE
8
DEFAULT_255_2_778
10
16.6203688
20
37.087751
11
16.1202688
21
37.087751
0
LINE
8
DEFAULT_255_2_778
10
16.1202688
20
37.087751
11
16.1202688
21
35.847651
0
LINE
8
DEFAULT_255_2_778
10
16.1202688
20
35.847651
11
16.6203688
21
35.847651
0
LINE
8
DEFAULT_255_2_778
10
16.6203688
20
33.307651
11
16.6203688
21
34.547751
0
LINE
8
DEFAULT_255_2_778
10
16.6203688
20
34.547751
11
16.1202688
21
34.547751
0
LINE
8
DEFAULT_255_2_778
10
16.1202688
20
34.547751
11
16.1202688
21
33.307651
0
LINE
8
DEFAULT_255_2_778
10
16.1202688
20
33.307651
11
16.6203688
21
33.307651
0
LINE
8
DEFAULT_255_2_778
10
19.1603688
20
42.167751
11
19.1603688
21
40.927651
0
LINE
8
DEFAULT_255_2_778
10
19.1603688
20
40.927651
11
18.6602688
21
40.927651
0
LINE
8
DEFAULT_255_2_778
10
18.6602688
20
40.927651
11
18.6602688
21
42.167751
0
LINE
8
DEFAULT_255_2_778
10
18.6602688
20
42.167751
11
19.1603688
21
42.167751
0
LINE
8
DEFAULT_255_2_778
10
19.1603688
20
39.627751
11
19.1603688
21
38.387651
0
LINE
8
DEFAULT_255_2_778
10
19.1603688
20
38.387651
11
18.6602688
21
38.387651
0
LINE
8
DEFAULT_255_2_778
10
18.6602688
20
38.387651
11
18.6602688
21
39.627751
0
LINE
8
DEFAULT_255_2_778
10
18.6602688
20
39.627751
11
19.1603688
21
39.627751
0
LINE
8
DEFAULT_255_2_778
10
19.1603688
20
37.087751
11
19.1603688
21
35.847651
0
LINE
8
DEFAULT_255_2_778
10
19.1603688
20
35.847651
11
18.6602688
21
35.847651
0
LINE
8
DEFAULT_255_2_778
10
18.6602688
20
35.847651
11
18.6602688
21
37.087751
0
LINE
8
DEFAULT_255_2_778
10
18.6602688
20
37.087751
11
19.1603688
21
37.087751
0
LINE
8
DEFAULT_255_2_778
10
19.1603688
20
34.547751
11
19.1603688
21
33.307651
0
LINE
8
DEFAULT_255_2_778
10
19.1603688
20
33.307651
11
18.6602688
21
33.307651
0
LINE
8
DEFAULT_255_2_778
10
18.6602688
20
33.307651
11
18.6602688
21
34.547751
0
LINE
8
DEFAULT_255_2_778
10
18.6602688
20
34.547751
11
19.1603688
21
34.547751
0
LINE
8
DEFAULT_255_2_778
10
16.6203688
20
51.087651
11
16.6203688
21
52.327751
0
LINE
8
DEFAULT_255_2_778
10
16.6203688
20
52.327751
11
16.1202688
21
52.327751
0
LINE
8
DEFAULT_255_2_778
10
16.1202688
20
52.327751
11
16.1202688
21
51.087651
0
LINE
8
DEFAULT_255_2_778
10
16.1202688
20
51.087651
11
16.6203688
21
51.087651
0
LINE
8
DEFAULT_255_2_778
10
16.6203688
20
48.547651
11
16.6203688
21
49.787751
0
LINE
8
DEFAULT_255_2_778
10
16.6203688
20
49.787751
11
16.1202688
21
49.787751
0
LINE
8
DEFAULT_255_2_778
10
16.1202688
20
49.787751
11
16.1202688
21
48.547651
0
LINE
8
DEFAULT_255_2_778
10
16.1202688
20
48.547651
11
16.6203688
21
48.547651
0
LINE
8
DEFAULT_255_2_778
10
16.6203688
20
46.007651
11
16.6203688
21
47.247751
0
LINE
8
DEFAULT_255_2_778
10
16.6203688
20
47.247751
11
16.1202688
21
47.247751
0
LINE
8
DEFAULT_255_2_778
10
16.1202688
20
47.247751
11
16.1202688
21
46.007651
0
LINE
8
DEFAULT_255_2_778
10
16.1202688
20
46.007651
11
16.6203688
21
46.007651
0
LINE
8
DEFAULT_255_2_778
10
16.6203688
20
43.467651
11
16.6203688
21
44.707751
0
LINE
8
DEFAULT_255_2_778
10
16.6203688
20
44.707751
11
16.1202688
21
44.707751
0
LINE
8
DEFAULT_255_2_778
10
16.1202688
20
44.707751
11
16.1202688
21
43.467651
0
LINE
8
DEFAULT_255_2_778
10
16.1202688
20
43.467651
11
16.6203688
21
43.467651
0
LINE
8
DEFAULT_255_2_778
10
19.1603688
20
52.327751
11
19.1603688
21
51.087651
0
LINE
8
DEFAULT_255_2_778
10
19.1603688
20
51.087651
11
18.6602688
21
51.087651
0
LINE
8
DEFAULT_255_2_778
10
18.6602688
20
51.087651
11
18.6602688
21
52.327751
0
LINE
8
DEFAULT_255_2_778
10
18.6602688
20
52.327751
11
19.1603688
21
52.327751
0
LINE
8
DEFAULT_255_2_778
10
19.1603688
20
49.787751
11
19.1603688
21
48.547651
0
LINE
8
DEFAULT_255_2_778
10
19.1603688
20
48.547651
11
18.6602688
21
48.547651
0
LINE
8
DEFAULT_255_2_778
10
18.6602688
20
48.547651
11
18.6602688
21
49.787751
0
LINE
8
DEFAULT_255_2_778
10
18.6602688
20
49.787751
11
19.1603688
21
49.787751
0
LINE
8
DEFAULT_255_2_778
10
19.1603688
20
47.247751
11
19.1603688
21
46.007651
0
LINE
8
DEFAULT_255_2_778
10
19.1603688
20
46.007651
11
18.6602688
21
46.007651
0
LINE
8
DEFAULT_255_2_778
10
18.6602688
20
46.007651
11
18.6602688
21
47.247751
0
LINE
8
DEFAULT_255_2_778
10
18.6602688
20
47.247751
11
19.1603688
21
47.247751
0
LINE
8
DEFAULT_255_2_778
10
19.1603688
20
44.707751
11
19.1603688
21
43.467651
0
LINE
8
DEFAULT_255_2_778
10
19.1603688
20
43.467651
11
18.6602688
21
43.467651
0
LINE
8
DEFAULT_255_2_778
10
18.6602688
20
43.467651
11
18.6602688
21
44.707751
0
LINE
8
DEFAULT_255_2_778
10
18.6602688
20
44.707751
11
19.1603688
21
44.707751
0
LINE
8
DEFAULT_255_2_778
10
16.6203688
20
61.247651
11
16.6203688
21
62.487751
0
LINE
8
DEFAULT_255_2_778
10
16.6203688
20
62.487751
11
16.1202688
21
62.487751
0
LINE
8
DEFAULT_255_2_778
10
16.1202688
20
62.487751
11
16.1202688
21
61.247651
0
LINE
8
DEFAULT_255_2_778
10
16.1202688
20
61.247651
11
16.6203688
21
61.247651
0
LINE
8
DEFAULT_255_2_778
10
16.6203688
20
58.707651
11
16.6203688
21
59.947751
0
LINE
8
DEFAULT_255_2_778
10
16.6203688
20
59.947751
11
16.1202688
21
59.947751
0
LINE
8
DEFAULT_255_2_778
10
16.1202688
20
59.947751
11
16.1202688
21
58.707651
0
LINE
8
DEFAULT_255_2_778
10
16.1202688
20
58.707651
11
16.6203688
21
58.707651
0
LINE
8
DEFAULT_255_2_778
10
16.6203688
20
56.167651
11
16.6203688
21
57.407751
0
LINE
8
DEFAULT_255_2_778
10
16.6203688
20
57.407751
11
16.1202688
21
57.407751
0
LINE
8
DEFAULT_255_2_778
10
16.1202688
20
57.407751
11
16.1202688
21
56.167651
0
LINE
8
DEFAULT_255_2_778
10
16.1202688
20
56.167651
11
16.6203688
21
56.167651
0
LINE
8
DEFAULT_255_2_778
10
16.6203688
20
53.627651
11
16.6203688
21
54.867751
0
LINE
8
DEFAULT_255_2_778
10
16.6203688
20
54.867751
11
16.1202688
21
54.867751
0
LINE
8
DEFAULT_255_2_778
10
16.1202688
20
54.867751
11
16.1202688
21
53.627651
0
LINE
8
DEFAULT_255_2_778
10
16.1202688
20
53.627651
11
16.6203688
21
53.627651
0
LINE
8
DEFAULT_255_2_778
10
19.1603688
20
62.487751
11
19.1603688
21
61.247651
0
LINE
8
DEFAULT_255_2_778
10
19.1603688
20
61.247651
11
18.6602688
21
61.247651
0
LINE
8
DEFAULT_255_2_778
10
18.6602688
20
61.247651
11
18.6602688
21
62.487751
0
LINE
8
DEFAULT_255_2_778
10
18.6602688
20
62.487751
11
19.1603688
21
62.487751
0
LINE
8
DEFAULT_255_2_778
10
19.1603688
20
59.947751
11
19.1603688
21
58.707651
0
LINE
8
DEFAULT_255_2_778
10
19.1603688
20
58.707651
11
18.6602688
21
58.707651
0
LINE
8
DEFAULT_255_2_778
10
18.6602688
20
58.707651
11
18.6602688
21
59.947751
0
LINE
8
DEFAULT_255_2_778
10
18.6602688
20
59.947751
11
19.1603688
21
59.947751
0
LINE
8
DEFAULT_255_2_778
10
19.1603688
20
57.407751
11
19.1603688
21
56.167651
0
LINE
8
DEFAULT_255_2_778
10
19.1603688
20
56.167651
11
18.6602688
21
56.167651
0
LINE
8
DEFAULT_255_2_778
10
18.6602688
20
56.167651
11
18.6602688
21
57.407751
0
LINE
8
DEFAULT_255_2_778
10
18.6602688
20
57.407751
11
19.1603688
21
57.407751
0
LINE
8
DEFAULT_255_2_778
10
19.1603688
20
54.867751
11
19.1603688
21
53.627651
0
LINE
8
DEFAULT_255_2_778
10
19.1603688
20
53.627651
11
18.6602688
21
53.627651
0
LINE
8
DEFAULT_255_2_778
10
18.6602688
20
53.627651
11
18.6602688
21
54.867751
0
LINE
8
DEFAULT_255_2_778
10
18.6602688
20
54.867751
11
19.1603688
21
54.867751
0
ARC
8
DEFAULT_255_2_778
10
19.5421733
20
62.9891617
40
1.4957997
50
46.6632647
51
81.0451275
0
ARC
8
DEFAULT_255_2_778
10
19.541662
20
62.9858895
40
1.4985318
50
3.7765658
51
46.7349092
0
ARC
8
DEFAULT_255_2_778
10
19.5257609
20
62.9852091
40
1.5144432
50
0.004555
51
3.7626276
0
ARC
8
DEFAULT_255_2_778
10
19.5443474
20
12.4884729
40
1.4958573
50
325.6628842
51
0.0443
0
ARC
8
DEFAULT_255_2_778
10
19.5410821
20
12.4883591
40
1.4984907
50
282.4007583
51
325.7369018
0
ARC
8
DEFAULT_255_2_778
10
19.5379037
20
12.5043126
40
1.5147546
50
279.005391
51
282.3885888
0
ARC
8
DEFAULT_255_2_778
10
15.7402238
20
11.8894977
40
1.5016358
50
275.4594356
51
278.9950907
0
ARC
8
DEFAULT_255_2_778
10
15.740448
20
11.8871127
40
1.4992401
50
270.0002069
51
275.4595769
0
ARC
8
DEFAULT_255_2_778
10
15.7405713
20
11.8882386
40
1.500366
50
229.5071665
51
269.9954986
0
ARC
8
DEFAULT_255_2_778
10
15.7408843
20
11.8881214
40
1.5004801
50
180.0149647
51
229.4951722
0
ARC
8
DEFAULT_255_2_778
10
15.7408325
20
63.5868615
40
1.5004283
50
130.5039166
51
179.9821272
0
ARC
8
DEFAULT_255_2_778
10
15.7407646
20
63.5864268
40
1.5007148
50
90.0029861
51
130.4911656
0
ARC
8
DEFAULT_255_2_778
10
15.7406785
20
63.5872004
40
1.4999411
50
84.5518277
51
89.9997003
0
ARC
8
DEFAULT_255_2_778
10
15.7404752
20
63.5850038
40
1.502147
50
81.0177063
51
84.5520629
0
LINE
8
DEFAULT_255_2_778
10
21.0402043
20
62.9853295
11
21.0402043
21
12.4896295
0
LINE
8
DEFAULT_255_2_778
10
19.7750043
20
11.0082295
11
15.9750043
21
10.4063295
0
LINE
8
DEFAULT_255_2_778
10
14.2404043
20
11.8877295
11
14.2404043
21
63.5873295
0
LINE
8
DEFAULT_255_2_778
10
15.9750043
20
65.0687295
11
19.7750043
21
64.4667295
0
LINE
8
DEFAULT_255_2_778
10
21.7654137
20
72.477623
11
21.7654137
21
2.997823
0
LINE
8
DEFAULT_255_2_778
10
21.7654137
20
2.997823
11
13.5154137
21
2.997823
0
LINE
8
DEFAULT_255_2_778
10
13.5154137
20
2.997823
11
13.5154137
21
72.477623
0
LINE
8
DEFAULT_255_2_778
10
13.5154137
20
72.477623
11
21.7654137
21
72.477623
0
LINE
8
DEFAULT_255_2_778
10
22.2654512
20
72.9776855
11
22.2654512
21
2.4976855
0
LINE
8
DEFAULT_255_2_778
10
22.2654512
20
2.4976855
11
13.0153512
21
2.4976855
0
LINE
8
DEFAULT_255_2_778
10
13.0153512
20
2.4976855
11
13.0153512
21
72.9776855
0
LINE
8
DEFAULT_255_2_778
10
13.0153512
20
72.9776855
11
22.2654512
21
72.9776855
0
LINE
8
DEFAULT_255_2_778
10
23.2904554
20
73.9876
11
23.2904554
21
1.4878
0
LINE
8
DEFAULT_255_2_778
10
23.2904554
20
1.4878
11
11.9903554
21
1.4878
0
LINE
8
DEFAULT_255_2_778
10
11.9903554
20
1.4878
11
11.9903554
21
73.9876
0
LINE
8
DEFAULT_255_2_778
10
11.9903554
20
73.9876
11
23.2904554
21
73.9876
0
ARC
8
DEFAULT_255_2_778
10
17.6375967
20
5.7507955
40
1.297198
50
148.2770855
51
180.1324007
0
ARC
8
DEFAULT_255_2_778
10
17.6367449
20
5.7513122
40
1.2962017
50
97.0226393
51
148.276717
0
ARC
8
DEFAULT_255_2_778
10
17.6399539
20
5.7235442
40
1.3241537
50
89.9849309
51
97.0135513
0
ARC
8
DEFAULT_255_2_778
10
17.6432997
20
5.7505033
40
1.297198
50
58.2770855
51
90.1324007
0
ARC
8
DEFAULT_255_2_778
10
17.6438165
20
5.7513551
40
1.2962017
50
7.0226393
51
58.276717
0
ARC
8
DEFAULT_255_2_778
10
17.6160484
20
5.7481461
40
1.3241537
50
359.9849309
51
7.0135513
0
ARC
8
DEFAULT_255_2_778
10
17.6430076
20
5.7448003
40
1.297198
50
328.2770855
51
0.1324007
0
ARC
8
DEFAULT_255_2_778
10
17.6438594
20
5.7442835
40
1.2962017
50
277.0226393
51
328.276717
0
ARC
8
DEFAULT_255_2_778
10
17.6406504
20
5.7720516
40
1.3241537
50
269.9849309
51
277.0135513
0
ARC
8
DEFAULT_255_2_778
10
17.6373045
20
5.7450924
40
1.297198
50
238.2770855
51
270.1324007
0
ARC
8
DEFAULT_255_2_778
10
17.6367878
20
5.7442406
40
1.2962017
50
187.0226393
51
238.276717
0
ARC
8
DEFAULT_255_2_778
10
17.6645558
20
5.7474496
40
1.3241537
50
179.9849309
51
187.0135513
0
LINE
8
DEFAULT_255_2_778
10
16.3404021
20
5.7477979
11
16.3404021
21
5.7477979
0
LINE
8
DEFAULT_255_2_778
10
13.5154137
20
8.4976
11
21.7654137
21
8.4976
0
ARC
8
DEFAULT_255_2_778
10
17.6375967
20
69.7307955
40
1.297198
50
148.2770855
51
180.1324007
0
ARC
8
DEFAULT_255_2_778
10
17.6367449
20
69.7313122
40
1.2962017
50
97.0226393
51
148.276717
0
ARC
8
DEFAULT_255_2_778
10
17.6399539
20
69.7035442
40
1.3241537
50
89.9849309
51
97.0135513
0
ARC
8
DEFAULT_255_2_778
10
17.6432997
20
69.7305033
40
1.297198
50
58.2770855
51
90.1324007
0
ARC
8
DEFAULT_255_2_778
10
17.6438165
20
69.7313551
40
1.2962017
50
7.0226393
51
58.276717
0
ARC
8
DEFAULT_255_2_778
10
17.6160484
20
69.7281461
40
1.3241537
50
359.9849309
51
7.0135513
0
ARC
8
DEFAULT_255_2_778
10
17.6430076
20
69.7248003
40
1.297198
50
328.2770855
51
0.1324007
0
ARC
8
DEFAULT_255_2_778
10
17.6438594
20
69.7242835
40
1.2962017
50
277.0226393
51
328.276717
0
ARC
8
DEFAULT_255_2_778
10
17.6406504
20
69.7520516
40
1.3241537
50
269.9849309
51
277.0135513
0
ARC
8
DEFAULT_255_2_778
10
17.6373045
20
69.7250924
40
1.297198
50
238.2770855
51
270.1324007
0
ARC
8
DEFAULT_255_2_778
10
17.6367878
20
69.7242406
40
1.2962017
50
187.0226393
51
238.276717
0
ARC
8
DEFAULT_255_2_778
10
17.6645558
20
69.7274496
40
1.3241537
50
179.9849309
51
187.0135513
0
LINE
8
DEFAULT_255_2_778
10
16.3404021
20
69.7277979
11
16.3404021
21
69.7277979
0
LINE
8
DEFAULT_255_2_778
10
13.5154137
20
66.9777
11
21.7654137
21
66.9777
0
ARC
8
DEFAULT_255_2_778
10
2.4561035
20
95.8395299
40
0.7978478
50
342.5280997
51
0.927118
0
ARC
8
DEFAULT_255_2_778
10
2.6772762
20
95.7793451
40
0.5688806
50
336.3170216
51
341.6219843
0
ARC
8
DEFAULT_255_2_778
10
2.767847
20
95.7298169
40
0.4661298
50
306.0479805
51
337.4205226
0
ARC
8
DEFAULT_255_2_778
10
2.7709054
20
95.7945788
40
0.5236455
50
269.7200583
51
283.6574667
0
ARC
8
DEFAULT_255_2_778
10
2.759889
20
95.732717
40
0.4618549
50
238.0005342
51
271.049303
0
ARC
8
DEFAULT_255_2_778
10
2.766997
20
95.7305316
40
0.4638238
50
204.1133535
51
237.112824
0
ARC
8
DEFAULT_255_2_778
10
2.9902971
20
95.8322408
40
0.7091929
50
180.0842219
51
204.2431202
0
ARC
8
DEFAULT_255_2_778
10
3.2474878
20
95.8508871
40
0.9665833
50
180.5363148
51
181.1671625
0
ARC
8
DEFAULT_255_2_778
10
3.0281498
20
95.9425036
40
0.7473261
50
157.8454493
51
181.0399789
0
ARC
8
DEFAULT_255_2_778
10
2.8888842
20
95.9886841
40
0.6010065
50
155.602407
51
156.9162022
0
ARC
8
DEFAULT_255_2_778
10
2.7658569
20
96.0553863
40
0.4615199
50
123.2294911
51
156.8349481
0
ARC
8
DEFAULT_255_2_778
10
2.7585278
20
96.0520147
40
0.460393
50
89.0144193
51
122.2365369
0
ARC
8
DEFAULT_255_2_778
10
2.7761009
20
96.0447636
40
0.4676756
50
58.0843782
51
91.1828182
0
ARC
8
DEFAULT_255_2_778
10
2.7746494
20
96.0593435
40
0.4561548
50
23.1586795
51
56.9613863
0
ARC
8
DEFAULT_255_2_778
10
2.5302387
20
95.9518331
40
0.7231574
50
0.8241046
51
23.3746199
0
ARC
8
DEFAULT_255_2_778
10
2.2424433
20
95.9296313
40
1.0114036
50
359.9891408
51
1.8472689
0
ARC
8
DEFAULT_255_2_778
10
2.3656248
20
95.942997
40
0.7290285
50
359.020896
51
15.4429004
0
ARC
8
DEFAULT_255_2_778
10
2.6889138
20
96.0299102
40
0.3942751
50
15.7785041
51
35.6380224
0
ARC
8
DEFAULT_255_2_778
10
2.7804762
20
96.0924603
40
0.2834267
50
36.1463692
51
92.837243
0
ARC
8
DEFAULT_255_2_778
10
2.7562541
20
96.0947794
40
0.2809452
50
87.9208327
51
143.8676005
0
ARC
8
DEFAULT_255_2_778
10
2.8979425
20
95.9979982
40
0.4524801
50
144.5490003
51
173.1649015
0
ARC
8
DEFAULT_255_2_778
10
3.249762
20
95.9351532
40
0.8095388
50
171.7118929
51
179.5621488
0
ARC
8
DEFAULT_255_2_778
10
3.1245908
20
95.839847
40
0.6844597
50
178.9458233
51
197.2299545
0
ARC
8
DEFAULT_255_2_778
10
2.8579881
20
95.7619722
40
0.4067799
50
197.8764214
51
215.5544111
0
ARC
8
DEFAULT_255_2_778
10
2.7571818
20
95.6865595
40
0.2809301
50
214.99627
51
272.216487
0
ARC
8
DEFAULT_255_2_778
10
2.7816747
20
95.68741
40
0.2819
50
267.2290884
51
323.1477782
0
ARC
8
DEFAULT_255_2_778
10
2.6530658
20
95.7695195
40
0.4342069
50
324.6563068
51
351.8468438
0
ARC
8
DEFAULT_255_2_778
10
2.2598776
20
95.8452436
40
0.8343808
50
350.5285051
51
359.6975823
0
LINE
8
DEFAULT_255_2_778
10
3.2538469
20
95.9297396
11
3.2538469
21
95.8524396
0
LINE
8
DEFAULT_255_2_778
10
3.0421469
20
95.3529396
11
3.2580469
21
95.1836396
0
LINE
8
DEFAULT_255_2_778
10
3.2580469
20
95.1836396
11
3.1493469
21
95.0830396
0
LINE
8
DEFAULT_255_2_778
10
3.1493469
20
95.0830396
11
2.8945469
21
95.2857396
0
LINE
8
DEFAULT_255_2_778
10
2.2809469
20
95.8418396
11
2.2809469
21
95.9289396
0
LINE
8
DEFAULT_255_2_778
10
3.2538469
20
95.9294396
11
3.2538469
21
95.9297396
0
LINE
8
DEFAULT_255_2_778
10
3.0945469
20
95.8408396
11
3.0945469
21
95.9305396
0
LINE
8
DEFAULT_255_2_778
10
2.4402469
20
95.9413396
11
2.4402469
21
95.8524396
0
LINE
8
DEFAULT_255_2_778
10
3.0942469
20
95.8408396
11
3.0945469
21
95.8408396
0
LINE
8
DEFAULT_255_2_778
10
3.602299
20
96.4957083
11
3.893599
21
96.0324083
0
LINE
8
DEFAULT_255_2_778
10
3.893599
20
96.0324083
11
4.183399
21
96.4957083
0
LINE
8
DEFAULT_255_2_778
10
4.183399
20
96.4957083
11
4.370899
21
96.4957083
0
LINE
8
DEFAULT_255_2_778
10
4.370899
20
96.4957083
11
3.989099
21
95.8964083
0
LINE
8
DEFAULT_255_2_778
10
3.989099
20
95.8964083
11
4.380199
21
95.2871083
0
LINE
8
DEFAULT_255_2_778
10
4.380199
20
95.2871083
11
4.190999
21
95.2871083
0
LINE
8
DEFAULT_255_2_778
10
4.190999
20
95.2871083
11
3.893899
21
95.7586083
0
LINE
8
DEFAULT_255_2_778
10
3.893899
20
95.7586083
11
3.595199
21
95.2871083
0
LINE
8
DEFAULT_255_2_778
10
3.595199
20
95.2871083
11
3.406799
21
95.2871083
0
LINE
8
DEFAULT_255_2_778
10
3.406799
20
95.2871083
11
3.798599
21
95.8964083
0
LINE
8
DEFAULT_255_2_778
10
3.798599
20
95.8964083
11
3.416099
21
96.4957083
0
LINE
8
DEFAULT_255_2_778
10
3.416099
20
96.4957083
11
3.602899
21
96.4957083
0
LINE
8
DEFAULT_255_2_778
10
3.602899
20
96.4957083
11
3.602299
21
96.4957083
0
LINE
8
DEFAULT_255_2_778
10
5.9849209
20
96.5015187
11
5.9849209
21
95.2871187
0
LINE
8
DEFAULT_255_2_778
10
5.9849209
20
95.2871187
11
5.8303209
21
95.2871187
0
LINE
8
DEFAULT_255_2_778
10
5.8303209
20
95.2871187
11
5.8303209
21
96.3105187
0
LINE
8
DEFAULT_255_2_778
10
5.8303209
20
96.3105187
11
5.5208209
21
96.1967187
0
LINE
8
DEFAULT_255_2_778
10
5.5208209
20
96.1967187
11
5.5208209
21
96.3361187
0
LINE
8
DEFAULT_255_2_778
10
5.5208209
20
96.3361187
11
5.9608209
21
96.5012187
0
LINE
8
DEFAULT_255_2_778
10
5.9608209
20
96.5012187
11
5.9849209
21
96.5012187
0
LINE
8
DEFAULT_255_2_778
10
5.9849209
20
96.5012187
11
5.9849209
21
96.5015187
0
LINE
8
DEFAULT_255_2_778
10
5.2281209
20
96.5002187
11
5.2281209
21
95.6974187
0
LINE
8
DEFAULT_255_2_778
10
5.2281209
20
95.6974187
11
5.3959209
21
95.6974187
0
LINE
8
DEFAULT_255_2_778
10
5.3959209
20
95.6974187
11
5.3959209
21
95.5720187
0
LINE
8
DEFAULT_255_2_778
10
5.3959209
20
95.5720187
11
5.2281209
21
95.5720187
0
LINE
8
DEFAULT_255_2_778
10
5.2281209
20
95.5720187
11
5.2281209
21
95.2916187
0
LINE
8
DEFAULT_255_2_778
10
5.2281209
20
95.2916187
11
5.0736209
21
95.2916187
0
LINE
8
DEFAULT_255_2_778
10
5.0736209
20
95.2916187
11
5.0736209
21
95.5720187
0
LINE
8
DEFAULT_255_2_778
10
5.0736209
20
95.5720187
11
4.5233209
21
95.5720187
0
LINE
8
DEFAULT_255_2_778
10
4.5233209
20
95.5720187
11
4.5233209
21
95.6625187
0
LINE
8
DEFAULT_255_2_778
10
4.5233209
20
95.6625187
11
5.0646209
21
96.5002187
0
LINE
8
DEFAULT_255_2_778
10
5.0646209
20
96.5002187
11
5.2281209
21
96.5002187
0
LINE
8
DEFAULT_255_2_778
10
5.2281209
20
96.5002187
11
5.2281209
21
96.5002187
0
LINE
8
DEFAULT_255_2_778
10
5.0554209
20
96.2570187
11
4.6977209
21
95.6974187
0
LINE
8
DEFAULT_255_2_778
10
4.6977209
20
95.6974187
11
5.0736209
21
95.6974187
0
LINE
8
DEFAULT_255_2_778
10
5.0736209
20
95.6974187
11
5.0736209
21
96.2901187
0
LINE
8
DEFAULT_255_2_778
10
5.0736209
20
96.2901187
11
5.0554209
21
96.2570187
0
LINE
8
DEFAULT_255_2_778
10
5.0554209
20
96.2570187
11
5.0554209
21
96.2570187
0
ENDSEC
0
EOF