0
SECTION
2
HEADER
9
$MEASUREMENT
70
1
0
ENDSEC
0
SECTION
2
TABLES
0
TABLE
2
LTYPE
0
LTYPE
72
65
70
64
2
CONTINUOUS
3
______
73
0
40
0
0
ENDTAB
0
TABLE
2
LAYER
0
LAYER
2
DEFAULT_255_2_778
70
0
62
255
6
CONTINUOUS
0
ENDTAB
0
ENDSEC
0
SECTION
2
ENTITIES
0
LINE
8
DEFAULT_255_2_778
10
0.2571512
20
68.0744716
11
14.2570512
21
68.0744716
0
LINE
8
DEFAULT_255_2_778
10
14.2570512
20
68.0744716
11
14.2570512
21
76.0743716
0
LINE
8
DEFAULT_255_2_778
10
14.2570512
20
76.0743716
11
0.2571512
21
76.0743716
0
LINE
8
DEFAULT_255_2_778
10
0.2571512
20
77.0742716
11
14.2570512
21
77.0742716
0
LINE
8
DEFAULT_255_2_778
10
14.2570512
20
77.0742716
11
14.2570512
21
85.0741716
0
LINE
8
DEFAULT_255_2_778
10
14.2570512
20
85.0741716
11
0.2571512
21
85.0741716
0
ARC
8
DEFAULT_255_2_778
10
65.2552074
20
10.827552
40
1.4980335
50
151.5812362
51
180.1196808
0
ARC
8
DEFAULT_255_2_778
10
65.2533928
20
10.8278796
40
1.4962819
50
98.4349857
51
151.5591992
0
ARC
8
DEFAULT_255_2_778
10
65.2565272
20
10.800283
40
1.52404
50
89.9793242
51
98.3993596
0
ARC
8
DEFAULT_255_2_778
10
65.2602284
20
10.8262054
40
1.4981208
50
61.5820795
51
90.1205221
0
ARC
8
DEFAULT_255_2_778
10
65.2606066
20
10.828184
40
1.4962007
50
8.4324706
51
61.5587554
0
ARC
8
DEFAULT_255_2_778
10
65.232752
20
10.8249741
40
1.5242252
50
359.979278
51
8.398282
0
ARC
8
DEFAULT_255_2_778
10
65.2587553
20
10.8212607
40
1.4982252
50
331.5847107
51
0.1209297
0
ARC
8
DEFAULT_255_2_778
10
65.2609303
20
10.82079
40
1.4960882
50
278.430422
51
331.5609287
0
ARC
8
DEFAULT_255_2_778
10
65.2576307
20
10.8490258
40
1.5245031
50
269.9791958
51
278.3975127
0
ARC
8
DEFAULT_255_2_778
10
65.2539371
20
10.8226575
40
1.4981379
50
241.5838674
51
270.1200886
0
ARC
8
DEFAULT_255_2_778
10
65.253517
20
10.8206465
40
1.4961693
50
188.432937
51
241.5613726
0
ARC
8
DEFAULT_255_2_778
10
65.2814949
20
10.8238706
40
1.5243178
50
179.9792421
51
188.3985902
0
LINE
8
DEFAULT_255_2_778
10
63.7571771
20
10.8244229
11
63.7571771
21
10.8244229
0
ARC
8
DEFAULT_255_2_778
10
34.2720051
20
20.827674
40
3.0149176
50
162.1222501
51
180.0696243
0
ARC
8
DEFAULT_255_2_778
10
34.2513045
20
20.829752
40
2.9945819
50
105.6431954
51
162.0385014
0
ARC
8
DEFAULT_255_2_778
10
34.2541859
20
20.8026875
40
3.0214242
50
89.9430383
51
105.5574208
0
ARC
8
DEFAULT_255_2_778
10
34.2608629
20
20.809014
40
3.0150985
50
72.1227923
51
90.069802
0
ARC
8
DEFAULT_255_2_778
10
34.263031
20
20.8299984
40
2.9944649
50
15.6417757
51
72.0390176
0
ARC
8
DEFAULT_255_2_778
10
34.2357104
20
20.8270179
40
3.0215808
50
359.94297
51
15.5565202
0
ARC
8
DEFAULT_255_2_778
10
34.242038
20
20.820333
40
3.0152539
50
342.1238259
51
0.0698758
0
ARC
8
DEFAULT_255_2_778
10
34.2632792
20
20.8180622
40
2.9943443
50
285.6411039
51
342.0404171
0
ARC
8
DEFAULT_255_2_778
10
34.2602046
20
20.8456925
40
3.0217837
50
269.9428337
51
285.5559944
0
ARC
8
DEFAULT_255_2_778
10
34.2535219
20
20.8389811
40
3.015073
50
252.1232837
51
270.0696981
0
ARC
8
DEFAULT_255_2_778
10
34.2513412
20
20.8180237
40
2.9944612
50
195.6425237
51
252.0399009
0
ARC
8
DEFAULT_255_2_778
10
34.2787155
20
20.8209991
40
3.0216271
50
179.942902
51
195.556895
0
LINE
8
DEFAULT_255_2_778
10
31.2570897
20
20.8240103
11
31.2570897
21
20.8240103
0
ARC
8
DEFAULT_255_2_778
10
24.2721051
20
69.327674
40
3.0149176
50
162.1222501
51
180.0696243
0
ARC
8
DEFAULT_255_2_778
10
24.2514045
20
69.329752
40
2.9945819
50
105.6431954
51
162.0385014
0
ARC
8
DEFAULT_255_2_778
10
24.2542859
20
69.3026875
40
3.0214242
50
89.9430383
51
105.5574208
0
ARC
8
DEFAULT_255_2_778
10
24.2609629
20
69.309014
40
3.0150985
50
72.1227923
51
90.069802
0
ARC
8
DEFAULT_255_2_778
10
24.263131
20
69.3299984
40
2.9944649
50
15.6417757
51
72.0390176
0
ARC
8
DEFAULT_255_2_778
10
24.2358104
20
69.3270179
40
3.0215808
50
359.94297
51
15.5565202
0
ARC
8
DEFAULT_255_2_778
10
24.242138
20
69.320333
40
3.0152539
50
342.1238259
51
0.0698758
0
ARC
8
DEFAULT_255_2_778
10
24.2633792
20
69.3180622
40
2.9943443
50
285.6411039
51
342.0404171
0
ARC
8
DEFAULT_255_2_778
10
24.2603046
20
69.3456925
40
3.0217837
50
269.9428337
51
285.5559944
0
ARC
8
DEFAULT_255_2_778
10
24.2536219
20
69.3389811
40
3.015073
50
252.1232837
51
270.0696981
0
ARC
8
DEFAULT_255_2_778
10
24.2514412
20
69.3180237
40
2.9944612
50
195.6425237
51
252.0399009
0
ARC
8
DEFAULT_255_2_778
10
24.2788155
20
69.3209991
40
3.0216271
50
179.942902
51
195.556895
0
LINE
8
DEFAULT_255_2_778
10
21.2571897
20
69.3240103
11
21.2571897
21
69.3240103
0
ARC
8
DEFAULT_255_2_778
10
65.2722051
20
44.827774
40
3.0149176
50
162.1222501
51
180.0696243
0
ARC
8
DEFAULT_255_2_778
10
65.2515045
20
44.829852
40
2.9945819
50
105.6431954
51
162.0385014
0
ARC
8
DEFAULT_255_2_778
10
65.2543859
20
44.8027875
40
3.0214242
50
89.9430383
51
105.5574208
0
ARC
8
DEFAULT_255_2_778
10
65.2610629
20
44.809114
40
3.0150985
50
72.1227923
51
90.069802
0
ARC
8
DEFAULT_255_2_778
10
65.263231
20
44.8300984
40
2.9944649
50
15.6417757
51
72.0390176
0
ARC
8
DEFAULT_255_2_778
10
65.2359104
20
44.8271179
40
3.0215808
50
359.94297
51
15.5565202
0
ARC
8
DEFAULT_255_2_778
10
65.242238
20
44.820433
40
3.0152539
50
342.1238259
51
0.0698758
0
ARC
8
DEFAULT_255_2_778
10
65.2634792
20
44.8181622
40
2.9943443
50
285.6411039
51
342.0404171
0
ARC
8
DEFAULT_255_2_778
10
65.2604046
20
44.8457925
40
3.0217837
50
269.9428337
51
285.5559944
0
ARC
8
DEFAULT_255_2_778
10
65.2537219
20
44.8390811
40
3.015073
50
252.1232837
51
270.0696981
0
ARC
8
DEFAULT_255_2_778
10
65.2515412
20
44.8181237
40
2.9944612
50
195.6425237
51
252.0399009
0
ARC
8
DEFAULT_255_2_778
10
65.2789155
20
44.8210991
40
3.0216271
50
179.942902
51
195.556895
0
LINE
8
DEFAULT_255_2_778
10
62.2572897
20
44.8241103
11
62.2572897
21
44.8241103
0
ARC
8
DEFAULT_255_2_778
10
65.2552074
20
78.827552
40
1.4980335
50
151.5812362
51
180.1196808
0
ARC
8
DEFAULT_255_2_778
10
65.2533928
20
78.8278796
40
1.4962819
50
98.4349857
51
151.5591992
0
ARC
8
DEFAULT_255_2_778
10
65.2565272
20
78.800283
40
1.52404
50
89.9793242
51
98.3993596
0
ARC
8
DEFAULT_255_2_778
10
65.2602284
20
78.8262054
40
1.4981208
50
61.5820795
51
90.1205221
0
ARC
8
DEFAULT_255_2_778
10
65.2606066
20
78.828184
40
1.4962007
50
8.4324706
51
61.5587554
0
ARC
8
DEFAULT_255_2_778
10
65.232752
20
78.8249741
40
1.5242252
50
359.979278
51
8.398282
0
ARC
8
DEFAULT_255_2_778
10
65.2587553
20
78.8212607
40
1.4982252
50
331.5847107
51
0.1209297
0
ARC
8
DEFAULT_255_2_778
10
65.2609303
20
78.82079
40
1.4960882
50
278.430422
51
331.5609287
0
ARC
8
DEFAULT_255_2_778
10
65.2576307
20
78.8490258
40
1.5245031
50
269.9791958
51
278.3975127
0
ARC
8
DEFAULT_255_2_778
10
65.2539371
20
78.8226575
40
1.4981379
50
241.5838674
51
270.1200886
0
ARC
8
DEFAULT_255_2_778
10
65.253517
20
78.8206465
40
1.4961693
50
188.432937
51
241.5613726
0
ARC
8
DEFAULT_255_2_778
10
65.2814949
20
78.8238706
40
1.5243178
50
179.9792421
51
188.3985902
0
LINE
8
DEFAULT_255_2_778
10
63.7571771
20
78.8244229
11
63.7571771
21
78.8244229
0
ARC
8
DEFAULT_255_2_778
10
9.2047624
20
8.5173111
40
1.993183
50
245.6872806
51
270.068521
0
ARC
8
DEFAULT_255_2_778
10
9.2096562
20
8.5258275
40
2.0029591
50
189.8014535
51
245.6600071
0
ARC
8
DEFAULT_255_2_778
10
9.2205502
20
8.523512
40
2.0133042
50
179.9824264
51
189.6837422
0
ARC
8
DEFAULT_255_2_778
10
9.2003099
20
51.1266891
40
1.9930654
50
155.6907545
51
180.0735838
0
ARC
8
DEFAULT_255_2_778
10
9.208889
20
51.1217784
40
2.0029057
50
99.8030209
51
155.6637615
0
ARC
8
DEFAULT_255_2_778
10
9.2065295
20
51.111024
40
2.0131055
50
89.9824512
51
99.684731
0
ARC
8
DEFAULT_255_2_778
10
21.3097053
20
51.1313172
40
1.9928139
50
65.6879682
51
90.0735817
0
ARC
8
DEFAULT_255_2_778
10
21.3045124
20
51.1222936
40
2.0031756
50
9.8044729
51
65.65887
0
ARC
8
DEFAULT_255_2_778
10
21.2935448
20
51.1245599
40
2.0136013
50
359.9877538
51
9.6877868
0
LINE
8
DEFAULT_255_2_778
10
6.7071461
20
8.5241295
11
6.7071461
21
51.1241295
0
LINE
8
DEFAULT_255_2_778
10
24.5072461
20
1.3242295
11
17.0071461
21
1.3242295
0
LINE
8
DEFAULT_255_2_778
10
17.0071461
20
1.3242295
11
17.0071461
21
6.0243295
0
LINE
8
DEFAULT_255_2_778
10
17.0071461
20
6.0243295
11
9.2071461
21
6.0243295
0
LINE
8
DEFAULT_255_2_778
10
24.0071461
20
1.8240295
11
17.5071461
21
1.8240295
0
LINE
8
DEFAULT_255_2_778
10
17.5071461
20
1.8240295
11
17.5071461
21
6.5241295
0
LINE
8
DEFAULT_255_2_778
10
17.5071461
20
6.5241295
11
9.2071461
21
6.5241295
0
LINE
8
DEFAULT_255_2_778
10
7.2072461
20
8.5241295
11
7.2072461
21
51.1241295
0
LINE
8
DEFAULT_255_2_778
10
9.2071461
20
53.1241295
11
21.3071461
21
53.1241295
0
LINE
8
DEFAULT_255_2_778
10
23.3071461
20
51.1241295
11
23.3071461
21
7.6242295
0
LINE
8
DEFAULT_255_2_778
10
23.3071461
20
7.6242295
11
24.5069461
21
7.6242295
0
LINE
8
DEFAULT_255_2_778
10
24.5069461
20
7.6242295
11
24.5069461
21
1.3242295
0
LINE
8
DEFAULT_255_2_778
10
24.5069461
20
1.3242295
11
24.0069461
21
1.8243295
0
LINE
8
DEFAULT_255_2_778
10
24.0069461
20
1.8243295
11
24.0069461
21
7.6242295
0
LINE
8
DEFAULT_255_2_778
10
17.7572461
20
1.8240295
11
17.7572461
21
2.3241295
0
ARC
8
DEFAULT_255_2_778
10
15.2571307
20
5.8234793
40
1.5003637
50
27.8610656
51
89.9982186
0
ARC
8
DEFAULT_255_2_778
10
15.2571616
20
5.8237487
40
1.5000943
50
89.9993983
51
152.1451319
0
ARC
8
DEFAULT_255_2_778
10
9.2015866
20
8.5212775
40
2.4944108
50
179.9364769
51
200.7914979
0
ARC
8
DEFAULT_255_2_778
10
9.2096945
20
8.5274053
40
2.5041677
50
200.8567219
51
259.5425896
0
ARC
8
DEFAULT_255_2_778
10
9.2062503
20
8.5385969
40
2.514554
50
259.6660508
51
270.0211234
0
LINE
8
DEFAULT_255_2_778
10
23.8071773
20
51.124143
11
23.8071773
21
7.623943
0
LINE
8
DEFAULT_255_2_778
10
17.7572773
20
2.124043
11
17.5071773
21
2.124043
0
LINE
8
DEFAULT_255_2_778
10
24.0071773
20
2.324043
11
17.5071773
21
2.324043
0
LINE
8
DEFAULT_255_2_778
10
9.2071773
20
53.624143
11
21.3071773
21
53.624143
0
ARC
8
DEFAULT_255_2_778
10
9.2044369
20
51.1299046
40
2.4942577
50
89.9367623
51
110.7921437
0
ARC
8
DEFAULT_255_2_778
10
9.2106416
20
51.121554
40
2.5042687
50
110.8570372
51
169.540934
0
ARC
8
DEFAULT_255_2_778
10
9.2215732
20
51.1250846
40
2.5143836
50
169.6652679
51
180.0210513
0
ARC
8
DEFAULT_255_2_778
10
21.3129337
20
51.1269137
40
2.4942577
50
359.9367623
51
20.7921437
0
ARC
8
DEFAULT_255_2_778
10
21.3045831
20
51.120709
40
2.5042687
50
20.8570372
51
79.540934
0
ARC
8
DEFAULT_255_2_778
10
21.3081136
20
51.1097773
40
2.5143836
50
79.6652679
51
90.0210513
0
LINE
8
DEFAULT_255_2_778
10
17.5071898
20
1.8242607
11
17.0071898
21
1.3242607
0
ARC
8
DEFAULT_255_2_778
10
16.6072653
20
14.3239639
40
0.3005644
50
270.0122674
51
299.9740613
0
ARC
8
DEFAULT_255_2_778
10
13.9073942
20
14.3239646
40
0.3005652
50
240.0259676
51
269.9876873
0
ARC
8
DEFAULT_255_2_778
10
16.2566309
20
14.6738981
40
0.1507003
50
270.2656486
51
359.7343784
0
ARC
8
DEFAULT_255_2_778
10
14.2577232
20
14.6743149
40
0.1511159
50
225.1935245
51
269.8507732
0
ARC
8
DEFAULT_255_2_778
10
14.2564107
20
14.6727512
40
0.1490817
50
179.8277151
51
225.1279003
0
ARC
8
DEFAULT_255_2_778
10
16.6066356
20
45.321284
40
0.3029163
50
60.1449381
51
89.8687244
0
ARC
8
DEFAULT_255_2_778
10
13.9073941
20
45.3236345
40
0.300565
50
90.0122922
51
119.9740299
0
ARC
8
DEFAULT_255_2_778
10
16.2572749
20
44.9740447
40
0.1500547
50
0.0208901
51
89.9791099
0
ARC
8
DEFAULT_255_2_778
10
14.2573843
20
44.9740447
40
0.1500547
50
90.0208901
51
179.9791099
0
ARC
8
DEFAULT_255_2_778
10
8.9559222
20
15.370407
40
0.598794
50
89.8749006
51
180.1251109
0
ARC
8
DEFAULT_255_2_778
10
8.9571816
20
15.3691514
40
0.600048
50
359.9950382
51
89.9954133
0
ARC
8
DEFAULT_255_2_778
10
8.9571816
20
15.3690475
40
0.600048
50
270.0045867
51
0.0049618
0
ARC
8
DEFAULT_255_2_778
10
8.9552791
20
15.4022863
40
0.6332899
50
270.0060885
51
270.1764664
0
ARC
8
DEFAULT_255_2_778
10
8.9552448
20
15.3675095
40
0.598513
50
225.0267324
51
270.0097331
0
ARC
8
DEFAULT_255_2_778
10
8.9554007
20
15.3670174
40
0.5982753
50
180.0162291
51
224.98286
0
ARC
8
DEFAULT_255_2_778
10
8.9332498
20
15.3668989
40
0.5761244
50
179.7811582
51
180.0050702
0
ARC
8
DEFAULT_255_2_778
10
8.9571724
20
15.3690567
40
0.4450427
50
89.9926285
51
179.9944975
0
ARC
8
DEFAULT_255_2_778
10
8.9572083
20
15.3690782
40
0.4450212
50
0.0027349
51
89.997256
0
ARC
8
DEFAULT_255_2_778
10
8.9572082
20
15.3691209
40
0.4450214
50
270.0027614
51
359.9972359
0
ARC
8
DEFAULT_255_2_778
10
8.9571724
20
15.3691422
40
0.4450427
50
180.0055025
51
270.0073715
0
ARC
8
DEFAULT_255_2_778
10
8.9566676
20
15.3696615
40
0.2444387
50
89.8682754
51
180.1317528
0
ARC
8
DEFAULT_255_2_778
10
8.9577278
20
15.3695977
40
0.2445023
50
359.883242
51
90.1167464
0
ARC
8
DEFAULT_255_2_778
10
8.9577279
20
15.3686011
40
0.2445022
50
269.8832255
51
0.1167862
0
ARC
8
DEFAULT_255_2_778
10
8.9566676
20
15.3685374
40
0.2444386
50
179.8682472
51
270.1317246
0
ARC
8
DEFAULT_255_2_778
10
21.5558584
20
44.2803706
40
0.5987304
50
89.8687833
51
180.1312167
0
ARC
8
DEFAULT_255_2_778
10
21.5572458
20
44.2791155
40
0.5999839
50
359.9889145
51
90.0015418
0
ARC
8
DEFAULT_255_2_778
10
21.5572669
20
44.2789621
40
0.5999627
50
269.9964361
51
0.0035639
0
ARC
8
DEFAULT_255_2_778
10
21.5550257
20
44.2569345
40
0.5779392
50
269.9949379
51
270.2184925
0
ARC
8
DEFAULT_255_2_778
10
21.5549725
20
44.2768478
40
0.5978526
50
225.000371
51
270.0002072
0
ARC
8
DEFAULT_255_2_778
10
21.55517
20
44.2769218
40
0.5980446
50
180.0166561
51
224.9920053
0
ARC
8
DEFAULT_255_2_778
10
21.5332481
20
44.2767989
40
0.5761227
50
179.7811581
51
180.0050701
0
ARC
8
DEFAULT_255_2_778
10
21.5572577
20
44.2789714
40
0.4451281
50
90.0036164
51
179.9963836
0
ARC
8
DEFAULT_255_2_778
10
21.5571869
20
44.2790567
40
0.4450427
50
359.9926285
51
89.9944975
0
ARC
8
DEFAULT_255_2_778
10
21.5572722
20
44.2789568
40
0.4449574
50
269.9945129
51
0.0054871
0
ARC
8
DEFAULT_255_2_778
10
21.5571724
20
44.2790422
40
0.4450427
50
180.0055025
51
270.0073715
0
ARC
8
DEFAULT_255_2_778
10
21.5566889
20
44.2796399
40
0.2444601
50
89.8732721
51
180.1501091
0
ARC
8
DEFAULT_255_2_778
10
21.5577066
20
44.2795761
40
0.2445238
50
359.8648775
51
90.1117646
0
ARC
8
DEFAULT_255_2_778
10
21.5577279
20
44.2785011
40
0.2445022
50
269.8832255
51
0.1167862
0
ARC
8
DEFAULT_255_2_778
10
21.5566677
20
44.2784374
40
0.2444386
50
179.8682554
51
270.1317212
0
LINE
8
DEFAULT_255_2_778
10
17.5072296
20
6.5240994
11
17.0071296
21
6.0239994
0
LINE
8
DEFAULT_255_2_778
10
17.9572296
20
31.8091994
11
18.5573296
21
31.8091994
0
LINE
8
DEFAULT_255_2_778
10
18.5573296
20
31.8091994
11
18.5573296
21
32.0391994
0
LINE
8
DEFAULT_255_2_778
10
18.5573296
20
32.0391994
11
17.9572296
21
32.0391994
0
LINE
8
DEFAULT_255_2_778
10
17.9572296
20
33.0090994
11
17.9572296
21
32.6391994
0
LINE
8
DEFAULT_255_2_778
10
17.9572296
20
32.6391994
11
17.9572296
21
32.4092994
0
LINE
8
DEFAULT_255_2_778
10
17.9572296
20
32.4092994
11
18.5573296
21
32.4092994
0
LINE
8
DEFAULT_255_2_778
10
18.5573296
20
32.4092994
11
18.5573296
21
32.6391994
0
LINE
8
DEFAULT_255_2_778
10
18.5573296
20
32.6391994
11
17.9572296
21
32.6391994
0
LINE
8
DEFAULT_255_2_778
10
17.9572296
20
33.6091994
11
17.9572296
21
33.2392994
0
LINE
8
DEFAULT_255_2_778
10
17.9572296
20
33.2392994
11
17.9572296
21
33.0093994
0
LINE
8
DEFAULT_255_2_778
10
17.9572296
20
33.0093994
11
18.5573296
21
33.0093994
0
LINE
8
DEFAULT_255_2_778
10
18.5573296
20
33.0093994
11
18.5573296
21
33.2392994
0
LINE
8
DEFAULT_255_2_778
10
18.5573296
20
33.2392994
11
17.9572296
21
33.2392994
0
LINE
8
DEFAULT_255_2_778
10
17.9572296
20
34.2092994
11
17.9572296
21
33.8393994
0
LINE
8
DEFAULT_255_2_778
10
17.9572296
20
33.8393994
11
17.9572296
21
33.6094994
0
LINE
8
DEFAULT_255_2_778
10
17.9572296
20
33.6094994
11
18.5573296
21
33.6094994
0
LINE
8
DEFAULT_255_2_778
10
18.5573296
20
33.6094994
11
18.5573296
21
33.8393994
0
LINE
8
DEFAULT_255_2_778
10
18.5573296
20
33.8393994
11
17.9572296
21
33.8393994
0
LINE
8
DEFAULT_255_2_778
10
17.9572296
20
34.8092994
11
17.9572296
21
34.4394994
0
LINE
8
DEFAULT_255_2_778
10
17.9572296
20
34.4394994
11
17.9572296
21
34.2094994
0
LINE
8
DEFAULT_255_2_778
10
17.9572296
20
34.2094994
11
18.5573296
21
34.2094994
0
LINE
8
DEFAULT_255_2_778
10
18.5573296
20
34.2094994
11
18.5573296
21
34.4394994
0
LINE
8
DEFAULT_255_2_778
10
18.5573296
20
34.4394994
11
17.9572296
21
34.4394994
0
LINE
8
DEFAULT_255_2_778
10
17.9572296
20
35.4093994
11
17.9572296
21
35.0394994
0
LINE
8
DEFAULT_255_2_778
10
17.9572296
20
35.0394994
11
17.9572296
21
34.8095994
0
LINE
8
DEFAULT_255_2_778
10
17.9572296
20
34.8095994
11
18.5573296
21
34.8095994
0
LINE
8
DEFAULT_255_2_778
10
18.5573296
20
34.8095994
11
18.5573296
21
35.0394994
0
LINE
8
DEFAULT_255_2_778
10
18.5573296
20
35.0394994
11
17.9572296
21
35.0394994
0
LINE
8
DEFAULT_255_2_778
10
17.9572296
20
36.0094994
11
17.9572296
21
35.6395994
0
LINE
8
DEFAULT_255_2_778
10
17.9572296
20
35.6395994
11
17.9572296
21
35.4096994
0
LINE
8
DEFAULT_255_2_778
10
17.9572296
20
35.4096994
11
18.5573296
21
35.4096994
0
LINE
8
DEFAULT_255_2_778
10
18.5573296
20
35.4096994
11
18.5573296
21
35.6395994
0
LINE
8
DEFAULT_255_2_778
10
18.5573296
20
35.6395994
11
17.9572296
21
35.6395994
0
LINE
8
DEFAULT_255_2_778
10
17.9572296
20
36.6095994
11
17.9572296
21
36.2396994
0
LINE
8
DEFAULT_255_2_778
10
17.9572296
20
36.2396994
11
17.9572296
21
36.0097994
0
LINE
8
DEFAULT_255_2_778
10
17.9572296
20
36.0097994
11
18.5573296
21
36.0097994
0
LINE
8
DEFAULT_255_2_778
10
18.5573296
20
36.0097994
11
18.5573296
21
36.2396994
0
LINE
8
DEFAULT_255_2_778
10
18.5573296
20
36.2396994
11
17.9572296
21
36.2396994
0
LINE
8
DEFAULT_255_2_778
10
17.9572296
20
37.2095994
11
17.9572296
21
36.8397994
0
LINE
8
DEFAULT_255_2_778
10
17.9572296
20
36.8397994
11
17.9572296
21
36.6097994
0
LINE
8
DEFAULT_255_2_778
10
17.9572296
20
36.6097994
11
18.5573296
21
36.6097994
0
LINE
8
DEFAULT_255_2_778
10
18.5573296
20
36.6097994
11
18.5573296
21
36.8397994
0
LINE
8
DEFAULT_255_2_778
10
18.5573296
20
36.8397994
11
17.9572296
21
36.8397994
0
LINE
8
DEFAULT_255_2_778
10
17.9572296
20
37.8096994
11
17.9572296
21
37.4397994
0
LINE
8
DEFAULT_255_2_778
10
17.9572296
20
37.4397994
11
17.9572296
21
37.2098994
0
LINE
8
DEFAULT_255_2_778
10
17.9572296
20
37.2098994
11
18.5573296
21
37.2098994
0
LINE
8
DEFAULT_255_2_778
10
18.5573296
20
37.2098994
11
18.5573296
21
37.4397994
0
LINE
8
DEFAULT_255_2_778
10
18.5573296
20
37.4397994
11
17.9572296
21
37.4397994
0
LINE
8
DEFAULT_255_2_778
10
17.9572296
20
38.4097994
11
17.9572296
21
38.0398994
0
LINE
8
DEFAULT_255_2_778
10
17.9572296
20
38.0398994
11
17.9572296
21
37.8099994
0
LINE
8
DEFAULT_255_2_778
10
17.9572296
20
37.8099994
11
18.5573296
21
37.8099994
0
LINE
8
DEFAULT_255_2_778
10
18.5573296
20
37.8099994
11
18.5573296
21
38.0398994
0
LINE
8
DEFAULT_255_2_778
10
18.5573296
20
38.0398994
11
17.9572296
21
38.0398994
0
LINE
8
DEFAULT_255_2_778
10
17.9572296
20
39.0098994
11
17.9572296
21
38.6399994
0
LINE
8
DEFAULT_255_2_778
10
17.9572296
20
38.6399994
11
17.9572296
21
38.4100994
0
LINE
8
DEFAULT_255_2_778
10
17.9572296
20
38.4100994
11
18.5573296
21
38.4100994
0
LINE
8
DEFAULT_255_2_778
10
18.5573296
20
38.4100994
11
18.5573296
21
38.6399994
0
LINE
8
DEFAULT_255_2_778
10
18.5573296
20
38.6399994
11
17.9572296
21
38.6399994
0
LINE
8
DEFAULT_255_2_778
10
17.9572296
20
39.6098994
11
17.9572296
21
39.2400994
0
LINE
8
DEFAULT_255_2_778
10
17.9572296
20
39.2400994
11
17.9572296
21
39.0100994
0
LINE
8
DEFAULT_255_2_778
10
17.9572296
20
39.0100994
11
18.5573296
21
39.0100994
0
LINE
8
DEFAULT_255_2_778
10
18.5573296
20
39.0100994
11
18.5573296
21
39.2400994
0
LINE
8
DEFAULT_255_2_778
10
18.5573296
20
39.2400994
11
17.9572296
21
39.2400994
0
LINE
8
DEFAULT_255_2_778
10
17.9572296
20
40.2099994
11
17.9572296
21
39.8400994
0
LINE
8
DEFAULT_255_2_778
10
17.9572296
20
39.8400994
11
17.9572296
21
39.6101994
0
LINE
8
DEFAULT_255_2_778
10
17.9572296
20
39.6101994
11
18.5573296
21
39.6101994
0
LINE
8
DEFAULT_255_2_778
10
18.5573296
20
39.6101994
11
18.5573296
21
39.8400994
0
LINE
8
DEFAULT_255_2_778
10
18.5573296
20
39.8400994
11
17.9572296
21
39.8400994
0
LINE
8
DEFAULT_255_2_778
10
17.9572296
20
40.8100994
11
17.9572296
21
40.4398994
0
LINE
8
DEFAULT_255_2_778
10
17.9572296
20
40.4398994
11
17.9572296
21
40.2099994
0
LINE
8
DEFAULT_255_2_778
10
17.9572296
20
40.2099994
11
18.5573296
21
40.2099994
0
LINE
8
DEFAULT_255_2_778
10
18.5573296
20
40.2099994
11
18.5573296
21
40.4398994
0
LINE
8
DEFAULT_255_2_778
10
18.5573296
20
40.4398994
11
17.9572296
21
40.4398994
0
LINE
8
DEFAULT_255_2_778
10
17.9572296
20
41.4098994
11
17.9572296
21
41.0399994
0
LINE
8
DEFAULT_255_2_778
10
17.9572296
20
41.0399994
11
17.9572296
21
40.8100994
0
LINE
8
DEFAULT_255_2_778
10
17.9572296
20
40.8100994
11
18.5573296
21
40.8100994
0
LINE
8
DEFAULT_255_2_778
10
18.5573296
20
40.8100994
11
18.5573296
21
41.0399994
0
LINE
8
DEFAULT_255_2_778
10
18.5573296
20
41.0399994
11
17.9572296
21
41.0399994
0
LINE
8
DEFAULT_255_2_778
10
18.6573296
20
43.0449994
11
18.6573296
21
42.8698994
0
LINE
8
DEFAULT_255_2_778
10
18.6573296
20
42.8698994
11
17.9572296
21
42.3697994
0
LINE
8
DEFAULT_255_2_778
10
17.9572296
20
42.3697994
11
17.9572296
21
41.6397994
0
LINE
8
DEFAULT_255_2_778
10
17.9572296
20
41.6397994
11
17.9572296
21
41.4098994
0
LINE
8
DEFAULT_255_2_778
10
17.9572296
20
41.4098994
11
18.5573296
21
41.4098994
0
LINE
8
DEFAULT_255_2_778
10
18.5573296
20
41.4098994
11
18.5573296
21
41.6397994
0
LINE
8
DEFAULT_255_2_778
10
18.5573296
20
41.6397994
11
17.9572296
21
41.6397994
0
LINE
8
DEFAULT_255_2_778
10
17.9572296
20
21.6097994
11
18.5573296
21
21.6097994
0
LINE
8
DEFAULT_255_2_778
10
18.5573296
20
21.6097994
11
18.5573296
21
21.8396994
0
LINE
8
DEFAULT_255_2_778
10
18.5573296
20
21.8396994
11
17.9572296
21
21.8396994
0
LINE
8
DEFAULT_255_2_778
10
17.9572296
20
22.8096994
11
17.9572296
21
22.4397994
0
LINE
8
DEFAULT_255_2_778
10
17.9572296
20
22.4397994
11
17.9572296
21
22.2098994
0
LINE
8
DEFAULT_255_2_778
10
17.9572296
20
22.2098994
11
18.5573296
21
22.2098994
0
LINE
8
DEFAULT_255_2_778
10
18.5573296
20
22.2098994
11
18.5573296
21
22.4397994
0
LINE
8
DEFAULT_255_2_778
10
18.5573296
20
22.4397994
11
17.9572296
21
22.4397994
0
LINE
8
DEFAULT_255_2_778
10
17.9572296
20
23.4097994
11
17.9572296
21
23.0395994
0
LINE
8
DEFAULT_255_2_778
10
17.9572296
20
23.0395994
11
17.9572296
21
22.8096994
0
LINE
8
DEFAULT_255_2_778
10
17.9572296
20
22.8096994
11
18.5573296
21
22.8096994
0
LINE
8
DEFAULT_255_2_778
10
18.5573296
20
22.8096994
11
18.5573296
21
23.0395994
0
LINE
8
DEFAULT_255_2_778
10
18.5573296
20
23.0395994
11
17.9572296
21
23.0395994
0
LINE
8
DEFAULT_255_2_778
10
17.9572296
20
24.0095994
11
17.9572296
21
23.6396994
0
LINE
8
DEFAULT_255_2_778
10
17.9572296
20
23.6396994
11
17.9572296
21
23.4097994
0
LINE
8
DEFAULT_255_2_778
10
17.9572296
20
23.4097994
11
18.5573296
21
23.4097994
0
LINE
8
DEFAULT_255_2_778
10
18.5573296
20
23.4097994
11
18.5573296
21
23.6396994
0
LINE
8
DEFAULT_255_2_778
10
18.5573296
20
23.6396994
11
17.9572296
21
23.6396994
0
LINE
8
DEFAULT_255_2_778
10
17.9572296
20
24.6096994
11
17.9572296
21
24.2397994
0
LINE
8
DEFAULT_255_2_778
10
17.9572296
20
24.2397994
11
17.9572296
21
24.0097994
0
LINE
8
DEFAULT_255_2_778
10
17.9572296
20
24.0097994
11
18.5573296
21
24.0097994
0
LINE
8
DEFAULT_255_2_778
10
18.5573296
20
24.0097994
11
18.5573296
21
24.2397994
0
LINE
8
DEFAULT_255_2_778
10
18.5573296
20
24.2397994
11
17.9572296
21
24.2397994
0
LINE
8
DEFAULT_255_2_778
10
17.9572296
20
25.2096994
11
17.9572296
21
24.8397994
0
LINE
8
DEFAULT_255_2_778
10
17.9572296
20
24.8397994
11
17.9572296
21
24.6098994
0
LINE
8
DEFAULT_255_2_778
10
17.9572296
20
24.6098994
11
18.5573296
21
24.6098994
0
LINE
8
DEFAULT_255_2_778
10
18.5573296
20
24.6098994
11
18.5573296
21
24.8397994
0
LINE
8
DEFAULT_255_2_778
10
18.5573296
20
24.8397994
11
17.9572296
21
24.8397994
0
LINE
8
DEFAULT_255_2_778
10
17.9572296
20
25.8097994
11
17.9572296
21
25.4398994
0
LINE
8
DEFAULT_255_2_778
10
17.9572296
20
25.4398994
11
17.9572296
21
25.2099994
0
LINE
8
DEFAULT_255_2_778
10
17.9572296
20
25.2099994
11
18.5573296
21
25.2099994
0
LINE
8
DEFAULT_255_2_778
10
18.5573296
20
25.2099994
11
18.5573296
21
25.4398994
0
LINE
8
DEFAULT_255_2_778
10
18.5573296
20
25.4398994
11
17.9572296
21
25.4398994
0
LINE
8
DEFAULT_255_2_778
10
17.9572296
20
26.4098994
11
17.9572296
21
26.0399994
0
LINE
8
DEFAULT_255_2_778
10
17.9572296
20
26.0399994
11
17.9572296
21
25.8100994
0
LINE
8
DEFAULT_255_2_778
10
17.9572296
20
25.8100994
11
18.5573296
21
25.8100994
0
LINE
8
DEFAULT_255_2_778
10
18.5573296
20
25.8100994
11
18.5573296
21
26.0399994
0
LINE
8
DEFAULT_255_2_778
10
18.5573296
20
26.0399994
11
17.9572296
21
26.0399994
0
LINE
8
DEFAULT_255_2_778
10
17.9572296
20
27.0099994
11
17.9572296
21
26.6400994
0
LINE
8
DEFAULT_255_2_778
10
17.9572296
20
26.6400994
11
17.9572296
21
26.4100994
0
LINE
8
DEFAULT_255_2_778
10
17.9572296
20
26.4100994
11
18.5573296
21
26.4100994
0
LINE
8
DEFAULT_255_2_778
10
18.5573296
20
26.4100994
11
18.5573296
21
26.6400994
0
LINE
8
DEFAULT_255_2_778
10
18.5573296
20
26.6400994
11
17.9572296
21
26.6400994
0
LINE
8
DEFAULT_255_2_778
10
17.9572296
20
27.6099994
11
17.9572296
21
27.2400994
0
LINE
8
DEFAULT_255_2_778
10
17.9572296
20
27.2400994
11
17.9572296
21
27.0101994
0
LINE
8
DEFAULT_255_2_778
10
17.9572296
20
27.0101994
11
18.5573296
21
27.0101994
0
LINE
8
DEFAULT_255_2_778
10
18.5573296
20
27.0101994
11
18.5573296
21
27.2400994
0
LINE
8
DEFAULT_255_2_778
10
18.5573296
20
27.2400994
11
17.9572296
21
27.2400994
0
LINE
8
DEFAULT_255_2_778
10
17.9572296
20
28.2100994
11
17.9572296
21
27.8401994
0
LINE
8
DEFAULT_255_2_778
10
17.9572296
20
27.8401994
11
17.9572296
21
27.6102994
0
LINE
8
DEFAULT_255_2_778
10
17.9572296
20
27.6102994
11
18.5573296
21
27.6102994
0
LINE
8
DEFAULT_255_2_778
10
18.5573296
20
27.6102994
11
18.5573296
21
27.8401994
0
LINE
8
DEFAULT_255_2_778
10
18.5573296
20
27.8401994
11
17.9572296
21
27.8401994
0
LINE
8
DEFAULT_255_2_778
10
17.9572296
20
28.8101994
11
17.9572296
21
28.4402994
0
LINE
8
DEFAULT_255_2_778
10
17.9572296
20
28.4402994
11
17.9572296
21
28.2103994
0
LINE
8
DEFAULT_255_2_778
10
17.9572296
20
28.2103994
11
18.5573296
21
28.2103994
0
LINE
8
DEFAULT_255_2_778
10
18.5573296
20
28.2103994
11
18.5573296
21
28.4402994
0
LINE
8
DEFAULT_255_2_778
10
18.5573296
20
28.4402994
11
17.9572296
21
28.4402994
0
LINE
8
DEFAULT_255_2_778
10
17.9572296
20
29.4102994
11
17.9572296
21
29.0403994
0
LINE
8
DEFAULT_255_2_778
10
17.9572296
20
29.0403994
11
17.9572296
21
28.8103994
0
LINE
8
DEFAULT_255_2_778
10
17.9572296
20
28.8103994
11
18.5573296
21
28.8103994
0
LINE
8
DEFAULT_255_2_778
10
18.5573296
20
28.8103994
11
18.5573296
21
29.0403994
0
LINE
8
DEFAULT_255_2_778
10
18.5573296
20
29.0403994
11
17.9572296
21
29.0403994
0
LINE
8
DEFAULT_255_2_778
10
17.9572296
20
30.0102994
11
17.9572296
21
29.6403994
0
LINE
8
DEFAULT_255_2_778
10
17.9572296
20
29.6403994
11
17.9572296
21
29.4104994
0
LINE
8
DEFAULT_255_2_778
10
17.9572296
20
29.4104994
11
18.5573296
21
29.4104994
0
LINE
8
DEFAULT_255_2_778
10
18.5573296
20
29.4104994
11
18.5573296
21
29.6403994
0
LINE
8
DEFAULT_255_2_778
10
18.5573296
20
29.6403994
11
17.9572296
21
29.6403994
0
LINE
8
DEFAULT_255_2_778
10
17.9572296
20
30.6103994
11
17.9572296
21
30.2402994
0
LINE
8
DEFAULT_255_2_778
10
17.9572296
20
30.2402994
11
17.9572296
21
30.0102994
0
LINE
8
DEFAULT_255_2_778
10
17.9572296
20
30.0102994
11
18.5573296
21
30.0102994
0
LINE
8
DEFAULT_255_2_778
10
18.5573296
20
30.0102994
11
18.5573296
21
30.2402994
0
LINE
8
DEFAULT_255_2_778
10
18.5573296
20
30.2402994
11
17.9572296
21
30.2402994
0
LINE
8
DEFAULT_255_2_778
10
17.9572296
20
31.2101994
11
17.9572296
21
30.8402994
0
LINE
8
DEFAULT_255_2_778
10
17.9572296
20
30.8402994
11
17.9572296
21
30.6103994
0
LINE
8
DEFAULT_255_2_778
10
17.9572296
20
30.6103994
11
18.5573296
21
30.6103994
0
LINE
8
DEFAULT_255_2_778
10
18.5573296
20
30.6103994
11
18.5573296
21
30.8402994
0
LINE
8
DEFAULT_255_2_778
10
18.5573296
20
30.8402994
11
17.9572296
21
30.8402994
0
LINE
8
DEFAULT_255_2_778
10
17.9572296
20
31.4403994
11
18.5573296
21
31.4403994
0
LINE
8
DEFAULT_255_2_778
10
18.5573296
20
31.4403994
11
18.5573296
21
31.2104994
0
LINE
8
DEFAULT_255_2_778
10
18.5573296
20
31.2104994
11
17.9572296
21
31.2104994
0
LINE
8
DEFAULT_255_2_778
10
17.9572296
20
31.2104994
11
17.9572296
21
31.4403994
0
LINE
8
DEFAULT_255_2_778
10
17.9572296
20
31.4403994
11
17.9572296
21
31.8102994
0
LINE
8
DEFAULT_255_2_778
10
17.9572296
20
31.8102994
11
17.9572296
21
32.0401994
0
LINE
8
DEFAULT_255_2_778
10
17.9572296
20
32.0401994
11
17.9572296
21
32.4100994
0
LINE
8
DEFAULT_255_2_778
10
17.9572296
20
18.0101994
11
18.5573296
21
18.0101994
0
LINE
8
DEFAULT_255_2_778
10
18.5573296
20
18.0101994
11
18.5573296
21
18.2400994
0
LINE
8
DEFAULT_255_2_778
10
18.5573296
20
18.2400994
11
17.9572296
21
18.2400994
0
LINE
8
DEFAULT_255_2_778
10
17.9572296
20
19.2099994
11
17.9572296
21
18.8401994
0
LINE
8
DEFAULT_255_2_778
10
17.9572296
20
18.8401994
11
17.9572296
21
18.6101994
0
LINE
8
DEFAULT_255_2_778
10
17.9572296
20
18.6101994
11
18.5573296
21
18.6101994
0
LINE
8
DEFAULT_255_2_778
10
18.5573296
20
18.6101994
11
18.5573296
21
18.8401994
0
LINE
8
DEFAULT_255_2_778
10
18.5573296
20
18.8401994
11
17.9572296
21
18.8401994
0
LINE
8
DEFAULT_255_2_778
10
17.9572296
20
19.8100994
11
17.9572296
21
19.4401994
0
LINE
8
DEFAULT_255_2_778
10
17.9572296
20
19.4401994
11
17.9572296
21
19.2102994
0
LINE
8
DEFAULT_255_2_778
10
17.9572296
20
19.2102994
11
18.5573296
21
19.2102994
0
LINE
8
DEFAULT_255_2_778
10
18.5573296
20
19.2102994
11
18.5573296
21
19.4401994
0
LINE
8
DEFAULT_255_2_778
10
18.5573296
20
19.4401994
11
17.9572296
21
19.4401994
0
LINE
8
DEFAULT_255_2_778
10
17.9572296
20
20.4101994
11
17.9572296
21
20.0402994
0
LINE
8
DEFAULT_255_2_778
10
17.9572296
20
20.0402994
11
17.9572296
21
19.8103994
0
LINE
8
DEFAULT_255_2_778
10
17.9572296
20
19.8103994
11
18.5573296
21
19.8103994
0
LINE
8
DEFAULT_255_2_778
10
18.5573296
20
19.8103994
11
18.5573296
21
20.0402994
0
LINE
8
DEFAULT_255_2_778
10
18.5573296
20
20.0402994
11
17.9572296
21
20.0402994
0
LINE
8
DEFAULT_255_2_778
10
17.9572296
20
21.0102994
11
17.9572296
21
20.6403994
0
LINE
8
DEFAULT_255_2_778
10
17.9572296
20
20.6403994
11
17.9572296
21
20.4104994
0
LINE
8
DEFAULT_255_2_778
10
17.9572296
20
20.4104994
11
18.5573296
21
20.4104994
0
LINE
8
DEFAULT_255_2_778
10
18.5573296
20
20.4104994
11
18.5573296
21
20.6403994
0
LINE
8
DEFAULT_255_2_778
10
18.5573296
20
20.6403994
11
17.9572296
21
20.6403994
0
LINE
8
DEFAULT_255_2_778
10
17.9572296
20
21.2404994
11
18.5573296
21
21.2404994
0
LINE
8
DEFAULT_255_2_778
10
18.5573296
20
21.2404994
11
18.5573296
21
21.0104994
0
LINE
8
DEFAULT_255_2_778
10
18.5573296
20
21.0104994
11
17.9572296
21
21.0104994
0
LINE
8
DEFAULT_255_2_778
10
17.9572296
20
21.0104994
11
17.9572296
21
21.2404994
0
LINE
8
DEFAULT_255_2_778
10
17.9572296
20
21.2404994
11
17.9572296
21
21.6105994
0
LINE
8
DEFAULT_255_2_778
10
17.9572296
20
21.6105994
11
17.9572296
21
21.8404994
0
LINE
8
DEFAULT_255_2_778
10
17.9572296
20
21.8404994
11
17.9572296
21
22.2103994
0
LINE
8
DEFAULT_255_2_778
10
12.5574296
20
27.8404994
11
11.9573296
21
27.8404994
0
LINE
8
DEFAULT_255_2_778
10
11.9573296
20
27.8404994
11
11.9573296
21
27.6105994
0
LINE
8
DEFAULT_255_2_778
10
11.9573296
20
27.6105994
11
12.5574296
21
27.6105994
0
LINE
8
DEFAULT_255_2_778
10
12.5574296
20
26.6405994
11
12.5574296
21
27.0104994
0
LINE
8
DEFAULT_255_2_778
10
12.5574296
20
27.0104994
11
12.5574296
21
27.2403994
0
LINE
8
DEFAULT_255_2_778
10
12.5574296
20
27.2403994
11
11.9573296
21
27.2403994
0
LINE
8
DEFAULT_255_2_778
10
11.9573296
20
27.2403994
11
11.9573296
21
27.0104994
0
LINE
8
DEFAULT_255_2_778
10
11.9573296
20
27.0104994
11
12.5574296
21
27.0104994
0
LINE
8
DEFAULT_255_2_778
10
12.5574296
20
26.0404994
11
12.5574296
21
26.4103994
0
LINE
8
DEFAULT_255_2_778
10
12.5574296
20
26.4103994
11
12.5574296
21
26.6402994
0
LINE
8
DEFAULT_255_2_778
10
12.5574296
20
26.6402994
11
11.9573296
21
26.6402994
0
LINE
8
DEFAULT_255_2_778
10
11.9573296
20
26.6402994
11
11.9573296
21
26.4103994
0
LINE
8
DEFAULT_255_2_778
10
11.9573296
20
26.4103994
11
12.5574296
21
26.4103994
0
LINE
8
DEFAULT_255_2_778
10
12.5574296
20
25.4403994
11
12.5574296
21
25.8102994
0
LINE
8
DEFAULT_255_2_778
10
12.5574296
20
25.8102994
11
12.5574296
21
26.0402994
0
LINE
8
DEFAULT_255_2_778
10
12.5574296
20
26.0402994
11
11.9573296
21
26.0402994
0
LINE
8
DEFAULT_255_2_778
10
11.9573296
20
26.0402994
11
11.9573296
21
25.8102994
0
LINE
8
DEFAULT_255_2_778
10
11.9573296
20
25.8102994
11
12.5574296
21
25.8102994
0
LINE
8
DEFAULT_255_2_778
10
12.5574296
20
24.8403994
11
12.5574296
21
25.2102994
0
LINE
8
DEFAULT_255_2_778
10
12.5574296
20
25.2102994
11
12.5574296
21
25.4401994
0
LINE
8
DEFAULT_255_2_778
10
12.5574296
20
25.4401994
11
11.9573296
21
25.4401994
0
LINE
8
DEFAULT_255_2_778
10
11.9573296
20
25.4401994
11
11.9573296
21
25.2102994
0
LINE
8
DEFAULT_255_2_778
10
11.9573296
20
25.2102994
11
12.5574296
21
25.2102994
0
LINE
8
DEFAULT_255_2_778
10
12.5574296
20
24.2402994
11
12.5574296
21
24.6101994
0
LINE
8
DEFAULT_255_2_778
10
12.5574296
20
24.6101994
11
12.5574296
21
24.8400994
0
LINE
8
DEFAULT_255_2_778
10
12.5574296
20
24.8400994
11
11.9573296
21
24.8400994
0
LINE
8
DEFAULT_255_2_778
10
11.9573296
20
24.8400994
11
11.9573296
21
24.6101994
0
LINE
8
DEFAULT_255_2_778
10
11.9573296
20
24.6101994
11
12.5574296
21
24.6101994
0
LINE
8
DEFAULT_255_2_778
10
12.5574296
20
23.6401994
11
12.5574296
21
24.0100994
0
LINE
8
DEFAULT_255_2_778
10
12.5574296
20
24.0100994
11
12.5574296
21
24.2399994
0
LINE
8
DEFAULT_255_2_778
10
12.5574296
20
24.2399994
11
11.9573296
21
24.2399994
0
LINE
8
DEFAULT_255_2_778
10
11.9573296
20
24.2399994
11
11.9573296
21
24.0100994
0
LINE
8
DEFAULT_255_2_778
10
11.9573296
20
24.0100994
11
12.5574296
21
24.0100994
0
LINE
8
DEFAULT_255_2_778
10
12.5574296
20
23.0400994
11
12.5574296
21
23.4102994
0
LINE
8
DEFAULT_255_2_778
10
12.5574296
20
23.4102994
11
12.5574296
21
23.6401994
0
LINE
8
DEFAULT_255_2_778
10
12.5574296
20
23.6401994
11
11.9573296
21
23.6401994
0
LINE
8
DEFAULT_255_2_778
10
11.9573296
20
23.6401994
11
11.9573296
21
23.4102994
0
LINE
8
DEFAULT_255_2_778
10
11.9573296
20
23.4102994
11
12.5574296
21
23.4102994
0
LINE
8
DEFAULT_255_2_778
10
12.5574296
20
22.4402994
11
12.5574296
21
22.8101994
0
LINE
8
DEFAULT_255_2_778
10
12.5574296
20
22.8101994
11
12.5574296
21
23.0400994
0
LINE
8
DEFAULT_255_2_778
10
12.5574296
20
23.0400994
11
11.9573296
21
23.0400994
0
LINE
8
DEFAULT_255_2_778
10
11.9573296
20
23.0400994
11
11.9573296
21
22.8101994
0
LINE
8
DEFAULT_255_2_778
10
11.9573296
20
22.8101994
11
12.5574296
21
22.8101994
0
LINE
8
DEFAULT_255_2_778
10
12.5574296
20
21.8402994
11
12.5574296
21
22.2101994
0
LINE
8
DEFAULT_255_2_778
10
12.5574296
20
22.2101994
11
12.5574296
21
22.4400994
0
LINE
8
DEFAULT_255_2_778
10
12.5574296
20
22.4400994
11
11.9573296
21
22.4400994
0
LINE
8
DEFAULT_255_2_778
10
11.9573296
20
22.4400994
11
11.9573296
21
22.2101994
0
LINE
8
DEFAULT_255_2_778
10
11.9573296
20
22.2101994
11
12.5574296
21
22.2101994
0
LINE
8
DEFAULT_255_2_778
10
12.5574296
20
21.2401994
11
12.5574296
21
21.6100994
0
LINE
8
DEFAULT_255_2_778
10
12.5574296
20
21.6100994
11
12.5574296
21
21.8399994
0
LINE
8
DEFAULT_255_2_778
10
12.5574296
20
21.8399994
11
11.9573296
21
21.8399994
0
LINE
8
DEFAULT_255_2_778
10
11.9573296
20
21.8399994
11
11.9573296
21
21.6100994
0
LINE
8
DEFAULT_255_2_778
10
11.9573296
20
21.6100994
11
12.5574296
21
21.6100994
0
LINE
8
DEFAULT_255_2_778
10
12.5574296
20
20.6400994
11
12.5574296
21
21.0091994
0
LINE
8
DEFAULT_255_2_778
10
12.5574296
20
21.0091994
11
12.5574296
21
21.2390994
0
LINE
8
DEFAULT_255_2_778
10
12.5574296
20
21.2390994
11
11.9573296
21
21.2390994
0
LINE
8
DEFAULT_255_2_778
10
11.9573296
20
21.2390994
11
11.9573296
21
21.0091994
0
LINE
8
DEFAULT_255_2_778
10
11.9573296
20
21.0091994
11
12.5574296
21
21.0091994
0
LINE
8
DEFAULT_255_2_778
10
12.5574296
20
20.0391994
11
12.5574296
21
20.4090994
0
LINE
8
DEFAULT_255_2_778
10
12.5574296
20
20.4090994
11
12.5574296
21
20.6390994
0
LINE
8
DEFAULT_255_2_778
10
12.5574296
20
20.6390994
11
11.9573296
21
20.6390994
0
LINE
8
DEFAULT_255_2_778
10
11.9573296
20
20.6390994
11
11.9573296
21
20.4090994
0
LINE
8
DEFAULT_255_2_778
10
11.9573296
20
20.4090994
11
12.5574296
21
20.4090994
0
LINE
8
DEFAULT_255_2_778
10
12.5574296
20
19.4391994
11
12.5574296
21
19.8092994
0
LINE
8
DEFAULT_255_2_778
10
12.5574296
20
19.8092994
11
12.5574296
21
20.0391994
0
LINE
8
DEFAULT_255_2_778
10
12.5574296
20
20.0391994
11
11.9573296
21
20.0391994
0
LINE
8
DEFAULT_255_2_778
10
11.9573296
20
20.0391994
11
11.9573296
21
19.8092994
0
LINE
8
DEFAULT_255_2_778
10
11.9573296
20
19.8092994
11
12.5574296
21
19.8092994
0
LINE
8
DEFAULT_255_2_778
10
12.5574296
20
18.8393994
11
12.5574296
21
19.2091994
0
LINE
8
DEFAULT_255_2_778
10
12.5574296
20
19.2091994
11
12.5574296
21
19.4391994
0
LINE
8
DEFAULT_255_2_778
10
12.5574296
20
19.4391994
11
11.9573296
21
19.4391994
0
LINE
8
DEFAULT_255_2_778
10
11.9573296
20
19.4391994
11
11.9573296
21
19.2091994
0
LINE
8
DEFAULT_255_2_778
10
11.9573296
20
19.2091994
11
12.5574296
21
19.2091994
0
LINE
8
DEFAULT_255_2_778
10
12.5574296
20
18.2392994
11
12.5574296
21
18.6091994
0
LINE
8
DEFAULT_255_2_778
10
12.5574296
20
18.6091994
11
12.5574296
21
18.8390994
0
LINE
8
DEFAULT_255_2_778
10
12.5574296
20
18.8390994
11
11.9573296
21
18.8390994
0
LINE
8
DEFAULT_255_2_778
10
11.9573296
20
18.8390994
11
11.9573296
21
18.6091994
0
LINE
8
DEFAULT_255_2_778
10
11.9573296
20
18.6091994
11
12.5574296
21
18.6091994
0
LINE
8
DEFAULT_255_2_778
10
11.8573296
20
16.6041994
11
11.8573296
21
16.7789994
0
LINE
8
DEFAULT_255_2_778
10
11.8573296
20
16.7789994
11
12.5574296
21
17.2790994
0
LINE
8
DEFAULT_255_2_778
10
12.5574296
20
17.2790994
11
12.5574296
21
18.0090994
0
LINE
8
DEFAULT_255_2_778
10
12.5574296
20
18.0090994
11
12.5574296
21
18.2389994
0
LINE
8
DEFAULT_255_2_778
10
12.5574296
20
18.2389994
11
11.9573296
21
18.2389994
0
LINE
8
DEFAULT_255_2_778
10
11.9573296
20
18.2389994
11
11.9573296
21
18.0090994
0
LINE
8
DEFAULT_255_2_778
10
11.9573296
20
18.0090994
11
12.5574296
21
18.0090994
0
LINE
8
DEFAULT_255_2_778
10
12.5574296
20
38.0390994
11
11.9573296
21
38.0390994
0
LINE
8
DEFAULT_255_2_778
10
11.9573296
20
38.0390994
11
11.9573296
21
37.8091994
0
LINE
8
DEFAULT_255_2_778
10
11.9573296
20
37.8091994
11
12.5574296
21
37.8091994
0
LINE
8
DEFAULT_255_2_778
10
12.5574296
20
36.8391994
11
12.5574296
21
37.2090994
0
LINE
8
DEFAULT_255_2_778
10
12.5574296
20
37.2090994
11
12.5574296
21
37.4389994
0
LINE
8
DEFAULT_255_2_778
10
12.5574296
20
37.4389994
11
11.9573296
21
37.4389994
0
LINE
8
DEFAULT_255_2_778
10
11.9573296
20
37.4389994
11
11.9573296
21
37.2090994
0
LINE
8
DEFAULT_255_2_778
10
11.9573296
20
37.2090994
11
12.5574296
21
37.2090994
0
LINE
8
DEFAULT_255_2_778
10
12.5574296
20
36.2391994
11
12.5574296
21
36.6089994
0
LINE
8
DEFAULT_255_2_778
10
12.5574296
20
36.6089994
11
12.5574296
21
36.8389994
0
LINE
8
DEFAULT_255_2_778
10
12.5574296
20
36.8389994
11
11.9573296
21
36.8389994
0
LINE
8
DEFAULT_255_2_778
10
11.9573296
20
36.8389994
11
11.9573296
21
36.6089994
0
LINE
8
DEFAULT_255_2_778
10
11.9573296
20
36.6089994
11
12.5574296
21
36.6089994
0
LINE
8
DEFAULT_255_2_778
10
12.5574296
20
35.6390994
11
12.5574296
21
36.0089994
0
LINE
8
DEFAULT_255_2_778
10
12.5574296
20
36.0089994
11
12.5574296
21
36.2388994
0
LINE
8
DEFAULT_255_2_778
10
12.5574296
20
36.2388994
11
11.9573296
21
36.2388994
0
LINE
8
DEFAULT_255_2_778
10
11.9573296
20
36.2388994
11
11.9573296
21
36.0089994
0
LINE
8
DEFAULT_255_2_778
10
11.9573296
20
36.0089994
11
12.5574296
21
36.0089994
0
LINE
8
DEFAULT_255_2_778
10
12.5574296
20
35.0389994
11
12.5574296
21
35.4088994
0
LINE
8
DEFAULT_255_2_778
10
12.5574296
20
35.4088994
11
12.5574296
21
35.6387994
0
LINE
8
DEFAULT_255_2_778
10
12.5574296
20
35.6387994
11
11.9573296
21
35.6387994
0
LINE
8
DEFAULT_255_2_778
10
11.9573296
20
35.6387994
11
11.9573296
21
35.4088994
0
LINE
8
DEFAULT_255_2_778
10
11.9573296
20
35.4088994
11
12.5574296
21
35.4088994
0
LINE
8
DEFAULT_255_2_778
10
12.5574296
20
34.4388994
11
12.5574296
21
34.8087994
0
LINE
8
DEFAULT_255_2_778
10
12.5574296
20
34.8087994
11
12.5574296
21
35.0386994
0
LINE
8
DEFAULT_255_2_778
10
12.5574296
20
35.0386994
11
11.9573296
21
35.0386994
0
LINE
8
DEFAULT_255_2_778
10
11.9573296
20
35.0386994
11
11.9573296
21
34.8087994
0
LINE
8
DEFAULT_255_2_778
10
11.9573296
20
34.8087994
11
12.5574296
21
34.8087994
0
LINE
8
DEFAULT_255_2_778
10
12.5574296
20
33.8388994
11
12.5574296
21
34.2086994
0
LINE
8
DEFAULT_255_2_778
10
12.5574296
20
34.2086994
11
12.5574296
21
34.4386994
0
LINE
8
DEFAULT_255_2_778
10
12.5574296
20
34.4386994
11
11.9573296
21
34.4386994
0
LINE
8
DEFAULT_255_2_778
10
11.9573296
20
34.4386994
11
11.9573296
21
34.2086994
0
LINE
8
DEFAULT_255_2_778
10
11.9573296
20
34.2086994
11
12.5574296
21
34.2086994
0
LINE
8
DEFAULT_255_2_778
10
12.5574296
20
33.2387994
11
12.5574296
21
33.6086994
0
LINE
8
DEFAULT_255_2_778
10
12.5574296
20
33.6086994
11
12.5574296
21
33.8385994
0
LINE
8
DEFAULT_255_2_778
10
12.5574296
20
33.8385994
11
11.9573296
21
33.8385994
0
LINE
8
DEFAULT_255_2_778
10
11.9573296
20
33.8385994
11
11.9573296
21
33.6086994
0
LINE
8
DEFAULT_255_2_778
10
11.9573296
20
33.6086994
11
12.5574296
21
33.6086994
0
LINE
8
DEFAULT_255_2_778
10
12.5574296
20
32.6386994
11
12.5574296
21
33.0085994
0
LINE
8
DEFAULT_255_2_778
10
12.5574296
20
33.0085994
11
12.5574296
21
33.2384994
0
LINE
8
DEFAULT_255_2_778
10
12.5574296
20
33.2384994
11
11.9573296
21
33.2384994
0
LINE
8
DEFAULT_255_2_778
10
11.9573296
20
33.2384994
11
11.9573296
21
33.0085994
0
LINE
8
DEFAULT_255_2_778
10
11.9573296
20
33.0085994
11
12.5574296
21
33.0085994
0
LINE
8
DEFAULT_255_2_778
10
12.5574296
20
32.0385994
11
12.5574296
21
32.4084994
0
LINE
8
DEFAULT_255_2_778
10
12.5574296
20
32.4084994
11
12.5574296
21
32.6383994
0
LINE
8
DEFAULT_255_2_778
10
12.5574296
20
32.6383994
11
11.9573296
21
32.6383994
0
LINE
8
DEFAULT_255_2_778
10
11.9573296
20
32.6383994
11
11.9573296
21
32.4084994
0
LINE
8
DEFAULT_255_2_778
10
11.9573296
20
32.4084994
11
12.5574296
21
32.4084994
0
LINE
8
DEFAULT_255_2_778
10
12.5574296
20
31.4385994
11
12.5574296
21
31.8083994
0
LINE
8
DEFAULT_255_2_778
10
12.5574296
20
31.8083994
11
12.5574296
21
32.0383994
0
LINE
8
DEFAULT_255_2_778
10
12.5574296
20
32.0383994
11
11.9573296
21
32.0383994
0
LINE
8
DEFAULT_255_2_778
10
11.9573296
20
32.0383994
11
11.9573296
21
31.8083994
0
LINE
8
DEFAULT_255_2_778
10
11.9573296
20
31.8083994
11
12.5574296
21
31.8083994
0
LINE
8
DEFAULT_255_2_778
10
12.5574296
20
30.8384994
11
12.5574296
21
31.2083994
0
LINE
8
DEFAULT_255_2_778
10
12.5574296
20
31.2083994
11
12.5574296
21
31.4382994
0
LINE
8
DEFAULT_255_2_778
10
12.5574296
20
31.4382994
11
11.9573296
21
31.4382994
0
LINE
8
DEFAULT_255_2_778
10
11.9573296
20
31.4382994
11
11.9573296
21
31.2083994
0
LINE
8
DEFAULT_255_2_778
10
11.9573296
20
31.2083994
11
12.5574296
21
31.2083994
0
LINE
8
DEFAULT_255_2_778
10
12.5574296
20
30.2383994
11
12.5574296
21
30.6082994
0
LINE
8
DEFAULT_255_2_778
10
12.5574296
20
30.6082994
11
12.5574296
21
30.8381994
0
LINE
8
DEFAULT_255_2_778
10
12.5574296
20
30.8381994
11
11.9573296
21
30.8381994
0
LINE
8
DEFAULT_255_2_778
10
11.9573296
20
30.8381994
11
11.9573296
21
30.6082994
0
LINE
8
DEFAULT_255_2_778
10
11.9573296
20
30.6082994
11
12.5574296
21
30.6082994
0
LINE
8
DEFAULT_255_2_778
10
12.5574296
20
29.6382994
11
12.5574296
21
30.0084994
0
LINE
8
DEFAULT_255_2_778
10
12.5574296
20
30.0084994
11
12.5574296
21
30.2383994
0
LINE
8
DEFAULT_255_2_778
10
12.5574296
20
30.2383994
11
11.9573296
21
30.2383994
0
LINE
8
DEFAULT_255_2_778
10
11.9573296
20
30.2383994
11
11.9573296
21
30.0084994
0
LINE
8
DEFAULT_255_2_778
10
11.9573296
20
30.0084994
11
12.5574296
21
30.0084994
0
LINE
8
DEFAULT_255_2_778
10
12.5574296
20
29.0384994
11
12.5574296
21
29.4083994
0
LINE
8
DEFAULT_255_2_778
10
12.5574296
20
29.4083994
11
12.5574296
21
29.6382994
0
LINE
8
DEFAULT_255_2_778
10
12.5574296
20
29.6382994
11
11.9573296
21
29.6382994
0
LINE
8
DEFAULT_255_2_778
10
11.9573296
20
29.6382994
11
11.9573296
21
29.4083994
0
LINE
8
DEFAULT_255_2_778
10
11.9573296
20
29.4083994
11
12.5574296
21
29.4083994
0
LINE
8
DEFAULT_255_2_778
10
12.5574296
20
28.4383994
11
12.5574296
21
28.8082994
0
LINE
8
DEFAULT_255_2_778
10
12.5574296
20
28.8082994
11
12.5574296
21
29.0382994
0
LINE
8
DEFAULT_255_2_778
10
12.5574296
20
29.0382994
11
11.9573296
21
29.0382994
0
LINE
8
DEFAULT_255_2_778
10
11.9573296
20
29.0382994
11
11.9573296
21
28.8082994
0
LINE
8
DEFAULT_255_2_778
10
11.9573296
20
28.8082994
11
12.5574296
21
28.8082994
0
LINE
8
DEFAULT_255_2_778
10
12.5574296
20
28.2082994
11
11.9573296
21
28.2082994
0
LINE
8
DEFAULT_255_2_778
10
11.9573296
20
28.2082994
11
11.9573296
21
28.4381994
0
LINE
8
DEFAULT_255_2_778
10
11.9573296
20
28.4381994
11
12.5574296
21
28.4381994
0
LINE
8
DEFAULT_255_2_778
10
12.5574296
20
28.4381994
11
12.5574296
21
28.2082994
0
LINE
8
DEFAULT_255_2_778
10
12.5574296
20
28.2082994
11
12.5574296
21
27.8383994
0
LINE
8
DEFAULT_255_2_778
10
12.5574296
20
27.8383994
11
12.5574296
21
27.6083994
0
LINE
8
DEFAULT_255_2_778
10
12.5574296
20
27.6083994
11
12.5574296
21
27.2385994
0
LINE
8
DEFAULT_255_2_778
10
12.5574296
20
41.6384994
11
11.9573296
21
41.6384994
0
LINE
8
DEFAULT_255_2_778
10
11.9573296
20
41.6384994
11
11.9573296
21
41.4085994
0
LINE
8
DEFAULT_255_2_778
10
11.9573296
20
41.4085994
11
12.5574296
21
41.4085994
0
LINE
8
DEFAULT_255_2_778
10
12.5574296
20
40.4385994
11
12.5574296
21
40.8084994
0
LINE
8
DEFAULT_255_2_778
10
12.5574296
20
40.8084994
11
12.5574296
21
41.0383994
0
LINE
8
DEFAULT_255_2_778
10
12.5574296
20
41.0383994
11
11.9573296
21
41.0383994
0
LINE
8
DEFAULT_255_2_778
10
11.9573296
20
41.0383994
11
11.9573296
21
40.8084994
0
LINE
8
DEFAULT_255_2_778
10
11.9573296
20
40.8084994
11
12.5574296
21
40.8084994
0
LINE
8
DEFAULT_255_2_778
10
12.5574296
20
39.8384994
11
12.5574296
21
40.2083994
0
LINE
8
DEFAULT_255_2_778
10
12.5574296
20
40.2083994
11
12.5574296
21
40.4383994
0
LINE
8
DEFAULT_255_2_778
10
12.5574296
20
40.4383994
11
11.9573296
21
40.4383994
0
LINE
8
DEFAULT_255_2_778
10
11.9573296
20
40.4383994
11
11.9573296
21
40.2083994
0
LINE
8
DEFAULT_255_2_778
10
11.9573296
20
40.2083994
11
12.5574296
21
40.2083994
0
LINE
8
DEFAULT_255_2_778
10
12.5574296
20
39.2384994
11
12.5574296
21
39.6083994
0
LINE
8
DEFAULT_255_2_778
10
12.5574296
20
39.6083994
11
12.5574296
21
39.8382994
0
LINE
8
DEFAULT_255_2_778
10
12.5574296
20
39.8382994
11
11.9573296
21
39.8382994
0
LINE
8
DEFAULT_255_2_778
10
11.9573296
20
39.8382994
11
11.9573296
21
39.6083994
0
LINE
8
DEFAULT_255_2_778
10
11.9573296
20
39.6083994
11
12.5574296
21
39.6083994
0
LINE
8
DEFAULT_255_2_778
10
12.5574296
20
38.6383994
11
12.5574296
21
39.0082994
0
LINE
8
DEFAULT_255_2_778
10
12.5574296
20
39.0082994
11
12.5574296
21
39.2381994
0
LINE
8
DEFAULT_255_2_778
10
12.5574296
20
39.2381994
11
11.9573296
21
39.2381994
0
LINE
8
DEFAULT_255_2_778
10
11.9573296
20
39.2381994
11
11.9573296
21
39.0082994
0
LINE
8
DEFAULT_255_2_778
10
11.9573296
20
39.0082994
11
12.5574296
21
39.0082994
0
LINE
8
DEFAULT_255_2_778
10
12.5574296
20
38.4081994
11
11.9573296
21
38.4081994
0
LINE
8
DEFAULT_255_2_778
10
11.9573296
20
38.4081994
11
11.9573296
21
38.6380994
0
LINE
8
DEFAULT_255_2_778
10
11.9573296
20
38.6380994
11
12.5574296
21
38.6380994
0
LINE
8
DEFAULT_255_2_778
10
12.5574296
20
38.6380994
11
12.5574296
21
38.4081994
0
LINE
8
DEFAULT_255_2_778
10
12.5574296
20
38.4081994
11
12.5574296
21
38.0382994
0
LINE
8
DEFAULT_255_2_778
10
12.5574296
20
38.0382994
11
12.5574296
21
37.8083994
0
LINE
8
DEFAULT_255_2_778
10
12.5574296
20
37.8083994
11
12.5574296
21
37.4384994
0
LINE
8
DEFAULT_255_2_778
10
16.6073296
20
14.0233994
11
13.9073296
21
14.0233994
0
LINE
8
DEFAULT_255_2_778
10
13.6572296
20
14.7933994
11
13.6572296
21
14.7432994
0
LINE
8
DEFAULT_255_2_778
10
13.6572296
20
14.7432994
11
13.7572296
21
14.7432994
0
LINE
8
DEFAULT_255_2_778
10
16.4073296
20
14.7432994
11
16.4073296
21
14.6731994
0
LINE
8
DEFAULT_255_2_778
10
16.2573296
20
14.5231994
11
14.2573296
21
14.5231994
0
LINE
8
DEFAULT_255_2_778
10
14.1073296
20
14.6731994
11
14.1073296
21
14.7432994
0
LINE
8
DEFAULT_255_2_778
10
18.6573296
20
14.9933994
11
18.5573296
21
14.8933994
0
LINE
8
DEFAULT_255_2_778
10
18.6573296
20
16.6033994
11
18.6573296
21
16.7782994
0
LINE
8
DEFAULT_255_2_778
10
18.6573296
20
16.7782994
11
17.9572296
21
17.2782994
0
LINE
8
DEFAULT_255_2_778
10
17.9572296
20
17.2782994
11
17.9572296
21
18.0082994
0
LINE
8
DEFAULT_255_2_778
10
17.9572296
20
18.0082994
11
17.9572296
21
18.2381994
0
LINE
8
DEFAULT_255_2_778
10
17.9572296
20
18.2381994
11
17.9572296
21
18.6080994
0
LINE
8
DEFAULT_255_2_778
10
11.8573296
20
14.9930994
11
11.8573296
21
16.6030994
0
LINE
8
DEFAULT_255_2_778
10
13.7572296
20
14.5930994
11
13.7572296
21
14.7430994
0
LINE
8
DEFAULT_255_2_778
10
13.7572296
20
14.7430994
11
14.1073296
21
14.7430994
0
LINE
8
DEFAULT_255_2_778
10
14.1073296
20
14.7430994
11
16.4073296
21
14.7430994
0
LINE
8
DEFAULT_255_2_778
10
16.4073296
20
14.7430994
11
16.7574296
21
14.7430994
0
LINE
8
DEFAULT_255_2_778
10
18.6573296
20
14.5930994
11
18.6573296
21
14.1231994
0
LINE
8
DEFAULT_255_2_778
10
18.6573296
20
14.1231994
11
18.4573296
21
13.9230994
0
LINE
8
DEFAULT_255_2_778
10
18.4573296
20
13.9230994
11
16.7574296
21
13.9230994
0
LINE
8
DEFAULT_255_2_778
10
16.7574296
20
13.9230994
11
16.7574296
21
14.7430994
0
LINE
8
DEFAULT_255_2_778
10
16.7574296
20
14.7430994
11
16.8574296
21
14.7430994
0
LINE
8
DEFAULT_255_2_778
10
16.8574296
20
14.7430994
11
16.8574296
21
14.7930994
0
LINE
8
DEFAULT_255_2_778
10
16.7574296
20
14.5930994
11
18.6573296
21
14.5930994
0
LINE
8
DEFAULT_255_2_778
10
18.6573296
20
14.5930994
11
18.6573296
21
14.9930994
0
LINE
8
DEFAULT_255_2_778
10
18.6573296
20
14.9930994
11
18.6573296
21
16.6030994
0
LINE
8
DEFAULT_255_2_778
10
11.9573296
20
14.8930994
11
12.4573296
21
15.3931994
0
LINE
8
DEFAULT_255_2_778
10
12.4573296
20
15.3931994
11
13.6072296
21
15.3931994
0
LINE
8
DEFAULT_255_2_778
10
16.9071296
20
14.7930994
11
18.4570296
21
14.7930994
0
LINE
8
DEFAULT_255_2_778
10
18.4570296
20
14.7930994
11
18.5571296
21
14.8930994
0
LINE
8
DEFAULT_255_2_778
10
18.5571296
20
14.8930994
11
18.0570296
21
15.3931994
0
LINE
8
DEFAULT_255_2_778
10
16.9071296
20
16.6030994
11
18.6571296
21
16.6030994
0
LINE
8
DEFAULT_255_2_778
10
18.6571296
20
16.6030994
11
18.0570296
21
16.0029994
0
LINE
8
DEFAULT_255_2_778
10
16.9071296
20
16.0029994
11
18.0570296
21
16.0029994
0
LINE
8
DEFAULT_255_2_778
10
18.0570296
20
16.0029994
11
18.0570296
21
15.3931994
0
LINE
8
DEFAULT_255_2_778
10
18.0570296
20
15.3931994
11
16.9074296
21
15.3931994
0
LINE
8
DEFAULT_255_2_778
10
13.6075296
20
14.7930994
11
12.0576296
21
14.7930994
0
LINE
8
DEFAULT_255_2_778
10
12.0576296
20
14.7930994
11
11.8575296
21
14.9930994
0
LINE
8
DEFAULT_255_2_778
10
11.8575296
20
14.9930994
11
11.8575296
21
14.5930994
0
LINE
8
DEFAULT_255_2_778
10
11.8575296
20
14.5930994
11
13.7575296
21
14.5930994
0
LINE
8
DEFAULT_255_2_778
10
13.7575296
20
14.5930994
11
13.7575296
21
14.0633994
0
LINE
8
DEFAULT_255_2_778
10
13.7575296
20
14.0633994
11
13.7575296
21
13.9230994
0
LINE
8
DEFAULT_255_2_778
10
13.7575296
20
13.9230994
11
12.0576296
21
13.9230994
0
LINE
8
DEFAULT_255_2_778
10
12.0576296
20
13.9230994
11
11.8575296
21
14.1231994
0
LINE
8
DEFAULT_255_2_778
10
11.8575296
20
14.1231994
11
11.8575296
21
14.5930994
0
LINE
8
DEFAULT_255_2_778
10
13.6075296
20
16.6030994
11
13.6575296
21
16.6030994
0
LINE
8
DEFAULT_255_2_778
10
13.6575296
20
16.6030994
11
16.8574296
21
16.6030994
0
LINE
8
DEFAULT_255_2_778
10
16.8574296
20
16.6030994
11
16.9074296
21
16.6030994
0
LINE
8
DEFAULT_255_2_778
10
16.9074296
20
16.6030994
11
16.9074296
21
16.0029994
0
LINE
8
DEFAULT_255_2_778
10
16.9074296
20
16.0029994
11
16.9074296
21
15.3931994
0
LINE
8
DEFAULT_255_2_778
10
16.9074296
20
15.3931994
11
16.9074296
21
14.7930994
0
LINE
8
DEFAULT_255_2_778
10
16.9074296
20
14.7930994
11
16.8574296
21
14.7930994
0
LINE
8
DEFAULT_255_2_778
10
16.8574296
20
14.7930994
11
16.8574296
21
16.6030994
0
LINE
8
DEFAULT_255_2_778
10
12.4573296
20
16.0029994
11
11.8573296
21
16.6030994
0
LINE
8
DEFAULT_255_2_778
10
11.8573296
20
16.6030994
11
13.6072296
21
16.6030994
0
LINE
8
DEFAULT_255_2_778
10
13.6072296
20
16.6030994
11
13.6072296
21
16.0029994
0
LINE
8
DEFAULT_255_2_778
10
13.6072296
20
16.0029994
11
13.6072296
21
15.3931994
0
LINE
8
DEFAULT_255_2_778
10
13.6072296
20
15.3931994
11
13.6072296
21
14.7930994
0
LINE
8
DEFAULT_255_2_778
10
13.6072296
20
14.7930994
11
13.6572296
21
14.7930994
0
LINE
8
DEFAULT_255_2_778
10
13.6572296
20
14.7930994
11
13.6572296
21
16.6030994
0
LINE
8
DEFAULT_255_2_778
10
13.6072296
20
16.0029994
11
12.4571296
21
16.0029994
0
LINE
8
DEFAULT_255_2_778
10
12.4571296
20
16.0029994
11
12.4571296
21
15.3931994
0
LINE
8
DEFAULT_255_2_778
10
16.9074296
20
44.8542994
11
16.9074296
21
44.2541994
0
LINE
8
DEFAULT_255_2_778
10
13.6075296
20
44.8542994
11
13.6075296
21
44.2541994
0
LINE
8
DEFAULT_255_2_778
10
11.8575296
20
44.6541994
11
11.8575296
21
45.0542994
0
LINE
8
DEFAULT_255_2_778
10
18.6576296
20
44.6541994
11
18.6576296
21
45.0542994
0
LINE
8
DEFAULT_255_2_778
10
16.7576296
20
45.0542994
11
18.6576296
21
45.0542994
0
LINE
8
DEFAULT_255_2_778
10
18.6576296
20
45.0542994
11
18.6576296
21
45.5241994
0
LINE
8
DEFAULT_255_2_778
10
18.6576296
20
45.5241994
11
18.4576296
21
45.7241994
0
LINE
8
DEFAULT_255_2_778
10
18.4576296
20
45.7241994
11
16.7576296
21
45.7241994
0
LINE
8
DEFAULT_255_2_778
10
16.7576296
20
45.7241994
11
16.7576296
21
45.5839994
0
LINE
8
DEFAULT_255_2_778
10
16.7576296
20
45.5839994
11
16.7576296
21
45.0539994
0
LINE
8
DEFAULT_255_2_778
10
16.7576296
20
45.0539994
11
16.7576296
21
44.9039994
0
LINE
8
DEFAULT_255_2_778
10
16.7576296
20
44.9039994
11
16.4073296
21
44.9039994
0
LINE
8
DEFAULT_255_2_778
10
13.7572296
20
45.5836994
11
13.7572296
21
45.7238994
0
LINE
8
DEFAULT_255_2_778
10
13.7572296
20
45.7238994
11
12.0573296
21
45.7238994
0
LINE
8
DEFAULT_255_2_778
10
12.0573296
20
45.7238994
11
11.8573296
21
45.5238994
0
LINE
8
DEFAULT_255_2_778
10
11.8573296
20
45.5238994
11
11.8573296
21
45.0539994
0
LINE
8
DEFAULT_255_2_778
10
11.8573296
20
45.0539994
11
13.7572296
21
45.0539994
0
LINE
8
DEFAULT_255_2_778
10
16.6073296
20
45.6241994
11
13.9073296
21
45.6241994
0
LINE
8
DEFAULT_255_2_778
10
13.7572296
20
45.5839994
11
13.7572296
21
45.0542994
0
LINE
8
DEFAULT_255_2_778
10
13.7572296
20
45.0542994
11
13.7572296
21
44.9042994
0
LINE
8
DEFAULT_255_2_778
10
12.4573296
20
44.2541994
11
13.6072296
21
44.2541994
0
LINE
8
DEFAULT_255_2_778
10
13.6072296
20
44.2541994
11
13.6072296
21
43.6442994
0
LINE
8
DEFAULT_255_2_778
10
13.6072296
20
43.0441994
11
13.6072296
21
43.6442994
0
LINE
8
DEFAULT_255_2_778
10
13.6072296
20
43.6442994
11
12.4573296
21
43.6442994
0
LINE
8
DEFAULT_255_2_778
10
11.8573296
20
43.0441994
11
11.8573296
21
42.8690994
0
LINE
8
DEFAULT_255_2_778
10
11.8573296
20
42.8690994
11
12.5574296
21
42.3689994
0
LINE
8
DEFAULT_255_2_778
10
12.5574296
20
42.3689994
11
12.5574296
21
41.6389994
0
LINE
8
DEFAULT_255_2_778
10
12.5574296
20
41.6389994
11
12.5574296
21
41.4090994
0
LINE
8
DEFAULT_255_2_778
10
12.5574296
20
41.4090994
11
12.5574296
21
41.0391994
0
LINE
8
DEFAULT_255_2_778
10
11.8573296
20
43.0441994
11
11.8573296
21
44.6541994
0
LINE
8
DEFAULT_255_2_778
10
11.8573296
20
44.6541994
11
11.9573296
21
44.7541994
0
LINE
8
DEFAULT_255_2_778
10
11.9573296
20
44.7541994
11
12.4573296
21
44.2541994
0
LINE
8
DEFAULT_255_2_778
10
12.4573296
20
44.2541994
11
12.4573296
21
43.6442994
0
LINE
8
DEFAULT_255_2_778
10
12.4573296
20
43.6442994
11
11.8573296
21
43.0441994
0
LINE
8
DEFAULT_255_2_778
10
11.8573296
20
43.0441994
11
13.6072296
21
43.0441994
0
LINE
8
DEFAULT_255_2_778
10
13.6072296
20
43.0441994
11
13.6572296
21
43.0441994
0
LINE
8
DEFAULT_255_2_778
10
18.0573296
20
43.6442994
11
16.9074296
21
43.6442994
0
LINE
8
DEFAULT_255_2_778
10
16.9074296
20
43.6442994
11
16.9074296
21
43.0441994
0
LINE
8
DEFAULT_255_2_778
10
18.0573296
20
44.2541994
11
16.9074296
21
44.2541994
0
LINE
8
DEFAULT_255_2_778
10
16.9074296
20
44.2541994
11
16.9074296
21
43.6442994
0
LINE
8
DEFAULT_255_2_778
10
16.8574296
20
44.8542994
11
16.9074296
21
44.8542994
0
LINE
8
DEFAULT_255_2_778
10
16.9074296
20
44.8542994
11
18.4573296
21
44.8542994
0
LINE
8
DEFAULT_255_2_778
10
18.4573296
20
44.8542994
11
18.5573296
21
44.7541994
0
LINE
8
DEFAULT_255_2_778
10
16.8574296
20
43.0441994
11
16.9074296
21
43.0441994
0
LINE
8
DEFAULT_255_2_778
10
16.9074296
20
43.0441994
11
18.6573296
21
43.0441994
0
LINE
8
DEFAULT_255_2_778
10
18.6573296
20
43.0441994
11
18.0573296
21
43.6442994
0
LINE
8
DEFAULT_255_2_778
10
18.0573296
20
43.6442994
11
18.0573296
21
44.2541994
0
LINE
8
DEFAULT_255_2_778
10
18.0573296
20
44.2541994
11
18.5573296
21
44.7541994
0
LINE
8
DEFAULT_255_2_778
10
18.5573296
20
44.7541994
11
18.6573296
21
44.6541994
0
LINE
8
DEFAULT_255_2_778
10
18.6573296
20
44.6541994
11
18.6573296
21
43.0441994
0
LINE
8
DEFAULT_255_2_778
10
16.7574296
20
44.9042994
11
16.8574296
21
44.9042994
0
LINE
8
DEFAULT_255_2_778
10
16.8574296
20
44.9042994
11
16.8574296
21
44.8542994
0
LINE
8
DEFAULT_255_2_778
10
16.8574296
20
44.8542994
11
16.8574296
21
43.0441994
0
LINE
8
DEFAULT_255_2_778
10
16.8574296
20
43.0441994
11
13.6572296
21
43.0441994
0
LINE
8
DEFAULT_255_2_778
10
13.6572296
20
43.0441994
11
13.6572296
21
44.8542994
0
LINE
8
DEFAULT_255_2_778
10
13.6572296
20
44.8542994
11
13.6072296
21
44.8542994
0
LINE
8
DEFAULT_255_2_778
10
13.6072296
20
44.8542994
11
12.0573296
21
44.8542994
0
LINE
8
DEFAULT_255_2_778
10
12.0573296
20
44.8542994
11
11.9573296
21
44.7541994
0
LINE
8
DEFAULT_255_2_778
10
13.6572296
20
44.8542994
11
13.6572296
21
44.9042994
0
LINE
8
DEFAULT_255_2_778
10
13.6572296
20
44.9042994
11
13.7572296
21
44.9042994
0
LINE
8
DEFAULT_255_2_778
10
13.7572296
20
44.9042994
11
14.1073296
21
44.9042994
0
LINE
8
DEFAULT_255_2_778
10
14.1073296
20
44.9042994
11
16.4073296
21
44.9042994
0
LINE
8
DEFAULT_255_2_778
10
16.4073296
20
44.9042994
11
16.4073296
21
44.9740994
0
LINE
8
DEFAULT_255_2_778
10
16.2573296
20
45.1240994
11
14.2573296
21
45.1240994
0
LINE
8
DEFAULT_255_2_778
10
14.1073296
20
44.9740994
11
14.1073296
21
44.9042994
0
LINE
8
DEFAULT_255_2_778
10
16.3322296
20
17.2742994
11
14.1822296
21
17.2742994
0
LINE
8
DEFAULT_255_2_778
10
14.1822296
20
17.2742994
11
14.1822296
21
42.3742994
0
LINE
8
DEFAULT_255_2_778
10
14.1822296
20
42.3742994
11
16.3322296
21
42.3742994
0
LINE
8
DEFAULT_255_2_778
10
16.3322296
20
42.3742994
11
16.3322296
21
17.2742994
0
LINE
8
DEFAULT_255_2_778
10
8.3571296
20
15.3690994
11
8.3571296
21
15.3690994
0
LINE
8
DEFAULT_255_2_778
10
8.5121296
20
15.3690994
11
8.5121296
21
15.3690994
0
LINE
8
DEFAULT_255_2_778
10
8.7122296
20
15.3690994
11
8.7122296
21
15.3690994
0
LINE
8
DEFAULT_255_2_778
10
9.0707296
20
14.7803994
11
8.7270296
21
14.9882994
0
LINE
8
DEFAULT_255_2_778
10
8.7270296
20
15.7497994
11
9.0707296
21
15.9577994
0
LINE
8
DEFAULT_255_2_778
10
8.5947296
20
15.8466994
11
8.5947296
21
15.7241994
0
LINE
8
DEFAULT_255_2_778
10
8.5947296
20
15.7241994
11
8.5323296
21
15.5751994
0
LINE
8
DEFAULT_255_2_778
10
8.5323296
20
15.5751994
11
8.4074296
21
15.3764994
0
LINE
8
DEFAULT_255_2_778
10
8.4074296
20
15.3764994
11
8.3590296
21
15.3380994
0
LINE
8
DEFAULT_255_2_778
10
20.9571296
20
44.2789994
11
20.9571296
21
44.2789994
0
LINE
8
DEFAULT_255_2_778
10
21.1121296
20
44.2789994
11
21.1121296
21
44.2789994
0
LINE
8
DEFAULT_255_2_778
10
21.3122296
20
44.2789994
11
21.3122296
21
44.2789994
0
LINE
8
DEFAULT_255_2_778
10
21.7873296
20
43.8982994
11
21.4437296
21
43.6902994
0
LINE
8
DEFAULT_255_2_778
10
21.4437296
20
44.8676994
11
21.7873296
21
44.6597994
0
ARC
8
DEFAULT_255_2_778
10
87.7568632
20
70.5740001
40
1.0003127
50
359.9949746
51
30.4079872
0
ARC
8
DEFAULT_255_2_778
10
87.7562314
20
63.0740964
40
1.0009446
50
329.6018377
51
0.0009119
0
ARC
8
DEFAULT_255_2_778
10
87.757614
20
15.5749199
40
0.999762
50
0.0087926
51
30.4052578
0
ARC
8
DEFAULT_255_2_778
10
88.3641456
20
15.5749331
40
0.3932306
50
359.9386991
51
0.0204334
0
ARC
8
DEFAULT_255_2_778
10
88.3641454
20
8.0741916
40
0.3932308
50
359.9795666
51
0.0613009
0
ARC
8
DEFAULT_255_2_778
10
87.7578849
20
8.074131
40
0.9994912
50
329.5905289
51
359.9954337
0
LINE
8
DEFAULT_255_2_778
10
65.507376
20
7.6243123
11
66.007476
21
8.1243123
0
LINE
8
DEFAULT_255_2_778
10
65.507376
20
1.8243123
11
65.507376
21
7.6243123
0
LINE
8
DEFAULT_255_2_778
10
65.507376
20
7.6243123
11
59.007376
21
7.6243123
0
LINE
8
DEFAULT_255_2_778
10
59.007376
20
7.6243123
11
58.507376
21
8.1243123
0
LINE
8
DEFAULT_255_2_778
10
58.507376
20
8.1243123
11
66.007176
21
8.1243123
0
LINE
8
DEFAULT_255_2_778
10
66.007176
20
8.1243123
11
66.007176
21
1.3243123
0
LINE
8
DEFAULT_255_2_778
10
65.507176
20
2.3244123
11
59.007176
21
2.3244123
0
LINE
8
DEFAULT_255_2_778
10
65.507176
20
2.0244123
11
59.007176
21
2.0244123
0
LINE
8
DEFAULT_255_2_778
10
59.007176
20
7.6243123
11
59.007176
21
1.8243123
0
LINE
8
DEFAULT_255_2_778
10
59.007176
20
1.8243123
11
65.507176
21
1.8243123
0
LINE
8
DEFAULT_255_2_778
10
65.507176
20
1.8243123
11
66.007176
21
1.3243123
0
LINE
8
DEFAULT_255_2_778
10
66.007176
20
1.3243123
11
58.507376
21
1.3243123
0
LINE
8
DEFAULT_255_2_778
10
58.507376
20
1.3243123
11
58.507376
21
8.1243123
0
LINE
8
DEFAULT_255_2_778
10
59.007376
20
1.8243123
11
58.507376
21
1.3243123
0
LINE
8
DEFAULT_255_2_778
10
61.407476
20
87.6242123
11
61.407476
21
87.5242123
0
LINE
8
DEFAULT_255_2_778
10
62.757376
20
87.5242123
11
61.257376
21
87.5242123
0
LINE
8
DEFAULT_255_2_778
10
62.757376
20
87.6242123
11
62.757376
21
87.3242123
0
LINE
8
DEFAULT_255_2_778
10
61.257376
20
87.3242123
11
61.257376
21
87.6242123
0
LINE
8
DEFAULT_255_2_778
10
59.007376
20
87.8242123
11
65.507376
21
87.8242123
0
LINE
8
DEFAULT_255_2_778
10
65.507376
20
87.6242123
11
59.007376
21
87.6242123
0
LINE
8
DEFAULT_255_2_778
10
59.007376
20
87.3242123
11
65.507376
21
87.3242123
0
LINE
8
DEFAULT_255_2_778
10
65.507376
20
82.0240123
11
59.007376
21
82.0240123
0
LINE
8
DEFAULT_255_2_778
10
58.507376
20
81.5240123
11
66.007176
21
81.5240123
0
LINE
8
DEFAULT_255_2_778
10
66.007176
20
81.5240123
11
65.507176
21
82.0240123
0
LINE
8
DEFAULT_255_2_778
10
65.507176
20
82.0240123
11
65.507176
21
87.8242123
0
LINE
8
DEFAULT_255_2_778
10
65.507176
20
87.8242123
11
66.007176
21
88.3243123
0
LINE
8
DEFAULT_255_2_778
10
66.007176
20
88.3243123
11
66.007176
21
81.5242123
0
LINE
8
DEFAULT_255_2_778
10
66.007176
20
88.3243123
11
58.507376
21
88.3243123
0
LINE
8
DEFAULT_255_2_778
10
58.507376
20
88.3243123
11
59.007376
21
87.8242123
0
LINE
8
DEFAULT_255_2_778
10
59.007376
20
87.8242123
11
59.007376
21
82.0243123
0
LINE
8
DEFAULT_255_2_778
10
59.007376
20
82.0243123
11
58.507376
21
81.5242123
0
LINE
8
DEFAULT_255_2_778
10
58.507376
20
81.5242123
11
58.507376
21
88.3243123
0
LINE
8
DEFAULT_255_2_778
10
17.757276
20
87.8242123
11
17.757276
21
87.5242123
0
LINE
8
DEFAULT_255_2_778
10
17.757276
20
87.5242123
11
17.507276
21
87.5242123
0
LINE
8
DEFAULT_255_2_778
10
17.507276
20
87.8242123
11
24.007276
21
87.8242123
0
LINE
8
DEFAULT_255_2_778
10
17.507276
20
87.3242123
11
24.007276
21
87.3242123
0
LINE
8
DEFAULT_255_2_778
10
24.007276
20
82.0240123
11
17.507276
21
82.0240123
0
LINE
8
DEFAULT_255_2_778
10
17.007176
20
81.5240123
11
24.507276
21
81.5240123
0
LINE
8
DEFAULT_255_2_778
10
24.507276
20
81.5240123
11
24.007276
21
82.0240123
0
LINE
8
DEFAULT_255_2_778
10
24.007276
20
82.0240123
11
24.007276
21
87.8242123
0
LINE
8
DEFAULT_255_2_778
10
24.007276
20
87.8242123
11
24.507276
21
88.3243123
0
LINE
8
DEFAULT_255_2_778
10
24.507276
20
88.3243123
11
24.507276
21
81.5242123
0
LINE
8
DEFAULT_255_2_778
10
24.507276
20
88.3243123
11
17.007176
21
88.3243123
0
LINE
8
DEFAULT_255_2_778
10
17.007176
20
88.3243123
11
17.507276
21
87.8242123
0
LINE
8
DEFAULT_255_2_778
10
17.507276
20
87.8242123
11
17.507276
21
82.0243123
0
LINE
8
DEFAULT_255_2_778
10
17.507276
20
82.0243123
11
17.007176
21
81.5242123
0
LINE
8
DEFAULT_255_2_778
10
17.007176
20
81.5242123
11
17.007176
21
88.3243123
0
LINE
8
DEFAULT_255_2_778
10
88.707376
20
66.3242123
11
87.257476
21
66.3242123
0
LINE
8
DEFAULT_255_2_778
10
87.257476
20
66.3242123
11
87.257476
21
64.0742123
0
LINE
8
DEFAULT_255_2_778
10
87.257476
20
64.0742123
11
88.707376
21
64.0742123
0
LINE
8
DEFAULT_255_2_778
10
88.707376
20
64.0742123
11
88.707376
21
66.3242123
0
LINE
8
DEFAULT_255_2_778
10
88.707376
20
69.5741123
11
87.257476
21
69.5741123
0
LINE
8
DEFAULT_255_2_778
10
87.257476
20
69.5741123
11
87.257476
21
67.3241123
0
LINE
8
DEFAULT_255_2_778
10
87.257476
20
67.3241123
11
88.707376
21
67.3241123
0
LINE
8
DEFAULT_255_2_778
10
88.707376
20
67.3241123
11
88.707376
21
69.5741123
0
LINE
8
DEFAULT_255_2_778
10
86.157376
20
71.0740123
11
88.857376
21
71.0740123
0
LINE
8
DEFAULT_255_2_778
10
88.857376
20
71.0740123
11
88.857376
21
62.5740123
0
LINE
8
DEFAULT_255_2_778
10
88.857376
20
62.5740123
11
86.157376
21
62.5740123
0
LINE
8
DEFAULT_255_2_778
10
86.157376
20
62.5740123
11
86.157376
21
71.0740123
0
LINE
8
DEFAULT_255_2_778
10
88.757176
20
70.5739123
11
88.757176
21
63.0741123
0
LINE
8
DEFAULT_255_2_778
10
86.757176
20
63.0741123
11
86.757176
21
70.5742123
0
LINE
8
DEFAULT_255_2_778
10
88.707176
20
62.7618123
11
88.707176
21
63.0741123
0
LINE
8
DEFAULT_255_2_778
10
88.707176
20
63.0741123
11
86.257076
21
63.0741123
0
LINE
8
DEFAULT_255_2_778
10
86.257076
20
63.0741123
11
86.257076
21
70.5742123
0
LINE
8
DEFAULT_255_2_778
10
86.257076
20
70.5742123
11
88.707176
21
70.5742123
0
LINE
8
DEFAULT_255_2_778
10
88.707176
20
70.5742123
11
88.707176
21
70.8864123
0
LINE
8
DEFAULT_255_2_778
10
88.707376
20
14.5743123
11
88.707376
21
12.3243123
0
LINE
8
DEFAULT_255_2_778
10
88.707376
20
12.3243123
11
87.257476
21
12.3243123
0
LINE
8
DEFAULT_255_2_778
10
87.257476
20
12.3243123
11
87.257476
21
14.5743123
0
LINE
8
DEFAULT_255_2_778
10
87.257476
20
14.5743123
11
88.707376
21
14.5743123
0
LINE
8
DEFAULT_255_2_778
10
88.707376
20
11.3245123
11
88.707376
21
9.0745123
0
LINE
8
DEFAULT_255_2_778
10
88.707376
20
9.0745123
11
87.257476
21
9.0745123
0
LINE
8
DEFAULT_255_2_778
10
87.257476
20
9.0745123
11
87.257476
21
11.3245123
0
LINE
8
DEFAULT_255_2_778
10
87.257476
20
11.3245123
11
88.707376
21
11.3245123
0
LINE
8
DEFAULT_255_2_778
10
88.757376
20
15.5745123
11
88.757376
21
8.0746123
0
LINE
8
DEFAULT_255_2_778
10
86.757476
20
8.0746123
11
86.757476
21
15.5745123
0
LINE
8
DEFAULT_255_2_778
10
88.707376
20
15.8867123
11
88.707376
21
15.5745123
0
LINE
8
DEFAULT_255_2_778
10
88.707376
20
15.5745123
11
86.257376
21
15.5745123
0
LINE
8
DEFAULT_255_2_778
10
86.257376
20
15.5745123
11
86.257376
21
8.0746123
0
LINE
8
DEFAULT_255_2_778
10
86.257376
20
8.0746123
11
88.707376
21
8.0746123
0
LINE
8
DEFAULT_255_2_778
10
88.707376
20
8.0746123
11
88.707376
21
7.7624123
0
LINE
8
DEFAULT_255_2_778
10
88.857376
20
16.0745123
11
88.857376
21
7.5745123
0
LINE
8
DEFAULT_255_2_778
10
88.857376
20
7.5745123
11
86.157376
21
7.5745123
0
LINE
8
DEFAULT_255_2_778
10
86.157376
20
7.5745123
11
86.157376
21
16.0745123
0
LINE
8
DEFAULT_255_2_778
10
86.157376
20
16.0745123
11
88.857376
21
16.0745123
0
ARC
8
DEFAULT_255_2_778
10
0.7572393
20
66.874189
40
0.3000453
50
292.5047407
51
0.01981
0
ARC
8
DEFAULT_255_2_778
10
6.2959249
20
89.9193462
40
0.3049488
50
89.7821037
51
89.989621
0
ARC
8
DEFAULT_255_2_778
10
6.2961168
20
89.9288972
40
0.2953977
50
90.0265117
51
105.1763113
0
ARC
8
DEFAULT_255_2_778
10
8.3577464
20
89.0239241
40
0.2994383
50
314.9468036
51
0.0514071
0
ARC
8
DEFAULT_255_2_778
10
8.3573775
20
89.0234727
40
0.29938
50
269.963082
51
315.0578149
0
ARC
8
DEFAULT_255_2_778
10
3.5573384
20
89.0247921
40
0.3006994
50
225.0465527
51
269.9516417
0
ARC
8
DEFAULT_255_2_778
10
3.5559033
20
89.0237089
40
0.2989191
50
179.9072574
51
225.0945252
0
ARC
8
DEFAULT_255_2_778
10
1.6582367
20
85.5738096
40
1.4009635
50
115.414925
51
135.6468967
0
ARC
8
DEFAULT_255_2_778
10
1.6578212
20
85.5739247
40
1.0006366
50
126.9024436
51
179.9846485
0
ARC
8
DEFAULT_255_2_778
10
8.3566946
20
89.7767239
40
0.3007646
50
280.0701793
51
339.2147764
0
ARC
8
DEFAULT_255_2_778
10
2.5552047
20
87.73078
40
1.4934141
50
89.9240395
51
119.8167465
0
ARC
8
DEFAULT_255_2_778
10
2.5581766
20
87.7236117
40
1.5011115
50
119.779122
51
172.1107139
0
ARC
8
DEFAULT_255_2_778
10
2.5710027
20
87.7243405
40
1.5137181
50
172.2046743
51
180.0018045
0
ARC
8
DEFAULT_255_2_778
10
0.7450578
20
1.2060551
40
1.3820164
50
261.90017
51
270.5069073
0
ARC
8
DEFAULT_255_2_778
10
0.6272961
20
0.4201234
40
0.5873617
50
246.1197887
51
262.4708799
0
ARC
8
DEFAULT_255_2_778
10
0.4595803
20
0.0729289
40
0.2023989
50
179.6705304
51
249.7470946
0
ARC
8
DEFAULT_255_2_778
10
0.7572815
20
89.3241959
40
0.5000969
50
89.9996485
51
180.0003515
0
ARC
8
DEFAULT_255_2_778
10
94.7573089
20
0.3246686
40
0.5000758
50
270.008676
51
0.0027763
0
ARC
8
DEFAULT_255_2_778
10
1.3626402
20
87.8243212
40
0.3010764
50
175.2805483
51
179.9993353
0
ARC
8
DEFAULT_255_2_778
10
1.3610789
20
87.8241293
40
0.2995151
50
179.9626244
51
222.678496
0
ARC
8
DEFAULT_255_2_778
10
1.3617565
20
87.8243683
40
0.3001755
50
222.6243527
51
269.9671863
0
ARC
8
DEFAULT_255_2_778
10
14.2586221
20
86.5280673
40
0.9961262
50
48.3434112
51
90.07118
0
ARC
8
DEFAULT_255_2_778
10
14.2594611
20
86.5252198
40
0.9976993
50
1.7318896
51
48.4881011
0
ARC
8
DEFAULT_255_2_778
10
14.2387871
20
86.5241154
40
1.0183973
50
359.9987254
51
1.7588425
0
ARC
8
DEFAULT_255_2_778
10
14.2607806
20
67.5726695
40
0.996405
50
318.3644231
51
0.0818436
0
ARC
8
DEFAULT_255_2_778
10
14.2583147
20
67.5714735
40
0.9974568
50
271.7436173
51
318.5098769
0
ARC
8
DEFAULT_255_2_778
10
14.2572128
20
67.5923253
40
1.0183326
50
270.0096674
51
271.7698896
0
ARC
8
DEFAULT_255_2_778
10
0.5570597
20
66.2742075
40
0.2997853
50
89.976134
51
135.0256554
0
ARC
8
DEFAULT_255_2_778
10
0.5562502
20
66.2744156
40
0.2990658
50
134.9442396
51
180.0426872
0
LINE
8
DEFAULT_255_2_778
10
0.2571846
20
88.8240928
11
0.2571845
21
88.8244707
0
ARC
8
DEFAULT_255_2_778
10
1.1568974
20
88.8246192
40
0.8997129
50
135.0017665
51
180.009458
0
ARC
8
DEFAULT_255_2_778
10
1.1566228
20
88.8248072
40
0.8993859
50
90.0058658
51
134.9978667
0
LINE
8
DEFAULT_255_2_778
10
1.1565307
20
89.7241931
11
1.1572846
21
89.7241928
0
ARC
8
DEFAULT_255_2_778
10
1.1572815
20
88.8240959
40
0.5000969
50
89.9996485
51
180.0003515
0
LINE
8
DEFAULT_255_2_778
10
0.6571846
20
66.5742928
11
0.6571846
21
68.0741928
0
LINE
8
DEFAULT_255_2_778
10
1.0572846
20
68.0741928
11
1.0572846
21
66.8742928
0
LINE
8
DEFAULT_255_2_778
10
1.0572846
20
77.0741928
11
1.0572846
21
76.0743928
0
LINE
8
DEFAULT_255_2_778
10
0.6571846
20
76.0743928
11
0.6571846
21
77.0741928
0
LINE
8
DEFAULT_255_2_778
10
4.4071846
20
89.7241928
11
6.2187846
21
90.2136928
0
LINE
8
DEFAULT_255_2_778
10
6.2187846
20
90.2136928
11
6.2970846
21
90.2239928
0
LINE
8
DEFAULT_255_2_778
10
6.2970846
20
90.2239928
11
6.7571846
21
90.2239928
0
LINE
8
DEFAULT_255_2_778
10
6.7571846
20
90.2239928
11
6.7571846
21
89.7239928
0
LINE
8
DEFAULT_255_2_778
10
7.2572846
20
89.2770928
11
7.2572846
21
89.3476928
0
LINE
8
DEFAULT_255_2_778
10
2.5280846
20
89.2241928
11
2.5219846
21
89.2238928
0
LINE
8
DEFAULT_255_2_778
10
2.9270846
20
89.3241928
11
2.5936846
21
89.2339928
0
LINE
8
DEFAULT_255_2_778
10
8.6571846
20
89.8242928
11
8.6571846
21
89.0241928
0
LINE
8
DEFAULT_255_2_778
10
8.3571846
20
88.7240928
11
3.5570846
21
88.7240928
0
LINE
8
DEFAULT_255_2_778
10
3.2569846
20
89.0241928
11
3.2569846
21
89.2241928
0
LINE
8
DEFAULT_255_2_778
10
6.7569846
20
89.3241928
11
6.7569846
21
89.2241928
0
LINE
8
DEFAULT_255_2_778
10
0.2571846
20
88.6243928
11
0.6571846
21
88.6243928
0
LINE
8
DEFAULT_255_2_778
10
0.2571846
20
87.8242928
11
1.0604846
21
87.8242928
0
LINE
8
DEFAULT_255_2_778
10
0.2571846
20
86.8243928
11
0.6571846
21
86.8243928
0
LINE
8
DEFAULT_255_2_778
10
0.2571846
20
86.0242928
11
0.6571846
21
86.0242928
0
LINE
8
DEFAULT_255_2_778
10
8.4092846
20
89.4805928
11
6.9556846
21
89.2241928
0
LINE
8
DEFAULT_255_2_778
10
6.9556846
20
89.2241928
11
2.5571846
21
89.2241928
0
LINE
8
DEFAULT_255_2_778
10
1.0572846
20
87.7242928
11
1.0572846
21
85.0741928
0
LINE
8
DEFAULT_255_2_778
10
80.7574846
20
-0.1759072
11
83.2574846
21
-0.1759072
0
LINE
8
DEFAULT_255_2_778
10
81.7575846
20
-0.1759072
11
25.0070846
21
-0.1759072
0
LINE
8
DEFAULT_255_2_778
10
25.0070846
20
-0.1759072
11
0.7572846
21
-0.1759072
0
LINE
8
DEFAULT_255_2_778
10
0.2571846
20
0.0740928
11
0.2571846
21
25.5241928
0
LINE
8
DEFAULT_255_2_778
10
0.2571846
20
25.5241928
11
0.7572846
21
25.3169928
0
LINE
8
DEFAULT_255_2_778
10
1.9642846
20
26.5239928
11
1.7570846
21
27.0240928
0
LINE
8
DEFAULT_255_2_778
10
2.2571846
20
27.0240928
11
1.7570846
21
27.0240928
0
LINE
8
DEFAULT_255_2_778
10
1.7570846
20
27.0240928
11
0.2571846
21
25.5241928
0
LINE
8
DEFAULT_255_2_778
10
7.2572846
20
89.7241928
11
7.2572846
21
89.8242928
0
LINE
8
DEFAULT_255_2_778
10
7.2572846
20
89.8242928
11
25.0073846
21
89.8242928
0
LINE
8
DEFAULT_255_2_778
10
25.0073846
20
89.8242928
11
75.0072846
21
89.8242928
0
LINE
8
DEFAULT_255_2_778
10
75.0072846
20
89.8242928
11
83.2572846
21
89.8242928
0
LINE
8
DEFAULT_255_2_778
10
83.2572846
20
89.8242928
11
83.2572846
21
-0.1756072
0
LINE
8
DEFAULT_255_2_778
10
83.2572846
20
-0.1756072
11
95.2571846
21
-0.1756072
0
LINE
8
DEFAULT_255_2_778
10
95.2571846
20
-0.1756072
11
95.2571846
21
74.9241928
0
LINE
8
DEFAULT_255_2_778
10
95.2571846
20
74.9241928
11
95.2571846
21
75.7242928
0
LINE
8
DEFAULT_255_2_778
10
95.2571846
20
75.7242928
11
95.2571846
21
89.8242928
0
LINE
8
DEFAULT_255_2_778
10
95.2571846
20
89.8242928
11
82.2570846
21
89.8242928
0
LINE
8
DEFAULT_255_2_778
10
89.0947846
20
89.8242928
11
91.2571846
21
87.6241928
0
LINE
8
DEFAULT_255_2_778
10
91.2571846
20
87.6241928
11
91.2571846
21
75.7242928
0
LINE
8
DEFAULT_255_2_778
10
91.2571846
20
75.7242928
11
95.2571846
21
75.7242928
0
LINE
8
DEFAULT_255_2_778
10
4.2571846
20
89.7241928
11
4.2571846
21
89.8242928
0
LINE
8
DEFAULT_255_2_778
10
4.2571846
20
89.8242928
11
0.7572846
21
89.8242928
0
LINE
8
DEFAULT_255_2_778
10
0.2571846
20
89.3241928
11
0.2571846
21
61.6241928
0
LINE
8
DEFAULT_255_2_778
10
0.2571846
20
61.6241928
11
1.3572846
21
60.6239928
0
LINE
8
DEFAULT_255_2_778
10
1.3572846
20
60.6239928
11
1.8573846
21
60.6239928
0
LINE
8
DEFAULT_255_2_778
10
1.8573846
20
60.6239928
11
3.1572846
21
61.6241928
0
LINE
8
DEFAULT_255_2_778
10
3.1572846
20
61.6241928
11
3.1572846
21
62.1241928
0
LINE
8
DEFAULT_255_2_778
10
3.1572846
20
62.5242928
11
3.1572846
21
62.1241928
0
LINE
8
DEFAULT_255_2_778
10
3.1572846
20
62.1241928
11
4.2573846
21
62.1241928
0
LINE
8
DEFAULT_255_2_778
10
4.2573846
20
28.3241928
11
3.0574846
21
28.3241928
0
LINE
8
DEFAULT_255_2_778
10
3.0574846
20
28.3241928
11
3.0574846
21
29.3243928
0
LINE
8
DEFAULT_255_2_778
10
3.0574846
20
29.3243928
11
2.8574846
21
29.8243928
0
LINE
8
DEFAULT_255_2_778
10
2.8574846
20
29.8243928
11
2.3029846
21
29.8243928
0
LINE
8
DEFAULT_255_2_778
10
2.3029846
20
29.8243928
11
0.2571846
21
26.6742928
0
LINE
8
DEFAULT_255_2_778
10
0.2571846
20
26.6742928
11
0.2571846
21
25.5243928
0
LINE
8
DEFAULT_255_2_778
10
4.2571846
20
62.6245928
11
3.1572846
21
62.6245928
0
LINE
8
DEFAULT_255_2_778
10
3.1572846
20
62.6245928
11
3.1572846
21
62.5244928
0
LINE
8
DEFAULT_255_2_778
10
3.1572846
20
62.5244928
11
4.2571846
21
62.5244928
0
LINE
8
DEFAULT_255_2_778
10
4.7571846
20
62.6245928
11
4.2571846
21
62.6245928
0
LINE
8
DEFAULT_255_2_778
10
4.2571846
20
62.6245928
11
4.2571846
21
62.5244928
0
LINE
8
DEFAULT_255_2_778
10
4.2571846
20
62.5244928
11
4.2571846
21
62.1244928
0
LINE
8
DEFAULT_255_2_778
10
4.2571846
20
62.1244928
11
4.2571846
21
28.3244928
0
LINE
8
DEFAULT_255_2_778
10
4.2571846
20
28.3244928
11
4.2571846
21
27.0245928
0
LINE
8
DEFAULT_255_2_778
10
4.2571846
20
27.0245928
11
4.7571846
21
26.5244928
0
LINE
8
DEFAULT_255_2_778
10
4.2571846
20
27.0245928
11
2.2571846
21
27.0245928
0
LINE
8
DEFAULT_255_2_778
10
2.2571846
20
27.0245928
11
2.2571846
21
28.3244928
0
LINE
8
DEFAULT_255_2_778
10
2.2571846
20
28.3244928
11
3.0572846
21
28.3244928
0
LINE
8
DEFAULT_255_2_778
10
1.3615846
20
87.5241928
11
14.2573846
21
87.5241928
0
LINE
8
DEFAULT_255_2_778
10
15.2571846
20
86.5240928
11
15.2571846
21
67.5740928
0
LINE
8
DEFAULT_255_2_778
10
14.2573846
20
66.5739928
11
0.5571846
21
66.5739928
0
LINE
8
DEFAULT_255_2_778
10
91.2571846
20
75.8240928
11
95.2571846
21
75.8240928
0
LINE
8
DEFAULT_255_2_778
10
94.4570846
20
75.7240928
11
94.4570846
21
75.8240928
0
LINE
8
DEFAULT_255_2_778
10
95.2071846
20
0.1076928
11
95.2071846
21
0.0738928
0
LINE
8
DEFAULT_255_2_778
10
95.2071846
20
0.0738928
11
95.1891846
21
0.0738928
0
LINE
8
DEFAULT_255_2_778
10
1.1572846
20
89.7241928
11
8.2573846
21
89.7241928
0
LINE
8
DEFAULT_255_2_778
10
8.2573846
20
89.7241928
11
8.2573846
21
89.5241928
0
LINE
8
DEFAULT_255_2_778
10
8.2573846
20
89.5241928
11
7.1230846
21
89.3241928
0
LINE
8
DEFAULT_255_2_778
10
7.1230846
20
89.3241928
11
1.1572846
21
89.3241928
0
LINE
8
DEFAULT_255_2_778
10
0.6571846
20
88.8240928
11
0.6571846
21
85.0741928
0
ENDSEC
0
EOF